  0
SECTION
  2
HEADER
  9
$ACADVER
  1
AC1014
  9
$ACADMAINTVER
 70
       0
  9
$DWGCODEPAGE
  3
ANSI_932
  9
$INSBASE
 10
0.0
 20
0.0
 30
0.0
  9
$EXTMIN
 10
-228.82404801
 20
-319.28
 30
0.0
  9
$EXTMAX
 10
228.82404801
 20
319.28
 30
0.0
  9
$LIMMIN
 10
-243.12555101
 20
-339.235
  9
$LIMMAX
 10
243.12555101
 20
339.235
  9
$ORTHOMODE
 70
       0
  9
$REGENMODE
 70
       1
  9
$FILLMODE
 70
       1
  9
$QTEXTMODE
 70
       0
  9
$MIRRTEXT
 70
       1
  9
$DRAGMODE
 70
       2
  9
$LTSCALE
 40
1.0
  9
$OSMODE
 70
       0
  9
$ATTMODE
 70
       1
  9
$TEXTSIZE
 40
0.2
  9
$TRACEWID
 40
0.05
  9
$TEXTSTYLE
  7
STANDARD
  9
$CLAYER
  8
0
  9
$CELTYPE
  6
CONTINUOUS
  9
$CECOLOR
 62
     256
  9
$CELTSCALE
 40
1.0
  9
$DELOBJ
 70
       1
  9
$DISPSILH
 70
       0
  9
$DIMSCALE
 40
1.0
  9
$DIMASZ
 40
0.18
  9
$DIMEXO
 40
0.0625
  9
$DIMDLI
 40
0.38
  9
$DIMRND
 40
0.0
  9
$DIMDLE
 40
0.0
  9
$DIMEXE
 40
0.18
  9
$DIMTP
 40
0.0
  9
$DIMTM
 40
0.0
  9
$DIMTXT
 40
0.18
  9
$DIMCEN
 40
0.09
  9
$DIMTSZ
 40
0.0
  9
$DIMTOL
 70
       0
  9
$DIMLIM
 70
       0
  9
$DIMTIH
 70
       1
  9
$DIMTOH
 70
       1
  9
$DIMSE1
 70
       0
  9
$DIMSE2
 70
       0
  9
$DIMTAD
 70
       0
  9
$DIMZIN
 70
       0
  9
$DIMBLK
  1

  9
$DIMASO
 70
       1
  9
$DIMSHO
 70
       1
  9
$DIMPOST
  1

  9
$DIMAPOST
  1

  9
$DIMALT
 70
       0
  9
$DIMALTD
 70
       2
  9
$DIMALTF
 40
25.4
  9
$DIMLFAC
 40
1.0
  9
$DIMTOFL
 70
       0
  9
$DIMTVP
 40
0.0
  9
$DIMTIX
 70
       0
  9
$DIMSOXD
 70
       0
  9
$DIMSAH
 70
       0
  9
$DIMBLK1
  1

  9
$DIMBLK2
  1

  9
$DIMSTYLE
  2
STANDARD
  9
$DIMCLRD
 70
       0
  9
$DIMCLRE
 70
       0
  9
$DIMCLRT
 70
       0
  9
$DIMTFAC
 40
1.0
  9
$DIMGAP
 40
0.09
  9
$DIMJUST
 70
       0
  9
$DIMSD1
 70
       0
  9
$DIMSD2
 70
       0
  9
$DIMTOLJ
 70
       1
  9
$DIMTZIN
 70
       0
  9
$DIMALTZ
 70
       0
  9
$DIMALTTZ
 70
       0
  9
$DIMFIT
 70
       3
  9
$DIMUPT
 70
       0
  9
$DIMUNIT
 70
       2
  9
$DIMDEC
 70
       4
  9
$DIMTDEC
 70
       4
  9
$DIMALTU
 70
       2
  9
$DIMALTTD
 70
       2
  9
$DIMTXSTY
  7
STANDARD
  9
$DIMAUNIT
 70
       0
  9
$LUNITS
 70
       2
  9
$LUPREC
 70
       4
  9
$SKETCHINC
 40
0.1
  9
$FILLETRAD
 40
0.0
  9
$AUNITS
 70
       0
  9
$AUPREC
 70
       0
  9
$MENU
  1
acad
  9
$ELEVATION
 40
0.0
  9
$PELEVATION
 40
0.0
  9
$THICKNESS
 40
0.0
  9
$LIMCHECK
 70
       0
  9
$BLIPMODE
 70
       1
  9
$CHAMFERA
 40
0.0
  9
$CHAMFERB
 40
0.0
  9
$CHAMFERC
 40
0.0
  9
$CHAMFERD
 40
0.0
  9
$SKPOLY
 70
       0
  9
$TDCREATE
 40
0.000000000
  9
$TDUPDATE
 40
0.000000000
  9
$TDINDWG
 40
0.0000000000
  9
$TDUSRTIMER
 40
0.0000000000
  9
$USRTIMER
 70
       1
  9
$ANGBASE
 50
0.0
  9
$ANGDIR
 70
       0
  9
$PDMODE
 70
       0
  9
$PDSIZE
 40
1.0
  9
$PLINEWID
 40
0.0
  9
$COORDS
 70
       1
  9
$SPLFRAME
 70
       0
  9
$SPLINETYPE
 70
       6
  9
$SPLINESEGS
 70
       8
  9
$ATTDIA
 70
       0
  9
$ATTREQ
 70
       1
  9
$HANDLING
 70
       1
  9
$HANDSEED
  5
4F7
  9
$SURFTAB1
 70
       6
  9
$SURFTAB2
 70
       6
  9
$SURFTYPE
 70
       6
  9
$SURFU
 70
       6
  9
$SURFV
 70
       6
  9
$UCSNAME
  2

  9
$UCSORG
 10
0.0
 20
0.0
 30
0.0
  9
$UCSXDIR
 10
1.0
 20
0.0
 30
0.0
  9
$UCSYDIR
 10
0.0
 20
1.0
 30
0.0
  9
$PUCSNAME
  2

  9
$PUCSORG
 10
0.0
 20
0.0
 30
0.0
  9
$PUCSXDIR
 10
1.0
 20
0.0
 30
0.0
  9
$PUCSYDIR
 10
0.0
 20
1.0
 30
0.0
  9
$USERI1
 70
       0
  9
$USERI2
 70
       0
  9
$USERI3
 70
       0
  9
$USERI4
 70
       0
  9
$USERI5
 70
       0
  9
$USERR1
 40
0.0
  9
$USERR2
 40
0.0
  9
$USERR3
 40
0.0
  9
$USERR4
 40
0.0
  9
$USERR5
 40
0.0
  9
$WORLDVIEW
 70
       1
  9
$SHADEDGE
 70
       3
  9
$SHADEDIF
 70
      70
  9
$TILEMODE
 70
       1
  9
$MAXACTVP
 70
      16
  9
$PINSBASE
 10
0.0
 20
0.0
 30
0.0
  9
$PLIMCHECK
 70
       0
  9
$PEXTMIN
 10
1.00000000E+20
 20
1.00000000E+20
 30
1.00000000E+20
  9
$PEXTMAX
 10
-1.00000000E+20
 20
-1.00000000E+20
 30
-1.00000000E+20
  9
$PLIMMIN
 10
0.0
 20
0.0
  9
$PLIMMAX
 10
12.0
 20
9.0
  9
$UNITMODE
 70
       0
  9
$VISRETAIN
 70
       0
  9
$PLINEGEN
 70
       1
  9
$PSLTSCALE
 70
       0
  9
$TREEDEPTH
 70
    3020
  9
$PICKSTYLE
 70
       1
  9
$CMLSTYLE
  2
STANDARD
  9
$CMLJUST
 70
       0
  9
$CMLSCALE
 40
1.0
  9
$PROXYGRAPHICS
 70
       0
  9
$MEASUREMENT
 70
       0
  0
ENDSEC
  0
SECTION
  2
CLASSES
  0
CLASS
  1
LWPOLYLINE
  2
AcDbPolyline
  3
"AutoCAD"
 90
        0
280
       0
281
       1
  0
CLASS
  1
IMAGE
  2
AcDbRasterImage
  3
ISM
 90
      127
280
       0
281
       1
  0
CLASS
  1
OLE2FRAME
  2
AcDbOle2Frame
  3
""
 90
        0
280
       0
281
       1
  0
CLASS
  1
HATCH
  2
AcDbHatch
  3
"ACAD_SEDONA"
 90
        0
280
       0
281
       1
  0
CLASS
  1
DICTIONARYVAR
  2
AcDbDictionaryVar
  3
"AutoCAD"
 90
        0
280
       0
281
       0
  0
CLASS
  1
RASTERVARIABLES
  2
AcDbRasterVariables
  3
ISM
 90
        0
280
       0
281
       0
  0
CLASS
  1
IMAGEDEF
  2
AcDbRasterImageDef
  3
ISM
 90
        0
280
       0
281
       0
  0
CLASS
  1
IMAGEDEF_REACTOR
  2
AcDbRasterImageDefReactor
  3
ISM
 90
        1
280
       0
281
       0
  0
CLASS
  1
IDBUFFER
  2
AcDbIdBuffer
  3
"Acad"
 90
        0
280
       0
281
       0
  0
CLASS
  1
SPATIAL_FILTER
  2
AcDbSpatialFilter
  3
"Acad"
 90
        0
280
       0
281
       0
  0
CLASS
  1
XRECORD
  2
AcDbXrecord
  3
"<Built In>"
 90
        0
280
       0
281
       0
  0
CLASS
  1
SORTENTSTABLE
  2
AcDbSortentsTable
  3
"AutoCAD"
 90
        0
280
       0
281
       0
  0
CLASS
  1
LAYER_INDEX
  2
AcDbLayerIndex
  3
"Acad"
 90
        0
280
       0
281
       0
  0
CLASS
  1
SPATIAL_INDEX
  2
AcDbSpatialIndex
  3
"Acad"
 90
        0
280
       0
281
       0
  0
CLASS
  1
OBJECT_PTR
  2
CAseDLPNTableRecord
  3
"ASE-LPNTableRecord"
 90
        1
280
       0
281
       0
  0
CLASS
  1
LAYOUT
  2
AcDbLayout
  3
"AutoCAD 2000"
 90
        1
280
       0
281
       0
  0
CLASS
  1
PLOTSETTINGS
  2
AcDbPlotSettings
  3
"AutoCAD 2000"
 90
        1
280
       0
281
       0
  0
CLASS
  1
ACDBDICTIONARYWDFLT
  2
AcDbDictionaryWithDefault
  3
"AutoCAD 2000"
 90
        1
280
       0
281
       0
  0
CLASS
  1
ACDBPLACEHOLDER
  2
AcDbPlaceHolder
  3
"AutoCAD 2000"
 90
        1
280
       0
281
       0
  0
CLASS
  1
VBA_PROJECT
  2
AcDbVbaProject
  3
"acadvba"
 90
        1
280
       0
281
       0
  0
CLASS
  1
WIPEOUT
  2
AcDbWipeout
  3
WipeOut|AutoCAD Express Tool|expresstools@autodesk.com
 90
      127
280
       0
281
       1
  0
CLASS
  1
WIPEOUTVARIABLES
  2
AcDbWipeoutVariables
  3
WipeOut|AutoCAD Express Tool|expresstools@autodesk.com
 90
        0
280
       0
281
       0
  0
CLASS
  1
RTEXT
  2
RText
  3
RText|AutoCAD Express Tool|expresstools@autodesk.com
 90
        0
280
       0
281
       1
  0
CLASS
  1
ARCALIGNEDTEXT
  2
AcDbArcAlignedText
  3
ATEXT|AutoCAD Express Tool|expresstools@autodesk.com
 90
        0
280
       0
281
       1
  0
ENDSEC
  0
SECTION
  2
TABLES
  0
TABLE
  2
VPORT
  5
7
100
AcDbSymbolTable
 70
       1
  0
VPORT
  5
15
100
AcDbSymbolTableRecord
100
AcDbViewportTableRecord
  2
*ACTIVE
 70
       0
 10
0.0
 20
0.0
 11
1.0
 21
1.0
 12
0.0
 22
0.0
 13
0.0
 23
0.0
 14
1.0
 24
1.0
 15
0.0
 25
0.0
 16
0.0
 26
0.0
 36
1.0
 17
0.0
 27
0.0
 37
0.0
 40
678.47
 41
0.7166877
 42
50.0
 43
0.0
 44
0.0
 50
0.0
 51
0.0
 71
       0
 72
     100
 73
       1
 74
       1
 75
       0
 76
       0
 77
       0
 78
       0
  0
ENDTAB
  0
TABLE
  2
LTYPE
  5
4
100
AcDbSymbolTable
 70
      30
  0
LTYPE
  5
11
100
AcDbSymbolTableRecord
100
AcDbLinetypeTableRecord
  2
BYBLOCK
 70
      64
  3

 72
      65
 73
       0
 40
0.0
  0
LTYPE
  5
12
100
AcDbSymbolTableRecord
100
AcDbLinetypeTableRecord
  2
BYLAYER
 70
      64
  3

 72
      65
 73
       0
 40
0.0
  0
LTYPE
  5
13
100
AcDbSymbolTableRecord
100
AcDbLinetypeTableRecord
  2
CONTINUOUS
 70
      64
  3
Solid line
 72
      65
 73
       0
 40
0.0
  0
LTYPE
  5
1D
100
AcDbSymbolTableRecord
100
AcDbLinetypeTableRecord
  2
HIDDENX2
 70
      64
  3
CADPAC LINETYPE
 72
      65
 73
       2
 40
36.11166897
 49
27.08375172
 74
       0
 49
-9.02791724
 74
       0
  0
LTYPE
  5
1E
100
AcDbSymbolTableRecord
100
AcDbLinetypeTableRecord
  2
HIDDEN
 70
      64
  3
CADPAC LINETYPE
 72
      65
 73
       2
 40
27.08375172
 49
18.05583448
 74
       0
 49
-9.02791724
 74
       0
  0
LTYPE
  5
1F
100
AcDbSymbolTableRecord
100
AcDbLinetypeTableRecord
  2
HIDDEN2
 70
      64
  3
CADPAC LINETYPE
 72
      65
 73
       2
 40
22.5697931
 49
13.54187586
 74
       0
 49
-9.02791724
 74
       0
  0
LTYPE
  5
20
100
AcDbSymbolTableRecord
100
AcDbLinetypeTableRecord
  2
DASHED
 70
      64
  3
CADPAC LINETYPE
 72
      65
 73
       2
 40
27.08375172
 49
18.05583448
 74
       0
 49
-9.02791724
 74
       0
  0
LTYPE
  5
21
100
AcDbSymbolTableRecord
100
AcDbLinetypeTableRecord
  2
DASHED2
 70
      64
  3
CADPAC LINETYPE
 72
      65
 73
       2
 40
20.31281379
 49
13.54187586
 74
       0
 49
-6.77093793
 74
       0
  0
LTYPE
  5
22
100
AcDbSymbolTableRecord
100
AcDbLinetypeTableRecord
  2
DASHEDX2
 70
      64
  3
CADPAC LINETYPE
 72
      65
 73
       2
 40
40.62562759
 49
27.08375172
 74
       0
 49
-13.54187586
 74
       0
  0
LTYPE
  5
23
100
AcDbSymbolTableRecord
100
AcDbLinetypeTableRecord
  2
DOTX2
 70
      64
  3
CADPAC LINETYPE
 72
      65
 73
       2
 40
11.28489655
 49
0.0
 74
       0
 49
-11.28489655
 74
       0
  0
LTYPE
  5
24
100
AcDbSymbolTableRecord
100
AcDbLinetypeTableRecord
  2
DOT
 70
      64
  3
CADPAC LINETYPE
 72
      65
 73
       2
 40
9.02791724
 49
0.0
 74
       0
 49
-9.02791724
 74
       0
  0
LTYPE
  5
25
100
AcDbSymbolTableRecord
100
AcDbLinetypeTableRecord
  2
DOT2
 70
      64
  3
CADPAC LINETYPE
 72
      65
 73
       2
 40
6.77093793
 49
0.0
 74
       0
 49
-6.77093793
 74
       0
  0
LTYPE
  5
26
100
AcDbSymbolTableRecord
100
AcDbLinetypeTableRecord
  2
CENTERX2
 70
      64
  3
CADPAC LINETYPE
 72
      65
 73
       4
 40
54.16750345
 49
22.5697931
 74
       0
 49
-11.28489655
 74
       0
 49
9.02791724
 74
       0
 49
-11.28489655
 74
       0
  0
LTYPE
  5
27
100
AcDbSymbolTableRecord
100
AcDbLinetypeTableRecord
  2
CENTER
 70
      64
  3
CADPAC LINETYPE
 72
      65
 73
       4
 40
41.52841931
 49
18.05583448
 74
       0
 49
-9.02791724
 74
       0
 49
5.41675034
 74
       0
 49
-9.02791724
 74
       0
  0
LTYPE
  5
28
100
AcDbSymbolTableRecord
100
AcDbLinetypeTableRecord
  2
CENTER2
 70
      64
  3
CADPAC LINETYPE
 72
      65
 73
       4
 40
28.88933517
 49
13.54187586
 74
       0
 49
-6.77093793
 74
       0
 49
1.80558345
 74
       0
 49
-6.77093793
 74
       0
  0
LTYPE
  5
29
100
AcDbSymbolTableRecord
100
AcDbLinetypeTableRecord
  2
DASHDOTX2
 70
      64
  3
CADPAC LINETYPE
 72
      65
 73
       4
 40
45.13958621
 49
22.5697931
 74
       0
 49
-11.28489655
 74
       0
 49
0.0
 74
       0
 49
-11.28489655
 74
       0
  0
LTYPE
  5
2A
100
AcDbSymbolTableRecord
100
AcDbLinetypeTableRecord
  2
DASHDOT
 70
      64
  3
CADPAC LINETYPE
 72
      65
 73
       4
 40
36.11166897
 49
18.05583448
 74
       0
 49
-9.02791724
 74
       0
 49
0.0
 74
       0
 49
-9.02791724
 74
       0
  0
LTYPE
  5
2B
100
AcDbSymbolTableRecord
100
AcDbLinetypeTableRecord
  2
DASHDOT2
 70
      64
  3
CADPAC LINETYPE
 72
      65
 73
       4
 40
27.08375172
 49
13.54187586
 74
       0
 49
-6.77093793
 74
       0
 49
0.0
 74
       0
 49
-6.77093793
 74
       0
  0
LTYPE
  5
2C
100
AcDbSymbolTableRecord
100
AcDbLinetypeTableRecord
  2
DIVIDEX2
 70
      64
  3
CADPAC LINETYPE
 72
      65
 73
       6
 40
56.42448276
 49
22.5697931
 74
       0
 49
-11.28489655
 74
       0
 49
0.0
 74
       0
 49
-11.28489655
 74
       0
 49
0.0
 74
       0
 49
-11.28489655
 74
       0
  0
LTYPE
  5
2D
100
AcDbSymbolTableRecord
100
AcDbLinetypeTableRecord
  2
DIVIDE
 70
      64
  3
CADPAC LINETYPE
 72
      65
 73
       6
 40
45.13958621
 49
18.05583448
 74
       0
 49
-9.02791724
 74
       0
 49
0.0
 74
       0
 49
-9.02791724
 74
       0
 49
0.0
 74
       0
 49
-9.02791724
 74
       0
  0
LTYPE
  5
2E
100
AcDbSymbolTableRecord
100
AcDbLinetypeTableRecord
  2
DIVIDE2
 70
      64
  3
CADPAC LINETYPE
 72
      65
 73
       6
 40
33.85468966
 49
13.54187586
 74
       0
 49
-6.77093793
 74
       0
 49
0.0
 74
       0
 49
-6.77093793
 74
       0
 49
0.0
 74
       0
 49
-6.77093793
 74
       0
  0
LTYPE
  5
2F
100
AcDbSymbolTableRecord
100
AcDbLinetypeTableRecord
  2
BORDERX2
 70
      64
  3
CADPAC LINETYPE
 72
      65
 73
       6
 40
78.99427586
 49
22.5697931
 74
       0
 49
-11.28489655
 74
       0
 49
22.5697931
 74
       0
 49
-11.28489655
 74
       0
 49
0.0
 74
       0
 49
-11.28489655
 74
       0
  0
LTYPE
  5
30
100
AcDbSymbolTableRecord
100
AcDbLinetypeTableRecord
  2
BORDER
 70
      64
  3
CADPAC LINETYPE
 72
      65
 73
       6
 40
63.19542069
 49
18.05583448
 74
       0
 49
-9.02791724
 74
       0
 49
18.05583448
 74
       0
 49
-9.02791724
 74
       0
 49
0.0
 74
       0
 49
-9.02791724
 74
       0
  0
LTYPE
  5
31
100
AcDbSymbolTableRecord
100
AcDbLinetypeTableRecord
  2
BORDER2
 70
      64
  3
CADPAC LINETYPE
 72
      65
 73
       6
 40
47.39656552
 49
13.54187586
 74
       0
 49
-6.77093793
 74
       0
 49
13.54187586
 74
       0
 49
-6.77093793
 74
       0
 49
0.0
 74
       0
 49
-6.77093793
 74
       0
  0
LTYPE
  5
32
100
AcDbSymbolTableRecord
100
AcDbLinetypeTableRecord
  2
PHANTOMX2
 70
      64
  3
CADPAC LINETYPE
 72
      65
 73
       6
 40
67.70937931
 49
22.5697931
 74
       0
 49
-9.02791724
 74
       0
 49
9.02791724
 74
       0
 49
-9.02791724
 74
       0
 49
9.02791724
 74
       0
 49
-9.02791724
 74
       0
  0
LTYPE
  5
33
100
AcDbSymbolTableRecord
100
AcDbLinetypeTableRecord
  2
PHANTOM
 70
      64
  3
CADPAC LINETYPE
 72
      65
 73
       6
 40
55.9730869
 49
18.05583448
 74
       0
 49
-9.02791724
 74
       0
 49
5.41675034
 74
       0
 49
-9.02791724
 74
       0
 49
5.41675034
 74
       0
 49
-9.02791724
 74
       0
  0
LTYPE
  5
34
100
AcDbSymbolTableRecord
100
AcDbLinetypeTableRecord
  2
PHANTOM2
 70
      64
  3
CADPAC LINETYPE
 72
      65
 73
       6
 40
47.84796138
 49
13.54187586
 74
       0
 49
-9.02791724
 74
       0
 49
3.6111669
 74
       0
 49
-9.02791724
 74
       0
 49
3.6111669
 74
       0
 49
-9.02791724
 74
       0
  0
LTYPE
  5
35
100
AcDbSymbolTableRecord
100
AcDbLinetypeTableRecord
  2
ACAD_ISO06W100
 70
      64
  3
CADPAC LINETYPE
 72
      65
 73
       8
 40
60.93844138
 49
22.5697931
 74
       0
 49
-11.28489655
 74
       0
 49
0.0
 74
       0
 49
-9.02791724
 74
       0
 49
0.0
 74
       0
 49
-9.02791724
 74
       0
 49
0.0
 74
       0
 49
-9.02791724
 74
       0
  0
LTYPE
  5
36
100
AcDbSymbolTableRecord
100
AcDbLinetypeTableRecord
  2
ACAD_ISO13W100
 70
      64
  3
CADPAC LINETYPE
 72
      65
 73
       8
 40
72.22333793
 49
18.05583448
 74
       0
 49
-9.02791724
 74
       0
 49
18.05583448
 74
       0
 49
-9.02791724
 74
       0
 49
0.0
 74
       0
 49
-9.02791724
 74
       0
 49
0.0
 74
       0
 49
-9.02791724
 74
       0
  0
LTYPE
  5
37
100
AcDbSymbolTableRecord
100
AcDbLinetypeTableRecord
  2
ACAD_ISO14W100
 70
      64
  3
CADPAC LINETYPE
 72
      65
 73
       8
 40
54.16750345
 49
18.05583448
 74
       0
 49
-9.02791724
 74
       0
 49
0.0
 74
       0
 49
-9.02791724
 74
       0
 49
0.0
 74
       0
 49
-9.02791724
 74
       0
 49
0.0
 74
       0
 49
-9.02791724
 74
       0
  0
ENDTAB
  0
TABLE
  2
LAYER
  5
2
100
AcDbSymbolTable
 70
       3
  0
LAYER
  5
14
100
AcDbSymbolTableRecord
100
AcDbLayerTableRecord
  2
0
 70
       0
 62
       7
  6
CONTINUOUS
  0
LAYER
  5
38
100
AcDbSymbolTableRecord
100
AcDbLayerTableRecord
  2
1
 70
       0
 62
       7
  6
CONTINUOUS
  0
LAYER
  5
39
100
AcDbSymbolTableRecord
100
AcDbLayerTableRecord
  2
240
 70
       0
 62
       7
  6
CONTINUOUS
  0
ENDTAB
  0
TABLE
  2
STYLE
  5
3
100
AcDbSymbolTable
 70
       1
  0
STYLE
  5
17
100
AcDbSymbolTableRecord
100
AcDbTextStyleTableRecord
  2
STANDARD
 70
       0
 40
0.0
 41
0.8
 50
0.0
 71
       0
 42
6.8
  3
txt.shx
  4
bigfont.shx
  0
ENDTAB
  0
TABLE
  2
VIEW
  5
5
100
AcDbSymbolTable
 70
       1
  0
VIEW
  5
3A
100
AcDbSymbolTableRecord
100
AcDbViewTableRecord
  2
QQQQ
 70
       0
 40
678.47
 10
0.0
 20
0.0
 41
486.25110203
 11
0.0
 21
0.0
 31
1.0
 12
100.0
 22
100.0
 32
0.0
 42
50.0
 43
0.0
 44
0.0
 50
0.0
 71
       0
  0
ENDTAB
  0
TABLE
  2
UCS
  5
6
100
AcDbSymbolTable
 70
       0
  0
ENDTAB
  0
TABLE
  2
APPID
  5
8
100
AcDbSymbolTable
 70
       1
  0
APPID
  5
16
100
AcDbSymbolTableRecord
100
AcDbRegAppTableRecord
  2
ACAD
 70
       0
  0
ENDTAB
  0
TABLE
  2
DIMSTYLE
  5
9
100
AcDbSymbolTable
 70
       1
  0
DIMSTYLE
105
18
100
AcDbSymbolTableRecord
100
AcDbDimStyleTableRecord
  2
STANDARD
 70
       0
  3

  4

  5

  6

  7

 40
1.0
 41
0.18
 42
0.0625
 43
0.38
 44
0.18
 45
0.0
 46
0.0
 47
0.0
 48
0.0
 71
       0
 72
       0
 73
       1
 74
       1
 75
       0
 76
       0
 77
       0
 78
       0
140
0.18
141
0.09
142
0.0
143
25.4
144
1.0
145
0.0
146
1.0
147
0.09
170
       0
171
       2
172
       0
173
       0
174
       0
175
       0
176
       0
177
       0
178
       0
270
       2
271
       4
272
       4
273
       2
274
       2
275
       0
280
       0
281
       0
282
       0
283
       1
284
       0
285
       0
286
       0
287
       0
288
       0
340
17
  0
ENDTAB
  0
TABLE
  2
BLOCK_RECORD
  5
1
100
AcDbSymbolTable
 70
      12
  0
BLOCK_RECORD
  5
A
100
AcDbSymbolTableRecord
100
AcDbBlockTableRecord
  2
*MODEL_SPACE
  0
BLOCK_RECORD
  5
B
100
AcDbSymbolTableRecord
100
AcDbBlockTableRecord
  2
*PAPER_SPACE
  0
BLOCK_RECORD
  5
3B
100
AcDbSymbolTableRecord
100
AcDbBlockTableRecord
  2
GROUP_1
  0
BLOCK_RECORD
  5
3C
100
AcDbSymbolTableRecord
100
AcDbBlockTableRecord
  2
GROUP_2
  0
BLOCK_RECORD
  5
3D
100
AcDbSymbolTableRecord
100
AcDbBlockTableRecord
  2
GROUP_3
  0
BLOCK_RECORD
  5
3E
100
AcDbSymbolTableRecord
100
AcDbBlockTableRecord
  2
GROUP_4
  0
BLOCK_RECORD
  5
3F
100
AcDbSymbolTableRecord
100
AcDbBlockTableRecord
  2
GROUP_5
  0
BLOCK_RECORD
  5
40
100
AcDbSymbolTableRecord
100
AcDbBlockTableRecord
  2
GROUP_6
  0
BLOCK_RECORD
  5
41
100
AcDbSymbolTableRecord
100
AcDbBlockTableRecord
  2
GROUP_7
  0
BLOCK_RECORD
  5
42
100
AcDbSymbolTableRecord
100
AcDbBlockTableRecord
  2
GROUP_8
  0
BLOCK_RECORD
  5
43
100
AcDbSymbolTableRecord
100
AcDbBlockTableRecord
  2
GROUP_9
  0
BLOCK_RECORD
  5
44
100
AcDbSymbolTableRecord
100
AcDbBlockTableRecord
  2
GROUP_10
  0
BLOCK_RECORD
  5
45
100
AcDbSymbolTableRecord
100
AcDbBlockTableRecord
  2
GROUP_11
  0
BLOCK_RECORD
  5
46
100
AcDbSymbolTableRecord
100
AcDbBlockTableRecord
  2
GROUP_12
  0
ENDTAB
  0
ENDSEC
  0
SECTION
  2
BLOCKS
  0
BLOCK
  5
D
100
AcDbEntity
  8
0
100
AcDbBlockBegin
  2
*MODEL_SPACE
 70
       0
 10
0.0
 20
0.0
 30
0.0
  3
*MODEL_SPACE
  1

  0
ENDBLK
  5
E
100
AcDbEntity
  8
0
100
AcDbBlockEnd
  0
BLOCK
  5
F
100
AcDbEntity
 67
       1
  8
0
100
AcDbBlockBegin
  2
*PAPER_SPACE
 70
       0
 10
0.0
 20
0.0
 30
0.0
  3
*PAPER_SPACE
  1

  0
ENDBLK
  5
10
100
AcDbEntity
 67
       1
  8
0
100
AcDbBlockEnd
  0
BLOCK
  5
47
100
AcDbEntity
  8
0
100
AcDbBlockBegin
  2
GROUP_1
 70
       0
 10
0.0
 20
0.0
 30
0.0
  3
GROUP_1
  1

  0
ARC
  5
48
100
AcDbEntity
  8
0
  6
CONTINUOUS
 62
       7
100
AcDbCircle
 10
-173.85149056
 20
280.81698873
 30
0.0
 40
5.37538635
100
AcDbArc
 50
117.51736473
 51
242.48263527
  0
ARC
  5
49
100
AcDbEntity
  8
0
  6
CONTINUOUS
 62
       7
100
AcDbCircle
 10
-153.66437691
 20
319.56739305
 30
0.0
 40
49.06878851
100
AcDbArc
 50
242.48263527
 51
297.5173678
  0
ARC
  5
4A
100
AcDbEntity
  8
0
  6
CONTINUOUS
 62
       7
100
AcDbCircle
 10
-133.47726325
 20
280.81698873
 30
0.0
 40
5.37538635
100
AcDbArc
 50
297.5173678
 51
422.4826322
  0
ARC
  5
4B
100
AcDbEntity
  8
0
  6
CONTINUOUS
 62
       7
100
AcDbCircle
 10
-153.66437691
 20
242.06658441
 30
0.0
 40
49.06878851
100
AcDbArc
 50
62.4826322
 51
117.51736473
  0
ENDBLK
  5
4C
100
AcDbEntity
  8
0
100
AcDbBlockEnd
  0
BLOCK
  5
4D
100
AcDbEntity
  8
0
100
AcDbBlockBegin
  2
GROUP_2
 70
       0
 10
0.0
 20
0.0
 30
0.0
  3
GROUP_2
  1

  0
ARC
  5
4E
100
AcDbEntity
  8
0
  6
CONTINUOUS
 62
       7
100
AcDbCircle
 10
-158.45354807
 20
279.6767265
 30
0.0
 40
0.21133307
100
AcDbArc
 50
190.64764925
 51
292.13143351
  0
ARC
  5
4F
100
AcDbEntity
  8
0
  6
CONTINUOUS
 62
       7
100
AcDbCircle
 10
-158.53241926
 20
279.87065754
 30
0.0
 40
0.42068901
100
AcDbArc
 50
292.13143351
 51
370.64764618
  0
ARC
  5
50
100
AcDbEntity
  8
0
  6
CONTINUOUS
 62
       7
100
AcDbCircle
 10
-158.326668
 20
279.90933997
 30
0.0
 40
0.21133307
100
AcDbArc
 50
10.64764618
 51
112.13143044
  0
ARC
  5
51
100
AcDbEntity
  8
0
  6
CONTINUOUS
 62
       7
100
AcDbCircle
 10
-158.24779681
 20
279.71540893
 30
0.0
 40
0.42068901
100
AcDbArc
 50
112.13143044
 51
190.64764925
  0
ENDBLK
  5
52
100
AcDbEntity
  8
0
100
AcDbBlockEnd
  0
BLOCK
  5
53
100
AcDbEntity
  8
0
100
AcDbBlockBegin
  2
GROUP_3
 70
       0
 10
0.0
 20
0.0
 30
0.0
  3
GROUP_3
  1

  0
ARC
  5
54
100
AcDbEntity
  8
0
  6
CONTINUOUS
 62
       7
100
AcDbCircle
 10
-158.59279186
 20
279.42144623
 30
0.0
 40
0.67518552
100
AcDbArc
 50
190.64764925
 51
211.08495131
  0
ARC
  5
55
100
AcDbEntity
  8
0
  6
CONTINUOUS
 62
       7
100
AcDbCircle
 10
-158.84477647
 20
280.0410342
 30
0.0
 40
1.34405435
100
AcDbArc
 50
312.59843628
 51
370.64764618
  0
ARC
  5
56
100
AcDbEntity
  8
0
  6
CONTINUOUS
 62
       7
100
AcDbCircle
 10
-158.18742421
 20
280.16462024
 30
0.0
 40
0.67518552
100
AcDbArc
 50
10.64764618
 51
112.13143044
  0
ARC
  5
57
100
AcDbEntity
  8
0
  6
CONTINUOUS
 62
       7
100
AcDbCircle
 10
-157.9354396
 20
279.54503227
 30
0.0
 40
1.34405435
100
AcDbArc
 50
112.13143044
 51
190.64764925
  0
ENDBLK
  5
58
100
AcDbEntity
  8
0
100
AcDbBlockEnd
  0
BLOCK
  5
59
100
AcDbEntity
  8
0
100
AcDbBlockBegin
  2
GROUP_4
 70
       0
 10
0.0
 20
0.0
 30
0.0
  3
GROUP_4
  1

  0
ARC
  5
5A
100
AcDbEntity
  8
0
  6
CONTINUOUS
 62
       7
100
AcDbCircle
 10
-155.39999906
 20
280.20759118
 30
0.0
 40
0.15479997
100
AcDbArc
 50
183.2613818
 51
305.0059068
  0
ARC
  5
5B
100
AcDbEntity
  8
0
  6
CONTINUOUS
 62
       7
100
AcDbCircle
 10
-155.95796823
 20
281.00427898
 30
0.0
 40
1.12744638
100
AcDbArc
 50
305.0059068
 51
363.26137873
  0
ARC
  5
5C
100
AcDbEntity
  8
0
  6
CONTINUOUS
 62
       7
100
AcDbCircle
 10
-154.98689713
 20
281.05961392
 30
0.0
 40
0.15479997
100
AcDbArc
 50
3.26137873
 51
125.00590373
  0
ARC
  5
5D
100
AcDbEntity
  8
0
  6
CONTINUOUS
 62
       7
100
AcDbCircle
 10
-154.42892796
 20
280.26292612
 30
0.0
 40
1.12744638
100
AcDbArc
 50
125.00590373
 51
183.2613818
  0
ENDBLK
  5
5E
100
AcDbEntity
  8
0
100
AcDbBlockEnd
  0
BLOCK
  5
5F
100
AcDbEntity
  8
0
100
AcDbBlockBegin
  2
GROUP_5
 70
       0
 10
0.0
 20
0.0
 30
0.0
  3
GROUP_5
  1

  0
ARC
  5
60
100
AcDbEntity
  8
0
  6
CONTINUOUS
 62
       7
100
AcDbCircle
 10
-155.85335534
 20
279.27254386
 30
0.0
 40
0.49456859
100
AcDbArc
 50
183.2613818
 51
200.33363735
  0
ARC
  5
61
100
AcDbEntity
  8
0
  6
CONTINUOUS
 62
       7
100
AcDbCircle
 10
-157.63600444
 20
281.8178723
 30
0.0
 40
3.60206512
100
AcDbArc
 50
321.55507566
 51
363.26137873
  0
ARC
  5
62
100
AcDbEntity
  8
0
  6
CONTINUOUS
 62
       7
100
AcDbCircle
 10
-154.53354085
 20
281.99466124
 30
0.0
 40
0.49456859
100
AcDbArc
 50
3.26137873
 51
125.00590373
  0
ARC
  5
63
100
AcDbEntity
  8
0
  6
CONTINUOUS
 62
       7
100
AcDbCircle
 10
-152.75089174
 20
279.4493328
 30
0.0
 40
3.60206512
100
AcDbArc
 50
125.00590373
 51
183.2613818
  0
ENDBLK
  5
64
100
AcDbEntity
  8
0
100
AcDbBlockEnd
  0
BLOCK
  5
65
100
AcDbEntity
  8
0
100
AcDbBlockBegin
  2
GROUP_6
 70
       0
 10
0.0
 20
0.0
 30
0.0
  3
GROUP_6
  1

  0
ARC
  5
66
100
AcDbEntity
  8
0
  6
CONTINUOUS
 62
       7
100
AcDbCircle
 10
-149.61099617
 20
279.37660094
 30
0.0
 40
0.14405107
100
AcDbArc
 50
183.73563332
 51
294.8649236
  0
ARC
  5
67
100
AcDbEntity
  8
0
  6
CONTINUOUS
 62
       7
100
AcDbCircle
 10
-149.76948913
 20
279.71859291
 30
0.0
 40
0.52098412
100
AcDbArc
 50
294.8649236
 51
363.73563025
  0
ARC
  5
68
100
AcDbEntity
  8
0
  6
CONTINUOUS
 62
       7
100
AcDbCircle
 10
-149.39335695
 20
279.7431512
 30
0.0
 40
0.14405107
100
AcDbArc
 50
3.73563025
 51
114.86492053
  0
ARC
  5
69
100
AcDbEntity
  8
0
  6
CONTINUOUS
 62
       7
100
AcDbCircle
 10
-149.23486399
 20
279.40115923
 30
0.0
 40
0.52098412
100
AcDbArc
 50
114.86492053
 51
183.73563332
  0
ENDBLK
  5
6A
100
AcDbEntity
  8
0
100
AcDbBlockEnd
  0
BLOCK
  5
6B
100
AcDbEntity
  8
0
100
AcDbBlockBegin
  2
GROUP_7
 70
       0
 10
0.0
 20
0.0
 30
0.0
  3
GROUP_7
  1

  0
ARC
  5
6C
100
AcDbEntity
  8
0
  6
CONTINUOUS
 62
       7
100
AcDbCircle
 10
-149.19891089
 20
280.02324302
 30
0.0
 40
0.57422386
100
AcDbArc
 50
20.74730166
 51
105.32120976
  0
ARC
  5
6D
100
AcDbEntity
  8
0
  6
CONTINUOUS
 62
       7
100
AcDbCircle
 10
-148.88676565
 20
278.88388957
 30
0.0
 40
1.75556249
100
AcDbArc
 50
105.32120976
 51
159.10234869
  0
ENDBLK
  5
6E
100
AcDbEntity
  8
0
100
AcDbBlockEnd
  0
BLOCK
  5
6F
100
AcDbEntity
  8
0
100
AcDbBlockBegin
  2
GROUP_8
 70
       0
 10
0.0
 20
0.0
 30
0.0
  3
GROUP_8
  1

  0
ARC
  5
70
100
AcDbEntity
  8
0
  6
CONTINUOUS
 62
       7
100
AcDbCircle
 10
-150.0663321
 20
278.94857297
 30
0.0
 40
0.57422386
100
AcDbArc
 50
198.54809046
 51
285.32121283
  0
ARC
  5
71
100
AcDbEntity
  8
0
  6
CONTINUOUS
 62
       7
100
AcDbCircle
 10
-150.37847734
 20
280.08792643
 30
0.0
 40
1.75556249
100
AcDbArc
 50
285.32121283
 51
306.25116914
  0
ENDBLK
  5
72
100
AcDbEntity
  8
0
100
AcDbBlockEnd
  0
BLOCK
  5
73
100
AcDbEntity
  8
0
100
AcDbBlockBegin
  2
GROUP_9
 70
       0
 10
0.0
 20
0.0
 30
0.0
  3
GROUP_9
  1

  0
ARC
  5
74
100
AcDbEntity
  8
0
  6
CONTINUOUS
 62
       7
100
AcDbCircle
 10
-138.33705207
 20
279.6767265
 30
0.0
 40
0.21133307
100
AcDbArc
 50
190.64764925
 51
292.13143351
  0
ARC
  5
75
100
AcDbEntity
  8
0
  6
CONTINUOUS
 62
       7
100
AcDbCircle
 10
-138.41592325
 20
279.87065754
 30
0.0
 40
0.42068901
100
AcDbArc
 50
292.13143351
 51
370.64764618
  0
ARC
  5
76
100
AcDbEntity
  8
0
  6
CONTINUOUS
 62
       7
100
AcDbCircle
 10
-138.21017199
 20
279.90933997
 30
0.0
 40
0.21133307
100
AcDbArc
 50
10.64764618
 51
112.13143044
  0
ARC
  5
77
100
AcDbEntity
  8
0
  6
CONTINUOUS
 62
       7
100
AcDbCircle
 10
-138.13130081
 20
279.71540893
 30
0.0
 40
0.42068901
100
AcDbArc
 50
112.13143044
 51
190.64764925
  0
ENDBLK
  5
78
100
AcDbEntity
  8
0
100
AcDbBlockEnd
  0
BLOCK
  5
79
100
AcDbEntity
  8
0
100
AcDbBlockBegin
  2
GROUP_10
 70
       0
 10
0.0
 20
0.0
 30
0.0
  3
GROUP_10
  1

  0
ARC
  5
7A
100
AcDbEntity
  8
0
  6
CONTINUOUS
 62
       7
100
AcDbCircle
 10
-138.47629585
 20
279.42144623
 30
0.0
 40
0.67518552
100
AcDbArc
 50
190.64764925
 51
211.08495131
  0
ARC
  5
7B
100
AcDbEntity
  8
0
  6
CONTINUOUS
 62
       7
100
AcDbCircle
 10
-138.72828047
 20
280.0410342
 30
0.0
 40
1.34405435
100
AcDbArc
 50
312.59843628
 51
370.64764618
  0
ARC
  5
7C
100
AcDbEntity
  8
0
  6
CONTINUOUS
 62
       7
100
AcDbCircle
 10
-138.07092821
 20
280.16462024
 30
0.0
 40
0.67518552
100
AcDbArc
 50
10.64764618
 51
112.13143044
  0
ARC
  5
7D
100
AcDbEntity
  8
0
  6
CONTINUOUS
 62
       7
100
AcDbCircle
 10
-137.81894359
 20
279.54503227
 30
0.0
 40
1.34405435
100
AcDbArc
 50
112.13143044
 51
190.64764925
  0
ENDBLK
  5
7E
100
AcDbEntity
  8
0
100
AcDbBlockEnd
  0
BLOCK
  5
7F
100
AcDbEntity
  8
0
100
AcDbBlockBegin
  2
GROUP_11
 70
       0
 10
0.0
 20
0.0
 30
0.0
  3
GROUP_11
  1

  0
TEXT
  5
80
100
AcDbEntity
  8
0
 62
       7
100
AcDbText
 10
55.39812309
 20
-223.74108659
 30
0.0
 40
8.0
  1
　皿小ネジ
 50
0.00000307
 41
0.8
 72
       5
 11
87.39812309
 21
-223.74108488
 31
0.0
100
AcDbText
  0
CIRCLE
  5
81
100
AcDbEntity
  8
0
  6
CONTINUOUS
 62
       7
100
AcDbCircle
 10
58.75132137
 20
-219.74108659
 30
0.0
 40
3.35319828
  0
LINE
  5
82
100
AcDbEntity
  8
0
  6
CONTINUOUS
 62
       7
100
AcDbLine
 10
58.75132137
 20
-217.18248203
 30
0.0
 11
58.75132137
 21
-222.29969115
 31
0.0
  0
LINE
  5
83
100
AcDbEntity
  8
0
  6
CONTINUOUS
 62
       7
100
AcDbLine
 10
61.30992593
 20
-219.74108659
 30
0.0
 11
56.19271681
 21
-219.74108659
 31
0.0
  0
ENDBLK
  5
84
100
AcDbEntity
  8
0
100
AcDbBlockEnd
  0
BLOCK
  5
85
100
AcDbEntity
  8
0
100
AcDbBlockBegin
  2
GROUP_12
 70
       0
 10
0.0
 20
0.0
 30
0.0
  3
GROUP_12
  1

  0
TEXT
  5
86
100
AcDbEntity
  8
0
 62
       7
100
AcDbText
 10
55.39812309
 20
-213.74108659
 30
0.0
 40
8.0
  1
　丸皿タッピンネジ
 50
0.00000307
 41
0.8
 72
       5
 11
112.99812309
 21
-213.7410835
 31
0.0
100
AcDbText
  0
CIRCLE
  5
87
100
AcDbEntity
  8
0
  6
CONTINUOUS
 62
       7
100
AcDbCircle
 10
58.75132137
 20
-209.74108659
 30
0.0
 40
3.35319828
  0
LINE
  5
88
100
AcDbEntity
  8
0
  6
CONTINUOUS
 62
       7
100
AcDbLine
 10
58.75132137
 20
-207.18248203
 30
0.0
 11
58.75132137
 21
-212.29969115
 31
0.0
  0
LINE
  5
89
100
AcDbEntity
  8
0
  6
CONTINUOUS
 62
       7
100
AcDbLine
 10
61.30992593
 20
-209.74108659
 30
0.0
 11
56.19271681
 21
-209.74108659
 31
0.0
  0
ENDBLK
  5
8A
100
AcDbEntity
  8
0
100
AcDbBlockEnd
  0
ENDSEC
  0
SECTION
  2
ENTITIES
  0
LINE
  5
8B
100
AcDbEntity
  8
0
  6
CONTINUOUS
 62
       7
100
AcDbLine
 10
-118.71838174
 20
175.1276669
 30
0.0
 11
-118.71838174
 21
174.6276669
 31
0.0
  0
LINE
  5
8C
100
AcDbEntity
  8
0
  6
CONTINUOUS
 62
       7
100
AcDbLine
 10
37.28161826
 20
175.1276669
 30
0.0
 11
37.28161826
 21
174.6276669
 31
0.0
  0
LINE
  5
8D
100
AcDbEntity
  8
0
  6
CONTINUOUS
 62
       7
100
AcDbLine
 10
-12.71838174
 20
136.6276669
 30
0.0
 11
-68.71838174
 21
136.6276669
 31
0.0
  0
LINE
  5
8E
100
AcDbEntity
  8
0
  6
CONTINUOUS
 62
       7
100
AcDbLine
 10
-14.21838174
 20
139.6276669
 30
0.0
 11
-67.21838174
 21
139.6276669
 31
0.0
  0
LINE
  5
8F
100
AcDbEntity
  8
0
  6
CONTINUOUS
 62
       7
100
AcDbLine
 10
-118.71838174
 20
57.3776669
 30
0.0
 11
-118.71838174
 21
-63.6223331
 31
0.0
  0
LINE
  5
90
100
AcDbEntity
  8
0
  6
CONTINUOUS
 62
       7
100
AcDbLine
 10
-113.71838174
 20
-68.6223331
 30
0.0
 11
32.28161826
 21
-68.6223331
 31
0.0
  0
LINE
  5
91
100
AcDbEntity
  8
0
  6
CONTINUOUS
 62
       7
100
AcDbLine
 10
-115.71838174
 20
171.6276669
 30
0.0
 11
34.28161826
 21
171.6276669
 31
0.0
  0
LINE
  5
92
100
AcDbEntity
  8
0
  6
CONTINUOUS
 62
       7
100
AcDbLine
 10
-43.21838174
 20
203.6276669
 30
0.0
 11
-44.71838174
 21
201.5026669
 31
0.0
  0
LINE
  5
93
100
AcDbEntity
  8
0
  6
CONTINUOUS
 62
       7
100
AcDbLine
 10
-38.21838174
 20
203.6276669
 30
0.0
 11
-43.21838174
 21
203.6276669
 31
0.0
  0
LINE
  5
94
100
AcDbEntity
  8
0
  6
CONTINUOUS
 62
       7
100
AcDbLine
 10
-38.21838174
 20
203.6276669
 30
0.0
 11
-36.71838174
 21
201.5026669
 31
0.0
  0
LINE
  5
95
100
AcDbEntity
  8
0
  6
CONTINUOUS
 62
       7
100
AcDbLine
 10
-118.71838174
 20
175.1276669
 30
0.0
 11
37.28161826
 21
175.1276669
 31
0.0
  0
LINE
  5
96
100
AcDbEntity
  8
0
  6
CONTINUOUS
 62
       7
100
AcDbLine
 10
114.08350199
 20
-56.1223331
 30
0.0
 11
136.58350199
 21
-56.1223331
 31
0.0
  0
LINE
  5
97
100
AcDbEntity
  8
0
  6
CONTINUOUS
 62
       7
100
AcDbLine
 10
22.28161826
 20
46.3776669
 30
0.0
 11
22.28161826
 21
-50.6223331
 31
0.0
  0
LINE
  5
98
100
AcDbEntity
  8
0
  6
CONTINUOUS
 62
       7
100
AcDbLine
 10
114.08350199
 20
-68.6223331
 30
0.0
 11
113.58350199
 21
-68.6223331
 31
0.0
  0
LINE
  5
99
100
AcDbEntity
  8
0
  6
CONTINUOUS
 62
       7
100
AcDbLine
 10
114.08350199
 20
49.8776669
 30
0.0
 11
136.58350199
 21
49.8776669
 31
0.0
  0
LINE
  5
9A
100
AcDbEntity
  8
0
  6
CONTINUOUS
 62
       7
100
AcDbLine
 10
114.08350199
 20
62.3776669
 30
0.0
 11
114.08350199
 21
-68.6223331
 31
0.0
  0
LINE
  5
9B
100
AcDbEntity
  8
0
  6
CONTINUOUS
 62
       7
100
AcDbLine
 10
139.58350199
 20
-45.1223331
 30
0.0
 11
141.58350199
 21
-43.6223331
 31
0.0
  0
LINE
  5
9C
100
AcDbEntity
  8
0
  6
CONTINUOUS
 62
       7
100
AcDbLine
 10
141.58350199
 20
-38.6223331
 30
0.0
 11
141.58350199
 21
-43.6223331
 31
0.0
  0
LINE
  5
9D
100
AcDbEntity
  8
0
  6
CONTINUOUS
 62
       7
100
AcDbLine
 10
141.58350199
 20
37.3776669
 30
0.0
 11
141.58350199
 21
32.3776669
 31
0.0
  0
LINE
  5
9E
100
AcDbEntity
  8
0
  6
CONTINUOUS
 62
       7
100
AcDbLine
 10
110.58350199
 20
-65.6223331
 30
0.0
 11
110.58350199
 21
59.3776669
 31
0.0
  0
LINE
  5
9F
100
AcDbEntity
  8
0
  6
CONTINUOUS
 62
       7
100
AcDbLine
 10
114.08350199
 20
62.3776669
 30
0.0
 11
113.58350199
 21
62.3776669
 31
0.0
  0
LINE
  5
A0
100
AcDbEntity
  8
0
  6
CONTINUOUS
 62
       7
100
AcDbLine
 10
139.58350199
 20
-37.1223331
 30
0.0
 11
141.58350199
 21
-38.6223331
 31
0.0
  0
LINE
  5
A1
100
AcDbEntity
  8
0
  6
CONTINUOUS
 62
       7
100
AcDbLine
 10
139.58350199
 20
38.8776669
 30
0.0
 11
141.58350199
 21
37.3776669
 31
0.0
  0
LINE
  5
A2
100
AcDbEntity
  8
0
  6
CONTINUOUS
 62
       7
100
AcDbLine
 10
139.58350199
 20
-53.1223331
 30
0.0
 11
139.58350199
 21
46.8776669
 31
0.0
  0
LINE
  5
A3
100
AcDbEntity
  8
0
  6
CONTINUOUS
 62
       7
100
AcDbLine
 10
139.58350199
 20
30.8776669
 30
0.0
 11
141.58350199
 21
32.3776669
 31
0.0
  0
LINE
  5
A4
100
AcDbEntity
  8
0
  6
CONTINUOUS
 62
       7
100
AcDbLine
 10
-113.71838174
 20
62.3776669
 30
0.0
 11
32.28161826
 21
62.3776669
 31
0.0
  0
LINE
  5
A5
100
AcDbEntity
  8
0
  6
CONTINUOUS
 62
       7
100
AcDbLine
 10
37.28161826
 20
57.3776669
 30
0.0
 11
37.28161826
 21
-63.6223331
 31
0.0
  0
LINE
  5
A6
100
AcDbEntity
  8
0
  6
CONTINUOUS
 62
       7
100
AcDbLine
 10
-103.71838174
 20
46.3776669
 30
0.0
 11
-103.71838174
 21
-50.6223331
 31
0.0
  0
LINE
  5
A7
100
AcDbEntity
  8
0
  6
CONTINUOUS
 62
       7
100
AcDbLine
 10
-100.71838174
 20
49.3776669
 30
0.0
 11
19.28161826
 21
49.3776669
 31
0.0
  0
LINE
  5
A8
100
AcDbEntity
  8
0
  6
CONTINUOUS
 62
       7
100
AcDbLine
 10
-50.34699107
 20
168.19919021
 30
0.0
 11
-51.71838174
 21
171.6276669
 31
0.0
  0
LINE
  5
A9
100
AcDbEntity
  8
0
  6
CONTINUOUS
 62
       7
100
AcDbLine
 10
-48.02579934
 20
166.6276669
 30
0.0
 11
-33.41096415
 21
166.6276669
 31
0.0
  0
LINE
  5
AA
100
AcDbEntity
  8
0
  6
CONTINUOUS
 62
       7
100
AcDbLine
 10
-31.08977242
 20
168.19919021
 30
0.0
 11
-29.71838174
 21
171.6276669
 31
0.0
  0
ARC
  5
AB
100
AcDbEntity
  8
0
  6
CONTINUOUS
 62
       7
100
AcDbCircle
 10
32.15661826
 20
57.2526669
 30
0.0
 40
5.125
100
AcDbArc
 50
1.39999695
 51
88.59999844
  0
ARC
  5
AC
100
AcDbEntity
  8
0
  6
CONTINUOUS
 62
       7
100
AcDbCircle
 10
-113.59338174
 20
-63.4973331
 30
0.0
 40
5.125
100
AcDbArc
 50
181.40000002
 51
268.60000151
  0
ARC
  5
AD
100
AcDbEntity
  8
0
  6
CONTINUOUS
 62
       7
100
AcDbCircle
 10
32.15661826
 20
-63.4973331
 30
0.0
 40
5.125
100
AcDbArc
 50
271.40000156
 51
358.60000305
  0
ARC
  5
AE
100
AcDbEntity
  8
0
  6
CONTINUOUS
 62
       7
100
AcDbCircle
 10
-113.59338174
 20
57.2526669
 30
0.0
 40
5.125
100
AcDbArc
 50
91.39999849
 51
178.59999998
  0
ARC
  5
AF
100
AcDbEntity
  8
0
  6
CONTINUOUS
 62
       7
100
AcDbCircle
 10
-115.71838174
 20
174.6276669
 30
0.0
 40
3.0
100
AcDbArc
 50
179.8
 51
270.20000154
  0
ARC
  5
B0
100
AcDbEntity
  8
0
  6
CONTINUOUS
 62
       7
100
AcDbCircle
 10
-40.71838174
 20
198.7526669
 30
0.0
 40
68.125
100
AcDbArc
 50
203.5000004
 51
245.70000112
  0
ARC
  5
B1
100
AcDbEntity
  8
0
  6
CONTINUOUS
 62
       7
100
AcDbCircle
 10
-14.21838174
 20
138.1276669
 30
0.0
 40
1.5
100
AcDbArc
 50
270.00000154
 51
449.99999846
  0
ARC
  5
B2
100
AcDbEntity
  8
0
  6
CONTINUOUS
 62
       7
100
AcDbCircle
 10
-67.21838174
 20
138.1276669
 30
0.0
 40
1.5
100
AcDbArc
 50
89.99999846
 51
270.00000154
  0
ARC
  5
B3
100
AcDbEntity
  8
0
  6
CONTINUOUS
 62
       7
100
AcDbCircle
 10
34.28161826
 20
174.6276669
 30
0.0
 40
3.0
100
AcDbArc
 50
269.80000153
 51
360.19999693
  0
ARC
  5
B4
100
AcDbEntity
  8
0
  6
CONTINUOUS
 62
       7
100
AcDbCircle
 10
-40.71838174
 20
198.7526669
 30
0.0
 40
68.125
100
AcDbArc
 50
294.30000195
 51
336.50000267
  0
ARC
  5
B5
100
AcDbEntity
  8
0
  6
CONTINUOUS
 62
       7
100
AcDbCircle
 10
-40.71838174
 20
111.7526669
 30
0.0
 40
89.875
100
AcDbArc
 50
44.8999977
 51
135.09999923
  0
ARC
  5
B6
100
AcDbEntity
  8
0
  6
CONTINUOUS
 62
       7
100
AcDbCircle
 10
136.58350199
 20
-53.1223331
 30
0.0
 40
3.0
100
AcDbArc
 50
269.80000153
 51
360.19999693
  0
ARC
  5
B7
100
AcDbEntity
  8
0
  6
CONTINUOUS
 62
       7
100
AcDbCircle
 10
136.58350199
 20
46.8776669
 30
0.0
 40
3.0
100
AcDbArc
 50
359.80000307
 51
450.19999847
  0
ARC
  5
B8
100
AcDbEntity
  8
0
  6
CONTINUOUS
 62
       7
100
AcDbCircle
 10
113.58350199
 20
-65.6223331
 30
0.0
 40
3.0
100
AcDbArc
 50
179.8
 51
270.20000154
  0
ARC
  5
B9
100
AcDbEntity
  8
0
  6
CONTINUOUS
 62
       7
100
AcDbCircle
 10
113.58350199
 20
59.3776669
 30
0.0
 40
3.0
100
AcDbArc
 50
89.79999846
 51
180.2
  0
ARC
  5
BA
100
AcDbEntity
  8
0
  6
CONTINUOUS
 62
       7
100
AcDbCircle
 10
-100.71838174
 20
46.3776669
 30
0.0
 40
3.0
100
AcDbArc
 50
89.79999846
 51
180.2
  0
ARC
  5
BB
100
AcDbEntity
  8
0
  6
CONTINUOUS
 62
       7
100
AcDbCircle
 10
19.28161826
 20
46.3776669
 30
0.0
 40
3.0
100
AcDbArc
 50
359.80000307
 51
450.19999847
  0
ARC
  5
BC
100
AcDbEntity
  8
0
  6
CONTINUOUS
 62
       7
100
AcDbCircle
 10
-66.71838174
 20
167.5026669
 30
0.0
 40
27.875
100
AcDbArc
 50
243.70000109
 51
269.10000152
  0
ARC
  5
BD
100
AcDbEntity
  8
0
  6
CONTINUOUS
 62
       7
100
AcDbCircle
 10
-14.71838174
 20
167.5026669
 30
0.0
 40
27.875
100
AcDbArc
 50
270.90000155
 51
296.30000198
  0
LINE
  5
BE
100
AcDbEntity
  8
0
  6
CONTINUOUS
 62
       7
100
AcDbLine
 10
62.52312309
 20
286.63391341
 30
0.0
 11
188.77312309
 21
286.63391341
 31
0.0
  0
LINE
  5
BF
100
AcDbEntity
  8
0
  6
CONTINUOUS
 62
       7
100
AcDbLine
 10
62.52312309
 20
286.63391341
 30
0.0
 11
62.52312309
 21
266.82163914
 31
0.0
  0
LINE
  5
C0
100
AcDbEntity
  8
0
  6
CONTINUOUS
 62
       7
100
AcDbLine
 10
188.77312309
 20
286.63391341
 30
0.0
 11
188.77312309
 21
266.82163914
 31
0.0
  0
LINE
  5
C1
100
AcDbEntity
  8
0
  6
CONTINUOUS
 62
       7
100
AcDbLine
 10
-168.22687691
 20
-254.74108659
 30
0.0
 11
-168.22687691
 21
-174.74108659
 31
0.0
  0
LINE
  5
C2
100
AcDbEntity
  8
0
  6
CONTINUOUS
 62
       7
100
AcDbLine
 10
-75.10187691
 20
-254.74108659
 30
0.0
 11
-75.10187691
 21
-174.74108659
 31
0.0
  0
LINE
  5
C3
100
AcDbEntity
  8
0
  6
CONTINUOUS
 62
       7
100
AcDbLine
 10
31.14812309
 20
-254.74108659
 30
0.0
 11
31.14812309
 21
-174.74108659
 31
0.0
  0
LINE
  5
C4
100
AcDbEntity
  8
0
  6
CONTINUOUS
 62
       7
100
AcDbLine
 10
53.39812309
 20
-254.74108659
 30
0.0
 11
53.39812309
 21
-174.74108659
 31
0.0
  0
LINE
  5
C5
100
AcDbEntity
  8
0
  6
CONTINUOUS
 62
       7
100
AcDbLine
 10
62.02312309
 20
-282.24108659
 30
0.0
 11
62.02312309
 21
-258.11608659
 31
0.0
  0
LINE
  5
C6
100
AcDbEntity
  8
0
  6
CONTINUOUS
 62
       7
100
AcDbLine
 10
52.02312309
 20
-282.24108659
 30
0.0
 11
52.02312309
 21
-258.11608659
 31
0.0
  0
LINE
  5
C7
100
AcDbEntity
  8
0
  6
CONTINUOUS
 62
       7
100
AcDbLine
 10
-73.10187691
 20
-282.24108659
 30
0.0
 11
-73.10187691
 21
-258.11608659
 31
0.0
  0
LINE
  5
C8
100
AcDbEntity
  8
0
  6
CONTINUOUS
 62
       7
100
AcDbLine
 10
-83.10187691
 20
-282.24108659
 30
0.0
 11
-83.10187691
 21
-258.11608659
 31
0.0
  0
LINE
  5
C9
100
AcDbEntity
  8
0
  6
CONTINUOUS
 62
       7
100
AcDbLine
 10
-182.10187691
 20
-244.74108659
 30
0.0
 11
186.77312309
 21
-244.74108659
 31
0.0
  0
LINE
  5
CA
100
AcDbEntity
  8
0
  6
CONTINUOUS
 62
       7
100
AcDbLine
 10
-182.10187691
 20
-234.74108659
 30
0.0
 11
186.77312309
 21
-234.74108659
 31
0.0
  0
LINE
  5
CB
100
AcDbEntity
  8
0
  6
CONTINUOUS
 62
       7
100
AcDbLine
 10
-182.10187691
 20
-224.74108659
 30
0.0
 11
186.77312309
 21
-224.74108659
 31
0.0
  0
LINE
  5
CC
100
AcDbEntity
  8
0
  6
CONTINUOUS
 62
       7
100
AcDbLine
 10
-182.10187691
 20
-214.74108659
 30
0.0
 11
186.77312309
 21
-214.74108659
 31
0.0
  0
LINE
  5
CD
100
AcDbEntity
  8
0
  6
CONTINUOUS
 62
       7
100
AcDbLine
 10
-182.10187691
 20
-204.74108659
 30
0.0
 11
186.77312309
 21
-204.74108659
 31
0.0
  0
LINE
  5
CE
100
AcDbEntity
  8
0
  6
CONTINUOUS
 62
       7
100
AcDbLine
 10
-182.10187691
 20
-194.74108659
 30
0.0
 11
186.77312309
 21
-194.74108659
 31
0.0
  0
LINE
  5
CF
100
AcDbEntity
  8
0
  6
CONTINUOUS
 62
       7
100
AcDbLine
 10
-182.10187691
 20
-184.74108659
 30
0.0
 11
186.77312309
 21
-184.74108659
 31
0.0
  0
POINT
  5
D0
100
AcDbEntity
  8
0
  6
CONTINUOUS
 62
       7
100
AcDbPoint
 10
-182.10187691
 20
-79.9309787
 30
0.0
  0
POINT
  5
D1
100
AcDbEntity
  8
0
  6
CONTINUOUS
 62
       7
100
AcDbPoint
 10
-182.10187691
 20
80.0690213
 30
0.0
  0
POINT
  5
D2
100
AcDbEntity
  8
0
  6
CONTINUOUS
 62
       7
100
AcDbPoint
 10
-209.97687691
 20
0.0690213
 30
0.0
  0
CIRCLE
  5
D3
100
AcDbEntity
  8
0
  6
CONTINUOUS
 62
       7
100
AcDbCircle
 10
-40.71838174
 20
34.8776669
 30
0.0
 40
4.25
  0
CIRCLE
  5
D4
100
AcDbEntity
  8
0
  6
CONTINUOUS
 62
       7
100
AcDbCircle
 10
-40.71838174
 20
34.8776669
 30
0.0
 40
2.5
  0
CIRCLE
  5
D5
100
AcDbEntity
  8
0
  6
CONTINUOUS
 62
       7
100
AcDbCircle
 10
-40.71838174
 20
-41.1223331
 30
0.0
 40
2.5
  0
LINE
  5
D6
100
AcDbEntity
  8
0
  6
CONTINUOUS
 62
       7
100
AcDbLine
 10
110.58350199
 20
-56.1223331
 30
0.0
 11
110.58350199
 21
-66.6223331
 31
0.0
  0
LINE
  5
D7
100
AcDbEntity
  8
0
  6
CONTINUOUS
 62
       7
100
AcDbLine
 10
93.51517872
 20
-66.6223331
 30
0.0
 11
110.58350199
 21
-66.6223331
 31
0.0
  0
LINE
  5
D8
100
AcDbEntity
  8
0
  6
CONTINUOUS
 62
       7
100
AcDbLine
 10
87.86543132
 20
-56.1223331
 30
0.0
 11
110.58350199
 21
-56.1223331
 31
0.0
  0
ARC
  5
D9
100
AcDbEntity
  8
0
  6
CONTINUOUS
 62
       7
100
AcDbCircle
 10
93.51517872
 20
-48.6223331
 30
0.0
 40
18.0
100
AcDbArc
 50
185.21590866
 51
270.00000154
  0
ARC
  5
DA
100
AcDbEntity
  8
0
  6
CONTINUOUS
 62
       7
100
AcDbCircle
 10
87.86543132
 20
-46.1223331
 30
0.0
 40
10.0
100
AcDbArc
 50
200.35440675
 51
270.00000154
  0
ARC
  5
DB
100
AcDbEntity
  8
0
  6
CONTINUOUS
 62
       7
100
AcDbCircle
 10
77.08350199
 20
-50.1223331
 30
0.0
 40
1.5
100
AcDbArc
 50
20.35440367
 51
185.21590866
  0
LINE
  5
DC
100
AcDbEntity
  8
0
  6
CONTINUOUS
 62
       7
100
AcDbLine
 10
17.28161826
 20
-55.6223331
 30
0.0
 11
0.44104544
 21
-55.6223331
 31
0.0
  0
LINE
  5
DD
100
AcDbEntity
  8
0
  6
CONTINUOUS
 62
       7
100
AcDbLine
 10
-81.87780881
 20
-55.6223331
 30
0.0
 11
-98.71838174
 21
-55.6223331
 31
0.0
  0
LINE
  5
DE
100
AcDbEntity
  8
0
  6
CONTINUOUS
 62
       7
100
AcDbLine
 10
-65.87524685
 20
-48.6223331
 30
0.0
 11
-15.59740196
 21
-48.6223331
 31
0.0
  0
ARC
  5
DF
100
AcDbEntity
  8
0
  6
CONTINUOUS
 62
       7
100
AcDbCircle
 10
-15.56151652
 20
-63.6223331
 30
0.0
 40
15.0
100
AcDbArc
 50
48.59037565
 51
90.13707091
  0
ARC
  5
E0
100
AcDbEntity
  8
0
  6
CONTINUOUS
 62
       7
100
AcDbCircle
 10
4.28161832
 20
-41.1223331
 30
0.0
 40
15.0
100
AcDbArc
 50
228.59037872
 51
270.00000154
  0
ARC
  5
E1
100
AcDbEntity
  8
0
  6
CONTINUOUS
 62
       7
100
AcDbCircle
 10
-15.59740196
 20
-63.6223331
 30
0.0
 40
15.0
100
AcDbArc
 50
23.57817581
 51
89.99999846
  0
ARC
  5
E2
100
AcDbEntity
  8
0
  6
CONTINUOUS
 62
       7
100
AcDbCircle
 10
-65.87524685
 20
-63.6223331
 30
0.0
 40
15.0
100
AcDbArc
 50
89.99999846
 51
131.40962128
  0
ARC
  5
E3
100
AcDbEntity
  8
0
  6
CONTINUOUS
 62
       7
100
AcDbCircle
 10
-85.71838168
 20
-41.1223331
 30
0.0
 40
15.0
100
AcDbArc
 50
270.00000154
 51
311.40962435
  0
ARC
  5
E4
100
AcDbEntity
  8
0
  6
CONTINUOUS
 62
       7
100
AcDbCircle
 10
-65.8393614
 20
-63.6223331
 30
0.0
 40
15.0
100
AcDbArc
 50
89.99999846
 51
156.42182112
  0
LINE
  5
E5
100
AcDbEntity
  8
0
  6
CONTINUOUS
 62
       7
100
AcDbLine
 10
19.28161832
 20
-64.1223331
 30
0.0
 11
19.28161832
 21
-57.6223331
 31
0.0
  0
LINE
  5
E6
100
AcDbEntity
  8
0
  6
CONTINUOUS
 62
       7
100
AcDbLine
 10
17.78161832
 20
-56.1223331
 30
0.0
 11
4.28161832
 21
-56.1223331
 31
0.0
  0
ARC
  5
E7
100
AcDbEntity
  8
0
  6
CONTINUOUS
 62
       7
100
AcDbCircle
 10
17.78161832
 20
-57.6223331
 30
0.0
 40
1.5
100
AcDbArc
 50
0.00000307
 51
89.99999846
  0
ARC
  5
E8
100
AcDbEntity
  8
0
  6
CONTINUOUS
 62
       7
100
AcDbCircle
 10
11.89805221
 20
-51.6223331
 30
0.0
 40
15.0
100
AcDbArc
 50
203.57817888
 51
270.00000154
  0
ARC
  5
E9
100
AcDbEntity
  8
0
  6
CONTINUOUS
 62
       7
100
AcDbCircle
 10
16.78161832
 20
-64.1223331
 30
0.0
 40
2.5
100
AcDbArc
 50
270.00000154
 51
360.00000307
  0
LINE
  5
EA
100
AcDbEntity
  8
0
  6
CONTINUOUS
 62
       7
100
AcDbLine
 10
-100.71838168
 20
-64.1223331
 30
0.0
 11
-100.71838168
 21
-57.6223331
 31
0.0
  0
ARC
  5
EB
100
AcDbEntity
  8
0
  6
CONTINUOUS
 62
       7
100
AcDbCircle
 10
-98.21838168
 20
-64.1223331
 30
0.0
 40
2.5
100
AcDbArc
 50
180.0
 51
270.00000154
  0
ARC
  5
EC
100
AcDbEntity
  8
0
  6
CONTINUOUS
 62
       7
100
AcDbCircle
 10
-99.21838168
 20
-57.6223331
 30
0.0
 40
1.5
100
AcDbArc
 50
89.99999846
 51
180.0
  0
LINE
  5
ED
100
AcDbEntity
  8
0
  6
CONTINUOUS
 62
       7
100
AcDbLine
 10
-99.21838168
 20
-56.1223331
 30
0.0
 11
-85.71838168
 21
-56.1223331
 31
0.0
  0
ARC
  5
EE
100
AcDbEntity
  8
0
  6
CONTINUOUS
 62
       7
100
AcDbCircle
 10
-93.33481557
 20
-51.6223331
 30
0.0
 40
15.0
100
AcDbArc
 50
270.00000154
 51
336.42182419
  0
LINE
  5
EF
100
AcDbEntity
  8
0
  6
CONTINUOUS
 62
       7
100
AcDbLine
 10
-98.21838168
 20
-66.6223331
 30
0.0
 11
16.78161832
 21
-66.6223331
 31
0.0
  0
ARC
  5
F0
100
AcDbEntity
  8
0
  6
CONTINUOUS
 62
       7
100
AcDbCircle
 10
-98.71838174
 20
-50.6223331
 30
0.0
 40
5.0
100
AcDbArc
 50
180.0
 51
270.00000154
  0
ARC
  5
F1
100
AcDbEntity
  8
0
  6
CONTINUOUS
 62
       7
100
AcDbCircle
 10
17.28161826
 20
-50.6223331
 30
0.0
 40
5.0
100
AcDbArc
 50
270.00000154
 51
360.00000307
  0
CIRCLE
  5
F2
100
AcDbEntity
  8
0
  6
CONTINUOUS
 62
       7
100
AcDbCircle
 10
-40.71838174
 20
-41.1223331
 30
0.0
 40
4.25
  0
ARC
  5
F3
100
AcDbEntity
  8
0
  6
CONTINUOUS
 62
       7
100
AcDbCircle
 10
-48.02579934
 20
169.1276669
 30
0.0
 40
2.5
100
AcDbArc
 50
201.80140986
 51
270.00000154
  0
ARC
  5
F4
100
AcDbEntity
  8
0
  6
CONTINUOUS
 62
       7
100
AcDbCircle
 10
-33.41096415
 20
169.1276669
 30
0.0
 40
2.5
100
AcDbArc
 50
270.00000154
 51
338.19859321
  0
POINT
  5
F5
100
AcDbEntity
  8
0
  6
CONTINUOUS
 62
       7
100
AcDbPoint
 10
125.64812309
 20
276.72777628
 30
0.0
  0
POINT
  5
F6
100
AcDbEntity
  8
0
  6
CONTINUOUS
 62
       7
100
AcDbPoint
 10
-29.78240016
 20
276.72777628
 30
0.0
  0
POINT
  5
F7
100
AcDbEntity
  8
0
  6
CONTINUOUS
 62
       7
100
AcDbPoint
 10
124.39812309
 20
-270.17858659
 30
0.0
  0
POINT
  5
F8
100
AcDbEntity
  8
0
  6
CONTINUOUS
 62
       7
100
AcDbPoint
 10
-10.53937691
 20
-270.17858659
 30
0.0
  0
POINT
  5
F9
100
AcDbEntity
  8
0
  6
CONTINUOUS
 62
       7
100
AcDbPoint
 10
42.27312309
 20
-239.74108659
 30
0.0
  0
POINT
  5
FA
100
AcDbEntity
  8
0
  6
CONTINUOUS
 62
       7
100
AcDbPoint
 10
-166.22687691
 20
-239.74108659
 30
0.0
  0
POINT
  5
FB
100
AcDbEntity
  8
0
  6
CONTINUOUS
 62
       7
100
AcDbPoint
 10
-73.10187691
 20
-239.74108659
 30
0.0
  0
POINT
  5
FC
100
AcDbEntity
  8
0
  6
CONTINUOUS
 62
       7
100
AcDbPoint
 10
55.39812309
 20
-239.74108659
 30
0.0
  0
LINE
  5
FD
100
AcDbEntity
  8
0
  6
CONTINUOUS
 62
       7
100
AcDbLine
 10
-209.97687691
 20
307.0
 30
0.0
 11
-209.97687691
 21
297.0
 31
0.0
  0
LINE
  5
FE
100
AcDbEntity
  8
0
  6
CONTINUOUS
 62
       7
100
AcDbLine
 10
-209.97687691
 20
297.0
 30
0.0
 11
-219.97687691
 21
297.0
 31
0.0
  0
LINE
  5
FF
100
AcDbEntity
  8
0
  6
CONTINUOUS
 62
       7
100
AcDbLine
 10
210.02312309
 20
297.0
 30
0.0
 11
220.02312309
 21
297.0
 31
0.0
  0
LINE
  5
100
100
AcDbEntity
  8
0
  6
CONTINUOUS
 62
       7
100
AcDbLine
 10
210.02312309
 20
297.0
 30
0.0
 11
210.02312309
 21
307.0
 31
0.0
  0
LINE
  5
101
100
AcDbEntity
  8
0
  6
CONTINUOUS
 62
       7
100
AcDbLine
 10
210.02312309
 20
-307.0
 30
0.0
 11
210.02312309
 21
-297.0
 31
0.0
  0
LINE
  5
102
100
AcDbEntity
  8
0
  6
CONTINUOUS
 62
       7
100
AcDbLine
 10
210.02312309
 20
-297.0
 30
0.0
 11
220.02312309
 21
-297.0
 31
0.0
  0
LINE
  5
103
100
AcDbEntity
  8
0
  6
CONTINUOUS
 62
       7
100
AcDbLine
 10
-220.02312309
 20
-297.0
 30
0.0
 11
-209.97687691
 21
-297.0
 31
0.0
  0
LINE
  5
104
100
AcDbEntity
  8
0
  6
CONTINUOUS
 62
       7
100
AcDbLine
 10
-209.97687691
 20
-297.0690213
 30
0.0
 11
-209.97687691
 21
-306.99989306
 31
0.0
  0
POINT
  5
105
100
AcDbEntity
  8
0
  6
CONTINUOUS
 62
       7
100
AcDbPoint
 10
42.27312309
 20
-229.74108659
 30
0.0
  0
POINT
  5
106
100
AcDbEntity
  8
0
  6
CONTINUOUS
 62
       7
100
AcDbPoint
 10
-166.22687691
 20
-229.74108659
 30
0.0
  0
POINT
  5
107
100
AcDbEntity
  8
0
  6
CONTINUOUS
 62
       7
100
AcDbPoint
 10
-73.10187691
 20
-229.74108659
 30
0.0
  0
POINT
  5
108
100
AcDbEntity
  8
0
  6
CONTINUOUS
 62
       7
100
AcDbPoint
 10
55.39812309
 20
-229.74108659
 30
0.0
  0
POINT
  5
109
100
AcDbEntity
  8
0
  6
CONTINUOUS
 62
       7
100
AcDbPoint
 10
42.27312309
 20
-219.74108659
 30
0.0
  0
POINT
  5
10A
100
AcDbEntity
  8
0
  6
CONTINUOUS
 62
       7
100
AcDbPoint
 10
-166.22687691
 20
-219.74108659
 30
0.0
  0
POINT
  5
10B
100
AcDbEntity
  8
0
  6
CONTINUOUS
 62
       7
100
AcDbPoint
 10
-73.10187691
 20
-219.74108659
 30
0.0
  0
POINT
  5
10C
100
AcDbEntity
  8
0
  6
CONTINUOUS
 62
       7
100
AcDbPoint
 10
55.39812309
 20
-219.74108659
 30
0.0
  0
POINT
  5
10D
100
AcDbEntity
  8
0
  6
CONTINUOUS
 62
       7
100
AcDbPoint
 10
42.27312309
 20
-209.74108659
 30
0.0
  0
POINT
  5
10E
100
AcDbEntity
  8
0
  6
CONTINUOUS
 62
       7
100
AcDbPoint
 10
-166.22687691
 20
-209.74108659
 30
0.0
  0
POINT
  5
10F
100
AcDbEntity
  8
0
  6
CONTINUOUS
 62
       7
100
AcDbPoint
 10
-73.10187691
 20
-209.74108659
 30
0.0
  0
POINT
  5
110
100
AcDbEntity
  8
0
  6
CONTINUOUS
 62
       7
100
AcDbPoint
 10
55.39812309
 20
-209.74108659
 30
0.0
  0
POINT
  5
111
100
AcDbEntity
  8
0
  6
CONTINUOUS
 62
       7
100
AcDbPoint
 10
42.27312309
 20
-199.74108659
 30
0.0
  0
POINT
  5
112
100
AcDbEntity
  8
0
  6
CONTINUOUS
 62
       7
100
AcDbPoint
 10
-166.22687691
 20
-199.74108659
 30
0.0
  0
POINT
  5
113
100
AcDbEntity
  8
0
  6
CONTINUOUS
 62
       7
100
AcDbPoint
 10
-73.10187691
 20
-199.74108659
 30
0.0
  0
POINT
  5
114
100
AcDbEntity
  8
0
  6
CONTINUOUS
 62
       7
100
AcDbPoint
 10
55.39812309
 20
-199.74108659
 30
0.0
  0
POINT
  5
115
100
AcDbEntity
  8
0
  6
CONTINUOUS
 62
       7
100
AcDbPoint
 10
42.27312309
 20
-189.74108659
 30
0.0
  0
POINT
  5
116
100
AcDbEntity
  8
0
  6
CONTINUOUS
 62
       7
100
AcDbPoint
 10
-166.22687691
 20
-189.74108659
 30
0.0
  0
POINT
  5
117
100
AcDbEntity
  8
0
  6
CONTINUOUS
 62
       7
100
AcDbPoint
 10
-73.10187691
 20
-189.74108659
 30
0.0
  0
POINT
  5
118
100
AcDbEntity
  8
0
  6
CONTINUOUS
 62
       7
100
AcDbPoint
 10
55.39812309
 20
-189.74108659
 30
0.0
  0
POINT
  5
119
100
AcDbEntity
  8
0
  6
CONTINUOUS
 62
       7
100
AcDbPoint
 10
42.27312309
 20
-179.74108659
 30
0.0
  0
POINT
  5
11A
100
AcDbEntity
  8
0
  6
CONTINUOUS
 62
       7
100
AcDbPoint
 10
-166.22687691
 20
-179.74108659
 30
0.0
  0
POINT
  5
11B
100
AcDbEntity
  8
0
  6
CONTINUOUS
 62
       7
100
AcDbPoint
 10
-73.10187691
 20
-179.74108659
 30
0.0
  0
POINT
  5
11C
100
AcDbEntity
  8
0
  6
CONTINUOUS
 62
       7
100
AcDbPoint
 10
55.39812309
 20
-179.74108659
 30
0.0
  0
LINE
  5
11D
100
AcDbEntity
  8
0
  6
CONTINUOUS
 62
       7
100
AcDbLine
 10
-0.71838174
 20
148.90959623
 30
0.0
 11
-80.71838174
 21
148.90959623
 31
0.0
  0
LINE
  5
11E
100
AcDbEntity
  8
0
  6
CONTINUOUS
 62
       7
100
AcDbLine
 10
-113.25187691
 20
-277.11608659
 30
0.0
 11
-112.12687691
 21
-273.99108659
 31
0.0
  0
LINE
  5
11F
100
AcDbEntity
  8
0
  6
CONTINUOUS
 62
       7
100
AcDbLine
 10
-121.57687691
 20
-277.11608659
 30
0.0
 11
-119.82687691
 21
-272.36608659
 31
0.0
  0
LINE
  5
120
100
AcDbEntity
  8
0
  6
CONTINUOUS
 62
       7
100
AcDbLine
 10
-123.20187691
 20
-270.61608659
 30
0.0
 11
-123.82687691
 21
-272.36608659
 31
0.0
  0
LINE
  5
121
100
AcDbEntity
  8
0
  6
CONTINUOUS
 62
       7
100
AcDbLine
 10
-117.45187691
 20
-277.11608659
 30
0.0
 11
-115.57687691
 21
-271.61608659
 31
0.0
  0
LINE
  5
122
100
AcDbEntity
  8
0
  6
CONTINUOUS
 62
       7
100
AcDbLine
 10
-91.22687691
 20
-277.11608659
 30
0.0
 11
-93.35187691
 21
-273.61608659
 31
0.0
  0
LINE
  5
123
100
AcDbEntity
  8
0
  6
CONTINUOUS
 62
       7
100
AcDbLine
 10
-123.20187691
 20
-270.61608659
 30
0.0
 11
-120.82687691
 21
-270.61608659
 31
0.0
  0
LINE
  5
124
100
AcDbEntity
  8
0
  6
CONTINUOUS
 62
       7
100
AcDbLine
 10
-110.50187691
 20
-269.49108659
 30
0.0
 11
-106.37687691
 21
-269.49108659
 31
0.0
  0
LINE
  5
125
100
AcDbEntity
  8
0
  6
CONTINUOUS
 62
       7
100
AcDbLine
 10
-101.62687691
 20
-269.11608659
 30
0.0
 11
-100.37687691
 21
-269.11608659
 31
0.0
  0
LINE
  5
126
100
AcDbEntity
  8
0
  6
CONTINUOUS
 62
       7
100
AcDbLine
 10
-109.62687691
 20
-267.24108659
 30
0.0
 11
-110.50187691
 21
-269.49108659
 31
0.0
  0
LINE
  5
127
100
AcDbEntity
  8
0
  6
CONTINUOUS
 62
       7
100
AcDbLine
 10
-105.62687691
 20
-267.24108659
 30
0.0
 11
-106.37687691
 21
-269.49108659
 31
0.0
  0
LINE
  5
128
100
AcDbEntity
  8
0
  6
CONTINUOUS
 62
       7
100
AcDbLine
 10
-121.57687691
 20
-277.11608659
 30
0.0
 11
-117.45187691
 21
-277.11608659
 31
0.0
  0
LINE
  5
129
100
AcDbEntity
  8
0
  6
CONTINUOUS
 62
       7
100
AcDbLine
 10
-115.20187691
 20
-267.24108659
 30
0.0
 11
-110.57687691
 21
-267.24108659
 31
0.0
  0
LINE
  5
12A
100
AcDbEntity
  8
0
  6
CONTINUOUS
 62
       7
100
AcDbLine
 10
-94.81202562
 20
-269.49108659
 30
0.0
 11
-99.22687691
 21
-269.49108659
 31
0.0
  0
LINE
  5
12B
100
AcDbEntity
  8
0
  6
CONTINUOUS
 62
       7
100
AcDbLine
 10
-89.97687691
 20
-267.24108659
 30
0.0
 11
-98.47687691
 21
-267.24108659
 31
0.0
  0
LINE
  5
12C
100
AcDbEntity
  8
0
  6
CONTINUOUS
 62
       7
100
AcDbLine
 10
-123.82687691
 20
-272.36608659
 30
0.0
 11
-119.82687691
 21
-272.36608659
 31
0.0
  0
LINE
  5
12D
100
AcDbEntity
  8
0
  6
CONTINUOUS
 62
       7
100
AcDbLine
 10
-113.25187691
 20
-277.11608659
 30
0.0
 11
-106.62687691
 21
-277.11608659
 31
0.0
  0
LINE
  5
12E
100
AcDbEntity
  8
0
  6
CONTINUOUS
 62
       7
100
AcDbLine
 10
-112.12687691
 20
-273.99108659
 30
0.0
 11
-106.12687691
 21
-273.99108659
 31
0.0
  0
LINE
  5
12F
100
AcDbEntity
  8
0
  6
CONTINUOUS
 62
       7
100
AcDbLine
 10
-91.22687691
 20
-277.11608659
 30
0.0
 11
-94.35187691
 21
-277.11608659
 31
0.0
  0
LINE
  5
130
100
AcDbEntity
  8
0
  6
CONTINUOUS
 62
       7
100
AcDbLine
 10
-99.22687691
 20
-269.49108659
 30
0.0
 11
-98.47687691
 21
-267.24108659
 31
0.0
  0
LINE
  5
131
100
AcDbEntity
  8
0
  6
CONTINUOUS
 62
       7
100
AcDbLine
 10
-142.70187691
 20
-267.24108659
 30
0.0
 11
-144.82687691
 21
-273.24108659
 31
0.0
  0
LINE
  5
132
100
AcDbEntity
  8
0
  6
CONTINUOUS
 62
       7
100
AcDbLine
 10
-144.82687691
 20
-273.24108659
 30
0.0
 11
-141.95187691
 21
-273.24108659
 31
0.0
  0
LINE
  5
133
100
AcDbEntity
  8
0
  6
CONTINUOUS
 62
       7
100
AcDbLine
 10
-141.95187691
 20
-273.24108659
 30
0.0
 11
-139.70187691
 21
-267.24108659
 31
0.0
  0
LINE
  5
134
100
AcDbEntity
  8
0
  6
CONTINUOUS
 62
       7
100
AcDbLine
 10
-139.70187691
 20
-267.24108659
 30
0.0
 11
-142.70187691
 21
-267.24108659
 31
0.0
  0
LINE
  5
135
100
AcDbEntity
  8
0
  6
CONTINUOUS
 62
       7
100
AcDbLine
 10
-104.62687691
 20
-273.24108659
 30
0.0
 11
-103.25187691
 21
-272.11608659
 31
0.0
  0
LINE
  5
136
100
AcDbEntity
  8
0
  6
CONTINUOUS
 62
       7
100
AcDbLine
 10
-103.25187691
 20
-272.11608659
 30
0.0
 11
-102.25187691
 21
-270.74108659
 31
0.0
  0
LINE
  5
137
100
AcDbEntity
  8
0
  6
CONTINUOUS
 62
       7
100
AcDbLine
 10
-102.25187691
 20
-270.74108659
 30
0.0
 11
-101.62687691
 21
-269.11608659
 31
0.0
  0
LINE
  5
138
100
AcDbEntity
  8
0
  6
CONTINUOUS
 62
       7
100
AcDbLine
 10
-132.42687691
 20
-267.24108659
 30
0.0
 11
-123.30187691
 21
-267.24108659
 31
0.0
  0
LINE
  5
139
100
AcDbEntity
  8
0
  6
CONTINUOUS
 62
       7
100
AcDbLine
 10
-123.30187691
 20
-267.24108659
 30
0.0
 11
-124.05187691
 21
-269.49108659
 31
0.0
  0
LINE
  5
13A
100
AcDbEntity
  8
0
  6
CONTINUOUS
 62
       7
100
AcDbLine
 10
-123.30187691
 20
-267.24108659
 30
0.0
 11
-124.05187691
 21
-269.49108659
 31
0.0
  0
LINE
  5
13B
100
AcDbEntity
  8
0
  6
CONTINUOUS
 62
       7
100
AcDbLine
 10
-124.05187691
 20
-269.49108659
 30
0.0
 11
-133.17687691
 21
-269.49108659
 31
0.0
  0
LINE
  5
13C
100
AcDbEntity
  8
0
  6
CONTINUOUS
 62
       7
100
AcDbLine
 10
-133.17687691
 20
-269.49108659
 30
0.0
 11
-132.42687691
 21
-267.24108659
 31
0.0
  0
LINE
  5
13D
100
AcDbEntity
  8
0
  6
CONTINUOUS
 62
       7
100
AcDbLine
 10
-133.17687691
 20
-269.49108659
 30
0.0
 11
-132.42687691
 21
-267.24108659
 31
0.0
  0
LINE
  5
13E
100
AcDbEntity
  8
0
  6
CONTINUOUS
 62
       7
100
AcDbLine
 10
-123.30187691
 20
-267.24108659
 30
0.0
 11
-132.42687691
 21
-267.24108659
 31
0.0
  0
LINE
  5
13F
100
AcDbEntity
  8
0
  6
CONTINUOUS
 62
       7
100
AcDbLine
 10
-132.42687691
 20
-267.24108659
 30
0.0
 11
-133.17687691
 21
-269.49108659
 31
0.0
  0
LINE
  5
140
100
AcDbEntity
  8
0
  6
CONTINUOUS
 62
       7
100
AcDbLine
 10
-133.17687691
 20
-269.49108659
 30
0.0
 11
-124.05187691
 21
-269.49108659
 31
0.0
  0
LINE
  5
141
100
AcDbEntity
  8
0
  6
CONTINUOUS
 62
       7
100
AcDbLine
 10
-128.55187691
 20
-276.86608659
 30
0.0
 11
-127.55187691
 21
-276.36608659
 31
0.0
  0
LINE
  5
142
100
AcDbEntity
  8
0
  6
CONTINUOUS
 62
       7
100
AcDbLine
 10
-127.55187691
 20
-276.36608659
 30
0.0
 11
-126.80187691
 21
-275.61608659
 31
0.0
  0
LINE
  5
143
100
AcDbEntity
  8
0
  6
CONTINUOUS
 62
       7
100
AcDbLine
 10
-126.80187691
 20
-275.61608659
 30
0.0
 11
-125.92687691
 21
-274.74108659
 31
0.0
  0
LINE
  5
144
100
AcDbEntity
  8
0
  6
CONTINUOUS
 62
       7
100
AcDbLine
 10
-125.92687691
 20
-274.74108659
 30
0.0
 11
-124.42687691
 21
-270.61608659
 31
0.0
  0
LINE
  5
145
100
AcDbEntity
  8
0
  6
CONTINUOUS
 62
       7
100
AcDbLine
 10
-124.42687691
 20
-270.61608659
 30
0.0
 11
-133.42687691
 21
-270.61608659
 31
0.0
  0
LINE
  5
146
100
AcDbEntity
  8
0
  6
CONTINUOUS
 62
       7
100
AcDbLine
 10
-133.42687691
 20
-270.61608659
 30
0.0
 11
-133.92687691
 21
-272.36608659
 31
0.0
  0
LINE
  5
147
100
AcDbEntity
  8
0
  6
CONTINUOUS
 62
       7
100
AcDbLine
 10
-133.92687691
 20
-272.36608659
 30
0.0
 11
-128.67687691
 21
-272.36608659
 31
0.0
  0
LINE
  5
148
100
AcDbEntity
  8
0
  6
CONTINUOUS
 62
       7
100
AcDbLine
 10
-128.67687691
 20
-272.36608659
 30
0.0
 11
-128.92687691
 21
-273.24108659
 31
0.0
  0
LINE
  5
149
100
AcDbEntity
  8
0
  6
CONTINUOUS
 62
       7
100
AcDbLine
 10
-128.92687691
 20
-273.24108659
 30
0.0
 11
-129.55187691
 21
-273.99108659
 31
0.0
  0
LINE
  5
14A
100
AcDbEntity
  8
0
  6
CONTINUOUS
 62
       7
100
AcDbLine
 10
-129.55187691
 20
-273.99108659
 30
0.0
 11
-130.17687691
 21
-274.61608659
 31
0.0
  0
LINE
  5
14B
100
AcDbEntity
  8
0
  6
CONTINUOUS
 62
       7
100
AcDbLine
 10
-130.17687691
 20
-274.61608659
 30
0.0
 11
-131.05187691
 21
-275.24108659
 31
0.0
  0
LINE
  5
14C
100
AcDbEntity
  8
0
  6
CONTINUOUS
 62
       7
100
AcDbLine
 10
-131.05187691
 20
-275.24108659
 30
0.0
 11
-135.17687691
 21
-275.24108659
 31
0.0
  0
LINE
  5
14D
100
AcDbEntity
  8
0
  6
CONTINUOUS
 62
       7
100
AcDbLine
 10
-135.17687691
 20
-275.24108659
 30
0.0
 11
-135.92687691
 21
-277.11608659
 31
0.0
  0
LINE
  5
14E
100
AcDbEntity
  8
0
  6
CONTINUOUS
 62
       7
100
AcDbLine
 10
-143.95187691
 20
-277.11608659
 30
0.0
 11
-143.32687691
 21
-275.24108659
 31
0.0
  0
LINE
  5
14F
100
AcDbEntity
  8
0
  6
CONTINUOUS
 62
       7
100
AcDbLine
 10
-143.32687691
 20
-275.24108659
 30
0.0
 11
-142.20187691
 21
-275.24108659
 31
0.0
  0
LINE
  5
150
100
AcDbEntity
  8
0
  6
CONTINUOUS
 62
       7
100
AcDbLine
 10
-142.20187691
 20
-275.24108659
 30
0.0
 11
-141.20187691
 21
-275.11608659
 31
0.0
  0
LINE
  5
151
100
AcDbEntity
  8
0
  6
CONTINUOUS
 62
       7
100
AcDbLine
 10
-141.20187691
 20
-275.11608659
 30
0.0
 11
-140.20187691
 21
-274.61608659
 31
0.0
  0
LINE
  5
152
100
AcDbEntity
  8
0
  6
CONTINUOUS
 62
       7
100
AcDbLine
 10
-140.20187691
 20
-274.61608659
 30
0.0
 11
-139.57687691
 21
-273.61608659
 31
0.0
  0
LINE
  5
153
100
AcDbEntity
  8
0
  6
CONTINUOUS
 62
       7
100
AcDbLine
 10
-139.57687691
 20
-273.61608659
 30
0.0
 11
-137.20187691
 21
-267.24108659
 31
0.0
  0
LINE
  5
154
100
AcDbEntity
  8
0
  6
CONTINUOUS
 62
       7
100
AcDbLine
 10
-137.20187691
 20
-267.24108659
 30
0.0
 11
-133.82687691
 21
-267.24108659
 31
0.0
  0
LINE
  5
155
100
AcDbEntity
  8
0
  6
CONTINUOUS
 62
       7
100
AcDbLine
 10
-133.82687691
 20
-267.24108659
 30
0.0
 11
-136.32687691
 21
-274.61608659
 31
0.0
  0
LINE
  5
156
100
AcDbEntity
  8
0
  6
CONTINUOUS
 62
       7
100
AcDbLine
 10
-136.32687691
 20
-274.61608659
 30
0.0
 11
-137.32687691
 21
-275.61608659
 31
0.0
  0
LINE
  5
157
100
AcDbEntity
  8
0
  6
CONTINUOUS
 62
       7
100
AcDbLine
 10
-137.32687691
 20
-275.61608659
 30
0.0
 11
-138.32687691
 21
-276.49108659
 31
0.0
  0
LINE
  5
158
100
AcDbEntity
  8
0
  6
CONTINUOUS
 62
       7
100
AcDbLine
 10
-138.32687691
 20
-276.49108659
 30
0.0
 11
-139.57687691
 21
-276.99108659
 31
0.0
  0
LINE
  5
159
100
AcDbEntity
  8
0
  6
CONTINUOUS
 62
       7
100
AcDbLine
 10
-110.57687691
 20
-267.24108659
 30
0.0
 11
-111.32687691
 21
-268.86608659
 31
0.0
  0
LINE
  5
15A
100
AcDbEntity
  8
0
  6
CONTINUOUS
 62
       7
100
AcDbLine
 10
-111.32687691
 20
-268.86608659
 30
0.0
 11
-112.57687691
 21
-270.11608659
 31
0.0
  0
LINE
  5
15B
100
AcDbEntity
  8
0
  6
CONTINUOUS
 62
       7
100
AcDbLine
 10
-111.32687691
 20
-268.86608659
 30
0.0
 11
-112.57687691
 21
-270.11608659
 31
0.0
  0
LINE
  5
15C
100
AcDbEntity
  8
0
  6
CONTINUOUS
 62
       7
100
AcDbLine
 10
-112.57687691
 20
-270.11608659
 30
0.0
 11
-113.95187691
 21
-271.11608659
 31
0.0
  0
LINE
  5
15D
100
AcDbEntity
  8
0
  6
CONTINUOUS
 62
       7
100
AcDbLine
 10
-113.95187691
 20
-271.11608659
 30
0.0
 11
-115.57687691
 21
-271.61608659
 31
0.0
  0
LINE
  5
15E
100
AcDbEntity
  8
0
  6
CONTINUOUS
 62
       7
100
AcDbLine
 10
-113.95187691
 20
-271.11608659
 30
0.0
 11
-115.57687691
 21
-271.61608659
 31
0.0
  0
LINE
  5
15F
100
AcDbEntity
  8
0
  6
CONTINUOUS
 62
       7
100
AcDbLine
 10
-115.57687691
 20
-271.61608659
 30
0.0
 11
-117.45187691
 21
-277.11608659
 31
0.0
  0
LINE
  5
160
100
AcDbEntity
  8
0
  6
CONTINUOUS
 62
       7
100
AcDbLine
 10
-117.45187691
 20
-277.11608659
 30
0.0
 11
-121.57687691
 21
-277.11608659
 31
0.0
  0
LINE
  5
161
100
AcDbEntity
  8
0
  6
CONTINUOUS
 62
       7
100
AcDbLine
 10
-117.45187691
 20
-277.11608659
 30
0.0
 11
-121.57687691
 21
-277.11608659
 31
0.0
  0
LINE
  5
162
100
AcDbEntity
  8
0
  6
CONTINUOUS
 62
       7
100
AcDbLine
 10
-120.02687691
 20
-272.36608659
 30
0.0
 11
-123.82687691
 21
-272.36608659
 31
0.0
  0
LINE
  5
163
100
AcDbEntity
  8
0
  6
CONTINUOUS
 62
       7
100
AcDbLine
 10
-123.82687691
 20
-272.36608659
 30
0.0
 11
-123.20187691
 21
-270.61608659
 31
0.0
  0
LINE
  5
164
100
AcDbEntity
  8
0
  6
CONTINUOUS
 62
       7
100
AcDbLine
 10
-121.57687691
 20
-277.11608659
 30
0.0
 11
-119.82687691
 21
-272.36608659
 31
0.0
  0
LINE
  5
165
100
AcDbEntity
  8
0
  6
CONTINUOUS
 62
       7
100
AcDbLine
 10
-121.57687691
 20
-277.11608659
 30
0.0
 11
-119.82687691
 21
-272.36608659
 31
0.0
  0
LINE
  5
166
100
AcDbEntity
  8
0
  6
CONTINUOUS
 62
       7
100
AcDbLine
 10
-123.20187691
 20
-270.61608659
 30
0.0
 11
-120.82687691
 21
-270.61608659
 31
0.0
  0
LINE
  5
167
100
AcDbEntity
  8
0
  6
CONTINUOUS
 62
       7
100
AcDbLine
 10
-123.20187691
 20
-270.61608659
 30
0.0
 11
-120.82687691
 21
-270.61608659
 31
0.0
  0
LINE
  5
168
100
AcDbEntity
  8
0
  6
CONTINUOUS
 62
       7
100
AcDbLine
 10
-120.82687691
 20
-270.61608659
 30
0.0
 11
-119.20187691
 21
-270.49108659
 31
0.0
  0
LINE
  5
169
100
AcDbEntity
  8
0
  6
CONTINUOUS
 62
       7
100
AcDbLine
 10
-120.82687691
 20
-270.61608659
 30
0.0
 11
-119.20187691
 21
-270.49108659
 31
0.0
  0
LINE
  5
16A
100
AcDbEntity
  8
0
  6
CONTINUOUS
 62
       7
100
AcDbLine
 10
-119.20187691
 20
-270.49108659
 30
0.0
 11
-117.45187691
 21
-269.74108659
 31
0.0
  0
LINE
  5
16B
100
AcDbEntity
  8
0
  6
CONTINUOUS
 62
       7
100
AcDbLine
 10
-119.20187691
 20
-270.49108659
 30
0.0
 11
-117.45187691
 21
-269.74108659
 31
0.0
  0
LINE
  5
16C
100
AcDbEntity
  8
0
  6
CONTINUOUS
 62
       7
100
AcDbLine
 10
-117.45187691
 20
-269.74108659
 30
0.0
 11
-116.20187691
 21
-268.61608659
 31
0.0
  0
LINE
  5
16D
100
AcDbEntity
  8
0
  6
CONTINUOUS
 62
       7
100
AcDbLine
 10
-117.45187691
 20
-269.74108659
 30
0.0
 11
-116.20187691
 21
-268.61608659
 31
0.0
  0
LINE
  5
16E
100
AcDbEntity
  8
0
  6
CONTINUOUS
 62
       7
100
AcDbLine
 10
-139.70187691
 20
-267.24108659
 30
0.0
 11
-141.95187691
 21
-273.24108659
 31
0.0
  0
LINE
  5
16F
100
AcDbEntity
  8
0
  6
CONTINUOUS
 62
       7
100
AcDbLine
 10
-141.95187691
 20
-273.24108659
 30
0.0
 11
-144.82687691
 21
-273.24108659
 31
0.0
  0
LINE
  5
170
100
AcDbEntity
  8
0
  6
CONTINUOUS
 62
       7
100
AcDbLine
 10
-141.95187691
 20
-273.24108659
 30
0.0
 11
-144.82687691
 21
-273.24108659
 31
0.0
  0
LINE
  5
171
100
AcDbEntity
  8
0
  6
CONTINUOUS
 62
       7
100
AcDbLine
 10
-144.82687691
 20
-273.24108659
 30
0.0
 11
-142.70187691
 21
-267.24108659
 31
0.0
  0
LINE
  5
172
100
AcDbEntity
  8
0
  6
CONTINUOUS
 62
       7
100
AcDbLine
 10
-142.70187691
 20
-267.24108659
 30
0.0
 11
-139.70187691
 21
-267.24108659
 31
0.0
  0
LINE
  5
173
100
AcDbEntity
  8
0
  6
CONTINUOUS
 62
       7
100
AcDbLine
 10
-142.70187691
 20
-267.24108659
 30
0.0
 11
-139.70187691
 21
-267.24108659
 31
0.0
  0
LINE
  5
174
100
AcDbEntity
  8
0
  6
CONTINUOUS
 62
       7
100
AcDbLine
 10
-98.47687691
 20
-267.24108659
 30
0.0
 11
-99.22687691
 21
-269.49108659
 31
0.0
  0
LINE
  5
175
100
AcDbEntity
  8
0
  6
CONTINUOUS
 62
       7
100
AcDbLine
 10
-99.22687691
 20
-269.49108659
 30
0.0
 11
-95.22687691
 21
-269.49108659
 31
0.0
  0
LINE
  5
176
100
AcDbEntity
  8
0
  6
CONTINUOUS
 62
       7
100
AcDbLine
 10
-99.22687691
 20
-269.49108659
 30
0.0
 11
-95.22687691
 21
-269.49108659
 31
0.0
  0
LINE
  5
177
100
AcDbEntity
  8
0
  6
CONTINUOUS
 62
       7
100
AcDbLine
 10
-101.97687691
 20
-275.11608659
 30
0.0
 11
-102.72687691
 21
-277.24108659
 31
0.0
  0
LINE
  5
178
100
AcDbEntity
  8
0
  6
CONTINUOUS
 62
       7
100
AcDbLine
 10
-101.97687691
 20
-275.11608659
 30
0.0
 11
-102.72687691
 21
-277.24108659
 31
0.0
  0
LINE
  5
179
100
AcDbEntity
  8
0
  6
CONTINUOUS
 62
       7
100
AcDbLine
 10
-102.72687691
 20
-277.24108659
 30
0.0
 11
-98.97687691
 21
-276.61608659
 31
0.0
  0
LINE
  5
17A
100
AcDbEntity
  8
0
  6
CONTINUOUS
 62
       7
100
AcDbLine
 10
-98.97687691
 20
-276.61608659
 30
0.0
 11
-97.22687691
 21
-276.11608659
 31
0.0
  0
LINE
  5
17B
100
AcDbEntity
  8
0
  6
CONTINUOUS
 62
       7
100
AcDbLine
 10
-98.97687691
 20
-276.61608659
 30
0.0
 11
-97.22687691
 21
-276.11608659
 31
0.0
  0
LINE
  5
17C
100
AcDbEntity
  8
0
  6
CONTINUOUS
 62
       7
100
AcDbLine
 10
-95.35187691
 20
-275.49108659
 30
0.0
 11
-94.35187691
 21
-277.11608659
 31
0.0
  0
LINE
  5
17D
100
AcDbEntity
  8
0
  6
CONTINUOUS
 62
       7
100
AcDbLine
 10
-94.35187691
 20
-277.11608659
 30
0.0
 11
-91.22687691
 21
-277.11608659
 31
0.0
  0
LINE
  5
17E
100
AcDbEntity
  8
0
  6
CONTINUOUS
 62
       7
100
AcDbLine
 10
-94.35187691
 20
-277.11608659
 30
0.0
 11
-91.22687691
 21
-277.11608659
 31
0.0
  0
LINE
  5
17F
100
AcDbEntity
  8
0
  6
CONTINUOUS
 62
       7
100
AcDbLine
 10
-93.35187691
 20
-273.61608659
 30
0.0
 11
-92.22687691
 21
-272.11608659
 31
0.0
  0
LINE
  5
180
100
AcDbEntity
  8
0
  6
CONTINUOUS
 62
       7
100
AcDbLine
 10
-92.22687691
 20
-272.11608659
 30
0.0
 11
-91.22687691
 21
-270.61608659
 31
0.0
  0
LINE
  5
181
100
AcDbEntity
  8
0
  6
CONTINUOUS
 62
       7
100
AcDbLine
 10
-91.22687691
 20
-270.61608659
 30
0.0
 11
-90.47687691
 21
-268.99108659
 31
0.0
  0
LINE
  5
182
100
AcDbEntity
  8
0
  6
CONTINUOUS
 62
       7
100
AcDbLine
 10
-90.47687691
 20
-268.99108659
 30
0.0
 11
-89.97687691
 21
-267.24108659
 31
0.0
  0
LINE
  5
183
100
AcDbEntity
  8
0
  6
CONTINUOUS
 62
       7
100
AcDbLine
 10
-90.47687691
 20
-268.99108659
 30
0.0
 11
-89.97687691
 21
-267.24108659
 31
0.0
  0
LINE
  5
184
100
AcDbEntity
  8
0
  6
CONTINUOUS
 62
       7
100
AcDbLine
 10
-89.97687691
 20
-267.24108659
 30
0.0
 11
-98.47687691
 21
-267.24108659
 31
0.0
  0
LINE
  5
185
100
AcDbEntity
  8
0
  6
CONTINUOUS
 62
       7
100
AcDbLine
 10
-97.60187691
 20
-273.49108659
 30
0.0
 11
-99.60187691
 21
-274.61608659
 31
0.0
  0
LINE
  5
186
100
AcDbEntity
  8
0
  6
CONTINUOUS
 62
       7
100
AcDbLine
 10
-97.22687691
 20
-276.11608659
 30
0.0
 11
-95.35187691
 21
-275.49108659
 31
0.0
  0
LINE
  5
187
100
AcDbEntity
  8
0
  6
CONTINUOUS
 62
       7
100
AcDbLine
 10
-97.22687691
 20
-276.11608659
 30
0.0
 11
-95.35187691
 21
-275.49108659
 31
0.0
  0
LINE
  5
188
100
AcDbEntity
  8
0
  6
CONTINUOUS
 62
       7
100
AcDbLine
 10
-91.22687691
 20
-277.11608659
 30
0.0
 11
-93.35187691
 21
-273.61608659
 31
0.0
  0
LINE
  5
189
100
AcDbEntity
  8
0
  6
CONTINUOUS
 62
       7
100
AcDbLine
 10
-91.22687691
 20
-277.11608659
 30
0.0
 11
-93.35187691
 21
-273.61608659
 31
0.0
  0
LINE
  5
18A
100
AcDbEntity
  8
0
  6
CONTINUOUS
 62
       7
100
AcDbLine
 10
-95.97687691
 20
-271.61608659
 30
0.0
 11
-97.60187691
 21
-273.49108659
 31
0.0
  0
LINE
  5
18B
100
AcDbEntity
  8
0
  6
CONTINUOUS
 62
       7
100
AcDbLine
 10
-95.97687691
 20
-271.61608659
 30
0.0
 11
-97.60187691
 21
-273.49108659
 31
0.0
  0
LINE
  5
18C
100
AcDbEntity
  8
0
  6
CONTINUOUS
 62
       7
100
AcDbLine
 10
-120.82687691
 20
-270.61608659
 30
0.0
 11
-119.20187691
 21
-270.49108659
 31
0.0
  0
LINE
  5
18D
100
AcDbEntity
  8
0
  6
CONTINUOUS
 62
       7
100
AcDbLine
 10
-119.20187691
 20
-270.49108659
 30
0.0
 11
-117.45187691
 21
-269.74108659
 31
0.0
  0
LINE
  5
18E
100
AcDbEntity
  8
0
  6
CONTINUOUS
 62
       7
100
AcDbLine
 10
-117.45187691
 20
-269.74108659
 30
0.0
 11
-116.20187691
 21
-268.61608659
 31
0.0
  0
LINE
  5
18F
100
AcDbEntity
  8
0
  6
CONTINUOUS
 62
       7
100
AcDbLine
 10
-116.20187691
 20
-268.61608659
 30
0.0
 11
-115.20187691
 21
-267.24108659
 31
0.0
  0
LINE
  5
190
100
AcDbEntity
  8
0
  6
CONTINUOUS
 62
       7
100
AcDbLine
 10
-106.62687691
 20
-277.11608659
 30
0.0
 11
-104.37687691
 21
-276.11608659
 31
0.0
  0
LINE
  5
191
100
AcDbEntity
  8
0
  6
CONTINUOUS
 62
       7
100
AcDbLine
 10
-104.37687691
 20
-276.11608659
 30
0.0
 11
-102.37687691
 21
-274.24108659
 31
0.0
  0
LINE
  5
192
100
AcDbEntity
  8
0
  6
CONTINUOUS
 62
       7
100
AcDbLine
 10
-102.37687691
 20
-274.24108659
 30
0.0
 11
-100.87687691
 21
-271.74108659
 31
0.0
  0
LINE
  5
193
100
AcDbEntity
  8
0
  6
CONTINUOUS
 62
       7
100
AcDbLine
 10
-100.87687691
 20
-271.74108659
 30
0.0
 11
-100.37687691
 21
-269.11608659
 31
0.0
  0
LINE
  5
194
100
AcDbEntity
  8
0
  6
CONTINUOUS
 62
       7
100
AcDbLine
 10
-101.97687691
 20
-275.11608659
 30
0.0
 11
-99.60187691
 21
-274.61608659
 31
0.0
  0
LINE
  5
195
100
AcDbEntity
  8
0
  6
CONTINUOUS
 62
       7
100
AcDbLine
 10
-99.60187691
 20
-274.61608659
 30
0.0
 11
-97.60187691
 21
-273.49108659
 31
0.0
  0
LINE
  5
196
100
AcDbEntity
  8
0
  6
CONTINUOUS
 62
       7
100
AcDbLine
 10
-97.60187691
 20
-273.49108659
 30
0.0
 11
-95.97687691
 21
-271.61608659
 31
0.0
  0
LINE
  5
197
100
AcDbEntity
  8
0
  6
CONTINUOUS
 62
       7
100
AcDbLine
 10
-115.57687691
 20
-271.61608659
 30
0.0
 11
-113.95187691
 21
-271.11608659
 31
0.0
  0
LINE
  5
198
100
AcDbEntity
  8
0
  6
CONTINUOUS
 62
       7
100
AcDbLine
 10
-113.95187691
 20
-271.11608659
 30
0.0
 11
-112.57687691
 21
-270.11608659
 31
0.0
  0
LINE
  5
199
100
AcDbEntity
  8
0
  6
CONTINUOUS
 62
       7
100
AcDbLine
 10
-112.57687691
 20
-270.11608659
 30
0.0
 11
-111.32687691
 21
-268.86608659
 31
0.0
  0
LINE
  5
19A
100
AcDbEntity
  8
0
  6
CONTINUOUS
 62
       7
100
AcDbLine
 10
-111.32687691
 20
-268.86608659
 30
0.0
 11
-110.57687691
 21
-267.24108659
 31
0.0
  0
LINE
  5
19B
100
AcDbEntity
  8
0
  6
CONTINUOUS
 62
       7
100
AcDbLine
 10
-93.35187691
 20
-273.61608659
 30
0.0
 11
-92.22687691
 21
-272.11608659
 31
0.0
  0
LINE
  5
19C
100
AcDbEntity
  8
0
  6
CONTINUOUS
 62
       7
100
AcDbLine
 10
-92.22687691
 20
-272.11608659
 30
0.0
 11
-91.22687691
 21
-270.61608659
 31
0.0
  0
LINE
  5
19D
100
AcDbEntity
  8
0
  6
CONTINUOUS
 62
       7
100
AcDbLine
 10
-91.22687691
 20
-270.61608659
 30
0.0
 11
-90.47687691
 21
-268.99108659
 31
0.0
  0
LINE
  5
19E
100
AcDbEntity
  8
0
  6
CONTINUOUS
 62
       7
100
AcDbLine
 10
-90.47687691
 20
-268.99108659
 30
0.0
 11
-89.97687691
 21
-267.24108659
 31
0.0
  0
LINE
  5
19F
100
AcDbEntity
  8
0
  6
CONTINUOUS
 62
       7
100
AcDbLine
 10
-98.97687691
 20
-276.61608659
 30
0.0
 11
-97.22687691
 21
-276.11608659
 31
0.0
  0
LINE
  5
1A0
100
AcDbEntity
  8
0
  6
CONTINUOUS
 62
       7
100
AcDbLine
 10
-97.22687691
 20
-276.11608659
 30
0.0
 11
-95.35187691
 21
-275.49108659
 31
0.0
  0
LINE
  5
1A1
100
AcDbEntity
  8
0
  6
CONTINUOUS
 62
       7
100
AcDbLine
 10
-102.25187691
 20
-270.74108659
 30
0.0
 11
-101.62687691
 21
-269.11608659
 31
0.0
  0
LINE
  5
1A2
100
AcDbEntity
  8
0
  6
CONTINUOUS
 62
       7
100
AcDbLine
 10
-101.62687691
 20
-269.11608659
 30
0.0
 11
-100.37687691
 21
-269.11608659
 31
0.0
  0
LINE
  5
1A3
100
AcDbEntity
  8
0
  6
CONTINUOUS
 62
       7
100
AcDbLine
 10
-101.62687691
 20
-269.11608659
 30
0.0
 11
-100.37687691
 21
-269.11608659
 31
0.0
  0
LINE
  5
1A4
100
AcDbEntity
  8
0
  6
CONTINUOUS
 62
       7
100
AcDbLine
 10
-100.37687691
 20
-269.11608659
 30
0.0
 11
-100.87687691
 21
-271.74108659
 31
0.0
  0
LINE
  5
1A5
100
AcDbEntity
  8
0
  6
CONTINUOUS
 62
       7
100
AcDbLine
 10
-100.87687691
 20
-271.74108659
 30
0.0
 11
-102.37687691
 21
-274.24108659
 31
0.0
  0
LINE
  5
1A6
100
AcDbEntity
  8
0
  6
CONTINUOUS
 62
       7
100
AcDbLine
 10
-100.87687691
 20
-271.74108659
 30
0.0
 11
-102.37687691
 21
-274.24108659
 31
0.0
  0
LINE
  5
1A7
100
AcDbEntity
  8
0
  6
CONTINUOUS
 62
       7
100
AcDbLine
 10
-102.37687691
 20
-274.24108659
 30
0.0
 11
-104.37687691
 21
-276.11608659
 31
0.0
  0
LINE
  5
1A8
100
AcDbEntity
  8
0
  6
CONTINUOUS
 62
       7
100
AcDbLine
 10
-106.87687691
 20
-277.11608659
 30
0.0
 11
-113.25187691
 21
-277.11608659
 31
0.0
  0
LINE
  5
1A9
100
AcDbEntity
  8
0
  6
CONTINUOUS
 62
       7
100
AcDbLine
 10
-113.25187691
 20
-277.11608659
 30
0.0
 11
-112.12687691
 21
-273.99108659
 31
0.0
  0
LINE
  5
1AA
100
AcDbEntity
  8
0
  6
CONTINUOUS
 62
       7
100
AcDbLine
 10
-113.25187691
 20
-277.11608659
 30
0.0
 11
-112.12687691
 21
-273.99108659
 31
0.0
  0
LINE
  5
1AB
100
AcDbEntity
  8
0
  6
CONTINUOUS
 62
       7
100
AcDbLine
 10
-103.25187691
 20
-272.11608659
 30
0.0
 11
-102.25187691
 21
-270.74108659
 31
0.0
  0
LINE
  5
1AC
100
AcDbEntity
  8
0
  6
CONTINUOUS
 62
       7
100
AcDbLine
 10
-112.12687691
 20
-273.99108659
 30
0.0
 11
-106.12687691
 21
-273.99108659
 31
0.0
  0
LINE
  5
1AD
100
AcDbEntity
  8
0
  6
CONTINUOUS
 62
       7
100
AcDbLine
 10
-112.12687691
 20
-273.99108659
 30
0.0
 11
-106.12687691
 21
-273.99108659
 31
0.0
  0
LINE
  5
1AE
100
AcDbEntity
  8
0
  6
CONTINUOUS
 62
       7
100
AcDbLine
 10
-106.12687691
 20
-273.99108659
 30
0.0
 11
-104.62687691
 21
-273.24108659
 31
0.0
  0
LINE
  5
1AF
100
AcDbEntity
  8
0
  6
CONTINUOUS
 62
       7
100
AcDbLine
 10
-106.12687691
 20
-273.99108659
 30
0.0
 11
-104.62687691
 21
-273.24108659
 31
0.0
  0
LINE
  5
1B0
100
AcDbEntity
  8
0
  6
CONTINUOUS
 62
       7
100
AcDbLine
 10
-104.62687691
 20
-273.24108659
 30
0.0
 11
-103.25187691
 21
-272.11608659
 31
0.0
  0
LINE
  5
1B1
100
AcDbEntity
  8
0
  6
CONTINUOUS
 62
       7
100
AcDbLine
 10
-124.42687691
 20
-270.61608659
 30
0.0
 11
-125.92687691
 21
-274.74108659
 31
0.0
  0
LINE
  5
1B2
100
AcDbEntity
  8
0
  6
CONTINUOUS
 62
       7
100
AcDbLine
 10
-125.92687691
 20
-274.74108659
 30
0.0
 11
-126.80187691
 21
-275.61608659
 31
0.0
  0
LINE
  5
1B3
100
AcDbEntity
  8
0
  6
CONTINUOUS
 62
       7
100
AcDbLine
 10
-125.92687691
 20
-274.74108659
 30
0.0
 11
-126.80187691
 21
-275.61608659
 31
0.0
  0
LINE
  5
1B4
100
AcDbEntity
  8
0
  6
CONTINUOUS
 62
       7
100
AcDbLine
 10
-126.80187691
 20
-275.61608659
 30
0.0
 11
-127.55187691
 21
-276.36608659
 31
0.0
  0
LINE
  5
1B5
100
AcDbEntity
  8
0
  6
CONTINUOUS
 62
       7
100
AcDbLine
 10
-127.55187691
 20
-276.36608659
 30
0.0
 11
-128.55187691
 21
-276.86608659
 31
0.0
  0
LINE
  5
1B6
100
AcDbEntity
  8
0
  6
CONTINUOUS
 62
       7
100
AcDbLine
 10
-127.55187691
 20
-276.36608659
 30
0.0
 11
-128.55187691
 21
-276.86608659
 31
0.0
  0
LINE
  5
1B7
100
AcDbEntity
  8
0
  6
CONTINUOUS
 62
       7
100
AcDbLine
 10
-128.55187691
 20
-276.86608659
 30
0.0
 11
-129.55187691
 21
-277.11608659
 31
0.0
  0
LINE
  5
1B8
100
AcDbEntity
  8
0
  6
CONTINUOUS
 62
       7
100
AcDbLine
 10
-129.55187691
 20
-277.11608659
 30
0.0
 11
-135.92687691
 21
-277.11608659
 31
0.0
  0
LINE
  5
1B9
100
AcDbEntity
  8
0
  6
CONTINUOUS
 62
       7
100
AcDbLine
 10
-129.55187691
 20
-277.11608659
 30
0.0
 11
-135.92687691
 21
-277.11608659
 31
0.0
  0
LINE
  5
1BA
100
AcDbEntity
  8
0
  6
CONTINUOUS
 62
       7
100
AcDbLine
 10
-135.92687691
 20
-277.11608659
 30
0.0
 11
-135.17687691
 21
-275.24108659
 31
0.0
  0
LINE
  5
1BB
100
AcDbEntity
  8
0
  6
CONTINUOUS
 62
       7
100
AcDbLine
 10
-135.17687691
 20
-275.24108659
 30
0.0
 11
-131.05187691
 21
-275.24108659
 31
0.0
  0
LINE
  5
1BC
100
AcDbEntity
  8
0
  6
CONTINUOUS
 62
       7
100
AcDbLine
 10
-135.17687691
 20
-275.24108659
 30
0.0
 11
-131.05187691
 21
-275.24108659
 31
0.0
  0
LINE
  5
1BD
100
AcDbEntity
  8
0
  6
CONTINUOUS
 62
       7
100
AcDbLine
 10
-128.67687691
 20
-272.36608659
 30
0.0
 11
-133.92687691
 21
-272.36608659
 31
0.0
  0
LINE
  5
1BE
100
AcDbEntity
  8
0
  6
CONTINUOUS
 62
       7
100
AcDbLine
 10
-133.92687691
 20
-272.36608659
 30
0.0
 11
-133.42687691
 21
-270.61608659
 31
0.0
  0
LINE
  5
1BF
100
AcDbEntity
  8
0
  6
CONTINUOUS
 62
       7
100
AcDbLine
 10
-133.92687691
 20
-272.36608659
 30
0.0
 11
-133.42687691
 21
-270.61608659
 31
0.0
  0
LINE
  5
1C0
100
AcDbEntity
  8
0
  6
CONTINUOUS
 62
       7
100
AcDbLine
 10
-131.05187691
 20
-275.24108659
 30
0.0
 11
-130.17687691
 21
-274.61608659
 31
0.0
  0
LINE
  5
1C1
100
AcDbEntity
  8
0
  6
CONTINUOUS
 62
       7
100
AcDbLine
 10
-131.05187691
 20
-275.24108659
 30
0.0
 11
-130.17687691
 21
-274.61608659
 31
0.0
  0
LINE
  5
1C2
100
AcDbEntity
  8
0
  6
CONTINUOUS
 62
       7
100
AcDbLine
 10
-130.17687691
 20
-274.61608659
 30
0.0
 11
-129.55187691
 21
-273.99108659
 31
0.0
  0
LINE
  5
1C3
100
AcDbEntity
  8
0
  6
CONTINUOUS
 62
       7
100
AcDbLine
 10
-130.17687691
 20
-274.61608659
 30
0.0
 11
-129.55187691
 21
-273.99108659
 31
0.0
  0
LINE
  5
1C4
100
AcDbEntity
  8
0
  6
CONTINUOUS
 62
       7
100
AcDbLine
 10
-129.55187691
 20
-273.99108659
 30
0.0
 11
-128.92687691
 21
-273.24108659
 31
0.0
  0
LINE
  5
1C5
100
AcDbEntity
  8
0
  6
CONTINUOUS
 62
       7
100
AcDbLine
 10
-129.55187691
 20
-273.99108659
 30
0.0
 11
-128.92687691
 21
-273.24108659
 31
0.0
  0
LINE
  5
1C6
100
AcDbEntity
  8
0
  6
CONTINUOUS
 62
       7
100
AcDbLine
 10
-128.92687691
 20
-273.24108659
 30
0.0
 11
-128.67687691
 21
-272.36608659
 31
0.0
  0
LINE
  5
1C7
100
AcDbEntity
  8
0
  6
CONTINUOUS
 62
       7
100
AcDbLine
 10
-128.92687691
 20
-273.24108659
 30
0.0
 11
-128.67687691
 21
-272.36608659
 31
0.0
  0
LINE
  5
1C8
100
AcDbEntity
  8
0
  6
CONTINUOUS
 62
       7
100
AcDbLine
 10
-136.80187691
 20
-267.24108659
 30
0.0
 11
-134.05286943
 21
-267.24108659
 31
0.0
  0
LINE
  5
1C9
100
AcDbEntity
  8
0
  6
CONTINUOUS
 62
       7
100
AcDbLine
 10
-136.32687691
 20
-274.61608659
 30
0.0
 11
-137.32687691
 21
-275.61608659
 31
0.0
  0
LINE
  5
1CA
100
AcDbEntity
  8
0
  6
CONTINUOUS
 62
       7
100
AcDbLine
 10
-137.32687691
 20
-275.61608659
 30
0.0
 11
-138.32687691
 21
-276.49108659
 31
0.0
  0
LINE
  5
1CB
100
AcDbEntity
  8
0
  6
CONTINUOUS
 62
       7
100
AcDbLine
 10
-137.32687691
 20
-275.61608659
 30
0.0
 11
-138.32687691
 21
-276.49108659
 31
0.0
  0
LINE
  5
1CC
100
AcDbEntity
  8
0
  6
CONTINUOUS
 62
       7
100
AcDbLine
 10
-138.32687691
 20
-276.49108659
 30
0.0
 11
-139.57687691
 21
-276.99108659
 31
0.0
  0
LINE
  5
1CD
100
AcDbEntity
  8
0
  6
CONTINUOUS
 62
       7
100
AcDbLine
 10
-139.57687691
 20
-276.99108659
 30
0.0
 11
-140.82687691
 21
-277.11608659
 31
0.0
  0
LINE
  5
1CE
100
AcDbEntity
  8
0
  6
CONTINUOUS
 62
       7
100
AcDbLine
 10
-140.82687691
 20
-277.11608659
 30
0.0
 11
-143.95187691
 21
-277.11608659
 31
0.0
  0
LINE
  5
1CF
100
AcDbEntity
  8
0
  6
CONTINUOUS
 62
       7
100
AcDbLine
 10
-143.95187691
 20
-277.11608659
 30
0.0
 11
-143.32687691
 21
-275.24108659
 31
0.0
  0
LINE
  5
1D0
100
AcDbEntity
  8
0
  6
CONTINUOUS
 62
       7
100
AcDbLine
 10
-143.95187691
 20
-277.11608659
 30
0.0
 11
-143.32687691
 21
-275.24108659
 31
0.0
  0
LINE
  5
1D1
100
AcDbEntity
  8
0
  6
CONTINUOUS
 62
       7
100
AcDbLine
 10
-139.57687691
 20
-273.61608659
 30
0.0
 11
-137.20187691
 21
-267.24108659
 31
0.0
  0
LINE
  5
1D2
100
AcDbEntity
  8
0
  6
CONTINUOUS
 62
       7
100
AcDbLine
 10
-143.32687691
 20
-275.24108659
 30
0.0
 11
-142.20187691
 21
-275.24108659
 31
0.0
  0
LINE
  5
1D3
100
AcDbEntity
  8
0
  6
CONTINUOUS
 62
       7
100
AcDbLine
 10
-143.32687691
 20
-275.24108659
 30
0.0
 11
-142.20187691
 21
-275.24108659
 31
0.0
  0
LINE
  5
1D4
100
AcDbEntity
  8
0
  6
CONTINUOUS
 62
       7
100
AcDbLine
 10
-140.20187691
 20
-274.61608659
 30
0.0
 11
-139.57687691
 21
-273.61608659
 31
0.0
  0
LINE
  5
1D5
100
AcDbEntity
  8
0
  6
CONTINUOUS
 62
       7
100
AcDbLine
 10
-141.20187691
 20
-275.11608659
 30
0.0
 11
-140.20187691
 21
-274.61608659
 31
0.0
  0
LINE
  5
1D6
100
AcDbEntity
  8
0
  6
CONTINUOUS
 62
       7
100
AcDbLine
 10
-142.20187691
 20
-275.24108659
 30
0.0
 11
-141.20187691
 21
-275.11608659
 31
0.0
  0
LINE
  5
1D7
100
AcDbEntity
  8
0
  6
CONTINUOUS
 62
       7
100
AcDbLine
 10
-142.20187691
 20
-275.24108659
 30
0.0
 11
-141.20187691
 21
-275.11608659
 31
0.0
  0
LINE
  5
1D8
100
AcDbEntity
  8
0
  6
CONTINUOUS
 62
       7
100
AcDbLine
 10
-109.62687691
 20
-267.24108659
 30
0.0
 11
-105.62687691
 21
-267.24108659
 31
0.0
  0
LINE
  5
1D9
100
AcDbEntity
  8
0
  6
CONTINUOUS
 62
       7
100
AcDbLine
 10
-105.62687691
 20
-267.24108659
 30
0.0
 11
-106.37687691
 21
-269.49108659
 31
0.0
  0
LINE
  5
1DA
100
AcDbEntity
  8
0
  6
CONTINUOUS
 62
       7
100
AcDbLine
 10
-105.62687691
 20
-267.24108659
 30
0.0
 11
-106.37687691
 21
-269.49108659
 31
0.0
  0
LINE
  5
1DB
100
AcDbEntity
  8
0
  6
CONTINUOUS
 62
       7
100
AcDbLine
 10
-106.57687691
 20
-269.49108659
 30
0.0
 11
-110.50187691
 21
-269.49108659
 31
0.0
  0
LINE
  5
1DC
100
AcDbEntity
  8
0
  6
CONTINUOUS
 62
       7
100
AcDbLine
 10
-94.81202562
 20
-269.47445764
 30
0.0
 11
-95.97687691
 21
-271.61608659
 31
0.0
  0
LINE
  5
1DD
100
AcDbEntity
  8
0
  6
CONTINUOUS
 62
       7
100
AcDbLine
 10
-91.35187691
 20
-267.24108659
 30
0.0
 11
-97.60187691
 21
-273.49108659
 31
0.0
  0
LINE
  5
1DE
100
AcDbEntity
  8
0
  6
CONTINUOUS
 62
       7
100
AcDbLine
 10
-97.60187691
 20
-273.49108659
 30
0.0
 11
-101.07687691
 21
-276.96608659
 31
0.0
  0
LINE
  5
1DF
100
AcDbEntity
  8
0
  6
CONTINUOUS
 62
       7
100
AcDbLine
 10
-91.91756233
 20
-267.24108659
 30
0.0
 11
-95.60040784
 21
-270.9239321
 31
0.0
  0
LINE
  5
1E0
100
AcDbEntity
  8
0
  6
CONTINUOUS
 62
       7
100
AcDbLine
 10
-98.89487216
 20
-274.21839642
 30
0.0
 11
-101.75569942
 21
-277.07922367
 31
0.0
  0
LINE
  5
1E1
100
AcDbEntity
  8
0
  6
CONTINUOUS
 62
       7
100
AcDbLine
 10
-92.48324776
 20
-267.24108659
 30
0.0
 11
-94.92580254
 21
-269.68364137
 31
0.0
  0
LINE
  5
1E2
100
AcDbEntity
  8
0
  6
CONTINUOUS
 62
       7
100
AcDbLine
 10
-99.92661332
 20
-274.68445215
 30
0.0
 11
-102.43452193
 21
-277.19236076
 31
0.0
  0
LINE
  5
1E3
100
AcDbEntity
  8
0
  6
CONTINUOUS
 62
       7
100
AcDbLine
 10
-93.04893318
 20
-267.24108659
 30
0.0
 11
-95.29893318
 21
-269.49108659
 31
0.0
  0
LINE
  5
1E4
100
AcDbEntity
  8
0
  6
CONTINUOUS
 62
       7
100
AcDbLine
 10
-100.64314819
 20
-274.83530159
 30
0.0
 11
-102.55120985
 21
-276.74336325
 31
0.0
  0
LINE
  5
1E5
100
AcDbEntity
  8
0
  6
CONTINUOUS
 62
       7
100
AcDbLine
 10
-93.61461861
 20
-267.24108659
 30
0.0
 11
-95.86461861
 21
-269.49108659
 31
0.0
  0
LINE
  5
1E6
100
AcDbEntity
  8
0
  6
CONTINUOUS
 62
       7
100
AcDbLine
 10
-101.35968306
 20
-274.98615104
 30
0.0
 11
-102.24265416
 21
-275.86912214
 31
0.0
  0
LINE
  5
1E7
100
AcDbEntity
  8
0
  6
CONTINUOUS
 62
       7
100
AcDbLine
 10
-94.18030403
 20
-267.24108659
 30
0.0
 11
-96.43030403
 21
-269.49108659
 31
0.0
  0
LINE
  5
1E8
100
AcDbEntity
  8
0
  6
CONTINUOUS
 62
       7
100
AcDbLine
 10
-94.74598946
 20
-267.24108659
 30
0.0
 11
-96.99598946
 21
-269.49108659
 31
0.0
  0
LINE
  5
1E9
100
AcDbEntity
  8
0
  6
CONTINUOUS
 62
       7
100
AcDbLine
 10
-95.31167488
 20
-267.24108659
 30
0.0
 11
-97.56167488
 21
-269.49108659
 31
0.0
  0
LINE
  5
1EA
100
AcDbEntity
  8
0
  6
CONTINUOUS
 62
       7
100
AcDbLine
 10
-95.87736031
 20
-267.24108659
 30
0.0
 11
-98.12736031
 21
-269.49108659
 31
0.0
  0
LINE
  5
1EB
100
AcDbEntity
  8
0
  6
CONTINUOUS
 62
       7
100
AcDbLine
 10
-96.44304573
 20
-267.24108659
 30
0.0
 11
-98.69304573
 21
-269.49108659
 31
0.0
  0
LINE
  5
1EC
100
AcDbEntity
  8
0
  6
CONTINUOUS
 62
       7
100
AcDbLine
 10
-97.00873116
 20
-267.24108659
 30
0.0
 11
-99.21094978
 21
-269.44330521
 31
0.0
  0
LINE
  5
1ED
100
AcDbEntity
  8
0
  6
CONTINUOUS
 62
       7
100
AcDbLine
 10
-97.57441658
 20
-267.24108659
 30
0.0
 11
-98.92810707
 21
-268.59477708
 31
0.0
  0
LINE
  5
1EE
100
AcDbEntity
  8
0
  6
CONTINUOUS
 62
       7
100
AcDbLine
 10
-98.14010201
 20
-267.24108659
 30
0.0
 11
-98.64526436
 21
-267.74624894
 31
0.0
  0
LINE
  5
1EF
100
AcDbEntity
  8
0
  6
CONTINUOUS
 62
       7
100
AcDbLine
 10
-90.78619148
 20
-267.24108659
 30
0.0
 11
-100.3980544
 21
-276.8529495
 31
0.0
  0
LINE
  5
1F0
100
AcDbEntity
  8
0
  6
CONTINUOUS
 62
       7
100
AcDbLine
 10
-90.22050606
 20
-267.24108659
 30
0.0
 11
-99.71923189
 21
-276.73981242
 31
0.0
  0
LINE
  5
1F1
100
AcDbEntity
  8
0
  6
CONTINUOUS
 62
       7
100
AcDbLine
 10
-90.10569942
 20
-267.69196537
 30
0.0
 11
-99.04040938
 21
-276.62667533
 31
0.0
  0
LINE
  5
1F2
100
AcDbEntity
  8
0
  6
CONTINUOUS
 62
       7
100
AcDbLine
 10
-90.33197359
 20
-268.48392497
 30
0.0
 11
-98.25903853
 21
-276.41098991
 31
0.0
  0
LINE
  5
1F3
100
AcDbEntity
  8
0
  6
CONTINUOUS
 62
       7
100
AcDbLine
 10
-90.65124301
 20
-269.36887982
 30
0.0
 11
-97.46707893
 21
-276.18471574
 31
0.0
  0
LINE
  5
1F4
100
AcDbEntity
  8
0
  6
CONTINUOUS
 62
       7
100
AcDbLine
 10
-91.13611623
 20
-270.41943847
 30
0.0
 11
-96.63570808
 21
-275.91903031
 31
0.0
  0
LINE
  5
1F5
100
AcDbEntity
  8
0
  6
CONTINUOUS
 62
       7
100
AcDbLine
 10
-92.14647286
 20
-271.99548051
 30
0.0
 11
-95.78717994
 21
-275.6361876
 31
0.0
  0
LINE
  5
1F6
100
AcDbEntity
  8
0
  6
CONTINUOUS
 62
       7
100
AcDbLine
 10
-93.29502762
 20
-273.7097207
 30
0.0
 11
-95.24693085
 21
-275.66162393
 31
0.0
  0
LINE
  5
1F7
100
AcDbEntity
  8
0
  6
CONTINUOUS
 62
       7
100
AcDbLine
 10
-93.08132424
 20
-274.06170274
 30
0.0
 11
-95.03143164
 21
-276.01181015
 31
0.0
  0
LINE
  5
1F8
100
AcDbEntity
  8
0
  6
CONTINUOUS
 62
       7
100
AcDbLine
 10
-92.86762086
 20
-274.41368479
 30
0.0
 11
-94.81593243
 21
-276.36199636
 31
0.0
  0
LINE
  5
1F9
100
AcDbEntity
  8
0
  6
CONTINUOUS
 62
       7
100
AcDbLine
 10
-92.65391747
 20
-274.76566683
 30
0.0
 11
-94.60043322
 21
-276.71218258
 31
0.0
  0
LINE
  5
1FA
100
AcDbEntity
  8
0
  6
CONTINUOUS
 62
       7
100
AcDbLine
 10
-92.44021409
 20
-275.11764887
 30
0.0
 11
-94.38493401
 21
-277.06236879
 31
0.0
  0
LINE
  5
1FB
100
AcDbEntity
  8
0
  6
CONTINUOUS
 62
       7
100
AcDbLine
 10
-92.22651071
 20
-275.46963091
 30
0.0
 11
-93.87296638
 21
-277.11608659
 31
0.0
  0
LINE
  5
1FC
100
AcDbEntity
  8
0
  6
CONTINUOUS
 62
       7
100
AcDbLine
 10
-92.01280733
 20
-275.82161296
 30
0.0
 11
-93.30728096
 21
-277.11608659
 31
0.0
  0
LINE
  5
1FD
100
AcDbEntity
  8
0
  6
CONTINUOUS
 62
       7
100
AcDbLine
 10
-91.79910394
 20
-276.173595
 30
0.0
 11
-92.74159553
 21
-277.11608659
 31
0.0
  0
LINE
  5
1FE
100
AcDbEntity
  8
0
  6
CONTINUOUS
 62
       7
100
AcDbLine
 10
-91.58540056
 20
-276.52557704
 30
0.0
 11
-92.17591011
 21
-277.11608659
 31
0.0
  0
LINE
  5
1FF
100
AcDbEntity
  8
0
  6
CONTINUOUS
 62
       7
100
AcDbLine
 10
-91.37169718
 20
-276.87755908
 30
0.0
 11
-91.61022468
 21
-277.11608659
 31
0.0
  0
LINE
  5
200
100
AcDbEntity
  8
0
  6
CONTINUOUS
 62
       7
100
AcDbLine
 10
-106.93937691
 20
-267.24108659
 30
0.0
 11
-109.18937691
 21
-269.49108659
 31
0.0
  0
LINE
  5
201
100
AcDbEntity
  8
0
  6
CONTINUOUS
 62
       7
100
AcDbLine
 10
-107.50506233
 20
-267.24108659
 30
0.0
 11
-109.75506233
 21
-269.49108659
 31
0.0
  0
LINE
  5
202
100
AcDbEntity
  8
0
  6
CONTINUOUS
 62
       7
100
AcDbLine
 10
-108.07074776
 20
-267.24108659
 30
0.0
 11
-110.32074776
 21
-269.49108659
 31
0.0
  0
LINE
  5
203
100
AcDbEntity
  8
0
  6
CONTINUOUS
 62
       7
100
AcDbLine
 10
-108.63643318
 20
-267.24108659
 30
0.0
 11
-110.25715928
 21
-268.86181268
 31
0.0
  0
LINE
  5
204
100
AcDbEntity
  8
0
  6
CONTINUOUS
 62
       7
100
AcDbLine
 10
-109.20211861
 20
-267.24108659
 30
0.0
 11
-109.89717764
 21
-267.93614562
 31
0.0
  0
LINE
  5
205
100
AcDbEntity
  8
0
  6
CONTINUOUS
 62
       7
100
AcDbLine
 10
-106.37369148
 20
-267.24108659
 30
0.0
 11
-108.62369148
 21
-269.49108659
 31
0.0
  0
LINE
  5
206
100
AcDbEntity
  8
0
  6
CONTINUOUS
 62
       7
100
AcDbLine
 10
-105.80800606
 20
-267.24108659
 30
0.0
 11
-108.05800606
 21
-269.49108659
 31
0.0
  0
LINE
  5
207
100
AcDbEntity
  8
0
  6
CONTINUOUS
 62
       7
100
AcDbLine
 10
-105.81915504
 20
-267.817921
 30
0.0
 11
-107.49232063
 21
-269.49108659
 31
0.0
  0
LINE
  5
208
100
AcDbEntity
  8
0
  6
CONTINUOUS
 62
       7
100
AcDbLine
 10
-106.10199776
 20
-268.66644914
 30
0.0
 11
-106.92663521
 21
-269.49108659
 31
0.0
  0
LINE
  5
209
100
AcDbEntity
  8
0
  6
CONTINUOUS
 62
       7
100
AcDbLine
 10
-106.36094978
 20
-269.49108659
 30
0.0
 11
-106.38484047
 21
-269.51497727
 31
0.0
  0
LINE
  5
20A
100
AcDbEntity
  8
0
  6
CONTINUOUS
 62
       7
100
AcDbLine
 10
-107.68937691
 20
-273.99108659
 30
0.0
 11
-110.81437691
 21
-277.11608659
 31
0.0
  0
LINE
  5
20B
100
AcDbEntity
  8
0
  6
CONTINUOUS
 62
       7
100
AcDbLine
 10
-108.25506233
 20
-273.99108659
 30
0.0
 11
-111.38006233
 21
-277.11608659
 31
0.0
  0
LINE
  5
20C
100
AcDbEntity
  8
0
  6
CONTINUOUS
 62
       7
100
AcDbLine
 10
-108.82074776
 20
-273.99108659
 30
0.0
 11
-111.94574776
 21
-277.11608659
 31
0.0
  0
LINE
  5
20D
100
AcDbEntity
  8
0
  6
CONTINUOUS
 62
       7
100
AcDbLine
 10
-109.38643318
 20
-273.99108659
 30
0.0
 11
-112.51143318
 21
-277.11608659
 31
0.0
  0
LINE
  5
20E
100
AcDbEntity
  8
0
  6
CONTINUOUS
 62
       7
100
AcDbLine
 10
-109.95211861
 20
-273.99108659
 30
0.0
 11
-113.07711861
 21
-277.11608659
 31
0.0
  0
LINE
  5
20F
100
AcDbEntity
  8
0
  6
CONTINUOUS
 62
       7
100
AcDbLine
 10
-110.51780403
 20
-273.99108659
 30
0.0
 11
-113.0319804
 21
-276.50526296
 31
0.0
  0
LINE
  5
210
100
AcDbEntity
  8
0
  6
CONTINUOUS
 62
       7
100
AcDbLine
 10
-111.08348946
 20
-273.99108659
 30
0.0
 11
-112.71378235
 21
-275.62137948
 31
0.0
  0
LINE
  5
211
100
AcDbEntity
  8
0
  6
CONTINUOUS
 62
       7
100
AcDbLine
 10
-111.64917488
 20
-273.99108659
 30
0.0
 11
-112.3955843
 21
-274.737496
 31
0.0
  0
LINE
  5
212
100
AcDbEntity
  8
0
  6
CONTINUOUS
 62
       7
100
AcDbLine
 10
-107.12369148
 20
-273.99108659
 30
0.0
 11
-110.24869148
 21
-277.11608659
 31
0.0
  0
LINE
  5
213
100
AcDbEntity
  8
0
  6
CONTINUOUS
 62
       7
100
AcDbLine
 10
-106.55800606
 20
-273.99108659
 30
0.0
 11
-109.68300606
 21
-277.11608659
 31
0.0
  0
LINE
  5
214
100
AcDbEntity
  8
0
  6
CONTINUOUS
 62
       7
100
AcDbLine
 10
-101.11732063
 20
-269.11608659
 30
0.0
 11
-101.94534958
 21
-269.94411553
 31
0.0
  0
LINE
  5
215
100
AcDbEntity
  8
0
  6
CONTINUOUS
 62
       7
100
AcDbLine
 10
-105.85776436
 20
-273.85653031
 30
0.0
 11
-109.11732063
 21
-277.11608659
 31
0.0
  0
LINE
  5
216
100
AcDbEntity
  8
0
  6
CONTINUOUS
 62
       7
100
AcDbLine
 10
-100.55163521
 20
-269.11608659
 30
0.0
 11
-102.45252144
 21
-271.01697282
 31
0.0
  0
LINE
  5
217
100
AcDbEntity
  8
0
  6
CONTINUOUS
 62
       7
100
AcDbLine
 10
-104.72639351
 20
-273.29084489
 30
0.0
 11
-108.55163521
 21
-277.11608659
 31
0.0
  0
LINE
  5
218
100
AcDbEntity
  8
0
  6
CONTINUOUS
 62
       7
100
AcDbLine
 10
-100.46885976
 20
-269.59899657
 30
0.0
 11
-107.98594978
 21
-277.11608659
 31
0.0
  0
LINE
  5
219
100
AcDbEntity
  8
0
  6
CONTINUOUS
 62
       7
100
AcDbLine
 10
-100.60196221
 20
-270.29778444
 30
0.0
 11
-107.42026436
 21
-277.11608659
 31
0.0
  0
LINE
  5
21A
100
AcDbEntity
  8
0
  6
CONTINUOUS
 62
       7
100
AcDbLine
 10
-100.73506466
 20
-270.99657232
 30
0.0
 11
-106.85457893
 21
-277.11608659
 31
0.0
  0
LINE
  5
21B
100
AcDbEntity
  8
0
  6
CONTINUOUS
 62
       7
100
AcDbLine
 10
-100.86816712
 20
-271.6953602
 30
0.0
 11
-106.01850679
 21
-276.84569987
 31
0.0
  0
LINE
  5
21C
100
AcDbEntity
  8
0
  6
CONTINUOUS
 62
       7
100
AcDbLine
 10
-101.66988014
 20
-273.06275865
 30
0.0
 11
-105.00027302
 21
-276.39315153
 31
0.0
  0
LINE
  5
21D
100
AcDbEntity
  8
0
  6
CONTINUOUS
 62
       7
100
AcDbLine
 10
-112.26437691
 20
-267.24108659
 30
0.0
 11
-121.24875191
 21
-276.22546159
 31
0.0
  0
LINE
  5
21E
100
AcDbEntity
  8
0
  6
CONTINUOUS
 62
       7
100
AcDbLine
 10
-112.83006233
 20
-267.24108659
 30
0.0
 11
-120.91876874
 21
-275.329793
 31
0.0
  0
LINE
  5
21F
100
AcDbEntity
  8
0
  6
CONTINUOUS
 62
       7
100
AcDbLine
 10
-113.39574776
 20
-267.24108659
 30
0.0
 11
-120.58878558
 21
-274.43412441
 31
0.0
  0
LINE
  5
220
100
AcDbEntity
  8
0
  6
CONTINUOUS
 62
       7
100
AcDbLine
 10
-113.96143318
 20
-267.24108659
 30
0.0
 11
-120.25880241
 21
-273.53845582
 31
0.0
  0
LINE
  5
221
100
AcDbEntity
  8
0
  6
CONTINUOUS
 62
       7
100
AcDbLine
 10
-114.52711861
 20
-267.24108659
 30
0.0
 11
-119.92881925
 21
-272.64278723
 31
0.0
  0
LINE
  5
222
100
AcDbEntity
  8
0
  6
CONTINUOUS
 62
       7
100
AcDbLine
 10
-115.09280403
 20
-267.24108659
 30
0.0
 11
-115.49273791
 21
-267.64102046
 31
0.0
  0
LINE
  5
223
100
AcDbEntity
  8
0
  6
CONTINUOUS
 62
       7
100
AcDbLine
 10
-117.69849937
 20
-269.84678193
 30
0.0
 11
-120.21780403
 21
-272.36608659
 31
0.0
  0
LINE
  5
224
100
AcDbEntity
  8
0
  6
CONTINUOUS
 62
       7
100
AcDbLine
 10
-118.68844887
 20
-270.271046
 30
0.0
 11
-120.78348946
 21
-272.36608659
 31
0.0
  0
LINE
  5
225
100
AcDbEntity
  8
0
  6
CONTINUOUS
 62
       7
100
AcDbLine
 10
-119.49686638
 20
-270.51377809
 30
0.0
 11
-121.34917488
 21
-272.36608659
 31
0.0
  0
LINE
  5
226
100
AcDbEntity
  8
0
  6
CONTINUOUS
 62
       7
100
AcDbLine
 10
-120.10969226
 20
-270.56091854
 30
0.0
 11
-121.91486031
 21
-272.36608659
 31
0.0
  0
LINE
  5
227
100
AcDbEntity
  8
0
  6
CONTINUOUS
 62
       7
100
AcDbLine
 10
-120.72251813
 20
-270.60805899
 30
0.0
 11
-122.48054573
 21
-272.36608659
 31
0.0
  0
LINE
  5
228
100
AcDbEntity
  8
0
  6
CONTINUOUS
 62
       7
100
AcDbLine
 10
-121.29623116
 20
-270.61608659
 30
0.0
 11
-123.04623116
 21
-272.36608659
 31
0.0
  0
LINE
  5
229
100
AcDbEntity
  8
0
  6
CONTINUOUS
 62
       7
100
AcDbLine
 10
-121.86191658
 20
-270.61608659
 30
0.0
 11
-123.61191658
 21
-272.36608659
 31
0.0
  0
LINE
  5
22A
100
AcDbEntity
  8
0
  6
CONTINUOUS
 62
       7
100
AcDbLine
 10
-122.42760201
 20
-270.61608659
 30
0.0
 11
-123.63202963
 21
-271.82051421
 31
0.0
  0
LINE
  5
22B
100
AcDbEntity
  8
0
  6
CONTINUOUS
 62
       7
100
AcDbLine
 10
-122.99328743
 20
-270.61608659
 30
0.0
 11
-123.31775995
 21
-270.94055911
 31
0.0
  0
LINE
  5
22C
100
AcDbEntity
  8
0
  6
CONTINUOUS
 62
       7
100
AcDbLine
 10
-111.69869148
 20
-267.24108659
 30
0.0
 11
-121.57873507
 21
-277.12113018
 31
0.0
  0
LINE
  5
22D
100
AcDbEntity
  8
0
  6
CONTINUOUS
 62
       7
100
AcDbLine
 10
-111.13300606
 20
-267.24108659
 30
0.0
 11
-115.47739679
 21
-271.58547732
 31
0.0
  0
LINE
  5
22E
100
AcDbEntity
  8
0
  6
CONTINUOUS
 62
       7
100
AcDbLine
 10
-115.61249976
 20
-271.72058029
 30
0.0
 11
-121.00800606
 21
-277.11608659
 31
0.0
  0
LINE
  5
22F
100
AcDbEntity
  8
0
  6
CONTINUOUS
 62
       7
100
AcDbLine
 10
-110.56732063
 20
-267.24108659
 30
0.0
 11
-114.66029562
 21
-271.33406158
 31
0.0
  0
LINE
  5
230
100
AcDbEntity
  8
0
  6
CONTINUOUS
 62
       7
100
AcDbLine
 10
-115.90509567
 20
-272.57886163
 30
0.0
 11
-120.44232063
 21
-277.11608659
 31
0.0
  0
LINE
  5
231
100
AcDbEntity
  8
0
  6
CONTINUOUS
 62
       7
100
AcDbLine
 10
-111.06994122
 20
-268.3093926
 30
0.0
 11
-113.67599067
 21
-270.91544205
 31
0.0
  0
LINE
  5
232
100
AcDbEntity
  8
0
  6
CONTINUOUS
 62
       7
100
AcDbLine
 10
-116.19769158
 20
-273.43714296
 30
0.0
 11
-119.87663521
 21
-277.11608659
 31
0.0
  0
LINE
  5
233
100
AcDbEntity
  8
0
  6
CONTINUOUS
 62
       7
100
AcDbLine
 10
-116.49028749
 20
-274.29542429
 30
0.0
 11
-119.31094978
 21
-277.11608659
 31
0.0
  0
LINE
  5
234
100
AcDbEntity
  8
0
  6
CONTINUOUS
 62
       7
100
AcDbLine
 10
-116.7828834
 20
-275.15370563
 30
0.0
 11
-118.74526436
 21
-277.11608659
 31
0.0
  0
LINE
  5
235
100
AcDbEntity
  8
0
  6
CONTINUOUS
 62
       7
100
AcDbLine
 10
-117.07547931
 20
-276.01198696
 30
0.0
 11
-118.17957893
 21
-277.11608659
 31
0.0
  0
LINE
  5
236
100
AcDbEntity
  8
0
  6
CONTINUOUS
 62
       7
100
AcDbLine
 10
-117.36807522
 20
-276.8702683
 30
0.0
 11
-117.61389351
 21
-277.11608659
 31
0.0
  0
LINE
  5
237
100
AcDbEntity
  8
0
  6
CONTINUOUS
 62
       7
100
AcDbLine
 10
-127.11437691
 20
-267.24108659
 30
0.0
 11
-129.36437691
 21
-269.49108659
 31
0.0
  0
LINE
  5
238
100
AcDbEntity
  8
0
  6
CONTINUOUS
 62
       7
100
AcDbLine
 10
-127.68006233
 20
-267.24108659
 30
0.0
 11
-129.93006233
 21
-269.49108659
 31
0.0
  0
LINE
  5
239
100
AcDbEntity
  8
0
  6
CONTINUOUS
 62
       7
100
AcDbLine
 10
-128.24574776
 20
-267.24108659
 30
0.0
 11
-130.49574776
 21
-269.49108659
 31
0.0
  0
LINE
  5
23A
100
AcDbEntity
  8
0
  6
CONTINUOUS
 62
       7
100
AcDbLine
 10
-128.81143318
 20
-267.24108659
 30
0.0
 11
-131.06143318
 21
-269.49108659
 31
0.0
  0
LINE
  5
23B
100
AcDbEntity
  8
0
  6
CONTINUOUS
 62
       7
100
AcDbLine
 10
-129.37711861
 20
-267.24108659
 30
0.0
 11
-131.62711861
 21
-269.49108659
 31
0.0
  0
LINE
  5
23C
100
AcDbEntity
  8
0
  6
CONTINUOUS
 62
       7
100
AcDbLine
 10
-129.94280403
 20
-267.24108659
 30
0.0
 11
-132.19280403
 21
-269.49108659
 31
0.0
  0
LINE
  5
23D
100
AcDbEntity
  8
0
  6
CONTINUOUS
 62
       7
100
AcDbLine
 10
-130.50848946
 20
-267.24108659
 30
0.0
 11
-132.75848946
 21
-269.49108659
 31
0.0
  0
LINE
  5
23E
100
AcDbEntity
  8
0
  6
CONTINUOUS
 62
       7
100
AcDbLine
 10
-131.07417488
 20
-267.24108659
 30
0.0
 11
-133.10322792
 21
-269.27013963
 31
0.0
  0
LINE
  5
23F
100
AcDbEntity
  8
0
  6
CONTINUOUS
 62
       7
100
AcDbLine
 10
-131.63986031
 20
-267.24108659
 30
0.0
 11
-132.82038521
 21
-268.42161149
 31
0.0
  0
LINE
  5
240
100
AcDbEntity
  8
0
  6
CONTINUOUS
 62
       7
100
AcDbLine
 10
-132.20554573
 20
-267.24108659
 30
0.0
 11
-132.53754249
 21
-267.57308335
 31
0.0
  0
LINE
  5
241
100
AcDbEntity
  8
0
  6
CONTINUOUS
 62
       7
100
AcDbLine
 10
-126.54869148
 20
-267.24108659
 30
0.0
 11
-128.79869148
 21
-269.49108659
 31
0.0
  0
LINE
  5
242
100
AcDbEntity
  8
0
  6
CONTINUOUS
 62
       7
100
AcDbLine
 10
-125.98300606
 20
-267.24108659
 30
0.0
 11
-128.23300606
 21
-269.49108659
 31
0.0
  0
LINE
  5
243
100
AcDbEntity
  8
0
  6
CONTINUOUS
 62
       7
100
AcDbLine
 10
-125.41732063
 20
-267.24108659
 30
0.0
 11
-127.66732063
 21
-269.49108659
 31
0.0
  0
LINE
  5
244
100
AcDbEntity
  8
0
  6
CONTINUOUS
 62
       7
100
AcDbLine
 10
-124.85163521
 20
-267.24108659
 30
0.0
 11
-127.10163521
 21
-269.49108659
 31
0.0
  0
LINE
  5
245
100
AcDbEntity
  8
0
  6
CONTINUOUS
 62
       7
100
AcDbLine
 10
-124.28594978
 20
-267.24108659
 30
0.0
 11
-126.53594978
 21
-269.49108659
 31
0.0
  0
LINE
  5
246
100
AcDbEntity
  8
0
  6
CONTINUOUS
 62
       7
100
AcDbLine
 10
-123.72026436
 20
-267.24108659
 30
0.0
 11
-125.97026436
 21
-269.49108659
 31
0.0
  0
LINE
  5
247
100
AcDbEntity
  8
0
  6
CONTINUOUS
 62
       7
100
AcDbLine
 10
-123.37552589
 20
-267.46203355
 30
0.0
 11
-125.40457893
 21
-269.49108659
 31
0.0
  0
LINE
  5
248
100
AcDbEntity
  8
0
  6
CONTINUOUS
 62
       7
100
AcDbLine
 10
-123.65836861
 20
-268.31056169
 30
0.0
 11
-124.83889351
 21
-269.49108659
 31
0.0
  0
LINE
  5
249
100
AcDbEntity
  8
0
  6
CONTINUOUS
 62
       7
100
AcDbLine
 10
-123.94121132
 20
-269.15908982
 30
0.0
 11
-124.27320808
 21
-269.49108659
 31
0.0
  0
LINE
  5
24A
100
AcDbEntity
  8
0
  6
CONTINUOUS
 62
       7
100
AcDbLine
 10
-126.92687691
 20
-270.61608659
 30
0.0
 11
-128.67687691
 21
-272.36608659
 31
0.0
  0
LINE
  5
24B
100
AcDbEntity
  8
0
  6
CONTINUOUS
 62
       7
100
AcDbLine
 10
-131.55187691
 20
-275.24108659
 30
0.0
 11
-133.42687691
 21
-277.11608659
 31
0.0
  0
LINE
  5
24C
100
AcDbEntity
  8
0
  6
CONTINUOUS
 62
       7
100
AcDbLine
 10
-127.49256233
 20
-270.61608659
 30
0.0
 11
-129.24256233
 21
-272.36608659
 31
0.0
  0
LINE
  5
24D
100
AcDbEntity
  8
0
  6
CONTINUOUS
 62
       7
100
AcDbLine
 10
-132.11756233
 20
-275.24108659
 30
0.0
 11
-133.99256233
 21
-277.11608659
 31
0.0
  0
LINE
  5
24E
100
AcDbEntity
  8
0
  6
CONTINUOUS
 62
       7
100
AcDbLine
 10
-128.05824776
 20
-270.61608659
 30
0.0
 11
-129.80824776
 21
-272.36608659
 31
0.0
  0
LINE
  5
24F
100
AcDbEntity
  8
0
  6
CONTINUOUS
 62
       7
100
AcDbLine
 10
-132.68324776
 20
-275.24108659
 30
0.0
 11
-134.55824776
 21
-277.11608659
 31
0.0
  0
LINE
  5
250
100
AcDbEntity
  8
0
  6
CONTINUOUS
 62
       7
100
AcDbLine
 10
-128.62393318
 20
-270.61608659
 30
0.0
 11
-130.37393318
 21
-272.36608659
 31
0.0
  0
LINE
  5
251
100
AcDbEntity
  8
0
  6
CONTINUOUS
 62
       7
100
AcDbLine
 10
-133.24893318
 20
-275.24108659
 30
0.0
 11
-135.12393318
 21
-277.11608659
 31
0.0
  0
LINE
  5
252
100
AcDbEntity
  8
0
  6
CONTINUOUS
 62
       7
100
AcDbLine
 10
-129.18961861
 20
-270.61608659
 30
0.0
 11
-130.93961861
 21
-272.36608659
 31
0.0
  0
LINE
  5
253
100
AcDbEntity
  8
0
  6
CONTINUOUS
 62
       7
100
AcDbLine
 10
-133.81461861
 20
-275.24108659
 30
0.0
 11
-135.68961861
 21
-277.11608659
 31
0.0
  0
LINE
  5
254
100
AcDbEntity
  8
0
  6
CONTINUOUS
 62
       7
100
AcDbLine
 10
-129.75530403
 20
-270.61608659
 30
0.0
 11
-131.50530403
 21
-272.36608659
 31
0.0
  0
LINE
  5
255
100
AcDbEntity
  8
0
  6
CONTINUOUS
 62
       7
100
AcDbLine
 10
-134.38030403
 20
-275.24108659
 30
0.0
 11
-135.70792549
 21
-276.56870805
 31
0.0
  0
LINE
  5
256
100
AcDbEntity
  8
0
  6
CONTINUOUS
 62
       7
100
AcDbLine
 10
-130.32098946
 20
-270.61608659
 30
0.0
 11
-132.07098946
 21
-272.36608659
 31
0.0
  0
LINE
  5
257
100
AcDbEntity
  8
0
  6
CONTINUOUS
 62
       7
100
AcDbLine
 10
-134.94598946
 20
-275.24108659
 30
0.0
 11
-135.33080187
 21
-275.625899
 31
0.0
  0
LINE
  5
258
100
AcDbEntity
  8
0
  6
CONTINUOUS
 62
       7
100
AcDbLine
 10
-130.88667488
 20
-270.61608659
 30
0.0
 11
-132.63667488
 21
-272.36608659
 31
0.0
  0
LINE
  5
259
100
AcDbEntity
  8
0
  6
CONTINUOUS
 62
       7
100
AcDbLine
 10
-131.45236031
 20
-270.61608659
 30
0.0
 11
-133.20236031
 21
-272.36608659
 31
0.0
  0
LINE
  5
25A
100
AcDbEntity
  8
0
  6
CONTINUOUS
 62
       7
100
AcDbLine
 10
-132.01804573
 20
-270.61608659
 30
0.0
 11
-133.76804573
 21
-272.36608659
 31
0.0
  0
LINE
  5
25B
100
AcDbEntity
  8
0
  6
CONTINUOUS
 62
       7
100
AcDbLine
 10
-132.58373116
 20
-270.61608659
 30
0.0
 11
-133.76413521
 21
-271.79649064
 31
0.0
  0
LINE
  5
25C
100
AcDbEntity
  8
0
  6
CONTINUOUS
 62
       7
100
AcDbLine
 10
-133.14941658
 20
-270.61608659
 30
0.0
 11
-133.53786104
 21
-271.00453104
 31
0.0
  0
LINE
  5
25D
100
AcDbEntity
  8
0
  6
CONTINUOUS
 62
       7
100
AcDbLine
 10
-126.36119148
 20
-270.61608659
 30
0.0
 11
-128.90315108
 21
-273.15804618
 31
0.0
  0
LINE
  5
25E
100
AcDbEntity
  8
0
  6
CONTINUOUS
 62
       7
100
AcDbLine
 10
-130.82197792
 20
-275.07687303
 30
0.0
 11
-132.86119148
 21
-277.11608659
 31
0.0
  0
LINE
  5
25F
100
AcDbEntity
  8
0
  6
CONTINUOUS
 62
       7
100
AcDbLine
 10
-125.79550606
 20
-270.61608659
 30
0.0
 11
-132.29550606
 21
-277.11608659
 31
0.0
  0
LINE
  5
260
100
AcDbEntity
  8
0
  6
CONTINUOUS
 62
       7
100
AcDbLine
 10
-125.22982063
 20
-270.61608659
 30
0.0
 11
-131.72982063
 21
-277.11608659
 31
0.0
  0
LINE
  5
261
100
AcDbEntity
  8
0
  6
CONTINUOUS
 62
       7
100
AcDbLine
 10
-124.66413521
 20
-270.61608659
 30
0.0
 11
-131.16413521
 21
-277.11608659
 31
0.0
  0
LINE
  5
262
100
AcDbEntity
  8
0
  6
CONTINUOUS
 62
       7
100
AcDbLine
 10
-124.61454955
 20
-271.13218635
 30
0.0
 11
-130.59844978
 21
-277.11608659
 31
0.0
  0
LINE
  5
263
100
AcDbEntity
  8
0
  6
CONTINUOUS
 62
       7
100
AcDbLine
 10
-124.93779836
 20
-272.02112059
 30
0.0
 11
-130.03276436
 21
-277.11608659
 31
0.0
  0
LINE
  5
264
100
AcDbEntity
  8
0
  6
CONTINUOUS
 62
       7
100
AcDbLine
 10
-125.26104718
 20
-272.91005483
 30
0.0
 11
-129.43881294
 21
-277.0878206
 31
0.0
  0
LINE
  5
265
100
AcDbEntity
  8
0
  6
CONTINUOUS
 62
       7
100
AcDbLine
 10
-125.58429599
 20
-273.79898907
 30
0.0
 11
-128.68456571
 21
-276.89925879
 31
0.0
  0
LINE
  5
266
100
AcDbEntity
  8
0
  6
CONTINUOUS
 62
       7
100
AcDbLine
 10
-125.90754481
 20
-274.68792331
 30
0.0
 11
-127.61953926
 21
-276.39991776
 31
0.0
  0
LINE
  5
267
100
AcDbEntity
  8
0
  6
CONTINUOUS
 62
       7
100
AcDbLine
 10
-133.95187691
 20
-267.24108659
 30
0.0
 11
-139.13156441
 21
-272.42077409
 31
0.0
  0
LINE
  5
268
100
AcDbEntity
  8
0
  6
CONTINUOUS
 62
       7
100
AcDbLine
 10
-141.91616262
 20
-275.2053723
 30
0.0
 11
-143.82687691
 21
-277.11608659
 31
0.0
  0
LINE
  5
269
100
AcDbEntity
  8
0
  6
CONTINUOUS
 62
       7
100
AcDbLine
 10
-134.51756233
 20
-267.24108659
 30
0.0
 11
-138.79568868
 21
-271.51921294
 31
0.0
  0
LINE
  5
26A
100
AcDbEntity
  8
0
  6
CONTINUOUS
 62
       7
100
AcDbLine
 10
-142.51756233
 20
-275.24108659
 30
0.0
 11
-143.73153419
 21
-276.45505845
 31
0.0
  0
LINE
  5
26B
100
AcDbEntity
  8
0
  6
CONTINUOUS
 62
       7
100
AcDbLine
 10
-135.08324776
 20
-267.24108659
 30
0.0
 11
-138.45981296
 21
-270.6176518
 31
0.0
  0
LINE
  5
26C
100
AcDbEntity
  8
0
  6
CONTINUOUS
 62
       7
100
AcDbLine
 10
-143.08324776
 20
-275.24108659
 30
0.0
 11
-143.44869148
 21
-275.60653031
 31
0.0
  0
LINE
  5
26D
100
AcDbEntity
  8
0
  6
CONTINUOUS
 62
       7
100
AcDbLine
 10
-135.64893318
 20
-267.24108659
 30
0.0
 11
-138.12393724
 21
-269.71609065
 31
0.0
  0
LINE
  5
26E
100
AcDbEntity
  8
0
  6
CONTINUOUS
 62
       7
100
AcDbLine
 10
-136.21461861
 20
-267.24108659
 30
0.0
 11
-137.78806152
 21
-268.8145295
 31
0.0
  0
LINE
  5
26F
100
AcDbEntity
  8
0
  6
CONTINUOUS
 62
       7
100
AcDbLine
 10
-136.78030403
 20
-267.24108659
 30
0.0
 11
-137.4521858
 21
-267.91296836
 31
0.0
  0
LINE
  5
270
100
AcDbEntity
  8
0
  6
CONTINUOUS
 62
       7
100
AcDbLine
 10
-134.05286943
 20
-267.90776454
 30
0.0
 11
-139.46744013
 21
-273.32233523
 31
0.0
  0
LINE
  5
271
100
AcDbEntity
  8
0
  6
CONTINUOUS
 62
       7
100
AcDbLine
 10
-141.26966499
 20
-275.1245601
 30
0.0
 11
-143.26119148
 21
-277.11608659
 31
0.0
  0
LINE
  5
272
100
AcDbEntity
  8
0
  6
CONTINUOUS
 62
       7
100
AcDbLine
 10
-134.34296452
 20
-268.76354505
 30
0.0
 11
-140.18913521
 21
-274.60971574
 31
0.0
  0
LINE
  5
273
100
AcDbEntity
  8
0
  6
CONTINUOUS
 62
       7
100
AcDbLine
 10
-140.21249499
 20
-274.63307552
 30
0.0
 11
-142.69550606
 21
-277.11608659
 31
0.0
  0
LINE
  5
274
100
AcDbEntity
  8
0
  6
CONTINUOUS
 62
       7
100
AcDbLine
 10
-134.63305961
 20
-269.61932557
 30
0.0
 11
-142.12982063
 21
-277.11608659
 31
0.0
  0
LINE
  5
275
100
AcDbEntity
  8
0
  6
CONTINUOUS
 62
       7
100
AcDbLine
 10
-134.9231547
 20
-270.47510608
 30
0.0
 11
-141.56413521
 21
-277.11608659
 31
0.0
  0
LINE
  5
276
100
AcDbEntity
  8
0
  6
CONTINUOUS
 62
       7
100
AcDbLine
 10
-135.21324979
 20
-271.3308866
 30
0.0
 11
-140.99844978
 21
-277.11608659
 31
0.0
  0
LINE
  5
277
100
AcDbEntity
  8
0
  6
CONTINUOUS
 62
       7
100
AcDbLine
 10
-135.50334488
 20
-272.18666711
 30
0.0
 11
-140.38897407
 21
-277.0722963
 31
0.0
  0
LINE
  5
278
100
AcDbEntity
  8
0
  6
CONTINUOUS
 62
       7
100
AcDbLine
 10
-135.79343997
 20
-273.04244763
 30
0.0
 11
-139.76043471
 21
-277.00944237
 31
0.0
  0
LINE
  5
279
100
AcDbEntity
  8
0
  6
CONTINUOUS
 62
       7
100
AcDbLine
 10
-136.08353506
 20
-273.89822814
 30
0.0
 11
-138.90940457
 21
-276.72409765
 31
0.0
  0
LINE
  5
27A
100
AcDbEntity
  8
0
  6
CONTINUOUS
 62
       7
100
AcDbLine
 10
-139.96437691
 20
-267.94108659
 30
0.0
 11
-144.58695755
 21
-272.56366723
 31
0.0
  0
LINE
  5
27B
100
AcDbEntity
  8
0
  6
CONTINUOUS
 62
       7
100
AcDbLine
 10
-139.83006233
 20
-267.24108659
 30
0.0
 11
-144.27674296
 21
-271.68776722
 31
0.0
  0
LINE
  5
27C
100
AcDbEntity
  8
0
  6
CONTINUOUS
 62
       7
100
AcDbLine
 10
-140.39574776
 20
-267.24108659
 30
0.0
 11
-143.96652838
 21
-270.81186721
 31
0.0
  0
LINE
  5
27D
100
AcDbEntity
  8
0
  6
CONTINUOUS
 62
       7
100
AcDbLine
 10
-140.96143318
 20
-267.24108659
 30
0.0
 11
-143.65631379
 21
-269.93596719
 31
0.0
  0
LINE
  5
27E
100
AcDbEntity
  8
0
  6
CONTINUOUS
 62
       7
100
AcDbLine
 10
-141.52711861
 20
-267.24108659
 30
0.0
 11
-143.3460992
 21
-269.06006718
 31
0.0
  0
LINE
  5
27F
100
AcDbEntity
  8
0
  6
CONTINUOUS
 62
       7
100
AcDbLine
 10
-142.09280403
 20
-267.24108659
 30
0.0
 11
-143.03588461
 21
-268.18416717
 31
0.0
  0
LINE
  5
280
100
AcDbEntity
  8
0
  6
CONTINUOUS
 62
       7
100
AcDbLine
 10
-142.65848946
 20
-267.24108659
 30
0.0
 11
-142.72567002
 21
-267.30826716
 31
0.0
  0
LINE
  5
281
100
AcDbEntity
  8
0
  6
CONTINUOUS
 62
       7
100
AcDbLine
 10
-140.30378816
 20
-268.84618327
 30
0.0
 11
-144.69869148
 21
-273.24108659
 31
0.0
  0
LINE
  5
282
100
AcDbEntity
  8
0
  6
CONTINUOUS
 62
       7
100
AcDbLine
 10
-140.64319942
 20
-269.75127995
 30
0.0
 11
-144.13300606
 21
-273.24108659
 31
0.0
  0
LINE
  5
283
100
AcDbEntity
  8
0
  6
CONTINUOUS
 62
       7
100
AcDbLine
 10
-140.98261067
 20
-270.65637663
 30
0.0
 11
-143.56732063
 21
-273.24108659
 31
0.0
  0
LINE
  5
284
100
AcDbEntity
  8
0
  6
CONTINUOUS
 62
       7
100
AcDbLine
 10
-141.32202193
 20
-271.56147331
 30
0.0
 11
-143.00163521
 21
-273.24108659
 31
0.0
  0
LINE
  5
285
100
AcDbEntity
  8
0
  6
CONTINUOUS
 62
       7
100
AcDbLine
 10
-141.66143318
 20
-272.46656999
 30
0.0
 11
-142.43594978
 21
-273.24108659
 31
0.0
  0
LINE
  5
286
100
AcDbEntity
  8
0
  6
CONTINUOUS
 62
       7
100
AcDbLine
 10
199.02312309
 20
99.25891341
 30
0.0
 11
210.02312309
 21
99.25891341
 31
0.0
  0
LINE
  5
287
100
AcDbEntity
  8
0
  6
CONTINUOUS
 62
       7
100
AcDbLine
 10
199.02312309
 20
89.25891341
 30
0.0
 11
210.02312309
 21
89.25891341
 31
0.0
  0
LINE
  5
288
100
AcDbEntity
  8
0
  6
CONTINUOUS
 62
       7
100
AcDbLine
 10
210.02312309
 20
99.25891341
 30
0.0
 11
210.02312309
 21
89.25891341
 31
0.0
  0
LINE
  5
289
100
AcDbEntity
  8
0
  6
CONTINUOUS
 62
       7
100
AcDbLine
 10
199.02312309
 20
99.25891341
 30
0.0
 11
199.02312309
 21
89.25891341
 31
0.0
  0
LINE
  5
28A
100
AcDbEntity
  8
0
  6
CONTINUOUS
 62
       7
100
AcDbLine
 10
210.02312309
 20
89.29373305
 30
0.0
 11
209.98830346
 21
89.25891341
 31
0.0
  0
LINE
  5
28B
100
AcDbEntity
  8
0
  6
CONTINUOUS
 62
       7
100
AcDbLine
 10
204.15389945
 20
99.25891341
 30
0.0
 11
199.02312309
 21
94.12813706
 31
0.0
  0
LINE
  5
28C
100
AcDbEntity
  8
0
  6
CONTINUOUS
 62
       7
100
AcDbLine
 10
203.58821402
 20
99.25891341
 30
0.0
 11
199.02312309
 21
94.69382248
 31
0.0
  0
LINE
  5
28D
100
AcDbEntity
  8
0
  6
CONTINUOUS
 62
       7
100
AcDbLine
 10
203.0225286
 20
99.25891341
 30
0.0
 11
199.02312309
 21
95.25950791
 31
0.0
  0
LINE
  5
28E
100
AcDbEntity
  8
0
  6
CONTINUOUS
 62
       7
100
AcDbLine
 10
202.45684317
 20
99.25891341
 30
0.0
 11
199.02312309
 21
95.82519333
 31
0.0
  0
LINE
  5
28F
100
AcDbEntity
  8
0
  6
CONTINUOUS
 62
       7
100
AcDbLine
 10
201.89115775
 20
99.25891341
 30
0.0
 11
199.02312309
 21
96.39087876
 31
0.0
  0
LINE
  5
290
100
AcDbEntity
  8
0
  6
CONTINUOUS
 62
       7
100
AcDbLine
 10
201.32547232
 20
99.25891341
 30
0.0
 11
199.02312309
 21
96.95656418
 31
0.0
  0
LINE
  5
291
100
AcDbEntity
  8
0
  6
CONTINUOUS
 62
       7
100
AcDbLine
 10
200.7597869
 20
99.25891341
 30
0.0
 11
199.02312309
 21
97.52224961
 31
0.0
  0
LINE
  5
292
100
AcDbEntity
  8
0
  6
CONTINUOUS
 62
       7
100
AcDbLine
 10
200.19410147
 20
99.25891341
 30
0.0
 11
199.02312309
 21
98.08793503
 31
0.0
  0
LINE
  5
293
100
AcDbEntity
  8
0
  6
CONTINUOUS
 62
       7
100
AcDbLine
 10
199.62841605
 20
99.25891341
 30
0.0
 11
199.02312309
 21
98.65362046
 31
0.0
  0
LINE
  5
294
100
AcDbEntity
  8
0
  6
CONTINUOUS
 62
       7
100
AcDbLine
 10
204.71958487
 20
99.25891341
 30
0.0
 11
199.02312309
 21
93.56245163
 31
0.0
  0
LINE
  5
295
100
AcDbEntity
  8
0
  6
CONTINUOUS
 62
       7
100
AcDbLine
 10
205.2852703
 20
99.25891341
 30
0.0
 11
199.02312309
 21
92.99676621
 31
0.0
  0
LINE
  5
296
100
AcDbEntity
  8
0
  6
CONTINUOUS
 62
       7
100
AcDbLine
 10
205.85095572
 20
99.25891341
 30
0.0
 11
199.02312309
 21
92.43108078
 31
0.0
  0
LINE
  5
297
100
AcDbEntity
  8
0
  6
CONTINUOUS
 62
       7
100
AcDbLine
 10
206.41664115
 20
99.25891341
 30
0.0
 11
199.02312309
 21
91.86539536
 31
0.0
  0
LINE
  5
298
100
AcDbEntity
  8
0
  6
CONTINUOUS
 62
       7
100
AcDbLine
 10
206.98232657
 20
99.25891341
 30
0.0
 11
199.02312309
 21
91.29970993
 31
0.0
  0
LINE
  5
299
100
AcDbEntity
  8
0
  6
CONTINUOUS
 62
       7
100
AcDbLine
 10
207.548012
 20
99.25891341
 30
0.0
 11
199.02312309
 21
90.73402451
 31
0.0
  0
LINE
  5
29A
100
AcDbEntity
  8
0
  6
CONTINUOUS
 62
       7
100
AcDbLine
 10
208.11369742
 20
99.25891341
 30
0.0
 11
199.02312309
 21
90.16833908
 31
0.0
  0
LINE
  5
29B
100
AcDbEntity
  8
0
  6
CONTINUOUS
 62
       7
100
AcDbLine
 10
208.67938285
 20
99.25891341
 30
0.0
 11
199.02312309
 21
89.60265366
 31
0.0
  0
LINE
  5
29C
100
AcDbEntity
  8
0
  6
CONTINUOUS
 62
       7
100
AcDbLine
 10
209.24506827
 20
99.25891341
 30
0.0
 11
199.24506827
 21
89.25891341
 31
0.0
  0
LINE
  5
29D
100
AcDbEntity
  8
0
  6
CONTINUOUS
 62
       7
100
AcDbLine
 10
209.8107537
 20
99.25891341
 30
0.0
 11
199.8107537
 21
89.25891341
 31
0.0
  0
LINE
  5
29E
100
AcDbEntity
  8
0
  6
CONTINUOUS
 62
       7
100
AcDbLine
 10
210.02312309
 20
98.90559738
 30
0.0
 11
200.37643912
 21
89.25891341
 31
0.0
  0
LINE
  5
29F
100
AcDbEntity
  8
0
  6
CONTINUOUS
 62
       7
100
AcDbLine
 10
210.02312309
 20
98.33991196
 30
0.0
 11
200.94212455
 21
89.25891341
 31
0.0
  0
LINE
  5
2A0
100
AcDbEntity
  8
0
  6
CONTINUOUS
 62
       7
100
AcDbLine
 10
210.02312309
 20
97.77422653
 30
0.0
 11
201.50780997
 21
89.25891341
 31
0.0
  0
LINE
  5
2A1
100
AcDbEntity
  8
0
  6
CONTINUOUS
 62
       7
100
AcDbLine
 10
210.02312309
 20
97.20854111
 30
0.0
 11
202.0734954
 21
89.25891341
 31
0.0
  0
LINE
  5
2A2
100
AcDbEntity
  8
0
  6
CONTINUOUS
 62
       7
100
AcDbLine
 10
210.02312309
 20
96.64285568
 30
0.0
 11
202.63918082
 21
89.25891341
 31
0.0
  0
LINE
  5
2A3
100
AcDbEntity
  8
0
  6
CONTINUOUS
 62
       7
100
AcDbLine
 10
210.02312309
 20
96.07717026
 30
0.0
 11
203.20486625
 21
89.25891341
 31
0.0
  0
LINE
  5
2A4
100
AcDbEntity
  8
0
  6
CONTINUOUS
 62
       7
100
AcDbLine
 10
210.02312309
 20
95.51148483
 30
0.0
 11
203.77055167
 21
89.25891341
 31
0.0
  0
LINE
  5
2A5
100
AcDbEntity
  8
0
  6
CONTINUOUS
 62
       7
100
AcDbLine
 10
210.02312309
 20
94.94579941
 30
0.0
 11
204.3362371
 21
89.25891341
 31
0.0
  0
LINE
  5
2A6
100
AcDbEntity
  8
0
  6
CONTINUOUS
 62
       7
100
AcDbLine
 10
210.02312309
 20
94.38011398
 30
0.0
 11
204.90192252
 21
89.25891341
 31
0.0
  0
LINE
  5
2A7
100
AcDbEntity
  8
0
  6
CONTINUOUS
 62
       7
100
AcDbLine
 10
210.02312309
 20
93.81442856
 30
0.0
 11
205.46760795
 21
89.25891341
 31
0.0
  0
LINE
  5
2A8
100
AcDbEntity
  8
0
  6
CONTINUOUS
 62
       7
100
AcDbLine
 10
210.02312309
 20
93.24874313
 30
0.0
 11
206.03329337
 21
89.25891341
 31
0.0
  0
LINE
  5
2A9
100
AcDbEntity
  8
0
  6
CONTINUOUS
 62
       7
100
AcDbLine
 10
210.02312309
 20
92.68305771
 30
0.0
 11
206.5989788
 21
89.25891341
 31
0.0
  0
LINE
  5
2AA
100
AcDbEntity
  8
0
  6
CONTINUOUS
 62
       7
100
AcDbLine
 10
210.02312309
 20
92.11737228
 30
0.0
 11
207.16466422
 21
89.25891341
 31
0.0
  0
LINE
  5
2AB
100
AcDbEntity
  8
0
  6
CONTINUOUS
 62
       7
100
AcDbLine
 10
210.02312309
 20
91.55168686
 30
0.0
 11
207.73034965
 21
89.25891341
 31
0.0
  0
LINE
  5
2AC
100
AcDbEntity
  8
0
  6
CONTINUOUS
 62
       7
100
AcDbLine
 10
210.02312309
 20
90.98600143
 30
0.0
 11
208.29603507
 21
89.25891341
 31
0.0
  0
LINE
  5
2AD
100
AcDbEntity
  8
0
  6
CONTINUOUS
 62
       7
100
AcDbLine
 10
210.02312309
 20
90.42031601
 30
0.0
 11
208.8617205
 21
89.25891341
 31
0.0
  0
LINE
  5
2AE
100
AcDbEntity
  8
0
  6
CONTINUOUS
 62
       7
100
AcDbLine
 10
210.02312309
 20
89.85463058
 30
0.0
 11
209.42740592
 21
89.25891341
 31
0.0
  0
LINE
  5
2AF
100
AcDbEntity
  8
0
  6
CONTINUOUS
 62
       7
100
AcDbLine
 10
210.02312309
 20
89.28894516
 30
0.0
 11
209.99309135
 21
89.25891341
 31
0.0
  0
LINE
  5
2B0
100
AcDbEntity
  8
0
  6
CONTINUOUS
 62
       7
100
AcDbLine
 10
-161.47687691
 20
278.38391341
 30
0.0
 11
-163.17196386
 21
281.38291341
 31
0.0
  0
LINE
  5
2B1
100
AcDbEntity
  8
0
  6
CONTINUOUS
 62
       7
100
AcDbLine
 10
-169.92798856
 20
284.00891341
 30
0.0
 11
-169.71965522
 21
284.63391341
 31
0.0
  0
LINE
  5
2B2
100
AcDbEntity
  8
0
  6
CONTINUOUS
 62
       7
100
AcDbLine
 10
-153.99747229
 20
279.12361572
 30
0.0
 11
-154.22487691
 21
279.00991341
 31
0.0
  0
LINE
  5
2B3
100
AcDbEntity
  8
0
  6
CONTINUOUS
 62
       7
100
AcDbLine
 10
-153.85187691
 20
278.38391341
 30
0.0
 11
-152.80187691
 21
279.43391341
 31
0.0
  0
LINE
  5
2B4
100
AcDbEntity
  8
0
  6
CONTINUOUS
 62
       7
100
AcDbLine
 10
-152.97687691
 20
278.38391341
 30
0.0
 11
-152.80187691
 21
279.43391341
 31
0.0
  0
LINE
  5
2B5
100
AcDbEntity
  8
0
  6
CONTINUOUS
 62
       7
100
AcDbLine
 10
-148.35187691
 20
279.25891341
 30
0.0
 11
-148.35187691
 21
279.00991341
 31
0.0
  0
LINE
  5
2B6
100
AcDbEntity
  8
0
  6
CONTINUOUS
 62
       7
100
AcDbLine
 10
-142.82183581
 20
278.38391341
 30
0.0
 11
-145.10187691
 21
278.38391341
 31
0.0
  0
LINE
  5
2B7
100
AcDbEntity
  8
0
  6
CONTINUOUS
 62
       7
100
AcDbLine
 10
-146.33381195
 20
279.27472025
 30
0.0
 11
-147.35187691
 21
278.38391341
 31
0.0
  0
LINE
  5
2B8
100
AcDbEntity
  8
0
  6
CONTINUOUS
 62
       7
100
AcDbLine
 10
-139.1103809
 20
278.38391341
 30
0.0
 11
-141.72687691
 21
278.38391341
 31
0.0
  0
LINE
  5
2B9
100
AcDbEntity
  8
0
  6
CONTINUOUS
 62
       7
100
AcDbLine
 10
-165.17962691
 20
279.00991341
 30
0.0
 11
-163.30500191
 21
284.00891341
 31
0.0
  0
LINE
  5
2BA
100
AcDbEntity
  8
0
  6
CONTINUOUS
 62
       7
100
AcDbLine
 10
-163.38643361
 20
282.00891341
 30
0.0
 11
-160.46052121
 21
282.00891341
 31
0.0
  0
LINE
  5
2BB
100
AcDbEntity
  8
0
  6
CONTINUOUS
 62
       7
100
AcDbLine
 10
-144.55642236
 20
279.88391341
 30
0.0
 11
-144.97687691
 21
279.88391341
 31
0.0
  0
LINE
  5
2BC
100
AcDbEntity
  8
0
  6
CONTINUOUS
 62
       7
100
AcDbLine
 10
-144.97687691
 20
279.88391341
 30
0.0
 11
-145.39010512
 21
279.88391341
 31
0.0
  0
LINE
  5
2BD
100
AcDbEntity
  8
0
  6
CONTINUOUS
 62
       7
100
AcDbLine
 10
-149.04636651
 20
278.38391341
 30
0.0
 11
-147.35187691
 21
278.38391341
 31
0.0
  0
CIRCLE
  5
2BE
100
AcDbEntity
  8
0
  6
CONTINUOUS
 62
       7
100
AcDbCircle
 10
-151.79302739
 20
281.88391341
 30
0.0
 40
0.37865048
  0
LINE
  5
2BF
100
AcDbEntity
  8
0
  6
CONTINUOUS
 62
       7
100
AcDbLine
 10
-164.71125191
 20
284.00891341
 30
0.0
 11
-163.30500191
 21
284.00891341
 31
0.0
  0
LINE
  5
2C0
100
AcDbEntity
  8
0
  6
CONTINUOUS
 62
       7
100
AcDbLine
 10
-162.63643361
 20
284.00891341
 30
0.0
 11
-160.46052121
 21
284.00891341
 31
0.0
  0
LINE
  5
2C1
100
AcDbEntity
  8
0
  6
CONTINUOUS
 62
       7
100
AcDbLine
 10
-166.85187691
 20
278.38391341
 30
0.0
 11
-166.61712691
 21
279.00991341
 31
0.0
  0
LINE
  5
2C2
100
AcDbEntity
  8
0
  6
CONTINUOUS
 62
       7
100
AcDbLine
 10
-164.71125191
 20
284.00891341
 30
0.0
 11
-164.47687691
 21
284.63391341
 31
0.0
  0
LINE
  5
2C3
100
AcDbEntity
  8
0
  6
CONTINUOUS
 62
       7
100
AcDbLine
 10
-165.02405385
 20
284.00891341
 30
0.0
 11
-164.78967885
 21
284.63391341
 31
0.0
  0
LINE
  5
2C4
100
AcDbEntity
  8
0
  6
CONTINUOUS
 62
       7
100
AcDbLine
 10
-160.46052121
 20
284.63391341
 30
0.0
 11
-164.47687691
 21
284.63391341
 31
0.0
  0
LINE
  5
2C5
100
AcDbEntity
  8
0
  6
CONTINUOUS
 62
       7
100
AcDbLine
 10
-164.78967885
 20
284.63391341
 30
0.0
 11
-165.38349761
 21
284.63391341
 31
0.0
  0
LINE
  5
2C6
100
AcDbEntity
  8
0
  6
CONTINUOUS
 62
       7
100
AcDbLine
 10
-165.61787261
 20
284.00891341
 30
0.0
 11
-165.02405385
 21
284.00891341
 31
0.0
  0
LINE
  5
2C7
100
AcDbEntity
  8
0
  6
CONTINUOUS
 62
       7
100
AcDbLine
 10
-165.8455775
 20
284.00891341
 30
0.0
 11
-165.6112025
 21
284.63391341
 31
0.0
  0
LINE
  5
2C8
100
AcDbEntity
  8
0
  6
CONTINUOUS
 62
       7
100
AcDbLine
 10
-165.6112025
 20
284.63391341
 30
0.0
 11
-166.10896161
 21
284.63391341
 31
0.0
  0
LINE
  5
2C9
100
AcDbEntity
  8
0
  6
CONTINUOUS
 62
       7
100
AcDbLine
 10
-166.34333661
 20
284.00891341
 30
0.0
 11
-165.8455775
 21
284.00891341
 31
0.0
  0
LINE
  5
2CA
100
AcDbEntity
  8
0
  6
CONTINUOUS
 62
       7
100
AcDbLine
 10
-166.34333661
 20
284.00891341
 30
0.0
 11
-166.10896161
 21
284.63391341
 31
0.0
  0
LINE
  5
2CB
100
AcDbEntity
  8
0
  6
CONTINUOUS
 62
       7
100
AcDbLine
 10
-166.53393527
 20
284.63391341
 30
0.0
 11
-167.0217015
 21
284.63391341
 31
0.0
  0
LINE
  5
2CC
100
AcDbEntity
  8
0
  6
CONTINUOUS
 62
       7
100
AcDbLine
 10
-167.2560765
 20
284.00891341
 30
0.0
 11
-166.76831027
 21
284.00891341
 31
0.0
  0
LINE
  5
2CD
100
AcDbEntity
  8
0
  6
CONTINUOUS
 62
       7
100
AcDbLine
 10
-167.2560765
 20
284.00891341
 30
0.0
 11
-167.0217015
 21
284.63391341
 31
0.0
  0
LINE
  5
2CE
100
AcDbEntity
  8
0
  6
CONTINUOUS
 62
       7
100
AcDbLine
 10
-165.61787261
 20
284.00891341
 30
0.0
 11
-165.38349761
 21
284.63391341
 31
0.0
  0
LINE
  5
2CF
100
AcDbEntity
  8
0
  6
CONTINUOUS
 62
       7
100
AcDbLine
 10
-166.76831027
 20
284.00891341
 30
0.0
 11
-166.53393527
 21
284.63391341
 31
0.0
  0
LINE
  5
2D0
100
AcDbEntity
  8
0
  6
CONTINUOUS
 62
       7
100
AcDbLine
 10
-167.62140594
 20
284.00891341
 30
0.0
 11
-167.38703094
 21
284.63391341
 31
0.0
  0
LINE
  5
2D1
100
AcDbEntity
  8
0
  6
CONTINUOUS
 62
       7
100
AcDbLine
 10
-167.38703094
 20
284.63391341
 30
0.0
 11
-167.8380182
 21
284.63391341
 31
0.0
  0
LINE
  5
2D2
100
AcDbEntity
  8
0
  6
CONTINUOUS
 62
       7
100
AcDbLine
 10
-168.0723932
 20
284.00891341
 30
0.0
 11
-167.62140594
 21
284.00891341
 31
0.0
  0
LINE
  5
2D3
100
AcDbEntity
  8
0
  6
CONTINUOUS
 62
       7
100
AcDbLine
 10
-168.0723932
 20
284.00891341
 30
0.0
 11
-167.8380182
 21
284.63391341
 31
0.0
  0
LINE
  5
2D4
100
AcDbEntity
  8
0
  6
CONTINUOUS
 62
       7
100
AcDbLine
 10
-168.45416198
 20
284.00891341
 30
0.0
 11
-168.21978698
 21
284.63391341
 31
0.0
  0
LINE
  5
2D5
100
AcDbEntity
  8
0
  6
CONTINUOUS
 62
       7
100
AcDbLine
 10
-168.21978698
 20
284.63391341
 30
0.0
 11
-168.62082864
 21
284.63391341
 31
0.0
  0
LINE
  5
2D6
100
AcDbEntity
  8
0
  6
CONTINUOUS
 62
       7
100
AcDbLine
 10
-168.82916198
 20
284.00891341
 30
0.0
 11
-168.45416198
 21
284.00891341
 31
0.0
  0
LINE
  5
2D7
100
AcDbEntity
  8
0
  6
CONTINUOUS
 62
       7
100
AcDbLine
 10
-168.82916198
 20
284.00891341
 30
0.0
 11
-168.62082864
 21
284.63391341
 31
0.0
  0
LINE
  5
2D8
100
AcDbEntity
  8
0
  6
CONTINUOUS
 62
       7
100
AcDbLine
 10
-169.22850701
 20
284.00891341
 30
0.0
 11
-169.02017368
 21
284.63391341
 31
0.0
  0
LINE
  5
2D9
100
AcDbEntity
  8
0
  6
CONTINUOUS
 62
       7
100
AcDbLine
 10
-169.55298856
 20
284.00891341
 30
0.0
 11
-169.34465522
 21
284.63391341
 31
0.0
  0
LINE
  5
2DA
100
AcDbEntity
  8
0
  6
CONTINUOUS
 62
       7
100
AcDbLine
 10
-170.15715522
 20
284.00891341
 30
0.0
 11
-169.94882189
 21
284.63391341
 31
0.0
  0
LINE
  5
2DB
100
AcDbEntity
  8
0
  6
CONTINUOUS
 62
       7
100
AcDbLine
 10
-170.55298856
 20
284.00891341
 30
0.0
 11
-170.34465522
 21
284.63391341
 31
0.0
  0
LINE
  5
2DC
100
AcDbEntity
  8
0
  6
CONTINUOUS
 62
       7
100
AcDbLine
 10
-170.65715522
 20
284.00891341
 30
0.0
 11
-170.44882189
 21
284.63391341
 31
0.0
  0
LINE
  5
2DD
100
AcDbEntity
  8
0
  6
CONTINUOUS
 62
       7
100
AcDbLine
 10
-169.02017368
 20
284.63391341
 30
0.0
 11
-169.34465522
 21
284.63391341
 31
0.0
  0
LINE
  5
2DE
100
AcDbEntity
  8
0
  6
CONTINUOUS
 62
       7
100
AcDbLine
 10
-169.55298856
 20
284.00891341
 30
0.0
 11
-169.22850701
 21
284.00891341
 31
0.0
  0
LINE
  5
2DF
100
AcDbEntity
  8
0
  6
CONTINUOUS
 62
       7
100
AcDbLine
 10
-169.71965522
 20
284.63391341
 30
0.0
 11
-169.94882189
 21
284.63391341
 31
0.0
  0
LINE
  5
2E0
100
AcDbEntity
  8
0
  6
CONTINUOUS
 62
       7
100
AcDbLine
 10
-170.34465522
 20
284.63391341
 30
0.0
 11
-170.44882189
 21
284.63391341
 31
0.0
  0
LINE
  5
2E1
100
AcDbEntity
  8
0
  6
CONTINUOUS
 62
       7
100
AcDbLine
 10
-170.15715522
 20
284.00891341
 30
0.0
 11
-169.92798856
 21
284.00891341
 31
0.0
  0
LINE
  5
2E2
100
AcDbEntity
  8
0
  6
CONTINUOUS
 62
       7
100
AcDbLine
 10
-170.55298856
 20
284.00891341
 30
0.0
 11
-170.65715522
 21
284.00891341
 31
0.0
  0
ARC
  5
2E3
100
AcDbEntity
  8
0
  6
CONTINUOUS
 62
       7
100
AcDbCircle
 10
-160.46052121
 20
283.00891341
 30
0.0
 40
1.0
100
AcDbArc
 50
270.00000154
 51
449.99999846
  0
LINE
  5
2E4
100
AcDbEntity
  8
0
  6
CONTINUOUS
 62
       7
100
AcDbLine
 10
-166.61712691
 20
279.00991341
 30
0.0
 11
-165.17962691
 21
279.00991341
 31
0.0
  0
LINE
  5
2E5
100
AcDbEntity
  8
0
  6
CONTINUOUS
 62
       7
100
AcDbLine
 10
-166.85187691
 20
278.38391341
 30
0.0
 11
-164.74580861
 21
278.38391341
 31
0.0
  0
LINE
  5
2E6
100
AcDbEntity
  8
0
  6
CONTINUOUS
 62
       7
100
AcDbLine
 10
-164.74580861
 20
278.38391341
 30
0.0
 11
-163.62118361
 21
281.38291341
 31
0.0
  0
LINE
  5
2E7
100
AcDbEntity
  8
0
  6
CONTINUOUS
 62
       7
100
AcDbLine
 10
-163.38643361
 20
282.00891341
 30
0.0
 11
-162.63643361
 21
284.00891341
 31
0.0
  0
LINE
  5
2E8
100
AcDbEntity
  8
0
  6
CONTINUOUS
 62
       7
100
AcDbLine
 10
-163.62118361
 20
281.38291341
 30
0.0
 11
-163.17196386
 21
281.38291341
 31
0.0
  0
LINE
  5
2E9
100
AcDbEntity
  8
0
  6
CONTINUOUS
 62
       7
100
AcDbLine
 10
-162.45288883
 20
281.38291341
 30
0.0
 11
-160.46052121
 21
281.38291341
 31
0.0
  0
LINE
  5
2EA
100
AcDbEntity
  8
0
  6
CONTINUOUS
 62
       7
100
AcDbLine
 10
-161.11162796
 20
279.00991341
 30
0.0
 11
-162.45288883
 21
281.38291341
 31
0.0
  0
ARC
  5
2EB
100
AcDbEntity
  8
0
  6
CONTINUOUS
 62
       7
100
AcDbCircle
 10
-160.46052121
 20
283.00891341
 30
0.0
 40
1.625
100
AcDbArc
 50
270.00000154
 51
449.99999846
  0
LINE
  5
2EC
100
AcDbEntity
  8
0
  6
CONTINUOUS
 62
       7
100
AcDbLine
 10
-161.47687691
 20
278.38391341
 30
0.0
 11
-159.22687691
 21
278.38391341
 31
0.0
  0
LINE
  5
2ED
100
AcDbEntity
  8
0
  6
CONTINUOUS
 62
       7
100
AcDbLine
 10
-161.11162796
 20
279.00991341
 30
0.0
 11
-159.26442498
 21
279.00991341
 31
0.0
  0
ARC
  5
2EE
100
AcDbEntity
  8
0
  6
CONTINUOUS
 62
       7
100
AcDbCircle
 10
-159.45063572
 20
280.41384847
 30
0.0
 40
1.41623024
100
AcDbArc
 50
277.55532133
 51
282.61004852
  0
ARC
  5
2EF
100
AcDbEntity
  8
0
  6
CONTINUOUS
 62
       7
100
AcDbCircle
 10
-159.45063572
 20
280.41384847
 30
0.0
 40
2.04223024
100
AcDbArc
 50
276.29029433
 51
293.79815878
  0
ARC
  5
2F0
100
AcDbEntity
  8
0
  6
CONTINUOUS
 62
       7
100
AcDbCircle
 10
-159.45063572
 20
280.41384847
 30
0.0
 40
2.04223024
100
AcDbArc
 50
316.57126067
 51
318.01427023
  0
ARC
  5
2F1
100
AcDbEntity
  8
0
  6
CONTINUOUS
 62
       7
100
AcDbCircle
 10
-157.9838063
 20
279.74122139
 30
0.0
 40
1.35773768
100
AcDbArc
 50
209.3318232
 51
211.50126581
  0
ARC
  5
2F2
100
AcDbEntity
  8
0
  6
CONTINUOUS
 62
       7
100
AcDbCircle
 10
-157.9838063
 20
279.74122139
 30
0.0
 40
1.35773768
100
AcDbArc
 50
241.74457935
 51
270.00000154
  0
ARC
  5
2F3
100
AcDbEntity
  8
0
  6
CONTINUOUS
 62
       7
100
AcDbCircle
 10
-154.61698832
 20
280.79901687
 30
0.0
 40
2.42821367
100
AcDbArc
 50
241.28311669
 51
264.04345364
  0
LINE
  5
2F4
100
AcDbEntity
  8
0
  6
CONTINUOUS
 62
       7
100
AcDbLine
 10
-157.9838063
 20
278.38391341
 30
0.0
 11
-156.57511244
 21
278.38391341
 31
0.0
  0
ARC
  5
2F5
100
AcDbEntity
  8
0
  6
CONTINUOUS
 62
       7
100
AcDbCircle
 10
-154.61698832
 20
280.79901687
 30
0.0
 40
1.80221367
100
AcDbArc
 50
251.08708228
 51
263.08482966
  0
ARC
  5
2F6
100
AcDbEntity
  8
0
  6
CONTINUOUS
 62
       7
100
AcDbCircle
 10
-157.10647439
 20
281.09609636
 30
0.0
 40
2.13774418
100
AcDbArc
 50
282.60951111
 51
291.93127165
  0
LINE
  5
2F7
100
AcDbEntity
  8
0
  6
CONTINUOUS
 62
       7
100
AcDbLine
 10
-157.96750703
 20
279.00991341
 30
0.0
 11
-156.6397937
 21
279.00991341
 31
0.0
  0
ARC
  5
2F8
100
AcDbEntity
  8
0
  6
CONTINUOUS
 62
       7
100
AcDbCircle
 10
-157.10647439
 20
281.09609636
 30
0.0
 40
2.76374418
100
AcDbArc
 50
313.58286369
 51
326.24939515
  0
ARC
  5
2F9
100
AcDbEntity
  8
0
  6
CONTINUOUS
 62
       7
100
AcDbCircle
 10
-157.10647439
 20
281.09609636
 30
0.0
 40
2.76374418
100
AcDbArc
 50
281.08480146
 51
298.59507593
  0
LINE
  5
2FA
100
AcDbEntity
  8
0
  6
CONTINUOUS
 62
       7
100
AcDbLine
 10
-154.86897426
 20
278.38391341
 30
0.0
 11
-153.85187691
 21
278.38391341
 31
0.0
  0
LINE
  5
2FB
100
AcDbEntity
  8
0
  6
CONTINUOUS
 62
       7
100
AcDbLine
 10
-153.99747229
 20
279.12361572
 30
0.0
 11
-152.29651196
 21
280.82457605
 31
0.0
  0
LINE
  5
2FC
100
AcDbEntity
  8
0
  6
CONTINUOUS
 62
       7
100
AcDbLine
 10
-152.23790868
 20
279.00991341
 30
0.0
 11
-151.96287985
 21
280.6600864
 31
0.0
  0
LINE
  5
2FD
100
AcDbEntity
  8
0
  6
CONTINUOUS
 62
       7
100
AcDbLine
 10
-154.83397433
 20
279.00991341
 30
0.0
 11
-154.22487691
 21
279.00991341
 31
0.0
  0
ARC
  5
2FE
100
AcDbEntity
  8
0
  6
CONTINUOUS
 62
       7
100
AcDbCircle
 10
-152.1544734
 20
280.69201865
 30
0.0
 40
0.19428437
100
AcDbArc
 50
350.5376807
 51
496.97750502
  0
LINE
  5
2FF
100
AcDbEntity
  8
0
  6
CONTINUOUS
 62
       7
100
AcDbLine
 10
-151.57780875
 20
279.00991341
 30
0.0
 11
-150.5359289
 21
279.51034389
 31
0.0
  0
LINE
  5
300
100
AcDbEntity
  8
0
  6
CONTINUOUS
 62
       7
100
AcDbLine
 10
-151.47687691
 20
278.38391341
 30
0.0
 11
-150.60457808
 21
278.77043988
 31
0.0
  0
LINE
  5
301
100
AcDbEntity
  8
0
  6
CONTINUOUS
 62
       7
100
AcDbLine
 10
-152.23790868
 20
279.00991341
 30
0.0
 11
-151.57780875
 21
279.00991341
 31
0.0
  0
LINE
  5
302
100
AcDbEntity
  8
0
  6
CONTINUOUS
 62
       7
100
AcDbLine
 10
-149.33812866
 20
278.66595016
 30
0.0
 11
-149.04636651
 21
278.38391341
 31
0.0
  0
LINE
  5
303
100
AcDbEntity
  8
0
  6
CONTINUOUS
 62
       7
100
AcDbLine
 10
-148.35187691
 20
279.00991341
 30
0.0
 11
-147.47245242
 21
279.00991341
 31
0.0
  0
LINE
  5
304
100
AcDbEntity
  8
0
  6
CONTINUOUS
 62
       7
100
AcDbLine
 10
-145.47359528
 20
280.75891341
 30
0.0
 11
-147.47245242
 21
279.00991341
 31
0.0
  0
LINE
  5
305
100
AcDbEntity
  8
0
  6
CONTINUOUS
 62
       7
100
AcDbLine
 10
-148.51645649
 20
280.6381051
 30
0.0
 11
-147.85035266
 21
280.6381051
 31
0.0
  0
LINE
  5
306
100
AcDbEntity
  8
0
  6
CONTINUOUS
 62
       7
100
AcDbLine
 10
-148.66766616
 20
280.22227849
 30
0.0
 11
-148.51645649
 21
280.6381051
 31
0.0
  0
LINE
  5
307
100
AcDbEntity
  8
0
  6
CONTINUOUS
 62
       7
100
AcDbLine
 10
-148.35187691
 20
279.25891341
 30
0.0
 11
-147.85035266
 21
280.6381051
 31
0.0
  0
LINE
  5
308
100
AcDbEntity
  8
0
  6
CONTINUOUS
 62
       7
100
AcDbLine
 10
-146.6505808
 20
278.40360591
 30
0.0
 11
-146.33381195
 21
279.27472025
 31
0.0
  0
LINE
  5
309
100
AcDbEntity
  8
0
  6
CONTINUOUS
 62
       7
100
AcDbLine
 10
-145.39010512
 20
279.88391341
 30
0.0
 11
-145.93555967
 21
278.38391341
 31
0.0
  0
LINE
  5
30A
100
AcDbEntity
  8
0
  6
CONTINUOUS
 62
       7
100
AcDbLine
 10
-145.10187691
 20
278.38391341
 30
0.0
 11
-144.55642236
 21
279.88391341
 31
0.0
  0
LINE
  5
30B
100
AcDbEntity
  8
0
  6
CONTINUOUS
 62
       7
100
AcDbLine
 10
-143.64445753
 20
280.36056671
 30
0.0
 11
-144.13560418
 21
279.00991341
 31
0.0
  0
LINE
  5
30C
100
AcDbEntity
  8
0
  6
CONTINUOUS
 62
       7
100
AcDbLine
 10
-143.85229059
 20
280.75891341
 30
0.0
 11
-143.64445753
 21
280.36056671
 31
0.0
  0
LINE
  5
30D
100
AcDbEntity
  8
0
  6
CONTINUOUS
 62
       7
100
AcDbLine
 10
-145.22367954
 20
280.38711078
 30
0.0
 11
-145.10071095
 21
280.75891341
 31
0.0
  0
LINE
  5
30E
100
AcDbEntity
  8
0
  6
CONTINUOUS
 62
       7
100
AcDbLine
 10
-145.22367954
 20
280.38711078
 30
0.0
 11
-144.55778237
 21
280.75891341
 31
0.0
  0
LINE
  5
30F
100
AcDbEntity
  8
0
  6
CONTINUOUS
 62
       7
100
AcDbLine
 10
-143.85229059
 20
280.75891341
 30
0.0
 11
-144.55778237
 21
280.75891341
 31
0.0
  0
LINE
  5
310
100
AcDbEntity
  8
0
  6
CONTINUOUS
 62
       7
100
AcDbLine
 10
-145.10071095
 20
280.75891341
 30
0.0
 11
-145.47359528
 21
280.75891341
 31
0.0
  0
ARC
  5
311
100
AcDbEntity
  8
0
  6
CONTINUOUS
 62
       7
100
AcDbCircle
 10
-139.33413971
 20
280.41384847
 30
0.0
 40
1.41623024
100
AcDbArc
 50
277.55532133
 51
282.61004852
  0
ARC
  5
312
100
AcDbEntity
  8
0
  6
CONTINUOUS
 62
       7
100
AcDbCircle
 10
-139.33413971
 20
280.41384847
 30
0.0
 40
2.04223024
100
AcDbArc
 50
276.29029433
 51
293.79815878
  0
ARC
  5
313
100
AcDbEntity
  8
0
  6
CONTINUOUS
 62
       7
100
AcDbCircle
 10
-139.33413971
 20
280.41384847
 30
0.0
 40
2.04223024
100
AcDbArc
 50
316.57126067
 51
318.01427023
  0
ARC
  5
314
100
AcDbEntity
  8
0
  6
CONTINUOUS
 62
       7
100
AcDbCircle
 10
-137.8673103
 20
279.74122139
 30
0.0
 40
1.35773768
100
AcDbArc
 50
209.3318232
 51
211.50126581
  0
ARC
  5
315
100
AcDbEntity
  8
0
  6
CONTINUOUS
 62
       7
100
AcDbCircle
 10
-137.8673103
 20
279.74122139
 30
0.0
 40
1.35773768
100
AcDbArc
 50
241.74457935
 51
270.00000154
  0
LINE
  5
316
100
AcDbEntity
  8
0
  6
CONTINUOUS
 62
       7
100
AcDbLine
 10
-141.3222808
 20
279.00991341
 30
0.0
 11
-139.14792897
 21
279.00991341
 31
0.0
  0
LINE
  5
317
100
AcDbEntity
  8
0
  6
CONTINUOUS
 62
       7
100
AcDbLine
 10
-137.8673103
 20
278.38391341
 30
0.0
 11
-136.66356174
 21
278.38391341
 31
0.0
  0
LINE
  5
318
100
AcDbEntity
  8
0
  6
CONTINUOUS
 62
       7
100
AcDbLine
 10
-137.85101102
 20
279.00991341
 30
0.0
 11
-136.52329769
 21
279.00991341
 31
0.0
  0
LINE
  5
319
100
AcDbEntity
  8
0
  6
CONTINUOUS
 62
       7
100
AcDbLine
 10
-152.97687691
 20
278.38391341
 30
0.0
 11
-151.47687691
 21
278.38391341
 31
0.0
  0
LINE
  5
31A
100
AcDbEntity
  8
0
  6
CONTINUOUS
 62
       7
100
AcDbLine
 10
-146.6505808
 20
278.40360591
 30
0.0
 11
-145.93555967
 21
278.38391341
 31
0.0
  0
LINE
  5
31B
100
AcDbEntity
  8
0
  6
CONTINUOUS
 62
       7
100
AcDbLine
 10
-144.13560418
 20
279.00991341
 30
0.0
 11
-142.97969835
 21
279.00991341
 31
0.0
  0
LINE
  5
31C
100
AcDbEntity
  8
0
  6
CONTINUOUS
 62
       7
100
AcDbLine
 10
-140.84653587
 20
279.91110284
 30
0.0
 11
-140.37956856
 21
280.28856808
 31
0.0
  0
ARC
  5
31D
100
AcDbEntity
  8
0
  6
CONTINUOUS
 62
       7
100
AcDbCircle
 10
-141.3222808
 20
279.58991341
 30
0.0
 40
0.58
100
AcDbArc
 50
34.07537223
 51
270.00000154
  0
ARC
  5
31E
100
AcDbEntity
  8
0
  6
CONTINUOUS
 62
       7
100
AcDbCircle
 10
-141.3222808
 20
279.58991341
 30
0.0
 40
1.17338174
100
AcDbArc
 50
36.54255901
 51
190.98612102
  0
LINE
  5
31F
100
AcDbEntity
  8
0
  6
CONTINUOUS
 62
       7
100
AcDbLine
 10
-142.82183581
 20
278.38391341
 30
0.0
 11
-142.22748482
 21
278.82126603
 31
0.0
  0
LINE
  5
320
100
AcDbEntity
  8
0
  6
CONTINUOUS
 62
       7
100
AcDbLine
 10
-142.48161195
 20
279.37642982
 30
0.0
 11
-142.97969835
 21
279.00991341
 31
0.0
  0
LINE
  5
321
100
AcDbEntity
  8
0
  6
CONTINUOUS
 62
       7
100
AcDbLine
 10
-142.22748482
 20
278.82126603
 30
0.0
 11
-141.72687691
 21
278.38391341
 31
0.0
  0
LINE
  5
322
100
AcDbEntity
  8
0
  6
CONTINUOUS
 62
       7
100
AcDbLine
 10
-136.52329769
 20
279.00991341
 30
0.0
 11
-136.66356174
 21
278.38391341
 31
0.0
  0
LINE
  5
323
100
AcDbEntity
  8
0
  6
CONTINUOUS
 62
       7
100
AcDbLine
 10
-169.76653022
 20
284.49328841
 30
0.0
 11
-170.11028022
 21
284.14953841
 31
0.0
  0
LINE
  5
324
100
AcDbEntity
  8
0
  6
CONTINUOUS
 62
       7
100
AcDbLine
 10
-169.04321996
 20
284.56477457
 30
0.0
 11
-169.52994228
 21
284.07805225
 31
0.0
  0
LINE
  5
325
100
AcDbEntity
  8
0
  6
CONTINUOUS
 62
       7
100
AcDbLine
 10
-168.22447448
 20
284.62141341
 30
0.0
 11
-168.82525573
 21
284.02063216
 31
0.0
  0
LINE
  5
326
100
AcDbEntity
  8
0
  6
CONTINUOUS
 62
       7
100
AcDbLine
 10
-167.41721207
 20
284.63391341
 30
0.0
 11
-168.04221207
 21
284.00891341
 31
0.0
  0
LINE
  5
327
100
AcDbEntity
  8
0
  6
CONTINUOUS
 62
       7
100
AcDbLine
 10
-166.58250589
 20
284.63391341
 30
0.0
 11
-167.20750589
 21
284.00891341
 31
0.0
  0
LINE
  5
328
100
AcDbEntity
  8
0
  6
CONTINUOUS
 62
       7
100
AcDbLine
 10
-165.66476955
 20
284.63391341
 30
0.0
 11
-166.28976955
 21
284.00891341
 31
0.0
  0
LINE
  5
329
100
AcDbEntity
  8
0
  6
CONTINUOUS
 62
       7
100
AcDbLine
 10
-164.89127573
 20
284.63391341
 30
0.0
 11
-165.51627573
 21
284.00891341
 31
0.0
  0
LINE
  5
32A
100
AcDbEntity
  8
0
  6
CONTINUOUS
 62
       7
100
AcDbLine
 10
-164.67503903
 20
278.57263229
 30
0.0
 11
-164.86375791
 21
278.38391341
 31
0.0
  0
LINE
  5
32B
100
AcDbEntity
  8
0
  6
CONTINUOUS
 62
       7
100
AcDbLine
 10
-164.33562778
 20
279.47772897
 30
0.0
 11
-165.42944334
 21
278.38391341
 31
0.0
  0
LINE
  5
32C
100
AcDbEntity
  8
0
  6
CONTINUOUS
 62
       7
100
AcDbLine
 10
-163.99621652
 20
280.38282565
 30
0.0
 11
-165.06592579
 21
279.31311638
 31
0.0
  0
LINE
  5
32D
100
AcDbEntity
  8
0
  6
CONTINUOUS
 62
       7
100
AcDbLine
 10
-165.36912876
 20
279.00991341
 30
0.0
 11
-165.99512876
 21
278.38391341
 31
0.0
  0
LINE
  5
32E
100
AcDbEntity
  8
0
  6
CONTINUOUS
 62
       7
100
AcDbLine
 10
-163.65680527
 20
281.28792233
 30
0.0
 11
-164.72651454
 21
280.21821306
 31
0.0
  0
LINE
  5
32F
100
AcDbEntity
  8
0
  6
CONTINUOUS
 62
       7
100
AcDbLine
 10
-165.93481419
 20
279.00991341
 30
0.0
 11
-166.56081419
 21
278.38391341
 31
0.0
  0
LINE
  5
330
100
AcDbEntity
  8
0
  6
CONTINUOUS
 62
       7
100
AcDbLine
 10
-166.50049961
 20
279.00991341
 30
0.0
 11
-166.68710328
 21
278.82330974
 31
0.0
  0
LINE
  5
331
100
AcDbEntity
  8
0
  6
CONTINUOUS
 62
       7
100
AcDbLine
 10
-162.57355589
 20
284.63391341
 30
0.0
 11
-163.36886952
 21
283.83859978
 31
0.0
  0
LINE
  5
332
100
AcDbEntity
  8
0
  6
CONTINUOUS
 62
       7
100
AcDbLine
 10
-163.13924131
 20
284.63391341
 30
0.0
 11
-163.76424131
 21
284.00891341
 31
0.0
  0
LINE
  5
333
100
AcDbEntity
  8
0
  6
CONTINUOUS
 62
       7
100
AcDbLine
 10
-163.70492674
 20
284.63391341
 30
0.0
 11
-164.32992674
 21
284.00891341
 31
0.0
  0
LINE
  5
334
100
AcDbEntity
  8
0
  6
CONTINUOUS
 62
       7
100
AcDbLine
 10
-164.27061216
 20
284.63391341
 30
0.0
 11
-164.60063575
 21
284.30388982
 31
0.0
  0
LINE
  5
335
100
AcDbEntity
  8
0
  6
CONTINUOUS
 62
       7
100
AcDbLine
 10
-158.53508271
 20
280.75279064
 30
0.0
 11
-159.13346272
 21
280.15441063
 31
0.0
  0
LINE
  5
336
100
AcDbEntity
  8
0
  6
CONTINUOUS
 62
       7
100
AcDbLine
 10
-157.93267469
 20
280.78951324
 30
0.0
 11
-159.28099577
 21
279.44119215
 31
0.0
  0
LINE
  5
337
100
AcDbEntity
  8
0
  6
CONTINUOUS
 62
       7
100
AcDbLine
 10
-157.49558126
 20
280.09523581
 30
0.0
 11
-159.2042861
 21
278.38653098
 31
0.0
  0
LINE
  5
338
100
AcDbEntity
  8
0
  6
CONTINUOUS
 62
       7
100
AcDbLine
 10
-161.44218504
 20
284.63391341
 30
0.0
 11
-162.06718504
 21
284.00891341
 31
0.0
  0
LINE
  5
339
100
AcDbEntity
  8
0
  6
CONTINUOUS
 62
       7
100
AcDbLine
 10
-162.97798276
 20
283.09811569
 30
0.0
 11
-164.04769203
 21
282.02840642
 31
0.0
  0
LINE
  5
33A
100
AcDbEntity
  8
0
  6
CONTINUOUS
 62
       7
100
AcDbLine
 10
-160.87649961
 20
284.63391341
 30
0.0
 11
-161.50149961
 21
284.00891341
 31
0.0
  0
LINE
  5
33B
100
AcDbEntity
  8
0
  6
CONTINUOUS
 62
       7
100
AcDbLine
 10
-163.31739401
 20
282.19301901
 30
0.0
 11
-164.38710328
 21
281.12330974
 31
0.0
  0
LINE
  5
33C
100
AcDbEntity
  8
0
  6
CONTINUOUS
 62
       7
100
AcDbLine
 10
-160.31715115
 20
284.62757645
 30
0.0
 11
-160.93581419
 21
284.00891341
 31
0.0
  0
LINE
  5
33D
100
AcDbEntity
  8
0
  6
CONTINUOUS
 62
       7
100
AcDbLine
 10
-162.93581419
 20
282.00891341
 30
0.0
 11
-163.56181419
 21
281.38291341
 31
0.0
  0
LINE
  5
33E
100
AcDbEntity
  8
0
  6
CONTINUOUS
 62
       7
100
AcDbLine
 10
-159.86011599
 20
284.51892618
 30
0.0
 11
-160.37388845
 21
284.00515373
 31
0.0
  0
LINE
  5
33F
100
AcDbEntity
  8
0
  6
CONTINUOUS
 62
       7
100
AcDbLine
 10
-162.37012876
 20
282.00891341
 30
0.0
 11
-163.10846785
 21
281.27057432
 31
0.0
  0
LINE
  5
340
100
AcDbEntity
  8
0
  6
CONTINUOUS
 62
       7
100
AcDbLine
 10
-159.49637405
 20
284.3169827
 30
0.0
 11
-159.94660372
 21
283.86675303
 31
0.0
  0
LINE
  5
341
100
AcDbEntity
  8
0
  6
CONTINUOUS
 62
       7
100
AcDbLine
 10
-159.20595352
 20
284.0417178
 30
0.0
 11
-159.65128059
 21
283.59639074
 31
0.0
  0
LINE
  5
342
100
AcDbEntity
  8
0
  6
CONTINUOUS
 62
       7
100
AcDbLine
 10
-158.98730918
 20
283.69467672
 30
0.0
 11
-159.47944591
 21
283.20253999
 31
0.0
  0
LINE
  5
343
100
AcDbEntity
  8
0
  6
CONTINUOUS
 62
       7
100
AcDbLine
 10
-158.85520794
 20
283.26109253
 30
0.0
 11
-159.57838908
 21
282.53791139
 31
0.0
  0
LINE
  5
344
100
AcDbEntity
  8
0
  6
CONTINUOUS
 62
       7
100
AcDbLine
 10
-162.00787046
 20
284.63391341
 30
0.0
 11
-162.63287046
 21
284.00891341
 31
0.0
  0
LINE
  5
345
100
AcDbEntity
  8
0
  6
CONTINUOUS
 62
       7
100
AcDbLine
 10
-162.6385715
 20
284.00321237
 30
0.0
 11
-163.70828077
 21
282.9335031
 31
0.0
  0
LINE
  5
346
100
AcDbEntity
  8
0
  6
CONTINUOUS
 62
       7
100
AcDbLine
 10
-161.23875791
 20
282.00891341
 30
0.0
 11
-161.86475791
 21
281.38291341
 31
0.0
  0
LINE
  5
347
100
AcDbEntity
  8
0
  6
CONTINUOUS
 62
       7
100
AcDbLine
 10
-162.24050822
 20
281.0071631
 30
0.0
 11
-162.69991727
 21
280.54775406
 31
0.0
  0
LINE
  5
348
100
AcDbEntity
  8
0
  6
CONTINUOUS
 62
       7
100
AcDbLine
 10
-161.80444334
 20
282.00891341
 30
0.0
 11
-162.43044334
 21
281.38291341
 31
0.0
  0
LINE
  5
349
100
AcDbEntity
  8
0
  6
CONTINUOUS
 62
       7
100
AcDbLine
 10
-162.44478351
 20
281.36857324
 30
0.0
 11
-162.90419256
 21
280.90916419
 31
0.0
  0
LINE
  5
34A
100
AcDbEntity
  8
0
  6
CONTINUOUS
 62
       7
100
AcDbLine
 10
-160.67307249
 20
282.00891341
 30
0.0
 11
-161.29907249
 21
281.38291341
 31
0.0
  0
LINE
  5
34B
100
AcDbEntity
  8
0
  6
CONTINUOUS
 62
       7
100
AcDbLine
 10
-162.03623293
 20
280.64575297
 30
0.0
 11
-162.49564198
 21
280.18634392
 31
0.0
  0
LINE
  5
34C
100
AcDbEntity
  8
0
  6
CONTINUOUS
 62
       7
100
AcDbLine
 10
-159.9895192
 20
282.12678128
 30
0.0
 11
-160.73338706
 21
281.38291341
 31
0.0
  0
LINE
  5
34D
100
AcDbEntity
  8
0
  6
CONTINUOUS
 62
       7
100
AcDbLine
 10
-161.83195764
 20
280.28434284
 30
0.0
 11
-162.29136668
 21
279.82493379
 31
0.0
  0
LINE
  5
34E
100
AcDbEntity
  8
0
  6
CONTINUOUS
 62
       7
100
AcDbLine
 10
-158.86877816
 20
282.68183689
 30
0.0
 11
-160.13344469
 21
281.41717036
 31
0.0
  0
LINE
  5
34F
100
AcDbEntity
  8
0
  6
CONTINUOUS
 62
       7
100
AcDbLine
 10
-161.62768235
 20
279.92293271
 30
0.0
 11
-162.08709139
 21
279.46352366
 31
0.0
  0
LINE
  5
350
100
AcDbEntity
  8
0
  6
CONTINUOUS
 62
       7
100
AcDbLine
 10
-161.42340705
 20
279.56152257
 30
0.0
 11
-161.8828161
 21
279.10211353
 31
0.0
  0
LINE
  5
351
100
AcDbEntity
  8
0
  6
CONTINUOUS
 62
       7
100
AcDbLine
 10
-161.21913176
 20
279.20011244
 30
0.0
 11
-161.67854081
 21
278.74070339
 31
0.0
  0
LINE
  5
352
100
AcDbEntity
  8
0
  6
CONTINUOUS
 62
       7
100
AcDbLine
 10
-160.84364536
 20
279.00991341
 30
0.0
 11
-161.46964536
 21
278.38391341
 31
0.0
  0
LINE
  5
353
100
AcDbEntity
  8
0
  6
CONTINUOUS
 62
       7
100
AcDbLine
 10
-160.27795994
 20
279.00991341
 30
0.0
 11
-160.90395994
 21
278.38391341
 31
0.0
  0
LINE
  5
354
100
AcDbEntity
  8
0
  6
CONTINUOUS
 62
       7
100
AcDbLine
 10
-159.71227451
 20
279.00991341
 30
0.0
 11
-160.33827451
 21
278.38391341
 31
0.0
  0
LINE
  5
355
100
AcDbEntity
  8
0
  6
CONTINUOUS
 62
       7
100
AcDbLine
 10
-157.62556398
 20
280.53093852
 30
0.0
 11
-158.14398079
 21
280.01252171
 31
0.0
  0
LINE
  5
356
100
AcDbEntity
  8
0
  6
CONTINUOUS
 62
       7
100
AcDbLine
 10
-158.6148147
 20
279.5416878
 30
0.0
 11
-159.77258909
 21
278.38391341
 31
0.0
  0
LINE
  5
357
100
AcDbEntity
  8
0
  6
CONTINUOUS
 62
       7
100
AcDbLine
 10
-154.54606134
 20
282.47907031
 30
0.0
 11
-155.98039947
 21
281.04473218
 31
0.0
  0
LINE
  5
358
100
AcDbEntity
  8
0
  6
CONTINUOUS
 62
       7
100
AcDbLine
 10
-157.71910475
 20
279.3060269
 30
0.0
 11
-158.52787293
 21
278.49725872
 31
0.0
  0
LINE
  5
359
100
AcDbEntity
  8
0
  6
CONTINUOUS
 62
       7
100
AcDbLine
 10
-154.15742988
 20
282.30201634
 30
0.0
 11
-156.30313415
 21
280.15631207
 31
0.0
  0
LINE
  5
35A
100
AcDbEntity
  8
0
  6
CONTINUOUS
 62
       7
100
AcDbLine
 10
-157.44953281
 20
279.00991341
 30
0.0
 11
-158.07302782
 21
278.38641841
 31
0.0
  0
LINE
  5
35B
100
AcDbEntity
  8
0
  6
CONTINUOUS
 62
       7
100
AcDbLine
 10
-156.88384739
 20
279.00991341
 30
0.0
 11
-157.50984739
 21
278.38391341
 31
0.0
  0
LINE
  5
35C
100
AcDbEntity
  8
0
  6
CONTINUOUS
 62
       7
100
AcDbLine
 10
-154.01658127
 20
281.87717953
 30
0.0
 11
-154.83111266
 21
281.06264814
 31
0.0
  0
LINE
  5
35D
100
AcDbEntity
  8
0
  6
CONTINUOUS
 62
       7
100
AcDbLine
 10
-155.5635546
 20
280.3302062
 30
0.0
 11
-156.37808599
 21
279.51567481
 31
0.0
  0
LINE
  5
35E
100
AcDbEntity
  8
0
  6
CONTINUOUS
 62
       7
100
AcDbLine
 10
-154.04911632
 20
281.27895906
 30
0.0
 11
-156.94416196
 21
278.38391341
 31
0.0
  0
LINE
  5
35F
100
AcDbEntity
  8
0
  6
CONTINUOUS
 62
       7
100
AcDbLine
 10
-154.29480216
 20
280.46758779
 30
0.0
 11
-156.31397763
 21
278.44841233
 31
0.0
  0
LINE
  5
360
100
AcDbEntity
  8
0
  6
CONTINUOUS
 62
       7
100
AcDbLine
 10
-152.18035457
 20
280.88457145
 30
0.0
 11
-154.68101262
 21
278.38391341
 31
0.0
  0
LINE
  5
361
100
AcDbEntity
  8
0
  6
CONTINUOUS
 62
       7
100
AcDbLine
 10
-151.98747193
 20
282.20882494
 30
0.0
 11
-152.11793892
 21
282.07835796
 31
0.0
  0
LINE
  5
362
100
AcDbEntity
  8
0
  6
CONTINUOUS
 62
       7
100
AcDbLine
 10
-155.12609125
 20
279.07020563
 30
0.0
 11
-155.61218517
 21
278.58411171
 31
0.0
  0
LINE
  5
363
100
AcDbEntity
  8
0
  6
CONTINUOUS
 62
       7
100
AcDbLine
 10
-151.50312035
 20
282.12749111
 30
0.0
 11
-152.03660508
 21
281.59400637
 31
0.0
  0
LINE
  5
364
100
AcDbEntity
  8
0
  6
CONTINUOUS
 62
       7
100
AcDbLine
 10
-154.62069804
 20
279.00991341
 30
0.0
 11
-155.19098948
 21
278.43962197
 31
0.0
  0
LINE
  5
365
100
AcDbEntity
  8
0
  6
CONTINUOUS
 62
       7
100
AcDbLine
 10
-149.09019179
 20
280.58062169
 30
0.0
 11
-151.13573651
 21
278.53507697
 31
0.0
  0
LINE
  5
366
100
AcDbEntity
  8
0
  6
CONTINUOUS
 62
       7
100
AcDbLine
 10
-151.79227092
 20
279.00991341
 30
0.0
 11
-152.41827092
 21
278.38391341
 31
0.0
  0
LINE
  5
367
100
AcDbEntity
  8
0
  6
CONTINUOUS
 62
       7
100
AcDbLine
 10
-152.21389915
 20
279.1539706
 30
0.0
 11
-152.98395634
 21
278.38391341
 31
0.0
  0
LINE
  5
368
100
AcDbEntity
  8
0
  6
CONTINUOUS
 62
       7
100
AcDbLine
 10
-152.10076207
 20
279.83279311
 30
0.0
 11
-152.86232393
 21
279.07123124
 31
0.0
  0
LINE
  5
369
100
AcDbEntity
  8
0
  6
CONTINUOUS
 62
       7
100
AcDbLine
 10
-154.11532719
 20
278.38391341
 30
0.0
 11
-151.98762498
 21
280.51161562
 31
0.0
  0
LINE
  5
36A
100
AcDbEntity
  8
0
  6
CONTINUOUS
 62
       7
100
AcDbLine
 10
-147.90133753
 20
280.6381051
 30
0.0
 11
-150.15176416
 21
278.38767847
 31
0.0
  0
LINE
  5
36B
100
AcDbEntity
  8
0
  6
CONTINUOUS
 62
       7
100
AcDbLine
 10
-148.14446726
 20
279.82928995
 30
0.0
 11
-149.32271089
 21
278.65104631
 31
0.0
  0
LINE
  5
36C
100
AcDbEntity
  8
0
  6
CONTINUOUS
 62
       7
100
AcDbLine
 10
-148.35187691
 20
279.05619487
 30
0.0
 11
-149.02415837
 21
278.38391341
 31
0.0
  0
LINE
  5
36D
100
AcDbEntity
  8
0
  6
CONTINUOUS
 62
       7
100
AcDbLine
 10
-147.83247294
 20
279.00991341
 30
0.0
 11
-148.45847294
 21
278.38391341
 31
0.0
  0
LINE
  5
36E
100
AcDbEntity
  8
0
  6
CONTINUOUS
 62
       7
100
AcDbLine
 10
-145.82713318
 20
280.44956775
 30
0.0
 11
-147.89278752
 21
278.38391341
 31
0.0
  0
LINE
  5
36F
100
AcDbEntity
  8
0
  6
CONTINUOUS
 62
       7
100
AcDbLine
 10
-149.9428332
 20
280.29366571
 30
0.0
 11
-150.2643414
 21
279.9721575
 31
0.0
  0
LINE
  5
370
100
AcDbEntity
  8
0
  6
CONTINUOUS
 62
       7
100
AcDbLine
 10
-150.90197006
 20
279.33452885
 30
0.0
 11
-151.85258549
 21
278.38391341
 31
0.0
  0
LINE
  5
371
100
AcDbEntity
  8
0
  6
CONTINUOUS
 62
       7
100
AcDbLine
 10
-149.75187458
 20
279.35325347
 30
0.0
 11
-150.51368575
 21
278.5914423
 31
0.0
  0
LINE
  5
372
100
AcDbEntity
  8
0
  6
CONTINUOUS
 62
       7
100
AcDbLine
 10
-148.46702296
 20
280.6381051
 30
0.0
 11
-148.54470422
 21
280.56042383
 31
0.0
  0
LINE
  5
373
100
AcDbEntity
  8
0
  6
CONTINUOUS
 62
       7
100
AcDbLine
 10
-148.74026602
 20
280.36486203
 30
0.0
 11
-149.27807948
 21
279.82704858
 31
0.0
  0
LINE
  5
374
100
AcDbEntity
  8
0
  6
CONTINUOUS
 62
       7
100
AcDbLine
 10
-144.36420852
 20
280.75891341
 30
0.0
 11
-145.23920852
 21
279.88391341
 31
0.0
  0
LINE
  5
375
100
AcDbEntity
  8
0
  6
CONTINUOUS
 62
       7
100
AcDbLine
 10
-145.47633175
 20
279.64679018
 30
0.0
 11
-146.61118925
 21
278.51193269
 31
0.0
  0
LINE
  5
376
100
AcDbEntity
  8
0
  6
CONTINUOUS
 62
       7
100
AcDbLine
 10
-182.60187691
 20
266.82163914
 30
0.0
 11
188.77312309
 21
266.82163914
 31
0.0
  0
LINE
  5
377
100
AcDbEntity
  8
0
  6
CONTINUOUS
 62
       7
100
AcDbLine
 10
-182.10187691
 20
-282.24108659
 30
0.0
 11
186.77312309
 21
-282.24108659
 31
0.0
  0
LINE
  5
378
100
AcDbEntity
  8
0
  6
CONTINUOUS
 62
       7
100
AcDbLine
 10
-182.10187691
 20
-258.11608659
 30
0.0
 11
186.77312309
 21
-258.11608659
 31
0.0
  0
LINE
  5
379
100
AcDbEntity
  8
0
  6
CONTINUOUS
 62
       7
100
AcDbLine
 10
-182.10187691
 20
-254.74108659
 30
0.0
 11
186.77312309
 21
-254.74108659
 31
0.0
  0
LINE
  5
37A
100
AcDbEntity
  8
0
  6
CONTINUOUS
 62
       7
100
AcDbLine
 10
-182.10187691
 20
-254.74108659
 30
0.0
 11
-182.10187691
 21
-174.74108659
 31
0.0
  0
LINE
  5
37B
100
AcDbEntity
  8
0
  6
CONTINUOUS
 62
       7
100
AcDbLine
 10
186.77312309
 20
-254.74108659
 30
0.0
 11
186.77312309
 21
-174.74108659
 31
0.0
  0
LINE
  5
37C
100
AcDbEntity
  8
0
  6
CONTINUOUS
 62
       7
100
AcDbLine
 10
-182.10187691
 20
-174.74108659
 30
0.0
 11
186.77312309
 21
-174.74108659
 31
0.0
  0
LINE
  5
37D
100
AcDbEntity
  8
0
  6
CONTINUOUS
 62
       7
100
AcDbLine
 10
-174.22687691
 20
285.75891341
 30
0.0
 11
-174.22687691
 21
276.00891341
 31
0.0
  0
LINE
  5
37E
100
AcDbEntity
  8
0
  6
CONTINUOUS
 62
       7
100
AcDbLine
 10
-132.97687691
 20
285.75891341
 30
0.0
 11
-132.97687691
 21
276.00891341
 31
0.0
  0
LINE
  5
37F
100
AcDbEntity
  8
0
  6
CONTINUOUS
 62
       7
100
AcDbLine
 10
-174.22687691
 20
285.75891341
 30
0.0
 11
-132.97687691
 21
285.75891341
 31
0.0
  0
LINE
  5
380
100
AcDbEntity
  8
0
  6
CONTINUOUS
 62
       7
100
AcDbLine
 10
-174.22687691
 20
276.00891341
 30
0.0
 11
-132.97687691
 21
276.00891341
 31
0.0
  0
LINE
  5
381
100
AcDbEntity
  8
0
  6
CONTINUOUS
 62
       7
100
AcDbLine
 10
-156.21208047
 20
291.0839975
 30
0.0
 11
-161.53716456
 21
285.75891341
 31
0.0
  0
LINE
  5
382
100
AcDbEntity
  8
0
  6
CONTINUOUS
 62
       7
100
AcDbLine
 10
-156.80454017
 20
291.05722323
 30
0.0
 11
-162.10284999
 21
285.75891341
 31
0.0
  0
LINE
  5
383
100
AcDbEntity
  8
0
  6
CONTINUOUS
 62
       7
100
AcDbLine
 10
-157.40303092
 20
291.02441791
 30
0.0
 11
-162.66853541
 21
285.75891341
 31
0.0
  0
LINE
  5
384
100
AcDbEntity
  8
0
  6
CONTINUOUS
 62
       7
100
AcDbLine
 10
-158.00780193
 20
290.98533232
 30
0.0
 11
-163.23422084
 21
285.75891341
 31
0.0
  0
LINE
  5
385
100
AcDbEntity
  8
0
  6
CONTINUOUS
 62
       7
100
AcDbLine
 10
-158.61913158
 20
290.9396881
 30
0.0
 11
-163.79990626
 21
285.75891341
 31
0.0
  0
LINE
  5
386
100
AcDbEntity
  8
0
  6
CONTINUOUS
 62
       7
100
AcDbLine
 10
-159.23733176
 20
290.88717334
 30
0.0
 11
-164.36559169
 21
285.75891341
 31
0.0
  0
LINE
  5
387
100
AcDbEntity
  8
0
  6
CONTINUOUS
 62
       7
100
AcDbLine
 10
-159.86275342
 20
290.8274371
 30
0.0
 11
-164.93127711
 21
285.75891341
 31
0.0
  0
LINE
  5
388
100
AcDbEntity
  8
0
  6
CONTINUOUS
 62
       7
100
AcDbLine
 10
-160.49579313
 20
290.76008282
 30
0.0
 11
-165.49696254
 21
285.75891341
 31
0.0
  0
LINE
  5
389
100
AcDbEntity
  8
0
  6
CONTINUOUS
 62
       7
100
AcDbLine
 10
-161.13690133
 20
290.68466005
 30
0.0
 11
-166.06264796
 21
285.75891341
 31
0.0
  0
LINE
  5
38A
100
AcDbEntity
  8
0
  6
CONTINUOUS
 62
       7
100
AcDbLine
 10
-161.78659267
 20
290.60065413
 30
0.0
 11
-166.62833339
 21
285.75891341
 31
0.0
  0
LINE
  5
38B
100
AcDbEntity
  8
0
  6
CONTINUOUS
 62
       7
100
AcDbLine
 10
-162.44545901
 20
290.50747321
 30
0.0
 11
-167.19401881
 21
285.75891341
 31
0.0
  0
LINE
  5
38C
100
AcDbEntity
  8
0
  6
CONTINUOUS
 62
       7
100
AcDbLine
 10
-163.1141862
 20
290.40443145
 30
0.0
 11
-167.75970424
 21
285.75891341
 31
0.0
  0
LINE
  5
38D
100
AcDbEntity
  8
0
  6
CONTINUOUS
 62
       7
100
AcDbLine
 10
-163.79357583
 20
290.29072724
 30
0.0
 11
-168.32538966
 21
285.75891341
 31
0.0
  0
LINE
  5
38E
100
AcDbEntity
  8
0
  6
CONTINUOUS
 62
       7
100
AcDbLine
 10
-164.48457412
 20
290.16541438
 30
0.0
 11
-168.89107509
 21
285.75891341
 31
0.0
  0
LINE
  5
38F
100
AcDbEntity
  8
0
  6
CONTINUOUS
 62
       7
100
AcDbLine
 10
-165.18831086
 20
290.02736306
 30
0.0
 11
-169.45676051
 21
285.75891341
 31
0.0
  0
LINE
  5
390
100
AcDbEntity
  8
0
  6
CONTINUOUS
 62
       7
100
AcDbLine
 10
-174.22687691
 20
280.98879702
 30
0.0
 11
-174.33176051
 21
280.88391341
 31
0.0
  0
LINE
  5
391
100
AcDbEntity
  8
0
  6
CONTINUOUS
 62
       7
100
AcDbLine
 10
-165.90615313
 20
289.87520622
 30
0.0
 11
-170.02244594
 21
285.75891341
 31
0.0
  0
LINE
  5
392
100
AcDbEntity
  8
0
  6
CONTINUOUS
 62
       7
100
AcDbLine
 10
-174.22687691
 20
281.55448244
 30
0.0
 11
-174.89744594
 21
280.88391341
 31
0.0
  0
LINE
  5
393
100
AcDbEntity
  8
0
  6
CONTINUOUS
 62
       7
100
AcDbLine
 10
-166.63978132
 20
289.70726345
 30
0.0
 11
-170.58813136
 21
285.75891341
 31
0.0
  0
LINE
  5
394
100
AcDbEntity
  8
0
  6
CONTINUOUS
 62
       7
100
AcDbLine
 10
-174.22687691
 20
282.12016787
 30
0.0
 11
-175.46313136
 21
280.88391341
 31
0.0
  0
LINE
  5
395
100
AcDbEntity
  8
0
  6
CONTINUOUS
 62
       7
100
AcDbLine
 10
-167.39129997
 20
289.52143023
 30
0.0
 11
-171.15381679
 21
285.75891341
 31
0.0
  0
LINE
  5
396
100
AcDbEntity
  8
0
  6
CONTINUOUS
 62
       7
100
AcDbLine
 10
-174.22687691
 20
282.68585329
 30
0.0
 11
-176.02881679
 21
280.88391341
 31
0.0
  0
LINE
  5
397
100
AcDbEntity
  8
0
  6
CONTINUOUS
 62
       7
100
AcDbLine
 10
-168.16340508
 20
289.31501055
 30
0.0
 11
-171.71950221
 21
285.75891341
 31
0.0
  0
LINE
  5
398
100
AcDbEntity
  8
0
  6
CONTINUOUS
 62
       7
100
AcDbLine
 10
-174.22687691
 20
283.25153872
 30
0.0
 11
-176.59450221
 21
280.88391341
 31
0.0
  0
LINE
  5
399
100
AcDbEntity
  8
0
  6
CONTINUOUS
 62
       7
100
AcDbLine
 10
-168.95964808
 20
289.08445298
 30
0.0
 11
-172.28518764
 21
285.75891341
 31
0.0
  0
LINE
  5
39A
100
AcDbEntity
  8
0
  6
CONTINUOUS
 62
       7
100
AcDbLine
 10
-174.22687691
 20
283.81722414
 30
0.0
 11
-177.16018764
 21
280.88391341
 31
0.0
  0
LINE
  5
39B
100
AcDbEntity
  8
0
  6
CONTINUOUS
 62
       7
100
AcDbLine
 10
-169.78487472
 20
288.82491175
 30
0.0
 11
-172.85087306
 21
285.75891341
 31
0.0
  0
LINE
  5
39C
100
AcDbEntity
  8
0
  6
CONTINUOUS
 62
       7
100
AcDbLine
 10
-174.22687691
 20
284.38290957
 30
0.0
 11
-177.72587306
 21
280.88391341
 31
0.0
  0
LINE
  5
39D
100
AcDbEntity
  8
0
  6
CONTINUOUS
 62
       7
100
AcDbLine
 10
-170.64600654
 20
288.52946536
 30
0.0
 11
-173.41655849
 21
285.75891341
 31
0.0
  0
LINE
  5
39E
100
AcDbEntity
  8
0
  6
CONTINUOUS
 62
       7
100
AcDbLine
 10
-174.22687691
 20
284.94859499
 30
0.0
 11
-178.29155849
 21
280.88391341
 31
0.0
  0
LINE
  5
39F
100
AcDbEntity
  8
0
  6
CONTINUOUS
 62
       7
100
AcDbLine
 10
-171.55356313
 20
288.1875942
 30
0.0
 11
-173.98224391
 21
285.75891341
 31
0.0
  0
LINE
  5
3A0
100
AcDbEntity
  8
0
  6
CONTINUOUS
 62
       7
100
AcDbLine
 10
-174.22687691
 20
285.51428042
 30
0.0
 11
-178.85724391
 21
280.88391341
 31
0.0
  0
LINE
  5
3A1
100
AcDbEntity
  8
0
  6
CONTINUOUS
 62
       7
100
AcDbLine
 10
-172.52502532
 20
287.78181743
 30
0.0
 11
-179.2180036
 21
281.08883915
 31
0.0
  0
LINE
  5
3A2
100
AcDbEntity
  8
0
  6
CONTINUOUS
 62
       7
100
AcDbLine
 10
-173.59383245
 20
287.27869572
 30
0.0
 11
-179.12205393
 21
281.75047424
 31
0.0
  0
LINE
  5
3A3
100
AcDbEntity
  8
0
  6
CONTINUOUS
 62
       7
100
AcDbLine
 10
-174.8432419
 20
286.5949717
 30
0.0
 11
-178.84550194
 21
282.59271166
 31
0.0
  0
LINE
  5
3A4
100
AcDbEntity
  8
0
  6
CONTINUOUS
 62
       7
100
AcDbLine
 10
-176.79077375
 20
285.21312527
 30
0.0
 11
-177.87082756
 21
284.13307147
 31
0.0
  0
LINE
  5
3A5
100
AcDbEntity
  8
0
  6
CONTINUOUS
 62
       7
100
AcDbLine
 10
-155.62542801
 20
291.10496454
 30
0.0
 11
-160.97147914
 21
285.75891341
 31
0.0
  0
LINE
  5
3A6
100
AcDbEntity
  8
0
  6
CONTINUOUS
 62
       7
100
AcDbLine
 10
-155.04438131
 20
291.12032582
 30
0.0
 11
-160.40579371
 21
285.75891341
 31
0.0
  0
LINE
  5
3A7
100
AcDbEntity
  8
0
  6
CONTINUOUS
 62
       7
100
AcDbLine
 10
-154.46875862
 20
291.13026308
 30
0.0
 11
-159.84010829
 21
285.75891341
 31
0.0
  0
LINE
  5
3A8
100
AcDbEntity
  8
0
  6
CONTINUOUS
 62
       7
100
AcDbLine
 10
-153.89839576
 20
291.13494052
 30
0.0
 11
-159.27442286
 21
285.75891341
 31
0.0
  0
LINE
  5
3A9
100
AcDbEntity
  8
0
  6
CONTINUOUS
 62
       7
100
AcDbLine
 10
-153.33314421
 20
291.13450664
 30
0.0
 11
-158.70873744
 21
285.75891341
 31
0.0
  0
LINE
  5
3AA
100
AcDbEntity
  8
0
  6
CONTINUOUS
 62
       7
100
AcDbLine
 10
-152.77286958
 20
291.12909585
 30
0.0
 11
-158.14305201
 21
285.75891341
 31
0.0
  0
LINE
  5
3AB
100
AcDbEntity
  8
0
  6
CONTINUOUS
 62
       7
100
AcDbLine
 10
-152.21745016
 20
291.11882984
 30
0.0
 11
-157.57736659
 21
285.75891341
 31
0.0
  0
LINE
  5
3AC
100
AcDbEntity
  8
0
  6
CONTINUOUS
 62
       7
100
AcDbLine
 10
-151.66677585
 20
291.10381872
 30
0.0
 11
-157.01168116
 21
285.75891341
 31
0.0
  0
LINE
  5
3AD
100
AcDbEntity
  8
0
  6
CONTINUOUS
 62
       7
100
AcDbLine
 10
-151.12074708
 20
291.08416208
 30
0.0
 11
-156.44599574
 21
285.75891341
 31
0.0
  0
LINE
  5
3AE
100
AcDbEntity
  8
0
  6
CONTINUOUS
 62
       7
100
AcDbLine
 10
-150.57927394
 20
291.05994979
 30
0.0
 11
-155.88031031
 21
285.75891341
 31
0.0
  0
LINE
  5
3AF
100
AcDbEntity
  8
0
  6
CONTINUOUS
 62
       7
100
AcDbLine
 10
-150.04227546
 20
291.03126284
 30
0.0
 11
-155.31462489
 21
285.75891341
 31
0.0
  0
LINE
  5
3B0
100
AcDbEntity
  8
0
  6
CONTINUOUS
 62
       7
100
AcDbLine
 10
-149.50967895
 20
290.99817393
 30
0.0
 11
-154.74893946
 21
285.75891341
 31
0.0
  0
LINE
  5
3B1
100
AcDbEntity
  8
0
  6
CONTINUOUS
 62
       7
100
AcDbLine
 10
-148.98141938
 20
290.96074807
 30
0.0
 11
-154.18325404
 21
285.75891341
 31
0.0
  0
LINE
  5
3B2
100
AcDbEntity
  8
0
  6
CONTINUOUS
 62
       7
100
AcDbLine
 10
-148.45743897
 20
290.91904306
 30
0.0
 11
-153.61756861
 21
285.75891341
 31
0.0
  0
LINE
  5
3B3
100
AcDbEntity
  8
0
  6
CONTINUOUS
 62
       7
100
AcDbLine
 10
-147.93768669
 20
290.87310991
 30
0.0
 11
-153.05188319
 21
285.75891341
 31
0.0
  0
LINE
  5
3B4
100
AcDbEntity
  8
0
  6
CONTINUOUS
 62
       7
100
AcDbLine
 10
-147.42211796
 20
290.82299322
 30
0.0
 11
-152.48619776
 21
285.75891341
 31
0.0
  0
LINE
  5
3B5
100
AcDbEntity
  8
0
  6
CONTINUOUS
 62
       7
100
AcDbLine
 10
-146.91069429
 20
290.76873147
 30
0.0
 11
-151.92051234
 21
285.75891341
 31
0.0
  0
LINE
  5
3B6
100
AcDbEntity
  8
0
  6
CONTINUOUS
 62
       7
100
AcDbLine
 10
-146.40338304
 20
290.71035729
 30
0.0
 11
-151.35482691
 21
285.75891341
 31
0.0
  0
LINE
  5
3B7
100
AcDbEntity
  8
0
  6
CONTINUOUS
 62
       7
100
AcDbLine
 10
-145.90015721
 20
290.64789769
 30
0.0
 11
-150.78914149
 21
285.75891341
 31
0.0
  0
LINE
  5
3B8
100
AcDbEntity
  8
0
  6
CONTINUOUS
 62
       7
100
AcDbLine
 10
-145.40099527
 20
290.58137421
 30
0.0
 11
-150.22345606
 21
285.75891341
 31
0.0
  0
LINE
  5
3B9
100
AcDbEntity
  8
0
  6
CONTINUOUS
 62
       7
100
AcDbLine
 10
-144.90588096
 20
290.51080309
 30
0.0
 11
-149.65777064
 21
285.75891341
 31
0.0
  0
LINE
  5
3BA
100
AcDbEntity
  8
0
  6
CONTINUOUS
 62
       7
100
AcDbLine
 10
-144.41480328
 20
290.43619535
 30
0.0
 11
-149.09208521
 21
285.75891341
 31
0.0
  0
LINE
  5
3BB
100
AcDbEntity
  8
0
  6
CONTINUOUS
 62
       7
100
AcDbLine
 10
-143.92775633
 20
290.35755687
 30
0.0
 11
-148.52639979
 21
285.75891341
 31
0.0
  0
LINE
  5
3BC
100
AcDbEntity
  8
0
  6
CONTINUOUS
 62
       7
100
AcDbLine
 10
-143.44473933
 20
290.27488845
 30
0.0
 11
-147.96071436
 21
285.75891341
 31
0.0
  0
LINE
  5
3BD
100
AcDbEntity
  8
0
  6
CONTINUOUS
 62
       7
100
AcDbLine
 10
-142.96575661
 20
290.18818575
 30
0.0
 11
-147.39502894
 21
285.75891341
 31
0.0
  0
LINE
  5
3BE
100
AcDbEntity
  8
0
  6
CONTINUOUS
 62
       7
100
AcDbLine
 10
-142.49081759
 20
290.09743934
 30
0.0
 11
-146.82934352
 21
285.75891341
 31
0.0
  0
LINE
  5
3BF
100
AcDbEntity
  8
0
  6
CONTINUOUS
 62
       7
100
AcDbLine
 10
-142.01993691
 20
290.00263459
 30
0.0
 11
-146.26365809
 21
285.75891341
 31
0.0
  0
LINE
  5
3C0
100
AcDbEntity
  8
0
  6
CONTINUOUS
 62
       7
100
AcDbLine
 10
-141.55313447
 20
289.90375161
 30
0.0
 11
-145.69797267
 21
285.75891341
 31
0.0
  0
LINE
  5
3C1
100
AcDbEntity
  8
0
  6
CONTINUOUS
 62
       7
100
AcDbLine
 10
-141.09043558
 20
289.80076507
 30
0.0
 11
-145.13228724
 21
285.75891341
 31
0.0
  0
LINE
  5
3C2
100
AcDbEntity
  8
0
  6
CONTINUOUS
 62
       7
100
AcDbLine
 10
-140.63187112
 20
289.6936441
 30
0.0
 11
-144.56660182
 21
285.75891341
 31
0.0
  0
LINE
  5
3C3
100
AcDbEntity
  8
0
  6
CONTINUOUS
 62
       7
100
AcDbLine
 10
-140.17747777
 20
289.58235204
 30
0.0
 11
-144.00091639
 21
285.75891341
 31
0.0
  0
LINE
  5
3C4
100
AcDbEntity
  8
0
  6
CONTINUOUS
 62
       7
100
AcDbLine
 10
-139.72729819
 20
289.46684618
 30
0.0
 11
-143.43523097
 21
285.75891341
 31
0.0
  0
LINE
  5
3C5
100
AcDbEntity
  8
0
  6
CONTINUOUS
 62
       7
100
AcDbLine
 10
-139.28138141
 20
289.34707754
 30
0.0
 11
-142.86954554
 21
285.75891341
 31
0.0
  0
LINE
  5
3C6
100
AcDbEntity
  8
0
  6
CONTINUOUS
 62
       7
100
AcDbLine
 10
-138.8397831
 20
289.22299042
 30
0.0
 11
-142.30386012
 21
285.75891341
 31
0.0
  0
LINE
  5
3C7
100
AcDbEntity
  8
0
  6
CONTINUOUS
 62
       7
100
AcDbLine
 10
-138.40256601
 20
289.09452209
 30
0.0
 11
-141.73817469
 21
285.75891341
 31
0.0
  0
LINE
  5
3C8
100
AcDbEntity
  8
0
  6
CONTINUOUS
 62
       7
100
AcDbLine
 10
-137.96980042
 20
288.96160226
 30
0.0
 11
-141.17248927
 21
285.75891341
 31
0.0
  0
LINE
  5
3C9
100
AcDbEntity
  8
0
  6
CONTINUOUS
 62
       7
100
AcDbLine
 10
-137.54156471
 20
288.82415254
 30
0.0
 11
-140.60680384
 21
285.75891341
 31
0.0
  0
LINE
  5
3CA
100
AcDbEntity
  8
0
  6
CONTINUOUS
 62
       7
100
AcDbLine
 10
-137.11794595
 20
288.68208588
 30
0.0
 11
-140.04111842
 21
285.75891341
 31
0.0
  0
LINE
  5
3CB
100
AcDbEntity
  8
0
  6
CONTINUOUS
 62
       7
100
AcDbLine
 10
-136.69904067
 20
288.53530574
 30
0.0
 11
-139.47543299
 21
285.75891341
 31
0.0
  0
LINE
  5
3CC
100
AcDbEntity
  8
0
  6
CONTINUOUS
 62
       7
100
AcDbLine
 10
-136.28495563
 20
288.38370534
 30
0.0
 11
-138.90974757
 21
285.75891341
 31
0.0
  0
LINE
  5
3CD
100
AcDbEntity
  8
0
  6
CONTINUOUS
 62
       7
100
AcDbLine
 10
-135.87580887
 20
288.22716668
 30
0.0
 11
-138.34406214
 21
285.75891341
 31
0.0
  0
LINE
  5
3CE
100
AcDbEntity
  8
0
  6
CONTINUOUS
 62
       7
100
AcDbLine
 10
-135.47173075
 20
288.06555937
 30
0.0
 11
-137.77837672
 21
285.75891341
 31
0.0
  0
LINE
  5
3CF
100
AcDbEntity
  8
0
  6
CONTINUOUS
 62
       7
100
AcDbLine
 10
-135.0728653
 20
287.8987394
 30
0.0
 11
-137.21269129
 21
285.75891341
 31
0.0
  0
LINE
  5
3D0
100
AcDbEntity
  8
0
  6
CONTINUOUS
 62
       7
100
AcDbLine
 10
-134.67937171
 20
287.72654757
 30
0.0
 11
-136.64700587
 21
285.75891341
 31
0.0
  0
LINE
  5
3D1
100
AcDbEntity
  8
0
  6
CONTINUOUS
 62
       7
100
AcDbLine
 10
-134.29142612
 20
287.54880773
 30
0.0
 11
-136.08132044
 21
285.75891341
 31
0.0
  0
LINE
  5
3D2
100
AcDbEntity
  8
0
  6
CONTINUOUS
 62
       7
100
AcDbLine
 10
-133.9092237
 20
287.36532473
 30
0.0
 11
-135.51563502
 21
285.75891341
 31
0.0
  0
LINE
  5
3D3
100
AcDbEntity
  8
0
  6
CONTINUOUS
 62
       7
100
AcDbLine
 10
-133.5329811
 20
287.17588191
 30
0.0
 11
-134.94994959
 21
285.75891341
 31
0.0
  0
LINE
  5
3D4
100
AcDbEntity
  8
0
  6
CONTINUOUS
 62
       7
100
AcDbLine
 10
-133.16293938
 20
286.9802382
 30
0.0
 11
-134.38426417
 21
285.75891341
 31
0.0
  0
LINE
  5
3D5
100
AcDbEntity
  8
0
  6
CONTINUOUS
 62
       7
100
AcDbLine
 10
-132.79936753
 20
286.77812463
 30
0.0
 11
-133.81857874
 21
285.75891341
 31
0.0
  0
LINE
  5
3D6
100
AcDbEntity
  8
0
  6
CONTINUOUS
 62
       7
100
AcDbLine
 10
-132.44256663
 20
286.5692401
 30
0.0
 11
-133.25289332
 21
285.75891341
 31
0.0
  0
LINE
  5
3D7
100
AcDbEntity
  8
0
  6
CONTINUOUS
 62
       7
100
AcDbLine
 10
-132.09287501
 20
286.3532463
 30
0.0
 11
-132.97687691
 21
285.4692444
 31
0.0
  0
LINE
  5
3D8
100
AcDbEntity
  8
0
  6
CONTINUOUS
 62
       7
100
AcDbLine
 10
-131.75067443
 20
286.12976145
 30
0.0
 11
-132.97687691
 21
284.90355897
 31
0.0
  0
LINE
  5
3D9
100
AcDbEntity
  8
0
  6
CONTINUOUS
 62
       7
100
AcDbLine
 10
-131.41639782
 20
285.89835263
 30
0.0
 11
-132.97687691
 21
284.33787355
 31
0.0
  0
LINE
  5
3DA
100
AcDbEntity
  8
0
  6
CONTINUOUS
 62
       7
100
AcDbLine
 10
-131.09053889
 20
285.65852614
 30
0.0
 11
-132.97687691
 21
283.77218812
 31
0.0
  0
LINE
  5
3DB
100
AcDbEntity
  8
0
  6
CONTINUOUS
 62
       7
100
AcDbLine
 10
-130.77366421
 20
285.40971539
 30
0.0
 11
-132.97687691
 21
283.2065027
 31
0.0
  0
LINE
  5
3DC
100
AcDbEntity
  8
0
  6
CONTINUOUS
 62
       7
100
AcDbLine
 10
-130.46642875
 20
285.15126543
 30
0.0
 11
-132.97687691
 21
282.64081727
 31
0.0
  0
LINE
  5
3DD
100
AcDbEntity
  8
0
  6
CONTINUOUS
 62
       7
100
AcDbLine
 10
-130.16959588
 20
284.88241287
 30
0.0
 11
-132.97687691
 21
282.07513185
 31
0.0
  0
LINE
  5
3DE
100
AcDbEntity
  8
0
  6
CONTINUOUS
 62
       7
100
AcDbLine
 10
-129.88406384
 20
284.60225949
 30
0.0
 11
-132.97687691
 21
281.50944642
 31
0.0
  0
LINE
  5
3DF
100
AcDbEntity
  8
0
  6
CONTINUOUS
 62
       7
100
AcDbLine
 10
-129.61090119
 20
284.30973672
 30
0.0
 11
-132.97687691
 21
280.943761
 31
0.0
  0
LINE
  5
3E0
100
AcDbEntity
  8
0
  6
CONTINUOUS
 62
       7
100
AcDbLine
 10
-129.35139532
 20
284.00355716
 30
0.0
 11
-132.47103907
 21
280.88391341
 31
0.0
  0
LINE
  5
3E1
100
AcDbEntity
  8
0
  6
CONTINUOUS
 62
       7
100
AcDbLine
 10
-129.10712063
 20
283.68214642
 30
0.0
 11
-131.90535364
 21
280.88391341
 31
0.0
  0
LINE
  5
3E2
100
AcDbEntity
  8
0
  6
CONTINUOUS
 62
       7
100
AcDbLine
 10
-128.8800369
 20
283.34354473
 30
0.0
 11
-131.33966822
 21
280.88391341
 31
0.0
  0
LINE
  5
3E3
100
AcDbEntity
  8
0
  6
CONTINUOUS
 62
       7
100
AcDbLine
 10
-128.67263612
 20
282.98526008
 30
0.0
 11
-130.77398279
 21
280.88391341
 31
0.0
  0
LINE
  5
3E4
100
AcDbEntity
  8
0
  6
CONTINUOUS
 62
       7
100
AcDbLine
 10
-128.48817083
 20
282.60403995
 30
0.0
 11
-130.20829737
 21
280.88391341
 31
0.0
  0
LINE
  5
3E5
100
AcDbEntity
  8
0
  6
CONTINUOUS
 62
       7
100
AcDbLine
 10
-128.33102718
 20
282.19549817
 30
0.0
 11
-129.64261194
 21
280.88391341
 31
0.0
  0
LINE
  5
3E6
100
AcDbEntity
  8
0
  6
CONTINUOUS
 62
       7
100
AcDbLine
 10
-128.20737419
 20
281.75346574
 30
0.0
 11
-129.07692652
 21
280.88391341
 31
0.0
  0
LINE
  5
3E7
100
AcDbEntity
  8
0
  6
CONTINUOUS
 62
       7
100
AcDbLine
 10
-128.1263903
 20
281.2687642
 30
0.0
 11
-128.51124109
 21
280.88391341
 31
0.0
  0
LINE
  5
3E8
100
AcDbEntity
  8
0
  6
CONTINUOUS
 62
       7
100
AcDbLine
 10
-145.72466515
 20
276.00891341
 30
0.0
 11
-151.18637796
 21
270.54720061
 31
0.0
  0
LINE
  5
3E9
100
AcDbEntity
  8
0
  6
CONTINUOUS
 62
       7
100
AcDbLine
 10
-146.29035058
 20
276.00891341
 30
0.0
 11
-151.77235711
 21
270.52690688
 31
0.0
  0
LINE
  5
3EA
100
AcDbEntity
  8
0
  6
CONTINUOUS
 62
       7
100
AcDbLine
 10
-146.856036
 20
276.00891341
 30
0.0
 11
-152.35275299
 21
270.51219643
 31
0.0
  0
LINE
  5
3EB
100
AcDbEntity
  8
0
  6
CONTINUOUS
 62
       7
100
AcDbLine
 10
-147.42172143
 20
276.00891341
 30
0.0
 11
-152.92774515
 21
270.50288969
 31
0.0
  0
LINE
  5
3EC
100
AcDbEntity
  8
0
  6
CONTINUOUS
 62
       7
100
AcDbLine
 10
-147.98740685
 20
276.00891341
 30
0.0
 11
-153.49749584
 21
270.49882442
 31
0.0
  0
LINE
  5
3ED
100
AcDbEntity
  8
0
  6
CONTINUOUS
 62
       7
100
AcDbLine
 10
-148.55309228
 20
276.00891341
 30
0.0
 11
-154.06215183
 21
270.49985386
 31
0.0
  0
LINE
  5
3EE
100
AcDbEntity
  8
0
  6
CONTINUOUS
 62
       7
100
AcDbLine
 10
-149.1187777
 20
276.00891341
 30
0.0
 11
-154.62184594
 21
270.50584518
 31
0.0
  0
LINE
  5
3EF
100
AcDbEntity
  8
0
  6
CONTINUOUS
 62
       7
100
AcDbLine
 10
-149.68446313
 20
276.00891341
 30
0.0
 11
-155.17669844
 21
270.5166781
 31
0.0
  0
LINE
  5
3F0
100
AcDbEntity
  8
0
  6
CONTINUOUS
 62
       7
100
AcDbLine
 10
-150.25014855
 20
276.00891341
 30
0.0
 11
-155.72681815
 21
270.53224382
 31
0.0
  0
LINE
  5
3F1
100
AcDbEntity
  8
0
  6
CONTINUOUS
 62
       7
100
AcDbLine
 10
-150.81583398
 20
276.00891341
 30
0.0
 11
-156.27230345
 21
270.55244394
 31
0.0
  0
LINE
  5
3F2
100
AcDbEntity
  8
0
  6
CONTINUOUS
 62
       7
100
AcDbLine
 10
-151.3815194
 20
276.00891341
 30
0.0
 11
-156.81324314
 21
270.57718968
 31
0.0
  0
LINE
  5
3F3
100
AcDbEntity
  8
0
  6
CONTINUOUS
 62
       7
100
AcDbLine
 10
-151.94720483
 20
276.00891341
 30
0.0
 11
-157.34971719
 21
270.60640105
 31
0.0
  0
LINE
  5
3F4
100
AcDbEntity
  8
0
  6
CONTINUOUS
 62
       7
100
AcDbLine
 10
-152.51289025
 20
276.00891341
 30
0.0
 11
-157.88179736
 21
270.64000631
 31
0.0
  0
LINE
  5
3F5
100
AcDbEntity
  8
0
  6
CONTINUOUS
 62
       7
100
AcDbLine
 10
-153.07857568
 20
276.00891341
 30
0.0
 11
-158.40954778
 21
270.67794131
 31
0.0
  0
LINE
  5
3F6
100
AcDbEntity
  8
0
  6
CONTINUOUS
 62
       7
100
AcDbLine
 10
-153.6442611
 20
276.00891341
 30
0.0
 11
-158.93302544
 21
270.72014907
 31
0.0
  0
LINE
  5
3F7
100
AcDbEntity
  8
0
  6
CONTINUOUS
 62
       7
100
AcDbLine
 10
-154.20994653
 20
276.00891341
 30
0.0
 11
-159.45228056
 21
270.76657938
 31
0.0
  0
LINE
  5
3F8
100
AcDbEntity
  8
0
  6
CONTINUOUS
 62
       7
100
AcDbLine
 10
-154.77563195
 20
276.00891341
 30
0.0
 11
-159.96735701
 21
270.81718835
 31
0.0
  0
LINE
  5
3F9
100
AcDbEntity
  8
0
  6
CONTINUOUS
 62
       7
100
AcDbLine
 10
-155.34131738
 20
276.00891341
 30
0.0
 11
-160.47829256
 21
270.87193823
 31
0.0
  0
LINE
  5
3FA
100
AcDbEntity
  8
0
  6
CONTINUOUS
 62
       7
100
AcDbLine
 10
-155.9070028
 20
276.00891341
 30
0.0
 11
-160.98511917
 21
270.93079704
 31
0.0
  0
LINE
  5
3FB
100
AcDbEntity
  8
0
  6
CONTINUOUS
 62
       7
100
AcDbLine
 10
-156.47268823
 20
276.00891341
 30
0.0
 11
-161.48786318
 21
270.99373846
 31
0.0
  0
LINE
  5
3FC
100
AcDbEntity
  8
0
  6
CONTINUOUS
 62
       7
100
AcDbLine
 10
-157.03837365
 20
276.00891341
 30
0.0
 11
-161.98654552
 21
271.06074155
 31
0.0
  0
LINE
  5
3FD
100
AcDbEntity
  8
0
  6
CONTINUOUS
 62
       7
100
AcDbLine
 10
-157.60405908
 20
276.00891341
 30
0.0
 11
-162.48118178
 21
271.13179071
 31
0.0
  0
LINE
  5
3FE
100
AcDbEntity
  8
0
  6
CONTINUOUS
 62
       7
100
AcDbLine
 10
-158.1697445
 20
276.00891341
 30
0.0
 11
-162.97178239
 21
271.20687552
 31
0.0
  0
LINE
  5
3FF
100
AcDbEntity
  8
0
  6
CONTINUOUS
 62
       7
100
AcDbLine
 10
-158.73542993
 20
276.00891341
 30
0.0
 11
-163.45835262
 21
271.28599072
 31
0.0
  0
LINE
  5
400
100
AcDbEntity
  8
0
  6
CONTINUOUS
 62
       7
100
AcDbLine
 10
-159.30111535
 20
276.00891341
 30
0.0
 11
-163.94089265
 21
271.36913611
 31
0.0
  0
LINE
  5
401
100
AcDbEntity
  8
0
  6
CONTINUOUS
 62
       7
100
AcDbLine
 10
-159.86680078
 20
276.00891341
 30
0.0
 11
-164.41939757
 21
271.45631662
 31
0.0
  0
LINE
  5
402
100
AcDbEntity
  8
0
  6
CONTINUOUS
 62
       7
100
AcDbLine
 10
-160.4324862
 20
276.00891341
 30
0.0
 11
-164.89385731
 21
271.5475423
 31
0.0
  0
LINE
  5
403
100
AcDbEntity
  8
0
  6
CONTINUOUS
 62
       7
100
AcDbLine
 10
-160.99817163
 20
276.00891341
 30
0.0
 11
-165.36425665
 21
271.64282839
 31
0.0
  0
LINE
  5
404
100
AcDbEntity
  8
0
  6
CONTINUOUS
 62
       7
100
AcDbLine
 10
-161.56385705
 20
276.00891341
 30
0.0
 11
-165.83057503
 21
271.74219543
 31
0.0
  0
LINE
  5
405
100
AcDbEntity
  8
0
  6
CONTINUOUS
 62
       7
100
AcDbLine
 10
-162.12954248
 20
276.00891341
 30
0.0
 11
-166.2927865
 21
271.84566939
 31
0.0
  0
LINE
  5
406
100
AcDbEntity
  8
0
  6
CONTINUOUS
 62
       7
100
AcDbLine
 10
-162.6952279
 20
276.00891341
 30
0.0
 11
-166.75085951
 21
271.95328181
 31
0.0
  0
LINE
  5
407
100
AcDbEntity
  8
0
  6
CONTINUOUS
 62
       7
100
AcDbLine
 10
-163.26091333
 20
276.00891341
 30
0.0
 11
-167.20475669
 21
272.06507005
 31
0.0
  0
LINE
  5
408
100
AcDbEntity
  8
0
  6
CONTINUOUS
 62
       7
100
AcDbLine
 10
-163.82659875
 20
276.00891341
 30
0.0
 11
-167.65443462
 21
272.18107755
 31
0.0
  0
LINE
  5
409
100
AcDbEntity
  8
0
  6
CONTINUOUS
 62
       7
100
AcDbLine
 10
-164.39228418
 20
276.00891341
 30
0.0
 11
-168.09984352
 21
272.30135406
 31
0.0
  0
LINE
  5
40A
100
AcDbEntity
  8
0
  6
CONTINUOUS
 62
       7
100
AcDbLine
 10
-164.9579696
 20
276.00891341
 30
0.0
 11
-168.54092691
 21
272.4259561
 31
0.0
  0
LINE
  5
40B
100
AcDbEntity
  8
0
  6
CONTINUOUS
 62
       7
100
AcDbLine
 10
-165.52365503
 20
276.00891341
 30
0.0
 11
-168.97762118
 21
272.55494726
 31
0.0
  0
LINE
  5
40C
100
AcDbEntity
  8
0
  6
CONTINUOUS
 62
       7
100
AcDbLine
 10
-166.08934045
 20
276.00891341
 30
0.0
 11
-169.40985509
 21
272.68839877
 31
0.0
  0
LINE
  5
40D
100
AcDbEntity
  8
0
  6
CONTINUOUS
 62
       7
100
AcDbLine
 10
-166.65502588
 20
276.00891341
 30
0.0
 11
-169.8375493
 21
272.82638999
 31
0.0
  0
LINE
  5
40E
100
AcDbEntity
  8
0
  6
CONTINUOUS
 62
       7
100
AcDbLine
 10
-167.2207113
 20
276.00891341
 30
0.0
 11
-170.26061564
 21
272.96900907
 31
0.0
  0
LINE
  5
40F
100
AcDbEntity
  8
0
  6
CONTINUOUS
 62
       7
100
AcDbLine
 10
-167.78639673
 20
276.00891341
 30
0.0
 11
-170.67895643
 21
273.11635371
 31
0.0
  0
LINE
  5
410
100
AcDbEntity
  8
0
  6
CONTINUOUS
 62
       7
100
AcDbLine
 10
-168.35208215
 20
276.00891341
 30
0.0
 11
-171.09246361
 21
273.26853196
 31
0.0
  0
LINE
  5
411
100
AcDbEntity
  8
0
  6
CONTINUOUS
 62
       7
100
AcDbLine
 10
-168.91776758
 20
276.00891341
 30
0.0
 11
-171.50101776
 21
273.42566323
 31
0.0
  0
LINE
  5
412
100
AcDbEntity
  8
0
  6
CONTINUOUS
 62
       7
100
AcDbLine
 10
-169.483453
 20
276.00891341
 30
0.0
 11
-171.90448697
 21
273.58787945
 31
0.0
  0
LINE
  5
413
100
AcDbEntity
  8
0
  6
CONTINUOUS
 62
       7
100
AcDbLine
 10
-170.04913843
 20
276.00891341
 30
0.0
 11
-172.3027255
 21
273.75532634
 31
0.0
  0
LINE
  5
414
100
AcDbEntity
  8
0
  6
CONTINUOUS
 62
       7
100
AcDbLine
 10
-170.61482385
 20
276.00891341
 30
0.0
 11
-172.69557225
 21
273.92816501
 31
0.0
  0
LINE
  5
415
100
AcDbEntity
  8
0
  6
CONTINUOUS
 62
       7
100
AcDbLine
 10
-171.18050928
 20
276.00891341
 30
0.0
 11
-173.08284895
 21
274.10657374
 31
0.0
  0
LINE
  5
416
100
AcDbEntity
  8
0
  6
CONTINUOUS
 62
       7
100
AcDbLine
 10
-171.7461947
 20
276.00891341
 30
0.0
 11
-173.46435802
 21
274.29075009
 31
0.0
  0
LINE
  5
417
100
AcDbEntity
  8
0
  6
CONTINUOUS
 62
       7
100
AcDbLine
 10
-172.31188013
 20
276.00891341
 30
0.0
 11
-173.83988009
 21
274.48091345
 31
0.0
  0
LINE
  5
418
100
AcDbEntity
  8
0
  6
CONTINUOUS
 62
       7
100
AcDbLine
 10
-172.87756555
 20
276.00891341
 30
0.0
 11
-174.20917098
 21
274.67730798
 31
0.0
  0
LINE
  5
419
100
AcDbEntity
  8
0
  6
CONTINUOUS
 62
       7
100
AcDbLine
 10
-173.44325098
 20
276.00891341
 30
0.0
 11
-174.57195815
 21
274.88020624
 31
0.0
  0
LINE
  5
41A
100
AcDbEntity
  8
0
  6
CONTINUOUS
 62
       7
100
AcDbLine
 10
-174.0089364
 20
276.00891341
 30
0.0
 11
-174.92793638
 21
275.08991343
 31
0.0
  0
LINE
  5
41B
100
AcDbEntity
  8
0
  6
CONTINUOUS
 62
       7
100
AcDbLine
 10
-174.22687691
 20
276.35665833
 30
0.0
 11
-175.27676259
 21
275.30677265
 31
0.0
  0
LINE
  5
41C
100
AcDbEntity
  8
0
  6
CONTINUOUS
 62
       7
100
AcDbLine
 10
-174.22687691
 20
276.92234376
 30
0.0
 11
-175.61804936
 21
275.5311713
 31
0.0
  0
LINE
  5
41D
100
AcDbEntity
  8
0
  6
CONTINUOUS
 62
       7
100
AcDbLine
 10
-174.22687691
 20
277.48802918
 30
0.0
 11
-175.95135713
 21
275.76354896
 31
0.0
  0
LINE
  5
41E
100
AcDbEntity
  8
0
  6
CONTINUOUS
 62
       7
100
AcDbLine
 10
-174.22687691
 20
278.05371461
 30
0.0
 11
-176.27618426
 21
276.00440725
 31
0.0
  0
LINE
  5
41F
100
AcDbEntity
  8
0
  6
CONTINUOUS
 62
       7
100
AcDbLine
 10
-174.22687691
 20
278.61940003
 30
0.0
 11
-176.5919546
 21
276.25432234
 31
0.0
  0
LINE
  5
420
100
AcDbEntity
  8
0
  6
CONTINUOUS
 62
       7
100
AcDbLine
 10
-174.22687691
 20
279.18508546
 30
0.0
 11
-176.89800152
 21
276.51396084
 31
0.0
  0
LINE
  5
421
100
AcDbEntity
  8
0
  6
CONTINUOUS
 62
       7
100
AcDbLine
 10
-174.22687691
 20
279.75077088
 30
0.0
 11
-177.1935472
 21
276.78410059
 31
0.0
  0
LINE
  5
422
100
AcDbEntity
  8
0
  6
CONTINUOUS
 62
       7
100
AcDbLine
 10
-174.22687691
 20
280.31645631
 30
0.0
 11
-177.47767531
 21
277.0656579
 31
0.0
  0
LINE
  5
423
100
AcDbEntity
  8
0
  6
CONTINUOUS
 62
       7
100
AcDbLine
 10
-174.22510522
 20
280.88391341
 30
0.0
 11
-177.74929427
 21
277.35972437
 31
0.0
  0
LINE
  5
424
100
AcDbEntity
  8
0
  6
CONTINUOUS
 62
       7
100
AcDbLine
 10
-174.79079065
 20
280.88391341
 30
0.0
 11
-178.00708673
 21
277.66761734
 31
0.0
  0
LINE
  5
425
100
AcDbEntity
  8
0
  6
CONTINUOUS
 62
       7
100
AcDbLine
 10
-175.35647607
 20
280.88391341
 30
0.0
 11
-178.24943856
 21
277.99095093
 31
0.0
  0
LINE
  5
426
100
AcDbEntity
  8
0
  6
CONTINUOUS
 62
       7
100
AcDbLine
 10
-175.9221615
 20
280.88391341
 30
0.0
 11
-178.47433589
 21
278.33173902
 31
0.0
  0
LINE
  5
427
100
AcDbEntity
  8
0
  6
CONTINUOUS
 62
       7
100
AcDbLine
 10
-176.48784692
 20
280.88391341
 30
0.0
 11
-178.67921074
 21
278.6925496
 31
0.0
  0
LINE
  5
428
100
AcDbEntity
  8
0
  6
CONTINUOUS
 62
       7
100
AcDbLine
 10
-177.05353235
 20
280.88391341
 30
0.0
 11
-178.86069968
 21
279.07674609
 31
0.0
  0
LINE
  5
429
100
AcDbEntity
  8
0
  6
CONTINUOUS
 62
       7
100
AcDbLine
 10
-177.61921777
 20
280.88391341
 30
0.0
 11
-179.01424695
 21
279.48888423
 31
0.0
  0
LINE
  5
42A
100
AcDbEntity
  8
0
  6
CONTINUOUS
 62
       7
100
AcDbLine
 10
-178.1849032
 20
280.88391341
 30
0.0
 11
-179.13340781
 21
279.9354088
 31
0.0
  0
LINE
  5
42B
100
AcDbEntity
  8
0
  6
CONTINUOUS
 62
       7
100
AcDbLine
 10
-178.75058862
 20
280.88391341
 30
0.0
 11
-179.20851711
 21
280.42598493
 31
0.0
  0
LINE
  5
42C
100
AcDbEntity
  8
0
  6
CONTINUOUS
 62
       7
100
AcDbLine
 10
-145.15897973
 20
276.00891341
 30
0.0
 11
-150.59461651
 21
270.57327663
 31
0.0
  0
LINE
  5
42D
100
AcDbEntity
  8
0
  6
CONTINUOUS
 62
       7
100
AcDbLine
 10
-144.5932943
 20
276.00891341
 30
0.0
 11
-149.99685177
 21
270.60535595
 31
0.0
  0
LINE
  5
42E
100
AcDbEntity
  8
0
  6
CONTINUOUS
 62
       7
100
AcDbLine
 10
-144.02760888
 20
276.00891341
 30
0.0
 11
-149.39283767
 21
270.64368462
 31
0.0
  0
LINE
  5
42F
100
AcDbEntity
  8
0
  6
CONTINUOUS
 62
       7
100
AcDbLine
 10
-143.46192345
 20
276.00891341
 30
0.0
 11
-148.78229954
 21
270.68853733
 31
0.0
  0
LINE
  5
430
100
AcDbEntity
  8
0
  6
CONTINUOUS
 62
       7
100
AcDbLine
 10
-142.89623803
 20
276.00891341
 30
0.0
 11
-148.16492968
 21
270.74022176
 31
0.0
  0
LINE
  5
431
100
AcDbEntity
  8
0
  6
CONTINUOUS
 62
       7
100
AcDbLine
 10
-142.3305526
 20
276.00891341
 30
0.0
 11
-147.54038211
 21
270.79908391
 31
0.0
  0
LINE
  5
432
100
AcDbEntity
  8
0
  6
CONTINUOUS
 62
       7
100
AcDbLine
 10
-141.76486718
 20
276.00891341
 30
0.0
 11
-146.90826605
 21
270.86551454
 31
0.0
  0
LINE
  5
433
100
AcDbEntity
  8
0
  6
CONTINUOUS
 62
       7
100
AcDbLine
 10
-141.19918175
 20
276.00891341
 30
0.0
 11
-146.2681379
 21
270.93995726
 31
0.0
  0
LINE
  5
434
100
AcDbEntity
  8
0
  6
CONTINUOUS
 62
       7
100
AcDbLine
 10
-140.63349633
 20
276.00891341
 30
0.0
 11
-145.61949125
 21
271.02291849
 31
0.0
  0
LINE
  5
435
100
AcDbEntity
  8
0
  6
CONTINUOUS
 62
       7
100
AcDbLine
 10
-140.0678109
 20
276.00891341
 30
0.0
 11
-144.96174415
 21
271.11498017
 31
0.0
  0
LINE
  5
436
100
AcDbEntity
  8
0
  6
CONTINUOUS
 62
       7
100
AcDbLine
 10
-139.50212548
 20
276.00891341
 30
0.0
 11
-144.29422291
 21
271.21681599
 31
0.0
  0
LINE
  5
437
100
AcDbEntity
  8
0
  6
CONTINUOUS
 62
       7
100
AcDbLine
 10
-138.93644005
 20
276.00891341
 30
0.0
 11
-143.61614096
 21
271.32921251
 31
0.0
  0
LINE
  5
438
100
AcDbEntity
  8
0
  6
CONTINUOUS
 62
       7
100
AcDbLine
 10
-138.37075463
 20
276.00891341
 30
0.0
 11
-142.926571
 21
271.45309704
 31
0.0
  0
LINE
  5
439
100
AcDbEntity
  8
0
  6
CONTINUOUS
 62
       7
100
AcDbLine
 10
-132.9300692
 20
280.88391341
 30
0.0
 11
-132.97687691
 21
280.83710571
 31
0.0
  0
LINE
  5
43A
100
AcDbEntity
  8
0
  6
CONTINUOUS
 62
       7
100
AcDbLine
 10
-137.8050692
 20
276.00891341
 30
0.0
 11
-142.22440742
 21
271.58957519
 31
0.0
  0
LINE
  5
43B
100
AcDbEntity
  8
0
  6
CONTINUOUS
 62
       7
100
AcDbLine
 10
-132.36438378
 20
280.88391341
 30
0.0
 11
-132.97687691
 21
280.27142029
 31
0.0
  0
LINE
  5
43C
100
AcDbEntity
  8
0
  6
CONTINUOUS
 62
       7
100
AcDbLine
 10
-137.23938378
 20
276.00891341
 30
0.0
 11
-141.50831466
 21
271.73998253
 31
0.0
  0
LINE
  5
43D
100
AcDbEntity
  8
0
  6
CONTINUOUS
 62
       7
100
AcDbLine
 10
-131.79869835
 20
280.88391341
 30
0.0
 11
-132.97687691
 21
279.70573486
 31
0.0
  0
LINE
  5
43E
100
AcDbEntity
  8
0
  6
CONTINUOUS
 62
       7
100
AcDbLine
 10
-136.67369835
 20
276.00891341
 30
0.0
 11
-140.77665433
 21
271.90595744
 31
0.0
  0
LINE
  5
43F
100
AcDbEntity
  8
0
  6
CONTINUOUS
 62
       7
100
AcDbLine
 10
-131.23301293
 20
280.88391341
 30
0.0
 11
-132.97687691
 21
279.14004944
 31
0.0
  0
LINE
  5
440
100
AcDbEntity
  8
0
  6
CONTINUOUS
 62
       7
100
AcDbLine
 10
-136.10801293
 20
276.00891341
 30
0.0
 11
-140.02737945
 21
272.08954689
 31
0.0
  0
LINE
  5
441
100
AcDbEntity
  8
0
  6
CONTINUOUS
 62
       7
100
AcDbLine
 10
-130.6673275
 20
280.88391341
 30
0.0
 11
-132.97687691
 21
278.57436401
 31
0.0
  0
LINE
  5
442
100
AcDbEntity
  8
0
  6
CONTINUOUS
 62
       7
100
AcDbLine
 10
-135.5423275
 20
276.00891341
 30
0.0
 11
-139.25787536
 21
272.29336556
 31
0.0
  0
LINE
  5
443
100
AcDbEntity
  8
0
  6
CONTINUOUS
 62
       7
100
AcDbLine
 10
-130.10164208
 20
280.88391341
 30
0.0
 11
-132.97687691
 21
278.00867859
 31
0.0
  0
LINE
  5
444
100
AcDbEntity
  8
0
  6
CONTINUOUS
 62
       7
100
AcDbLine
 10
-134.97664208
 20
276.00891341
 30
0.0
 11
-138.46471028
 21
272.52084521
 31
0.0
  0
LINE
  5
445
100
AcDbEntity
  8
0
  6
CONTINUOUS
 62
       7
100
AcDbLine
 10
-129.53595665
 20
280.88391341
 30
0.0
 11
-132.97687691
 21
277.44299316
 31
0.0
  0
LINE
  5
446
100
AcDbEntity
  8
0
  6
CONTINUOUS
 62
       7
100
AcDbLine
 10
-134.41095665
 20
276.00891341
 30
0.0
 11
-137.64322337
 21
272.7766467
 31
0.0
  0
LINE
  5
447
100
AcDbEntity
  8
0
  6
CONTINUOUS
 62
       7
100
AcDbLine
 10
-128.97027123
 20
280.88391341
 30
0.0
 11
-132.97687691
 21
276.87730774
 31
0.0
  0
LINE
  5
448
100
AcDbEntity
  8
0
  6
CONTINUOUS
 62
       7
100
AcDbLine
 10
-133.84527123
 20
276.00891341
 30
0.0
 11
-136.78679786
 21
273.06738678
 31
0.0
  0
LINE
  5
449
100
AcDbEntity
  8
0
  6
CONTINUOUS
 62
       7
100
AcDbLine
 10
-128.4045858
 20
280.88391341
 30
0.0
 11
-132.97687691
 21
276.31162231
 31
0.0
  0
LINE
  5
44A
100
AcDbEntity
  8
0
  6
CONTINUOUS
 62
       7
100
AcDbLine
 10
-133.2795858
 20
276.00891341
 30
0.0
 11
-135.88546225
 21
273.40303697
 31
0.0
  0
LINE
  5
44B
100
AcDbEntity
  8
0
  6
CONTINUOUS
 62
       7
100
AcDbLine
 10
-128.10672242
 20
280.61609138
 30
0.0
 11
-134.92285338
 21
273.79996041
 31
0.0
  0
LINE
  5
44C
100
AcDbEntity
  8
0
  6
CONTINUOUS
 62
       7
100
AcDbLine
 10
-128.18840298
 20
279.96872539
 30
0.0
 11
-133.86831536
 21
274.288813
 31
0.0
  0
LINE
  5
44D
100
AcDbEntity
  8
0
  6
CONTINUOUS
 62
       7
100
AcDbLine
 10
-128.43511138
 20
279.15633157
 30
0.0
 11
-132.6487495
 21
274.94269344
 31
0.0
  0
LINE
  5
44E
100
AcDbEntity
  8
0
  6
CONTINUOUS
 62
       7
100
AcDbLine
 10
-129.19822901
 20
277.8275285
 30
0.0
 11
-130.91277441
 21
276.11298311
 31
0.0
  0
LINE
  5
44F
100
AcDbEntity
  8
0
  6
CENTER
 62
       7
100
AcDbLine
 10
-52.09338174
 20
34.8776669
 30
0.0
 11
-28.34338174
 21
34.8776669
 31
0.0
  0
LINE
  5
450
100
AcDbEntity
  8
0
  6
CENTER
 62
       7
100
AcDbLine
 10
133.33350199
 20
34.8776669
 30
0.0
 11
147.58350199
 21
34.8776669
 31
0.0
  0
LINE
  5
451
100
AcDbEntity
  8
0
  6
CENTER
 62
       7
100
AcDbLine
 10
-40.71838174
 20
-75.6223331
 30
0.0
 11
-40.71838174
 21
69.6276669
 31
0.0
  0
LINE
  5
452
100
AcDbEntity
  8
0
  6
CENTER
 62
       7
100
AcDbLine
 10
98.33350199
 20
-3.1223331
 30
0.0
 11
148.12530008
 21
-3.1223331
 31
0.0
  0
LINE
  5
453
100
AcDbEntity
  8
0
  6
CENTER
 62
       7
100
AcDbLine
 10
134.08350199
 20
-41.1223331
 30
0.0
 11
148.58350199
 21
-41.1223331
 31
0.0
  0
LINE
  5
454
100
AcDbEntity
  8
0
  6
CENTER
 62
       7
100
AcDbLine
 10
-52.46838174
 20
-41.1223331
 30
0.0
 11
-27.59338174
 21
-41.1223331
 31
0.0
  0
LINE
  5
455
100
AcDbEntity
  8
0
  6
CENTER
 62
       7
100
AcDbLine
 10
-127.1879807
 20
-3.1223331
 30
0.0
 11
44.15661826
 21
-3.1223331
 31
0.0
  0
LINE
  5
456
100
AcDbEntity
  8
0
  6
CENTER
 62
       7
100
AcDbLine
 10
-40.71838174
 20
125.3776669
 30
0.0
 11
-40.71838174
 21
210.3776669
 31
0.0
  0
TEXT
  5
457
100
AcDbEntity
  8
0
 62
       7
100
AcDbText
 10
-168.07925222
 20
-277.11608659
 30
0.0
 40
6.8
  1
株式会社
 50
0.00000307
 41
0.8
 72
       5
 11
-146.31925222
 21
-277.11608542
 31
0.0
100
AcDbText
  0
TEXT
  5
458
100
AcDbEntity
  8
0
 62
       7
100
AcDbText
 10
-80.50286628
 20
-265.83180473
 30
0.0
 40
6.0
  1
品
 50
0.00000307
 41
0.8
 72
       5
 11
-75.70286628
 21
-265.83180447
 31
0.0
100
AcDbText
  0
TEXT
  5
459
100
AcDbEntity
  8
0
 62
       7
100
AcDbText
 10
-80.50286628
 20
-277.83180473
 30
0.0
 40
6.0
  1
名
 50
0.00000307
 41
0.8
 72
       5
 11
-75.70286628
 21
-277.83180447
 31
0.0
100
AcDbText
  0
TEXT
  5
45A
100
AcDbEntity
  8
0
 62
       7
100
AcDbText
 10
54.50161048
 20
-265.86699767
 30
0.0
 40
6.0
  1
品
 50
0.00000307
 41
0.8
 72
       5
 11
59.30161048
 21
-265.86699741
 31
0.0
100
AcDbText
  0
TEXT
  5
45B
100
AcDbEntity
  8
0
 62
       7
100
AcDbText
 10
54.50161048
 20
-277.86699767
 30
0.0
 40
6.0
  1
番
 50
0.00000307
 41
0.8
 72
       5
 11
59.30161048
 21
-277.86699741
 31
0.0
100
AcDbText
  0
TEXT
  5
45C
100
AcDbEntity
  8
0
 62
       7
100
AcDbText
 10
-178.67836957
 20
-243.66115339
 30
0.0
 40
8.0
  1
1
 50
0.00000307
 41
0.8
 72
       5
 11
-172.27836957
 21
-243.66115305
 31
0.0
100
AcDbText
  0
TEXT
  5
45D
100
AcDbEntity
  8
0
 62
       7
100
AcDbText
 10
-178.67836957
 20
-233.66115339
 30
0.0
 40
8.0
  1
2
 50
0.00000307
 41
0.8
 72
       5
 11
-172.27836957
 21
-233.66115305
 31
0.0
100
AcDbText
  0
TEXT
  5
45E
100
AcDbEntity
  8
0
 62
       7
100
AcDbText
 10
-178.67836957
 20
-223.66115339
 30
0.0
 40
8.0
  1
3
 50
0.00000307
 41
0.8
 72
       5
 11
-172.27836957
 21
-223.66115305
 31
0.0
100
AcDbText
  0
TEXT
  5
45F
100
AcDbEntity
  8
0
 62
       7
100
AcDbText
 10
-178.67836957
 20
-213.66115339
 30
0.0
 40
8.0
  1
4
 50
0.00000307
 41
0.8
 72
       5
 11
-172.27836957
 21
-213.66115305
 31
0.0
100
AcDbText
  0
TEXT
  5
460
100
AcDbEntity
  8
0
 62
       7
100
AcDbText
 10
-178.67836957
 20
-203.66115339
 30
0.0
 40
8.0
  1
5
 50
0.00000307
 41
0.8
 72
       5
 11
-172.27836957
 21
-203.66115305
 31
0.0
100
AcDbText
  0
TEXT
  5
461
100
AcDbEntity
  8
0
 62
       7
100
AcDbText
 10
-178.67836957
 20
-193.66115339
 30
0.0
 40
8.0
  1
6
 50
0.00000307
 41
0.8
 72
       5
 11
-172.27836957
 21
-193.66115305
 31
0.0
100
AcDbText
  0
TEXT
  5
462
100
AcDbEntity
  8
0
 62
       7
100
AcDbText
 10
-178.67836957
 20
-183.66115339
 30
0.0
 40
8.0
  1
7
 50
0.00000307
 41
0.8
 72
       5
 11
-172.27836957
 21
-183.66115305
 31
0.0
100
AcDbText
  0
TEXT
  5
463
100
AcDbEntity
  8
0
 62
       7
100
AcDbText
 10
103.76732549
 20
-253.6216861
 30
0.0
 40
8.0
  1
摘要・仕上
 50
0.00000307
 41
0.8
 72
       5
 11
135.76732549
 21
-253.62168439
 31
0.0
100
AcDbText
  0
TEXT
  5
464
100
AcDbEntity
  8
0
 62
       7
100
AcDbText
 10
32.49604568
 20
-253.6216861
 30
0.0
 40
8.0
  1
個　数
 50
0.00000307
 41
0.8
 72
       5
 11
51.69604568
 21
-253.62168507
 31
0.0
100
AcDbText
  0
TEXT
  5
465
100
AcDbEntity
  8
0
 62
       7
100
AcDbText
 10
-34.69577292
 20
-253.6216861
 30
0.0
 40
8.0
  1
材　　質
 50
0.00000307
 41
0.8
 72
       5
 11
-9.09577292
 21
-253.62168473
 31
0.0
100
AcDbText
  0
TEXT
  5
466
100
AcDbEntity
  8
0
 62
       7
100
AcDbText
 10
-137.73061244
 20
-253.6216861
 30
0.0
 40
8.0
  1
部　品　名
 50
0.00000307
 41
0.8
 72
       5
 11
-105.73061244
 21
-253.62168439
 31
0.0
100
AcDbText
  0
TEXT
  5
467
100
AcDbEntity
  8
0
 62
       7
100
AcDbText
 10
-181.814839
 20
-253.6216861
 30
0.0
 40
8.0
  1
部番
 50
0.00000307
 41
0.8
 72
       5
 11
-169.014839
 21
-253.62168541
 31
0.0
100
AcDbText
  0
TEXT
  5
468
100
AcDbEntity
  8
0
 62
       7
100
AcDbText
 10
199.62930846
 20
87.87834542
 30
0.0
 40
8.0
  1
セッケン受
 50
-89.99999846
 41
0.8
 72
       5
 11
199.62930932
 21
55.87834542
 31
0.0
100
AcDbText
  0
TEXT
  5
469
100
AcDbEntity
  8
0
 62
       7
100
AcDbText
 10
148.86040666
 20
-293.25299234
 30
0.0
 40
8.0
  1
０３０４２５
 50
0.00000307
 41
0.8
 72
       5
 11
187.26040666
 21
-293.25299028
 31
0.0
100
AcDbText
  0
INSERT
  5
46A
100
AcDbEntity
  8
0
  6
CONTINUOUS
100
AcDbBlockReference
  2
GROUP_1
 10
0.0
 20
0.0
 30
0.0
  0
INSERT
  5
46B
100
AcDbEntity
  8
0
  6
CONTINUOUS
100
AcDbBlockReference
  2
GROUP_2
 10
0.0
 20
0.0
 30
0.0
  0
INSERT
  5
46C
100
AcDbEntity
  8
0
  6
CONTINUOUS
100
AcDbBlockReference
  2
GROUP_3
 10
0.0
 20
0.0
 30
0.0
  0
INSERT
  5
46D
100
AcDbEntity
  8
0
  6
CONTINUOUS
100
AcDbBlockReference
  2
GROUP_4
 10
0.0
 20
0.0
 30
0.0
  0
INSERT
  5
46E
100
AcDbEntity
  8
0
  6
CONTINUOUS
100
AcDbBlockReference
  2
GROUP_5
 10
0.0
 20
0.0
 30
0.0
  0
INSERT
  5
46F
100
AcDbEntity
  8
0
  6
CONTINUOUS
100
AcDbBlockReference
  2
GROUP_6
 10
0.0
 20
0.0
 30
0.0
  0
INSERT
  5
470
100
AcDbEntity
  8
0
  6
CONTINUOUS
100
AcDbBlockReference
  2
GROUP_7
 10
0.0
 20
0.0
 30
0.0
  0
INSERT
  5
471
100
AcDbEntity
  8
0
  6
CONTINUOUS
100
AcDbBlockReference
  2
GROUP_8
 10
0.0
 20
0.0
 30
0.0
  0
INSERT
  5
472
100
AcDbEntity
  8
0
  6
CONTINUOUS
100
AcDbBlockReference
  2
GROUP_9
 10
0.0
 20
0.0
 30
0.0
  0
INSERT
  5
473
100
AcDbEntity
  8
0
  6
CONTINUOUS
100
AcDbBlockReference
  2
GROUP_10
 10
0.0
 20
0.0
 30
0.0
  0
INSERT
  5
474
100
AcDbEntity
  8
0
  6
CONTINUOUS
100
AcDbBlockReference
  2
GROUP_11
 10
0.0
 20
0.0
 30
0.0
  0
INSERT
  5
475
100
AcDbEntity
  8
0
  6
CONTINUOUS
100
AcDbBlockReference
  2
GROUP_12
 10
0.0
 20
0.0
 30
0.0
  0
TEXT
  5
476
100
AcDbEntity
  8
240
 62
       7
100
AcDbText
 10
31.38833396
 20
-171.90370892
 30
0.0
 40
8.0
  1
取付壁穴寸法　H110XW132XD32m/m
 50
0.00000307
 41
0.8
 72
       5
 11
178.58833396
 21
-171.90370103
 31
0.0
100
AcDbText
  0
TEXT
  5
477
100
AcDbEntity
  8
240
 62
       7
100
AcDbText
 10
-166.22687691
 20
-243.74108659
 30
0.0
 40
8.0
  1
本体
 50
0.00000307
 41
0.8
 72
       5
 11
-153.42687691
 21
-243.7410859
 31
0.0
100
AcDbText
  0
TEXT
  5
478
100
AcDbEntity
  8
240
 62
       7
100
AcDbText
 10
-73.10187691
 20
-243.74108659
 30
0.0
 40
8.0
  1
BS-C2801
 50
0.00000307
 41
0.8
 72
       5
 11
-21.90187691
 21
-243.74108385
 31
0.0
100
AcDbText
  0
TEXT
  5
479
100
AcDbEntity
  8
240
 62
       7
100
AcDbText
 10
55.39812309
 20
-243.74108659
 30
0.0
 40
8.0
  1
クロムメッキ
 50
0.00000307
 41
0.8
 72
       5
 11
93.79812309
 21
-243.74108453
 31
0.0
100
AcDbText
  0
TEXT
  5
47A
100
AcDbEntity
  8
240
 62
       7
100
AcDbText
 10
39.07312309
 20
-243.74108659
 30
0.0
 40
8.0
  1
1
 50
0.00000307
 41
0.8
 72
       5
 11
45.47312309
 21
-243.74108625
 31
0.0
100
AcDbText
  0
TEXT
  5
47B
100
AcDbEntity
  8
240
 62
       7
100
AcDbText
 10
-39.33937691
 20
-276.17858659
 30
0.0
 40
12.0
  1
半埋込石鹸受
 50
0.00000307
 41
0.8
 72
       5
 11
18.26062309
 21
-276.1785835
 31
0.0
100
AcDbText
  0
TEXT
  5
47C
100
AcDbEntity
  8
240
 62
       7
100
AcDbText
 10
95.59812309
 20
-276.17858659
 30
0.0
 40
12.0
  1
RN925S
 50
0.00000307
 41
0.8
 72
       5
 11
153.19812309
 21
-276.1785835
 31
0.0
100
AcDbText
  0
TEXT
  5
47D
100
AcDbEntity
  8
240
 62
       7
100
AcDbText
 10
-166.22687691
 20
-233.74108659
 30
0.0
 40
8.0
  1
受皿
 50
0.00000307
 41
0.8
 72
       5
 11
-153.42687691
 21
-233.7410859
 31
0.0
100
AcDbText
  0
TEXT
  5
47E
100
AcDbEntity
  8
240
 62
       7
100
AcDbText
 10
-73.10187691
 20
-233.74108659
 30
0.0
 40
8.0
  1
ZDC-2
 50
0.00000307
 41
0.8
 72
       5
 11
-41.10187691
 21
-233.74108488
 31
0.0
100
AcDbText
  0
TEXT
  5
47F
100
AcDbEntity
  8
240
 62
       7
100
AcDbText
 10
39.07312309
 20
-233.74108659
 30
0.0
 40
8.0
  1
1
 50
0.00000307
 41
0.8
 72
       5
 11
45.47312309
 21
-233.74108625
 31
0.0
100
AcDbText
  0
TEXT
  5
480
100
AcDbEntity
  8
240
 62
       7
100
AcDbText
 10
55.39812309
 20
-233.74108659
 30
0.0
 40
8.0
  1
クロムメッキ
 50
0.00000307
 41
0.8
 72
       5
 11
93.79812309
 21
-233.74108453
 31
0.0
100
AcDbText
  0
TEXT
  5
481
100
AcDbEntity
  8
240
 62
       7
100
AcDbText
 10
-166.22687691
 20
-223.74108659
 30
0.0
 40
8.0
  1
皿固定ネジ　Ｍ４Ｘ８
 50
0.00000307
 41
0.8
 72
       5
 11
-102.22687691
 21
-223.74108316
 31
0.0
100
AcDbText
  0
TEXT
  5
482
100
AcDbEntity
  8
240
 62
       7
100
AcDbText
 10
-73.10187691
 20
-223.74108659
 30
0.0
 40
8.0
  1
SUS304
 50
0.00000307
 41
0.8
 72
       5
 11
-34.70187691
 21
-223.74108453
 31
0.0
100
AcDbText
  0
TEXT
  5
483
100
AcDbEntity
  8
240
 62
       7
100
AcDbText
 10
39.07312309
 20
-223.74108659
 30
0.0
 40
8.0
  1
2
 50
0.00000307
 41
0.8
 72
       5
 11
45.47312309
 21
-223.74108625
 31
0.0
100
AcDbText
  0
TEXT
  5
484
100
AcDbEntity
  8
240
 62
       7
100
AcDbText
 10
-166.22687691
 20
-213.74108659
 30
0.0
 40
8.0
  1
取付ネジ　４Ｘ３０
 50
0.00000307
 41
0.8
 72
       5
 11
-108.62687691
 21
-213.7410835
 31
0.0
100
AcDbText
  0
TEXT
  5
485
100
AcDbEntity
  8
240
 62
       7
100
AcDbText
 10
-73.10187691
 20
-213.74108659
 30
0.0
 40
8.0
  1
SUS304
 50
0.00000307
 41
0.8
 72
       5
 11
-34.70187691
 21
-213.74108453
 31
0.0
100
AcDbText
  0
TEXT
  5
486
100
AcDbEntity
  8
240
 62
       7
100
AcDbText
 10
39.07312309
 20
-213.74108659
 30
0.0
 40
8.0
  1
2
 50
0.00000307
 41
0.8
 72
       5
 11
45.47312309
 21
-213.74108625
 31
0.0
100
AcDbText
  0
TEXT
  5
487
100
AcDbEntity
  8
240
 62
       7
100
AcDbText
 10
-58.58240016
 20
270.72777628
 30
0.0
 40
12.0
  1
半埋込石鹸受
 50
0.00000307
 41
0.8
 72
       5
 11
-0.98240016
 21
270.72777937
 31
0.0
100
AcDbText
  0
TEXT
  5
488
100
AcDbEntity
  8
240
 62
       7
100
AcDbText
 10
96.84812309
 20
270.72777628
 30
0.0
 40
12.0
  1
RN925S
 50
0.00000307
 41
0.8
 72
       5
 11
154.44812309
 21
270.72777937
 31
0.0
100
AcDbText
  0
LINE
  5
489
100
AcDbEntity
  8
1
  6
CONTINUOUS
 62
       7
100
AcDbLine
 10
-104.38042466
 20
177.19287432
 30
0.0
 11
-104.38042466
 21
225.6276669
 31
0.0
  0
LINE
  5
48A
100
AcDbEntity
  8
1
  6
CONTINUOUS
 62
       7
100
AcDbLine
 10
22.94366117
 20
177.19287432
 30
0.0
 11
22.94366117
 21
225.6276669
 31
0.0
  0
LINE
  5
48B
100
AcDbEntity
  8
1
  6
CONTINUOUS
 62
       7
100
AcDbLine
 10
-104.38042466
 20
223.6276669
 30
0.0
 11
22.94366117
 21
223.6276669
 31
0.0
  0
LINE
  5
48C
100
AcDbEntity
  8
1
  6
CONTINUOUS
 62
       7
100
AcDbLine
 10
-104.38042466
 20
223.6276669
 30
0.0
 11
-99.48968666
 21
222.58810845
 31
0.0
  0
LINE
  5
48D
100
AcDbEntity
  8
1
  6
CONTINUOUS
 62
       7
100
AcDbLine
 10
-104.38042466
 20
223.6276669
 30
0.0
 11
-99.48968666
 21
224.66722536
 31
0.0
  0
LINE
  5
48E
100
AcDbEntity
  8
1
  6
CONTINUOUS
 62
       7
100
AcDbLine
 10
22.94366117
 20
223.6276669
 30
0.0
 11
18.05292317
 21
224.66722536
 31
0.0
  0
LINE
  5
48F
100
AcDbEntity
  8
1
  6
CONTINUOUS
 62
       7
100
AcDbLine
 10
22.94366117
 20
223.6276669
 30
0.0
 11
18.05292317
 21
222.58810845
 31
0.0
  0
LINE
  5
490
100
AcDbEntity
  8
1
  6
CONTINUOUS
 62
       7
100
AcDbLine
 10
-118.71838174
 20
59.3776669
 30
0.0
 11
-118.71838174
 21
100.3776669
 31
0.0
  0
LINE
  5
491
100
AcDbEntity
  8
1
  6
CONTINUOUS
 62
       7
100
AcDbLine
 10
37.28161826
 20
59.3776669
 30
0.0
 11
37.28161826
 21
100.3776669
 31
0.0
  0
LINE
  5
492
100
AcDbEntity
  8
1
  6
CONTINUOUS
 62
       7
100
AcDbLine
 10
-118.71838174
 20
98.3776669
 30
0.0
 11
37.28161826
 21
98.3776669
 31
0.0
  0
LINE
  5
493
100
AcDbEntity
  8
1
  6
CONTINUOUS
 62
       7
100
AcDbLine
 10
-118.71838174
 20
98.3776669
 30
0.0
 11
-113.82764374
 21
97.33810845
 31
0.0
  0
LINE
  5
494
100
AcDbEntity
  8
1
  6
CONTINUOUS
 62
       7
100
AcDbLine
 10
-118.71838174
 20
98.3776669
 30
0.0
 11
-113.82764374
 21
99.41722536
 31
0.0
  0
LINE
  5
495
100
AcDbEntity
  8
1
  6
CONTINUOUS
 62
       7
100
AcDbLine
 10
37.28161826
 20
98.3776669
 30
0.0
 11
32.39088025
 21
99.41722536
 31
0.0
  0
LINE
  5
496
100
AcDbEntity
  8
1
  6
CONTINUOUS
 62
       7
100
AcDbLine
 10
37.28161826
 20
98.3776669
 30
0.0
 11
32.39088025
 21
97.33810845
 31
0.0
  0
LINE
  5
497
100
AcDbEntity
  8
1
  6
CONTINUOUS
 62
       7
100
AcDbLine
 10
19.28161826
 20
-65.6223331
 30
0.0
 11
19.28161826
 21
-100.6223331
 31
0.0
  0
LINE
  5
498
100
AcDbEntity
  8
1
  6
CONTINUOUS
 62
       7
100
AcDbLine
 10
-100.71838174
 20
-65.6223331
 30
0.0
 11
-100.71838174
 21
-100.6223331
 31
0.0
  0
LINE
  5
499
100
AcDbEntity
  8
1
  6
CONTINUOUS
 62
       7
100
AcDbLine
 10
-100.71838174
 20
-98.6223331
 30
0.0
 11
19.28161826
 21
-98.6223331
 31
0.0
  0
LINE
  5
49A
100
AcDbEntity
  8
1
  6
CONTINUOUS
 62
       7
100
AcDbLine
 10
-100.71838174
 20
-98.6223331
 30
0.0
 11
-95.82764374
 21
-99.66189155
 31
0.0
  0
LINE
  5
49B
100
AcDbEntity
  8
1
  6
CONTINUOUS
 62
       7
100
AcDbLine
 10
-100.71838174
 20
-98.6223331
 30
0.0
 11
-95.82764374
 21
-97.58277464
 31
0.0
  0
LINE
  5
49C
100
AcDbEntity
  8
1
  6
CONTINUOUS
 62
       7
100
AcDbLine
 10
19.28161826
 20
-98.6223331
 30
0.0
 11
14.39088025
 21
-97.58277464
 31
0.0
  0
LINE
  5
49D
100
AcDbEntity
  8
1
  6
CONTINUOUS
 62
       7
100
AcDbLine
 10
19.28161826
 20
-98.6223331
 30
0.0
 11
14.39088025
 21
-99.66189155
 31
0.0
  0
LINE
  5
49E
100
AcDbEntity
  8
1
  6
CONTINUOUS
 62
       7
100
AcDbLine
 10
110.58350199
 20
-67.6223331
 30
0.0
 11
110.58350199
 21
-100.6223331
 31
0.0
  0
LINE
  5
49F
100
AcDbEntity
  8
1
  6
CONTINUOUS
 62
       7
100
AcDbLine
 10
75.70850199
 20
-50.6223331
 30
0.0
 11
75.70850199
 21
-100.6223331
 31
0.0
  0
LINE
  5
4A0
100
AcDbEntity
  8
1
  6
CONTINUOUS
 62
       7
100
AcDbLine
 10
75.70850199
 20
-98.6223331
 30
0.0
 11
110.58350199
 21
-98.6223331
 31
0.0
  0
LINE
  5
4A1
100
AcDbEntity
  8
1
  6
CONTINUOUS
 62
       7
100
AcDbLine
 10
75.70850199
 20
-98.6223331
 30
0.0
 11
80.59924
 21
-99.66189155
 31
0.0
  0
LINE
  5
4A2
100
AcDbEntity
  8
1
  6
CONTINUOUS
 62
       7
100
AcDbLine
 10
75.70850199
 20
-98.6223331
 30
0.0
 11
80.59924
 21
-97.58277464
 31
0.0
  0
LINE
  5
4A3
100
AcDbEntity
  8
1
  6
CONTINUOUS
 62
       7
100
AcDbLine
 10
110.58350199
 20
-98.6223331
 30
0.0
 11
105.69276399
 21
-97.58277464
 31
0.0
  0
LINE
  5
4A4
100
AcDbEntity
  8
1
  6
CONTINUOUS
 62
       7
100
AcDbLine
 10
110.58350199
 20
-98.6223331
 30
0.0
 11
105.69276399
 21
-99.66189155
 31
0.0
  0
LINE
  5
4A5
100
AcDbEntity
  8
1
  6
CONTINUOUS
 62
       7
100
AcDbLine
 10
114.08350199
 20
-70.6223331
 30
0.0
 11
114.08350199
 21
-100.6223331
 31
0.0
  0
LINE
  5
4A6
100
AcDbEntity
  8
1
  6
CONTINUOUS
 62
       7
100
AcDbLine
 10
110.58350199
 20
-98.6223331
 30
0.0
 11
114.08350199
 21
-98.6223331
 31
0.0
  0
LINE
  5
4A7
100
AcDbEntity
  8
1
  6
CONTINUOUS
 62
       7
100
AcDbLine
 10
141.58350199
 20
-45.6223331
 30
0.0
 11
141.58350199
 21
-100.6223331
 31
0.0
  0
LINE
  5
4A8
100
AcDbEntity
  8
1
  6
CONTINUOUS
 62
       7
100
AcDbLine
 10
114.08350199
 20
-98.6223331
 30
0.0
 11
141.58350199
 21
-98.6223331
 31
0.0
  0
LINE
  5
4A9
100
AcDbEntity
  8
1
  6
CONTINUOUS
 62
       7
100
AcDbLine
 10
114.08350199
 20
-98.6223331
 30
0.0
 11
118.97424
 21
-99.66189155
 31
0.0
  0
LINE
  5
4AA
100
AcDbEntity
  8
1
  6
CONTINUOUS
 62
       7
100
AcDbLine
 10
114.08350199
 20
-98.6223331
 30
0.0
 11
118.97424
 21
-97.58277464
 31
0.0
  0
LINE
  5
4AB
100
AcDbEntity
  8
1
  6
CONTINUOUS
 62
       7
100
AcDbLine
 10
141.58350199
 20
-98.6223331
 30
0.0
 11
136.69276399
 21
-97.58277464
 31
0.0
  0
LINE
  5
4AC
100
AcDbEntity
  8
1
  6
CONTINUOUS
 62
       7
100
AcDbLine
 10
141.58350199
 20
-98.6223331
 30
0.0
 11
136.69276399
 21
-99.66189155
 31
0.0
  0
LINE
  5
4AD
100
AcDbEntity
  8
1
  6
CONTINUOUS
 62
       7
100
AcDbLine
 10
103.84183462
 20
-114.4483783
 30
0.0
 11
112.33350199
 21
-98.6223331
 31
0.0
  0
LINE
  5
4AE
100
AcDbEntity
  8
1
  6
CONTINUOUS
 62
       7
100
AcDbLine
 10
93.44183462
 20
-114.4483783
 30
0.0
 11
103.84183462
 21
-114.4483783
 31
0.0
  0
LINE
  5
4AF
100
AcDbEntity
  8
1
  6
CONTINUOUS
 62
       7
100
AcDbLine
 10
-115.71859666
 20
-68.62080323
 30
0.0
 11
-156.71838174
 21
-68.62080323
 31
0.0
  0
LINE
  5
4B0
100
AcDbEntity
  8
1
  6
CONTINUOUS
 62
       7
100
AcDbLine
 10
-115.71838174
 20
62.3776669
 30
0.0
 11
-156.71838174
 21
62.3776669
 31
0.0
  0
LINE
  5
4B1
100
AcDbEntity
  8
1
  6
CONTINUOUS
 62
       7
100
AcDbLine
 10
-154.71838174
 20
62.3776669
 30
0.0
 11
-154.71838174
 21
-68.62080323
 31
0.0
  0
LINE
  5
4B2
100
AcDbEntity
  8
1
  6
CONTINUOUS
 62
       7
100
AcDbLine
 10
-154.71838174
 20
62.3776669
 30
0.0
 11
-155.7579402
 21
57.4869289
 31
0.0
  0
LINE
  5
4B3
100
AcDbEntity
  8
1
  6
CONTINUOUS
 62
       7
100
AcDbLine
 10
-154.71838174
 20
62.3776669
 30
0.0
 11
-153.67882329
 21
57.4869289
 31
0.0
  0
LINE
  5
4B4
100
AcDbEntity
  8
1
  6
CONTINUOUS
 62
       7
100
AcDbLine
 10
-154.71838174
 20
-68.62080323
 30
0.0
 11
-153.67882329
 21
-63.73006523
 31
0.0
  0
LINE
  5
4B5
100
AcDbEntity
  8
1
  6
CONTINUOUS
 62
       7
100
AcDbLine
 10
-154.71838174
 20
-68.62080323
 30
0.0
 11
-155.7579402
 21
-63.73006523
 31
0.0
  0
LINE
  5
4B6
100
AcDbEntity
  8
1
  6
CONTINUOUS
 62
       7
100
AcDbLine
 10
150.58350199
 20
34.8776669
 30
0.0
 11
174.58350199
 21
34.8776669
 31
0.0
  0
LINE
  5
4B7
100
AcDbEntity
  8
1
  6
CONTINUOUS
 62
       7
100
AcDbLine
 10
151.58350199
 20
-41.1223331
 30
0.0
 11
174.58350199
 21
-41.1223331
 31
0.0
  0
LINE
  5
4B8
100
AcDbEntity
  8
1
  6
CONTINUOUS
 62
       7
100
AcDbLine
 10
172.58350199
 20
34.8776669
 30
0.0
 11
172.58350199
 21
-41.1223331
 31
0.0
  0
LINE
  5
4B9
100
AcDbEntity
  8
1
  6
CONTINUOUS
 62
       7
100
AcDbLine
 10
172.58350199
 20
34.8776669
 30
0.0
 11
171.54394354
 21
29.9869289
 31
0.0
  0
LINE
  5
4BA
100
AcDbEntity
  8
1
  6
CONTINUOUS
 62
       7
100
AcDbLine
 10
172.58350199
 20
34.8776669
 30
0.0
 11
173.62306045
 21
29.9869289
 31
0.0
  0
LINE
  5
4BB
100
AcDbEntity
  8
1
  6
CONTINUOUS
 62
       7
100
AcDbLine
 10
172.58350199
 20
-41.1223331
 30
0.0
 11
173.62306045
 21
-36.23159509
 31
0.0
  0
LINE
  5
4BC
100
AcDbEntity
  8
1
  6
CONTINUOUS
 62
       7
100
AcDbLine
 10
172.58350199
 20
-41.1223331
 30
0.0
 11
171.54394354
 21
-36.23159509
 31
0.0
  0
LINE
  5
4BD
100
AcDbEntity
  8
1
  6
CONTINUOUS
 62
       7
100
AcDbLine
 10
138.57303004
 20
49.87764863
 30
0.0
 11
189.58350199
 21
49.87764863
 31
0.0
  0
LINE
  5
4BE
100
AcDbEntity
  8
1
  6
CONTINUOUS
 62
       7
100
AcDbLine
 10
138.57303004
 20
-56.12231482
 30
0.0
 11
189.58350199
 21
-56.12231482
 31
0.0
  0
LINE
  5
4BF
100
AcDbEntity
  8
1
  6
CONTINUOUS
 62
       7
100
AcDbLine
 10
187.58350199
 20
49.87764863
 30
0.0
 11
187.58350199
 21
-56.12231482
 31
0.0
  0
LINE
  5
4C0
100
AcDbEntity
  8
1
  6
CONTINUOUS
 62
       7
100
AcDbLine
 10
187.58350199
 20
49.87764863
 30
0.0
 11
186.54394354
 21
44.98691062
 31
0.0
  0
LINE
  5
4C1
100
AcDbEntity
  8
1
  6
CONTINUOUS
 62
       7
100
AcDbLine
 10
187.58350199
 20
49.87764863
 30
0.0
 11
188.62306045
 21
44.98691062
 31
0.0
  0
LINE
  5
4C2
100
AcDbEntity
  8
1
  6
CONTINUOUS
 62
       7
100
AcDbLine
 10
187.58350199
 20
-56.12231482
 30
0.0
 11
188.62306045
 21
-51.23157682
 31
0.0
  0
LINE
  5
4C3
100
AcDbEntity
  8
1
  6
CONTINUOUS
 62
       7
100
AcDbLine
 10
187.58350199
 20
-56.12231482
 30
0.0
 11
186.54394354
 21
-51.23157682
 31
0.0
  0
LINE
  5
4C4
100
AcDbEntity
  8
1
  6
CONTINUOUS
 62
       7
100
AcDbLine
 10
-37.01146085
 20
-39.04357446
 30
0.0
 11
-44.42530264
 21
-43.20109173
 31
0.0
  0
LINE
  5
4C5
100
AcDbEntity
  8
1
  6
CONTINUOUS
 62
       7
100
AcDbLine
 10
-165.03192718
 20
-110.83459915
 30
0.0
 11
-44.42530264
 21
-43.20109173
 31
0.0
  0
LINE
  5
4C6
100
AcDbEntity
  8
1
  6
CONTINUOUS
 62
       7
100
AcDbLine
 10
-44.42530264
 20
-43.20109173
 30
0.0
 11
-49.19955441
 21
-44.68652771
 31
0.0
  0
LINE
  5
4C7
100
AcDbEntity
  8
1
  6
CONTINUOUS
 62
       7
100
AcDbLine
 10
-44.42530264
 20
-43.20109173
 30
0.0
 11
-48.18261742
 21
-46.49996816
 31
0.0
  0
LINE
  5
4C8
100
AcDbEntity
  8
1
  6
CONTINUOUS
 62
       7
100
AcDbLine
 10
-28.28929403
 20
-34.15237768
 30
0.0
 11
-37.01146085
 21
-39.04357446
 31
0.0
  0
LINE
  5
4C9
100
AcDbEntity
  8
1
  6
CONTINUOUS
 62
       7
100
AcDbLine
 10
-37.01146085
 20
-39.04357446
 30
0.0
 11
-32.23720908
 21
-37.55813849
 31
0.0
  0
LINE
  5
4CA
100
AcDbEntity
  8
1
  6
CONTINUOUS
 62
       7
100
AcDbLine
 10
-37.01146085
 20
-39.04357446
 30
0.0
 11
-33.25414607
 21
-35.74469804
 31
0.0
  0
LINE
  5
4CB
100
AcDbEntity
  8
1
  6
CONTINUOUS
 62
       7
100
AcDbLine
 10
-4.97687691
 20
161.5
 30
0.0
 11
68.13568087
 21
115.80465139
 31
0.0
  0
POINT
  5
4CC
100
AcDbEntity
  8
1
  6
CONTINUOUS
 62
       7
100
AcDbPoint
 10
-4.97687691
 20
161.5
 30
0.0
  0
CIRCLE
  5
4CD
100
AcDbEntity
  8
1
  6
CONTINUOUS
 62
       7
100
AcDbCircle
 10
75.02312309
 20
111.5
 30
0.0
 40
8.122
  0
LINE
  5
4CE
100
AcDbEntity
  8
1
  6
CONTINUOUS
 62
       7
100
AcDbLine
 10
25.02312309
 20
11.5
 30
0.0
 11
70.7184717
 21
84.61255777
 31
0.0
  0
POINT
  5
4CF
100
AcDbEntity
  8
1
  6
CONTINUOUS
 62
       7
100
AcDbPoint
 10
25.02312309
 20
11.5
 30
0.0
  0
CIRCLE
  5
4D0
100
AcDbEntity
  8
1
  6
CONTINUOUS
 62
       7
100
AcDbCircle
 10
75.02312309
 20
91.5
 30
0.0
 40
8.122
  0
LINE
  5
4D1
100
AcDbEntity
  8
1
  6
CONTINUOUS
 62
       7
100
AcDbLine
 10
75.08350199
 20
-48.6223331
 30
0.0
 11
59.02664422
 21
-48.6223331
 31
0.0
  0
LINE
  5
4D2
100
AcDbEntity
  8
1
  6
CONTINUOUS
 62
       7
100
AcDbLine
 10
91.51517872
 20
-66.6223331
 30
0.0
 11
59.02664422
 21
-66.6223331
 31
0.0
  0
LINE
  5
4D3
100
AcDbEntity
  8
1
  6
CONTINUOUS
 62
       7
100
AcDbLine
 10
61.02664422
 20
-66.6223331
 30
0.0
 11
61.02664422
 21
-48.6223331
 31
0.0
  0
LINE
  5
4D4
100
AcDbEntity
  8
1
  6
CONTINUOUS
 62
       7
100
AcDbLine
 10
61.02664422
 20
-38.6223331
 30
0.0
 11
61.02664422
 21
-48.6223331
 31
0.0
  0
LINE
  5
4D5
100
AcDbEntity
  8
1
  6
CONTINUOUS
 62
       7
100
AcDbLine
 10
61.02664422
 20
-48.6223331
 30
0.0
 11
62.06620267
 21
-43.73159509
 31
0.0
  0
LINE
  5
4D6
100
AcDbEntity
  8
1
  6
CONTINUOUS
 62
       7
100
AcDbLine
 10
61.02664422
 20
-48.6223331
 30
0.0
 11
59.98708577
 21
-43.73159509
 31
0.0
  0
LINE
  5
4D7
100
AcDbEntity
  8
1
  6
CONTINUOUS
 62
       7
100
AcDbLine
 10
61.02664422
 20
-76.6223331
 30
0.0
 11
61.02664422
 21
-66.6223331
 31
0.0
  0
LINE
  5
4D8
100
AcDbEntity
  8
1
  6
CONTINUOUS
 62
       7
100
AcDbLine
 10
61.02664422
 20
-66.6223331
 30
0.0
 11
59.98708577
 21
-71.5130711
 31
0.0
  0
LINE
  5
4D9
100
AcDbEntity
  8
1
  6
CONTINUOUS
 62
       7
100
AcDbLine
 10
61.02664422
 20
-66.6223331
 30
0.0
 11
62.06620267
 21
-71.5130711
 31
0.0
  0
LINE
  5
4DA
100
AcDbEntity
  8
1
  6
CONTINUOUS
 62
       7
100
AcDbLine
 10
-103.71838174
 20
48.3776669
 30
0.0
 11
-103.71838174
 21
80.3776669
 31
0.0
  0
LINE
  5
4DB
100
AcDbEntity
  8
1
  6
CONTINUOUS
 62
       7
100
AcDbLine
 10
22.28161826
 20
48.3776669
 30
0.0
 11
22.28161826
 21
80.3776669
 31
0.0
  0
LINE
  5
4DC
100
AcDbEntity
  8
1
  6
CONTINUOUS
 62
       7
100
AcDbLine
 10
-103.71838174
 20
78.3776669
 30
0.0
 11
22.28161826
 21
78.3776669
 31
0.0
  0
LINE
  5
4DD
100
AcDbEntity
  8
1
  6
CONTINUOUS
 62
       7
100
AcDbLine
 10
-103.71838174
 20
78.3776669
 30
0.0
 11
-98.82764374
 21
77.33810845
 31
0.0
  0
LINE
  5
4DE
100
AcDbEntity
  8
1
  6
CONTINUOUS
 62
       7
100
AcDbLine
 10
-103.71838174
 20
78.3776669
 30
0.0
 11
-98.82764374
 21
79.41722536
 31
0.0
  0
LINE
  5
4DF
100
AcDbEntity
  8
1
  6
CONTINUOUS
 62
       7
100
AcDbLine
 10
22.28161826
 20
78.3776669
 30
0.0
 11
17.39088025
 21
79.41722536
 31
0.0
  0
LINE
  5
4E0
100
AcDbEntity
  8
1
  6
CONTINUOUS
 62
       7
100
AcDbLine
 10
22.28161826
 20
78.3776669
 30
0.0
 11
17.39088025
 21
77.33810845
 31
0.0
  0
LINE
  5
4E1
100
AcDbEntity
  8
1
  6
CONTINUOUS
 62
       7
100
AcDbLine
 10
-102.71838174
 20
49.3776669
 30
0.0
 11
-136.71838174
 21
49.3776669
 31
0.0
  0
LINE
  5
4E2
100
AcDbEntity
  8
1
  6
CONTINUOUS
 62
       7
100
AcDbLine
 10
-100.71838174
 20
-55.6223331
 30
0.0
 11
-136.71838174
 21
-55.6223331
 31
0.0
  0
LINE
  5
4E3
100
AcDbEntity
  8
1
  6
CONTINUOUS
 62
       7
100
AcDbLine
 10
-134.71838174
 20
-55.6223331
 30
0.0
 11
-134.71838174
 21
49.3776669
 31
0.0
  0
LINE
  5
4E4
100
AcDbEntity
  8
1
  6
CONTINUOUS
 62
       7
100
AcDbLine
 10
-134.71838174
 20
-55.6223331
 30
0.0
 11
-133.67882329
 21
-50.73159509
 31
0.0
  0
LINE
  5
4E5
100
AcDbEntity
  8
1
  6
CONTINUOUS
 62
       7
100
AcDbLine
 10
-134.71838174
 20
-55.6223331
 30
0.0
 11
-135.7579402
 21
-50.73159509
 31
0.0
  0
LINE
  5
4E6
100
AcDbEntity
  8
1
  6
CONTINUOUS
 62
       7
100
AcDbLine
 10
-134.71838174
 20
49.3776669
 30
0.0
 11
-135.7579402
 21
44.4869289
 31
0.0
  0
LINE
  5
4E7
100
AcDbEntity
  8
1
  6
CONTINUOUS
 62
       7
100
AcDbLine
 10
-134.71838174
 20
49.3776669
 30
0.0
 11
-133.67882329
 21
44.4869289
 31
0.0
  0
TEXT
  5
4E8
100
AcDbEntity
  8
1
 62
       7
100
AcDbText
 10
-56.71838174
 20
225.6276669
 30
0.0
 40
8.0
  1
126.7
 50
0.00000307
 41
0.8
 72
       5
 11
-24.71838174
 21
225.62766861
 31
0.0
100
AcDbText
  0
TEXT
  5
4E9
100
AcDbEntity
  8
1
 62
       7
100
AcDbText
 10
-50.31838174
 20
100.3776669
 30
0.0
 40
8.0
  1
156
 50
0.00000307
 41
0.8
 72
       5
 11
-31.11838174
 21
100.37766793
 31
0.0
100
AcDbText
  0
TEXT
  5
4EA
100
AcDbEntity
  8
1
 62
       7
100
AcDbText
 10
-50.31838174
 20
-96.6223331
 30
0.0
 40
8.0
  1
120
 50
0.00000307
 41
0.8
 72
       5
 11
-31.11838174
 21
-96.62233207
 31
0.0
100
AcDbText
  0
TEXT
  5
4EB
100
AcDbEntity
  8
1
 62
       7
100
AcDbText
 10
86.74600199
 20
-96.6223331
 30
0.0
 40
8.0
  1
35
 50
0.00000307
 41
0.8
 72
       5
 11
99.54600199
 21
-96.62233241
 31
0.0
100
AcDbText
  0
TEXT
  5
4EC
100
AcDbEntity
  8
1
 62
       7
100
AcDbText
 10
95.44183462
 20
-112.4483783
 30
0.0
 40
8.0
  1
4
 50
0.00000307
 41
0.8
 72
       5
 11
101.84183462
 21
-112.44837796
 31
0.0
100
AcDbText
  0
TEXT
  5
4ED
100
AcDbEntity
  8
1
 62
       7
100
AcDbText
 10
115.03350199
 20
-96.6223331
 30
0.0
 40
8.0
  1
27.5
 50
0.00000307
 41
0.8
 72
       5
 11
140.63350199
 21
-96.62233173
 31
0.0
100
AcDbText
  0
TEXT
  5
4EE
100
AcDbEntity
  8
1
 62
       7
100
AcDbText
 10
-156.71838174
 20
-12.72156816
 30
0.0
 40
8.0
  1
131
 50
89.99999846
 41
0.8
 72
       5
 11
-156.71838122
 21
6.47843184
 31
0.0
100
AcDbText
  0
TEXT
  5
4EF
100
AcDbEntity
  8
1
 62
       7
100
AcDbText
 10
170.58350199
 20
-9.5223331
 30
0.0
 40
8.0
  1
76
 50
89.99999846
 41
0.8
 72
       5
 11
170.58350233
 21
3.2776669
 31
0.0
100
AcDbText
  0
TEXT
  5
4F0
100
AcDbEntity
  8
1
 62
       7
100
AcDbText
 10
185.58350199
 20
-19.1223331
 30
0.0
 40
8.0
  1
106.6
 50
89.99999846
 41
0.8
 72
       5
 11
185.58350285
 21
12.8776669
 31
0.0
100
AcDbText
  0
TEXT
  5
4F1
100
AcDbEntity
  8
1
 62
       7
100
AcDbText
 10
-163.07571026
 20
-107.4445881
 30
0.0
 40
8.0
  1
2-φ5、φ8.5皿ザグリ
 50
29.28273444
 41
0.6
 72
       5
 11
-108.64938794
 21
-76.9235226
 31
0.0
100
AcDbText
  0
TEXT
  5
4F2
100
AcDbEntity
  8
1
 62
       7
100
AcDbText
 10
59.02664422
 20
-64.0223331
 30
0.0
 40
8.0
  1
18
 50
89.99999846
 41
0.8
 72
       5
 11
59.02664456
 21
-51.2223331
 31
0.0
100
AcDbText
  0
TEXT
  5
4F3
100
AcDbEntity
  8
1
 62
       7
100
AcDbText
 10
-50.31838174
 20
80.3776669
 30
0.0
 40
8.0
  1
126
 50
0.00000307
 41
0.8
 72
       5
 11
-31.11838174
 21
80.37766793
 31
0.0
100
AcDbText
  0
TEXT
  5
4F4
100
AcDbEntity
  8
1
 62
       7
100
AcDbText
 10
-136.71838174
 20
-12.7223331
 30
0.0
 40
8.0
  1
105
 50
89.99999846
 41
0.8
 72
       5
 11
-136.71838122
 21
6.4776669
 31
0.0
100
AcDbText
  0
TEXT
  5
4F5
100
AcDbEntity
  8
1
 62
       7
100
AcDbText
 10
71.82312309
 20
107.5
 30
0.0
 40
8.0
  1
2
 50
0.00000307
 41
0.8
 72
       5
 11
78.22312309
 21
107.50000034
 31
0.0
100
AcDbText
  0
TEXT
  5
4F6
100
AcDbEntity
  8
1
 62
       7
100
AcDbText
 10
71.82312309
 20
87.5
 30
0.0
 40
8.0
  1
1
 50
0.00000307
 41
0.8
 72
       5
 11
78.22312309
 21
87.50000034
 31
0.0
100
AcDbText
  0
ENDSEC
  0
SECTION
  2
OBJECTS
  0
DICTIONARY
  5
19
100
AcDbDictionary
  3
ACAD_GROUP
350
1A
  3
ACAD_MLINESTYLE
350
1B
  0
DICTIONARY
  5
1A
102
{ACAD_REACTORS
330
19
102
}
100
AcDbDictionary
  0
DICTIONARY
  5
1B
102
{ACAD_REACTORS
330
19
102
}
100
AcDbDictionary
  3
STANDARD
350
1C
  0
MLINESTYLE
  5
1C
102
{ACAD_REACTORS
330
1B
102
}
100
AcDbMlineStyle
  2
STANDARD
 70
       0
  3

 62
       0
 51
90.0
 52
90.0
 71
       2
 49
0.5
 62
     256
  6
BYLAYER
 49
-0.5
 62
     256
  6
BYLAYER
  0
ENDSEC
  0
EOF
