  0
SECTION
  2
HEADER
  9
$ACADVER
  1
AC1009
  9
$INSBASE
 10
0.0
 20
0.0
 30
0.0
  9
$EXTMIN
 10
-4.7012099999999988
 20
-21.071000000000002
 30
0.0
  9
$EXTMAX
 10
205.30099999999999
 20
275.93099999999998
 30
0.0
  9
$LIMMIN
 10
0.0
 20
0.0
  9
$LIMMAX
 10
12.0
 20
9.0
  9
$ORTHOMODE
 70
     0
  9
$REGENMODE
 70
     1
  9
$FILLMODE
 70
     1
  9
$QTEXTMODE
 70
     0
  9
$MIRRTEXT
 70
     1
  9
$DRAGMODE
 70
     2
  9
$LTSCALE
 40
1.0
  9
$OSMODE
 70
    37
  9
$ATTMODE
 70
     1
  9
$TEXTSIZE
 40
0.0
  9
$TRACEWID
 40
0.05
  9
$TEXTSTYLE
  7
STANDARD
  9
$CLAYER
  8
0
  9
$CELTYPE
  6
CONTINUOUS
  9
$CECOLOR
 62
   256
  9
$DIMSCALE
 40
1.0
  9
$DIMASZ
 40
0.18
  9
$DIMEXO
 40
0.0625
  9
$DIMDLI
 40
0.38
  9
$DIMRND
 40
0.0
  9
$DIMDLE
 40
0.0
  9
$DIMEXE
 40
0.18
  9
$DIMTP
 40
0.0
  9
$DIMTM
 40
0.0
  9
$DIMTXT
 40
0.18
  9
$DIMCEN
 40
0.09
  9
$DIMTSZ
 40
0.0
  9
$DIMTOL
 70
     0
  9
$DIMLIM
 70
     0
  9
$DIMTIH
 70
     1
  9
$DIMTOH
 70
     1
  9
$DIMSE1
 70
     0
  9
$DIMSE2
 70
     0
  9
$DIMTAD
 70
     0
  9
$DIMZIN
 70
     0
  9
$DIMBLK
  1

  9
$DIMASO
 70
     1
  9
$DIMSHO
 70
     1
  9
$DIMPOST
  1

  9
$DIMAPOST
  1

  9
$DIMALT
 70
     0
  9
$DIMALTD
 70
     2
  9
$DIMALTF
 40
25.399999999999999
  9
$DIMLFAC
 40
1.0
  9
$DIMTOFL
 70
     0
  9
$DIMTVP
 40
0.0
  9
$DIMTIX
 70
     0
  9
$DIMSOXD
 70
     0
  9
$DIMSAH
 70
     0
  9
$DIMBLK1
  1

  9
$DIMBLK2
  1

  9
$DIMSTYLE
  2
STANDARD
  9
$DIMCLRD
 70
     0
  9
$DIMCLRE
 70
     0
  9
$DIMCLRT
 70
     0
  9
$DIMTFAC
 40
1.0
  9
$DIMGAP
 40
0.09
  9
$LUNITS
 70
     2
  9
$LUPREC
 70
     4
  9
$SKETCHINC
 40
0.1
  9
$FILLETRAD
 40
0.0
  9
$AUNITS
 70
     0
  9
$AUPREC
 70
     0
  9
$MENU
  1
.
  9
$ELEVATION
 40
0.0
  9
$PELEVATION
 40
0.0
  9
$THICKNESS
 40
0.0
  9
$LIMCHECK
 70
     0
  9
$BLIPMODE
 70
     0
  9
$CHAMFERA
 40
0.0
  9
$CHAMFERB
 40
0.0
  9
$SKPOLY
 70
     0
  9
$TDCREATE
 40
2444972.375
  9
$TDUPDATE
 40
2457684.2481427779
  9
$TDINDWG
 40
0.0000271991
  9
$TDUSRTIMER
 40
0.0000271991
  9
$USRTIMER
 70
     1
  9
$ANGBASE
 50
0.0
  9
$ANGDIR
 70
     0
  9
$PDMODE
 70
     0
  9
$PDSIZE
 40
0.0
  9
$PLINEWID
 40
0.0
  9
$COORDS
 70
     1
  9
$SPLFRAME
 70
     0
  9
$SPLINETYPE
 70
     6
  9
$SPLINESEGS
 70
     8
  9
$ATTDIA
 70
     1
  9
$ATTREQ
 70
     1
  9
$HANDLING
 70
     1
  9
$HANDSEED
  5
1EA
  9
$SURFTAB1
 70
     6
  9
$SURFTAB2
 70
     6
  9
$SURFTYPE
 70
     6
  9
$SURFU
 70
     6
  9
$SURFV
 70
     6
  9
$UCSNAME
  2

  9
$UCSORG
 10
0.0
 20
0.0
 30
0.0
  9
$UCSXDIR
 10
1.0
 20
0.0
 30
0.0
  9
$UCSYDIR
 10
0.0
 20
1.0
 30
0.0
  9
$PUCSNAME
  2

  9
$PUCSORG
 10
0.0
 20
0.0
 30
0.0
  9
$PUCSXDIR
 10
1.0
 20
0.0
 30
0.0
  9
$PUCSYDIR
 10
0.0
 20
1.0
 30
0.0
  9
$USERI1
 70
     0
  9
$USERI2
 70
     0
  9
$USERI3
 70
     0
  9
$USERI4
 70
     0
  9
$USERI5
 70
     0
  9
$USERR1
 40
0.0
  9
$USERR2
 40
0.0
  9
$USERR3
 40
0.0
  9
$USERR4
 40
0.0
  9
$USERR5
 40
0.0
  9
$WORLDVIEW
 70
     1
  9
$SHADEDGE
 70
     3
  9
$SHADEDIF
 70
    70
  9
$TILEMODE
 70
     1
  9
$MAXACTVP
 70
    48
  9
$PLIMCHECK
 70
     0
  9
$PEXTMIN
 10
1.0000000000000000E+020
 20
1.0000000000000000E+020
 30
1.0000000000000000E+020
  9
$PEXTMAX
 10
-1.0000000000000000E+020
 20
-1.0000000000000000E+020
 30
-1.0000000000000000E+020
  9
$PLIMMIN
 10
0.0
 20
0.0
  9
$PLIMMAX
 10
12.0
 20
9.0
  9
$UNITMODE
 70
     0
  9
$VISRETAIN
 70
     1
  9
$PLINEGEN
 70
     0
  9
$PSLTSCALE
 70
     1
  0
ENDSEC
  0
SECTION
  2
TABLES
  0
TABLE
  2
VPORT
 70
     1
  0
VPORT
  2
*ACTIVE
 70
     0
 10
0.0
 20
0.0
 11
1.0
 21
1.0
 12
173.05850873675899
 22
127.42999999999989
 13
0.0
 23
0.0
 14
1.0
 24
1.0
 15
0.0
 25
0.0
 16
0.0
 26
0.0
 36
1.0
 17
0.0
 27
0.0
 37
0.0
 40
289.64129411868203
 41
2.1063583815028899
 42
50.0
 43
0.0
 44
0.0
 50
0.0
 51
0.0
 71
     0
 72
   100
 73
     1
 74
     1
 75
     0
 76
     0
 77
     0
 78
     0
  0
ENDTAB
  0
TABLE
  2
LTYPE
 70
     2
  0
LTYPE
  2
CONTINUOUS
 70
     0
  3
Solid line
 72
    65
 73
     0
 40
0.0
  0
LTYPE
  2
AIGENLINE001
 70
     0
  3
generate AI->DXF Converter
 72
    65
 73
     4
 40
5.8561449999999988
 49
3.5278
 49
-0.776115
 49
0.776115
 49
-0.776115
  0
ENDTAB
  0
TABLE
  2
LAYER
 70
     2
  0
LAYER
  2
0
 70
     0
 62
     7
  6
CONTINUOUS
  0
LAYER
  2
_________2
 70
     0
 62
     7
  6
CONTINUOUS
  0
ENDTAB
  0
TABLE
  2
STYLE
 70
     1
  0
STYLE
  2
STANDARD
 70
     0
 40
0.0
 41
0.0
 50
0.0
 71
     0
 42
0.0
  3
TXT
  4
EXTFONT.SHX
  0
ENDTAB
  0
TABLE
  2
VIEW
 70
     0
  0
ENDTAB
  0
TABLE
  2
UCS
 70
     0
  0
ENDTAB
  0
TABLE
  2
APPID
 70
     3
  0
APPID
  2
ACAD
 70
     0
  0
APPID
  2
ACAD_NAV_VCDISPLAY
 70
     0
  0
APPID
  2
ACAD_MLEADERVER
 70
     0
  0
ENDTAB
  0
TABLE
  2
DIMSTYLE
 70
     1
  0
DIMSTYLE
  2
STANDARD
 70
     0
  3

  4

  5

  6

  7

 40
1.0
 41
0.18
 42
0.0625
 43
0.38
 44
0.18
 45
0.0
 46
0.0
 47
0.0
 48
0.0
140
0.18
141
0.09
142
0.0
143
25.399999999999999
144
1.0
145
0.0
146
1.0
147
0.09
 71
     0
 72
     0
 73
     1
 74
     1
 75
     0
 76
     0
 77
     0
 78
     0
170
     0
171
     2
172
     0
173
     0
174
     0
175
     0
176
     0
177
     0
178
     0
  0
ENDTAB
  0
ENDSEC
  0
SECTION
  2
BLOCKS
  0
BLOCK
  8
0
  2
$MODEL_SPACE
 70
     0
 10
0.0
 20
0.0
 30
0.0
  3
$MODEL_SPACE
  1

  0
ENDBLK
  5
1A
  8
0
  0
BLOCK
 67
     1
  8
0
  2
$PAPER_SPACE
 70
     0
 10
0.0
 20
0.0
 30
0.0
  3
$PAPER_SPACE
  1

  0
ENDBLK
  5
17
 67
     1
  8
0
  0
ENDSEC
  0
SECTION
  2
ENTITIES
  0
TEXT
  5
22
  8
0
 62
     7
 10
55.410625000000003
 20
66.154899999999998
 30
0.0
 40
3.0923400000000001
  1
25
 41
0.5
 72
     1
 11
56.699100000000001
 21
66.154899999999998
 31
0.0
  0
TEXT
  5
23
  8
0
 62
     7
 10
89.867999999999995
 20
141.9743445
 30
0.0
 40
3.0923400000000001
  1
（508）
 50
90.0
 41
0.5
 72
     1
 11
89.867999999999995
 21
145.81399999999999
 31
0.0
  0
TEXT
  5
24
  8
0
 62
     7
 10
171.49000000000001
 20
86.681917999999996
 30
0.0
 40
3.0923400000000001
  1
同梱品：対辺4mm六角レンチ
 50
90.0
 41
0.5
 72
     1
 11
171.49000000000001
 21
98.948200000000014
 31
0.0
  0
TEXT
  5
25
  8
0
 62
     7
 10
87.866900000000001
 20
221.73379600000001
 30
0.0
 40
3.0923400000000001
  1
取付用ブッシュ
 50
90.0
 41
0.5
 72
     2
 11
87.866900000000001
 21
233.89699999999999
 31
0.0
  0
TEXT
  5
26
  8
0
 62
     7
 10
83.2821
 20
78.404272500000005
 30
0.0
 40
3.0923400000000001
  1
60
 50
90.0
 41
0.5
 72
     1
 11
83.2821
 21
79.563900000000004
 31
0.0
  0
TEXT
  5
27
  8
0
 62
     7
 10
119.196
 20
93.906999999999996
 30
0.0
 40
3.0923400000000001
  1
4
 41
0.5
  0
TEXT
  5
28
  8
0
 62
     7
 10
115.5373725
 20
64.1036
 30
0.0
 40
3.0923400000000001
  1
70
 41
0.5
 72
     1
 11
116.697
 21
64.1036
 31
0.0
  0
TEXT
  5
29
  8
0
 62
     7
 10
134.89099999999999
 20
143.88228749999999
 30
0.0
 40
3.0923400000000001
  1
590
 50
90.0
 41
0.5
 72
     1
 11
134.89099999999999
 21
145.815
 31
0.0
  0
LINE
  5
2A
  8
0
 62
     7
 10
158.74199999999999
 20
90.361299999999986
 30
0.0
 11
158.74199999999999
 21
91.361400000000003
 31
0.0
  0
LINE
  5
2B
  8
0
 62
     7
 10
157.24199999999999
 20
90.861500000000007
 30
0.0
 11
158.74199999999999
 21
90.861500000000007
 31
0.0
  0
LINE
  5
2C
  8
0
 62
     7
 10
162.99199999999999
 20
104.111
 30
0.0
 11
163.99100000000001
 21
104.111
 31
0.0
  0
LINE
  5
2D
  8
0
 62
     7
 10
163.49100000000001
 20
105.611
 30
0.0
 11
163.49100000000001
 21
104.111
 31
0.0
  0
ARC
  5
2E
  8
0
 62
     7
 10
162.731818
 20
91.620844999999974
 30
0.0
 40
0.25996
 50
272.13072
 51
357.86928999999998
  0
LINE
  5
2F
  8
0
 62
     7
 10
162.74100000000001
 20
91.361400000000003
 30
0.0
 11
157.24199999999999
 21
91.361400000000003
 31
0.0
  0
LINE
  5
30
  8
0
 62
     7
 10
157.24199999999999
 20
91.361400000000003
 30
0.0
 11
157.24199999999999
 21
90.361299999999986
 31
0.0
  0
LINE
  5
31
  8
0
 62
     7
 10
157.24199999999999
 20
90.361299999999986
 30
0.0
 11
162.74100000000001
 21
90.361299999999986
 31
0.0
  0
LINE
  5
32
  8
0
 62
     7
 10
162.99199999999999
 20
91.611199999999997
 30
0.0
 11
162.99199999999999
 21
105.611
 31
0.0
  0
LINE
  5
33
  8
0
 62
     7
 10
162.99199999999999
 20
105.611
 30
0.0
 11
163.99100000000001
 21
105.611
 31
0.0
  0
LINE
  5
34
  8
0
 62
     7
 10
163.99100000000001
 20
105.611
 30
0.0
 11
163.99100000000001
 21
91.611199999999997
 31
0.0
  0
ARC
  5
35
  8
0
 62
     7
 10
162.74148299999999
 20
91.611180000000004
 30
0.0
 40
1.249889
 50
270.00002000000001
 51
359.99999000000003
  0
LINE
  5
36
  8
0
 62
     7
 10
100.26900000000001
 20
83.688800000000001
 30
0.0
 11
99.519300000000001
 21
83.938900000000004
 31
0.0
  0
LINE
  5
37
  8
0
 62
     7
 10
100.26900000000001
 20
80.938900000000004
 30
0.0
 11
99.519300000000001
 21
80.688800000000001
 31
0.0
  0
LINE
  5
38
  8
0
 62
     7
 10
101.01900000000001
 20
83.938900000000004
 30
0.0
 11
100.26900000000001
 21
83.938900000000004
 31
0.0
  0
LINE
  5
39
  8
0
 62
     7
 10
98.894300000000001
 20
80.688800000000001
 30
0.0
 11
97.268900000000002
 21
80.688800000000001
 31
0.0
  0
LINE
  5
3A
  8
0
 62
     7
 10
98.894300000000001
 20
83.938900000000004
 30
0.0
 11
97.268900000000002
 21
83.938900000000004
 31
0.0
  0
LINE
  5
3B
  8
0
 62
     7
 10
101.01900000000001
 20
80.688800000000001
 30
0.0
 11
100.26900000000001
 21
80.688800000000001
 31
0.0
  0
LINE
  5
3C
  8
0
 62
     7
 10
99.519300000000001
 20
80.688800000000001
 30
0.0
 11
99.519300000000001
 21
83.938900000000004
 31
0.0
  0
LINE
  5
3D
  8
0
 62
     7
 10
97.268900000000002
 20
80.688800000000001
 30
0.0
 11
96.644000000000005
 21
80.063800000000001
 31
0.0
  0
LINE
  5
3E
  8
0
 62
     7
 10
97.268900000000002
 20
83.938900000000004
 30
0.0
 11
96.644000000000005
 21
84.563800000000015
 31
0.0
  0
LINE
  5
3F
  8
0
 62
     7
 10
99.519300000000001
 20
83.688800000000001
 30
0.0
 11
98.894300000000001
 21
83.938900000000004
 31
0.0
  0
LINE
  5
40
  8
0
 62
     7
 10
99.519300000000001
 20
80.938900000000004
 30
0.0
 11
98.894300000000001
 21
80.688800000000001
 31
0.0
  0
LINE
  5
41
  8
0
 62
     7
 10
98.894300000000001
 20
80.688800000000001
 30
0.0
 11
98.894300000000001
 21
83.938900000000004
 31
0.0
  0
LINE
  5
42
  8
0
 62
     7
 10
101.01900000000001
 20
80.688800000000001
 30
0.0
 11
101.01900000000001
 21
83.938900000000004
 31
0.0
  0
LINE
  5
43
  8
0
 62
     7
 10
100.26900000000001
 20
80.688800000000001
 30
0.0
 11
100.26900000000001
 21
83.938900000000004
 31
0.0
  0
LINE
  5
44
  8
0
 62
     7
 10
97.268900000000002
 20
80.688800000000001
 30
0.0
 11
97.268900000000002
 21
83.938900000000004
 31
0.0
  0
LINE
  5
45
  8
0
 62
     7
 10
96.644000000000005
 20
80.063800000000001
 30
0.0
 11
96.644000000000005
 21
84.563800000000015
 31
0.0
  0
LINE
  5
46
  8
0
  6
AIGENLINE001
 62
     7
 10
110.756
 20
82.313799999999986
 30
0.0
 11
95.543599999999998
 21
82.313799999999986
 31
0.0
  0
LINE
  5
47
  8
0
 62
     7
 10
100.26900000000001
 20
210.69
 30
0.0
 11
99.519300000000001
 21
210.94
 31
0.0
  0
LINE
  5
48
  8
0
 62
     7
 10
100.26900000000001
 20
207.94
 30
0.0
 11
99.519300000000001
 21
207.69
 31
0.0
  0
LINE
  5
49
  8
0
 62
     7
 10
101.01900000000001
 20
210.94
 30
0.0
 11
100.26900000000001
 21
210.94
 31
0.0
  0
LINE
  5
4A
  8
0
 62
     7
 10
98.894300000000001
 20
207.69
 30
0.0
 11
97.268900000000002
 21
207.69
 31
0.0
  0
LINE
  5
4B
  8
0
 62
     7
 10
98.894300000000001
 20
210.94
 30
0.0
 11
97.268900000000002
 21
210.94
 31
0.0
  0
LINE
  5
4C
  8
0
 62
     7
 10
101.01900000000001
 20
207.69
 30
0.0
 11
100.26900000000001
 21
207.69
 31
0.0
  0
LINE
  5
4D
  8
0
 62
     7
 10
99.519300000000001
 20
207.69
 30
0.0
 11
99.519300000000001
 21
210.94
 31
0.0
  0
LINE
  5
4E
  8
0
 62
     7
 10
97.268900000000002
 20
207.69
 30
0.0
 11
96.644000000000005
 21
207.065
 31
0.0
  0
LINE
  5
4F
  8
0
 62
     7
 10
97.268900000000002
 20
210.94
 30
0.0
 11
96.644000000000005
 21
211.565
 31
0.0
  0
LINE
  5
50
  8
0
 62
     7
 10
99.519300000000001
 20
210.69
 30
0.0
 11
98.894300000000001
 21
210.94
 31
0.0
  0
LINE
  5
51
  8
0
 62
     7
 10
99.519300000000001
 20
207.94
 30
0.0
 11
98.894300000000001
 21
207.69
 31
0.0
  0
LINE
  5
52
  8
0
 62
     7
 10
98.894300000000001
 20
207.69
 30
0.0
 11
98.894300000000001
 21
210.94
 31
0.0
  0
LINE
  5
53
  8
0
 62
     7
 10
101.01900000000001
 20
207.69
 30
0.0
 11
101.01900000000001
 21
210.94
 31
0.0
  0
LINE
  5
54
  8
0
 62
     7
 10
100.26900000000001
 20
207.69
 30
0.0
 11
100.26900000000001
 21
210.94
 31
0.0
  0
LINE
  5
55
  8
0
 62
     7
 10
97.268900000000002
 20
207.69
 30
0.0
 11
97.268900000000002
 21
210.94
 31
0.0
  0
LINE
  5
56
  8
0
 62
     7
 10
96.644000000000005
 20
207.065
 30
0.0
 11
96.644000000000005
 21
211.565
 31
0.0
  0
LINE
  5
57
  8
0
 62
     7
 10
100.26900000000001
 20
240.203
 30
0.0
 11
99.519300000000001
 21
240.453
 31
0.0
  0
LINE
  5
58
  8
0
 62
     7
 10
100.26900000000001
 20
237.453
 30
0.0
 11
99.519300000000001
 21
237.203
 31
0.0
  0
LINE
  5
59
  8
0
 62
     7
 10
101.01900000000001
 20
240.453
 30
0.0
 11
100.26900000000001
 21
240.453
 31
0.0
  0
LINE
  5
5A
  8
0
 62
     7
 10
98.894300000000001
 20
237.203
 30
0.0
 11
97.268900000000002
 21
237.203
 31
0.0
  0
LINE
  5
5B
  8
0
 62
     7
 10
98.894300000000001
 20
240.453
 30
0.0
 11
97.268900000000002
 21
240.453
 31
0.0
  0
LINE
  5
5C
  8
0
 62
     7
 10
101.01900000000001
 20
237.203
 30
0.0
 11
100.26900000000001
 21
237.203
 31
0.0
  0
LINE
  5
5D
  8
0
 62
     7
 10
99.519300000000001
 20
237.203
 30
0.0
 11
99.519300000000001
 21
240.453
 31
0.0
  0
LINE
  5
5E
  8
0
 62
     7
 10
97.268900000000002
 20
237.203
 30
0.0
 11
96.644000000000005
 21
236.578
 31
0.0
  0
LINE
  5
5F
  8
0
 62
     7
 10
97.268900000000002
 20
240.453
 30
0.0
 11
96.644000000000005
 21
241.078
 31
0.0
  0
LINE
  5
60
  8
0
 62
     7
 10
99.519300000000001
 20
240.203
 30
0.0
 11
98.894300000000001
 21
240.453
 31
0.0
  0
LINE
  5
61
  8
0
 62
     7
 10
99.519300000000001
 20
237.453
 30
0.0
 11
98.894300000000001
 21
237.203
 31
0.0
  0
LINE
  5
62
  8
0
 62
     7
 10
98.894300000000001
 20
237.203
 30
0.0
 11
98.894300000000001
 21
240.453
 31
0.0
  0
LINE
  5
63
  8
0
 62
     7
 10
101.01900000000001
 20
237.203
 30
0.0
 11
101.01900000000001
 21
240.453
 31
0.0
  0
LINE
  5
64
  8
0
 62
     7
 10
100.26900000000001
 20
237.203
 30
0.0
 11
100.26900000000001
 21
240.453
 31
0.0
  0
LINE
  5
65
  8
0
 62
     7
 10
97.268900000000002
 20
237.203
 30
0.0
 11
97.268900000000002
 21
240.453
 31
0.0
  0
LINE
  5
66
  8
0
 62
     7
 10
96.644000000000005
 20
236.578
 30
0.0
 11
96.644000000000005
 21
241.078
 31
0.0
  0
LINE
  5
67
  8
0
  6
AIGENLINE001
 62
     7
 10
56.699100000000001
 20
205.74100000000001
 30
0.0
 11
56.699100000000001
 21
213.06999999999999
 31
0.0
  0
ARC
  5
68
  8
0
 62
     7
 10
56.661147
 20
208.47750300000001
 30
0.0
 40
1.0387269999999991
 50
272.09126099999997
 51
357.88900899999999
  0
ARC
  5
69
  8
0
 62
     7
 10
56.737667000000002
 20
208.47821400000001
 30
0.0
 40
1.0394639999999991
 50
182.14876799999999
 51
267.87100199999998
  0
LINE
  5
6A
  8
0
 62
     7
 10
55.698900000000002
 20
208.43899999999999
 30
0.0
 11
55.698900000000002
 21
210.18899999999999
 31
0.0
  0
ARC
  5
6B
  8
0
 62
     7
 10
56.699051000000011
 20
210.18935999999999
 30
0.0
 40
1.0001180000000001
 50
90.0
 51
179.99996999999999
  0
ARC
  5
6C
  8
0
 62
     7
 10
56.699051000000011
 20
210.18935999999999
 30
0.0
 40
1.0001180000000001
 50
0.00001
 51
89.999980000000008
  0
LINE
  5
6D
  8
0
 62
     7
 10
57.69919999999999
 20
210.18899999999999
 30
0.0
 11
57.69919999999999
 21
208.43899999999999
 31
0.0
  0
ARC
  5
6E
  8
0
 62
     7
 10
56.675706000000012
 20
209.33764600000001
 30
0.0
 40
0.636315
 50
272.10255000000001
 51
357.89746000000002
  0
ARC
  5
6F
  8
0
 62
     7
 10
56.722014000000001
 20
209.337264
 30
0.0
 40
0.63592
 50
182.06941900000001
 51
267.930611
  0
ARC
  5
70
  8
0
 62
     7
 10
56.722396000000003
 20
209.29095599999999
 30
0.0
 40
0.636315
 50
92.102513000000016
 51
177.897457
  0
ARC
  5
71
  8
0
 62
     7
 10
56.676088
 20
209.291337
 30
0.0
 40
0.63592
 50
2.069415999999999
 51
87.930573999999993
  0
LINE
  5
72
  8
0
  6
AIGENLINE001
 62
     7
 10
59.03159999999999
 20
209.31399999999999
 30
0.0
 11
54.1614
 21
209.31399999999999
 31
0.0
  0
LINE
  5
73
  8
0
  6
AIGENLINE001
 62
     7
 10
56.699100000000001
 20
78.768100000000004
 30
0.0
 11
56.699100000000001
 21
85.880200000000002
 31
0.0
  0
ARC
  5
74
  8
0
 62
     7
 10
56.661152000000001
 20
81.477039000000005
 30
0.0
 40
1.038721999999999
 50
272.09099600000002
 51
357.889274
  0
ARC
  5
75
  8
0
 62
     7
 10
56.737273999999999
 20
81.477363999999994
 30
0.0
 40
1.039058
 50
182.12795899999989
 51
267.89181100000002
  0
LINE
  5
76
  8
0
 62
     7
 10
55.698900000000002
 20
81.438800000000015
 30
0.0
 11
55.698900000000002
 21
83.188900000000004
 31
0.0
  0
ARC
  5
77
  8
0
 62
     7
 10
56.699051000000011
 20
83.188901999999999
 30
0.0
 40
1.0001180000000001
 50
90.0
 51
179.99996999999999
  0
ARC
  5
78
  8
0
 62
     7
 10
56.699051000000011
 20
83.188901999999999
 30
0.0
 40
1.0001180000000001
 50
0.00001
 51
89.999980000000008
  0
LINE
  5
79
  8
0
 62
     7
 10
57.69919999999999
 20
83.188900000000004
 30
0.0
 11
57.69919999999999
 21
81.438800000000015
 31
0.0
  0
ARC
  5
7A
  8
0
 62
     7
 10
56.675700999999997
 20
82.337192000000016
 30
0.0
 40
0.63632
 50
272.10297700000001
 51
357.89703300000002
  0
ARC
  5
7B
  8
0
 62
     7
 10
56.722406000000007
 20
82.337196999999989
 30
0.0
 40
0.6363250000000001
 50
182.103397
 51
267.89663200000001
  0
ARC
  5
7C
  8
0
 62
     7
 10
56.722400999999991
 20
82.290492
 30
0.0
 40
0.63632
 50
92.102940000000004
 51
177.89703
  0
ARC
  5
7D
  8
0
 62
     7
 10
56.675696000000002
 20
82.290486999999985
 30
0.0
 40
0.6363260000000001
 50
2.103394999999999
 51
87.896594999999991
  0
LINE
  5
7E
  8
0
 62
     7
 10
107.947
 20
238.36500000000001
 30
0.0
 11
102.697
 21
238.36500000000001
 31
0.0
  0
LINE
  5
7F
  8
0
 62
     7
 10
107.947
 20
239.28999999999999
 30
0.0
 11
102.697
 21
239.28999999999999
 31
0.0
  0
LINE
  5
80
  8
0
  6
AIGENLINE001
 62
     7
 10
126.842
 20
238.828
 30
0.0
 11
94.770899999999997
 21
238.828
 31
0.0
  0
LINE
  5
81
  8
0
 62
     7
 10
102.697
 20
239.44
 30
0.0
 11
102.697
 21
238.215
 31
0.0
  0
LINE
  5
82
  8
0
 62
     7
 10
102.697
 20
238.215
 30
0.0
 11
107.947
 21
238.215
 31
0.0
  0
LINE
  5
83
  8
0
 62
     7
 10
107.947
 20
238.215
 30
0.0
 11
107.947
 21
239.44
 31
0.0
  0
LINE
  5
84
  8
0
 62
     7
 10
107.947
 20
239.44
 30
0.0
 11
102.697
 21
239.44
 31
0.0
  0
LINE
  5
85
  8
0
 62
     7
 10
107.947
 20
208.852
 30
0.0
 11
102.697
 21
208.852
 31
0.0
  0
LINE
  5
86
  8
0
 62
     7
 10
107.947
 20
209.77699999999999
 30
0.0
 11
102.697
 21
209.77699999999999
 31
0.0
  0
LINE
  5
87
  8
0
  6
AIGENLINE001
 62
     7
 10
110.756
 20
209.315
 30
0.0
 11
95.543599999999998
 21
209.315
 31
0.0
  0
LINE
  5
88
  8
0
 62
     7
 10
102.697
 20
209.92699999999999
 30
0.0
 11
102.697
 21
208.702
 31
0.0
  0
LINE
  5
89
  8
0
 62
     7
 10
102.697
 20
208.702
 30
0.0
 11
107.947
 21
208.702
 31
0.0
  0
LINE
  5
8A
  8
0
 62
     7
 10
107.947
 20
208.702
 30
0.0
 11
107.947
 21
209.92699999999999
 31
0.0
  0
LINE
  5
8B
  8
0
 62
     7
 10
107.947
 20
209.92699999999999
 30
0.0
 11
102.697
 21
209.92699999999999
 31
0.0
  0
ARC
  5
8C
  8
0
 62
     7
 10
108.830896
 20
209.30674200000001
 30
0.0
 40
1.072076
 50
36.109970000000011
 51
69.985906999999997
  0
LINE
  5
8D
  8
0
 62
     7
 10
109.697
 20
209.93899999999999
 30
0.0
 11
109.69799999999999
 21
208.69200000000001
 31
0.0
  0
ARC
  5
8E
  8
0
 62
     7
 10
108.828132
 20
209.32633999999999
 30
0.0
 40
1.0767690000000001
 50
290.21632799999998
 51
323.89055500000012
  0
LINE
  5
8F
  8
0
 62
     7
 10
109.197
 20
210.815
 30
0.0
 11
108.947
 21
210.815
 31
0.0
  0
LINE
  5
90
  8
0
 62
     7
 10
108.947
 20
210.815
 30
0.0
 11
108.947
 21
207.815
 31
0.0
  0
LINE
  5
91
  8
0
 62
     7
 10
108.947
 20
207.815
 30
0.0
 11
109.197
 21
207.815
 31
0.0
  0
LINE
  5
92
  8
0
 62
     7
 10
109.197
 20
207.815
 30
0.0
 11
109.197
 21
210.815
 31
0.0
  0
LINE
  5
93
  8
0
 62
     7
 10
107.947
 20
82.776499999999984
 30
0.0
 11
102.697
 21
82.776499999999984
 31
0.0
  0
LINE
  5
94
  8
0
 62
     7
 10
107.947
 20
81.851500000000001
 30
0.0
 11
102.697
 21
81.851500000000001
 31
0.0
  0
LINE
  5
95
  8
0
  6
AIGENLINE001
 62
     7
 10
59.03159999999999
 20
82.313799999999986
 30
0.0
 11
54.1614
 21
82.313799999999986
 31
0.0
  0
LINE
  5
96
  8
0
 62
     7
 10
102.697
 20
81.701300000000003
 30
0.0
 11
102.697
 21
82.926400000000001
 31
0.0
  0
LINE
  5
97
  8
0
 62
     7
 10
102.697
 20
82.926400000000001
 30
0.0
 11
107.947
 21
82.926400000000001
 31
0.0
  0
LINE
  5
98
  8
0
 62
     7
 10
107.947
 20
82.926400000000001
 30
0.0
 11
107.947
 21
81.701300000000003
 31
0.0
  0
LINE
  5
99
  8
0
 62
     7
 10
107.947
 20
81.701300000000003
 30
0.0
 11
102.697
 21
81.701300000000003
 31
0.0
  0
ARC
  5
9A
  8
0
 62
     7
 10
108.83308
 20
82.318842000000004
 30
0.0
 40
1.068600999999999
 50
289.95733300000001
 51
323.94679000000002
  0
LINE
  5
9B
  8
0
 62
     7
 10
109.697
 20
81.689899999999994
 30
0.0
 11
109.69799999999999
 21
82.936700000000002
 31
0.0
  0
ARC
  5
9C
  8
0
 62
     7
 10
108.829554
 20
82.304029999999997
 30
0.0
 40
1.0745109999999991
 50
36.073011000000001
 51
69.82010600000001
  0
LINE
  5
9D
  8
0
 62
     7
 10
109.197
 20
80.813800000000015
 30
0.0
 11
108.947
 21
80.813800000000015
 31
0.0
  0
LINE
  5
9E
  8
0
 62
     7
 10
108.947
 20
80.813800000000015
 30
0.0
 11
108.947
 21
83.813800000000001
 31
0.0
  0
LINE
  5
9F
  8
0
 62
     7
 10
108.947
 20
83.813800000000001
 30
0.0
 11
109.197
 21
83.813800000000001
 31
0.0
  0
LINE
  5
A0
  8
0
 62
     7
 10
109.197
 20
83.813800000000001
 30
0.0
 11
109.197
 21
80.813800000000015
 31
0.0
  0
LINE
  5
A1
  8
0
 62
     7
 10
57.596800000000002
 20
64.839500000000001
 30
0.0
 11
59.900300000000001
 21
65.456900000000005
 31
0.0
  0
LINE
  5
A2
  8
0
 62
     7
 10
59.900300000000001
 20
65.456900000000005
 30
0.0
 11
57.596800000000002
 21
66.074200000000005
 31
0.0
  0
LINE
  5
A3
  8
0
 62
     7
 10
57.596800000000002
 20
66.074200000000005
 30
0.0
 11
57.596800000000002
 21
64.839500000000001
 31
0.0
  0
LINE
  5
A4
  8
0
 62
     7
 10
55.801299999999998
 20
66.059100000000001
 30
0.0
 11
53.497799999999991
 21
65.441699999999997
 31
0.0
  0
LINE
  5
A5
  8
0
 62
     7
 10
53.497799999999991
 20
65.441699999999997
 30
0.0
 11
55.801299999999998
 21
64.824399999999997
 31
0.0
  0
LINE
  5
A6
  8
0
 62
     7
 10
55.801299999999998
 20
64.824399999999997
 30
0.0
 11
55.801299999999998
 21
66.059100000000001
 31
0.0
  0
LINE
  5
A7
  8
0
 62
     7
 10
59.824100000000001
 20
65.449299999999994
 30
0.0
 11
53.573999999999998
 21
65.449299999999994
 31
0.0
  0
LINE
  5
A8
  8
0
 62
     7
 10
59.824100000000001
 20
71.358400000000003
 30
0.0
 11
59.824100000000001
 21
64.743700000000004
 31
0.0
  0
LINE
  5
A9
  8
0
 62
     7
 10
53.573999999999998
 20
71.358400000000003
 30
0.0
 11
53.573999999999998
 21
64.743700000000004
 31
0.0
  0
LINE
  5
AA
  8
0
 62
     7
 10
124.447
 20
93.208999999999989
 30
0.0
 11
125.447
 21
93.208999999999989
 31
0.0
  0
LINE
  5
AB
  8
0
 62
     7
 10
127.751
 20
92.591700000000003
 30
0.0
 11
125.447
 21
93.208999999999989
 31
0.0
  0
LINE
  5
AC
  8
0
 62
     7
 10
125.447
 20
93.208999999999989
 30
0.0
 11
127.751
 21
93.826400000000007
 31
0.0
  0
LINE
  5
AD
  8
0
 62
     7
 10
127.751
 20
93.826400000000007
 30
0.0
 11
127.751
 21
92.591700000000003
 31
0.0
  0
LINE
  5
AE
  8
0
 62
     7
 10
125.523
 20
93.201400000000007
 30
0.0
 11
129.21700000000001
 21
93.201400000000007
 31
0.0
  0
LINE
  5
AF
  8
0
 62
     7
 10
122.14400000000001
 20
92.591700000000003
 30
0.0
 11
124.447
 21
93.208999999999989
 31
0.0
  0
LINE
  5
B0
  8
0
 62
     7
 10
124.447
 20
93.208999999999989
 30
0.0
 11
122.14400000000001
 21
93.826400000000007
 31
0.0
  0
LINE
  5
B1
  8
0
 62
     7
 10
122.14400000000001
 20
93.826400000000007
 30
0.0
 11
122.14400000000001
 21
92.591700000000003
 31
0.0
  0
LINE
  5
B2
  8
0
 62
     7
 10
124.37
 20
93.201400000000007
 30
0.0
 11
119.196
 21
93.201400000000007
 31
0.0
  0
LINE
  5
B3
  8
0
 62
     7
 10
108.947
 20
204.565
 30
0.0
 11
107.947
 21
204.565
 31
0.0
  0
ARC
  5
B4
  8
0
 62
     7
 10
120.99467199999999
 20
215.112685
 30
0.0
 40
3.4546089999999992
 50
2.1104119999999988
 51
87.892545999999996
  0
ARC
  5
B5
  8
0
 62
     7
 10
112.271807
 20
215.23981599999999
 30
0.0
 40
3.325142
 50
89.998516000000009
 51
179.99848600000001
  0
LINE
  5
B6
  8
0
 62
     7
 10
124.447
 20
215.24000000000001
 30
0.0
 11
124.447
 21
145.81399999999999
 31
0.0
  0
LINE
  5
B7
  8
0
 62
     7
 10
125.447
 20
215.24000000000001
 30
0.0
 11
125.447
 21
145.81399999999999
 31
0.0
  0
LINE
  5
B8
  8
0
 62
     7
 10
108.947
 20
215.24000000000001
 30
0.0
 11
108.947
 21
204.565
 31
0.0
  0
LINE
  5
B9
  8
0
 62
     7
 10
107.947
 20
215.24000000000001
 30
0.0
 11
107.947
 21
204.565
 31
0.0
  0
LINE
  5
BA
  8
0
 62
     7
 10
121.122
 20
218.565
 30
0.0
 11
112.27200000000001
 21
218.565
 31
0.0
  0
LINE
  5
BB
  8
0
 62
     7
 10
121.122
 20
219.565
 30
0.0
 11
112.27200000000001
 21
219.565
 31
0.0
  0
ARC
  5
BC
  8
0
 62
     7
 10
121.121709
 20
215.239902
 30
0.0
 40
4.3250010000000003
 50
0.00001
 51
89.999980000000008
  0
ARC
  5
BD
  8
0
 62
     7
 10
112.271894
 20
215.239902
 30
0.0
 40
4.3250010000000003
 50
90.0
 51
179.99996999999999
  0
LINE
  5
BE
  8
0
 62
     7
 10
108.947
 20
87.063999999999993
 30
0.0
 11
107.947
 21
87.063999999999993
 31
0.0
  0
ARC
  5
BF
  8
0
 62
     7
 10
120.99449300000001
 20
76.516147000000004
 30
0.0
 40
3.4547879999999989
 50
272.11032
 51
357.88968999999997
  0
ARC
  5
C0
  8
0
 62
     7
 10
112.27189199999999
 20
76.388929000000005
 30
0.0
 40
3.325226999999999
 50
179.99996999999999
 51
270.00002000000001
  0
LINE
  5
C1
  8
0
 62
     7
 10
124.447
 20
76.388900000000007
 30
0.0
 11
124.447
 21
145.81399999999999
 31
0.0
  0
LINE
  5
C2
  8
0
 62
     7
 10
125.447
 20
76.388900000000007
 30
0.0
 11
125.447
 21
145.81399999999999
 31
0.0
  0
LINE
  5
C3
  8
0
 62
     7
 10
108.947
 20
76.388900000000007
 30
0.0
 11
108.947
 21
87.063999999999993
 31
0.0
  0
LINE
  5
C4
  8
0
 62
     7
 10
107.947
 20
76.388900000000007
 30
0.0
 11
107.947
 21
87.063999999999993
 31
0.0
  0
LINE
  5
C5
  8
0
 62
     7
 10
121.122
 20
73.063699999999997
 30
0.0
 11
112.27200000000001
 21
73.063699999999997
 31
0.0
  0
LINE
  5
C6
  8
0
 62
     7
 10
121.122
 20
72.063900000000004
 30
0.0
 11
112.27200000000001
 21
72.063900000000004
 31
0.0
  0
ARC
  5
C7
  8
0
 62
     7
 10
121.121709
 20
76.388930000000002
 30
0.0
 40
4.3250010000000003
 50
270.00002000000001
 51
359.99999000000003
  0
ARC
  5
C8
  8
0
 62
     7
 10
112.27189199999999
 20
76.388929000000005
 30
0.0
 40
4.324999
 50
179.99996999999999
 51
270.00002000000001
  0
LINE
  5
C9
  8
0
 62
     7
 10
59.824100000000001
 20
219.565
 30
0.0
 11
59.824100000000001
 21
72.063900000000004
 31
0.0
  0
LINE
  5
CA
  8
0
 62
     7
 10
59.824100000000001
 20
72.063900000000004
 30
0.0
 11
53.573999999999998
 21
72.063900000000004
 31
0.0
  0
LINE
  5
CB
  8
0
 62
     7
 10
53.573999999999998
 20
72.063900000000004
 30
0.0
 11
53.573999999999998
 21
219.565
 31
0.0
  0
LINE
  5
CC
  8
0
 62
     7
 10
53.573999999999998
 20
219.565
 30
0.0
 11
59.824100000000001
 21
219.565
 31
0.0
  0
LINE
  5
CD
  8
0
 62
     7
 10
107.947
 20
241.953
 30
0.0
 11
125.447
 21
241.953
 31
0.0
  0
LINE
  5
CE
  8
0
 62
     7
 10
125.447
 20
241.953
 30
0.0
 11
125.447
 21
235.703
 31
0.0
  0
LINE
  5
CF
  8
0
 62
     7
 10
125.447
 20
235.703
 30
0.0
 11
107.947
 21
235.703
 31
0.0
  0
LINE
  5
D0
  8
0
 62
     7
 10
107.947
 20
235.703
 30
0.0
 11
107.947
 21
241.953
 31
0.0
  0
LINE
  5
D1
  8
0
 62
     7
 10
134.988
 20
74.291499999999985
 30
0.0
 11
135.60400000000001
 21
71.987399999999994
 31
0.0
  0
LINE
  5
D2
  8
0
 62
     7
 10
135.60400000000001
 20
71.987399999999994
 30
0.0
 11
136.22200000000001
 21
74.291499999999985
 31
0.0
  0
LINE
  5
D3
  8
0
 62
     7
 10
136.22200000000001
 20
74.291499999999985
 30
0.0
 11
134.988
 21
74.291499999999985
 31
0.0
  0
LINE
  5
D4
  8
0
 62
     7
 10
136.035
 20
217.33699999999999
 30
0.0
 11
135.41800000000001
 21
219.64099999999999
 31
0.0
  0
LINE
  5
D5
  8
0
 62
     7
 10
135.41800000000001
 20
219.64099999999999
 30
0.0
 11
134.80099999999999
 21
217.33699999999999
 31
0.0
  0
LINE
  5
D6
  8
0
 62
     7
 10
134.80099999999999
 20
217.33699999999999
 30
0.0
 11
136.035
 21
217.33699999999999
 31
0.0
  0
LINE
  5
D7
  8
0
 62
     7
 10
135.59700000000001
 20
72.063900000000004
 30
0.0
 11
135.59700000000001
 21
219.565
 31
0.0
  0
LINE
  5
D8
  8
0
 62
     7
 10
88.813599999999994
 20
84.617199999999997
 30
0.0
 11
89.430899999999994
 21
82.313799999999986
 31
0.0
  0
LINE
  5
D9
  8
0
 62
     7
 10
89.430899999999994
 20
82.313799999999986
 30
0.0
 11
90.048299999999998
 21
84.617199999999997
 31
0.0
  0
LINE
  5
DA
  8
0
 62
     7
 10
90.048299999999998
 20
84.617199999999997
 30
0.0
 11
88.813599999999994
 21
84.617199999999997
 31
0.0
  0
LINE
  5
DB
  8
0
 62
     7
 10
90.033100000000005
 20
207.011
 30
0.0
 11
89.415800000000004
 21
209.315
 31
0.0
  0
LINE
  5
DC
  8
0
 62
     7
 10
89.415800000000004
 20
209.315
 30
0.0
 11
88.798399999999987
 21
207.011
 31
0.0
  0
LINE
  5
DD
  8
0
 62
     7
 10
88.798399999999987
 20
207.011
 30
0.0
 11
90.033100000000005
 21
207.011
 31
0.0
  0
LINE
  5
DE
  8
0
 62
     7
 10
89.423399999999987
 20
82.390000000000001
 30
0.0
 11
89.423399999999987
 21
209.239
 31
0.0
  0
LINE
  5
DF
  8
0
 62
     7
 10
94.843599999999995
 20
209.315
 30
0.0
 11
88.717799999999997
 21
209.315
 31
0.0
  0
LINE
  5
E0
  8
0
 62
     7
 10
94.843599999999995
 20
82.313799999999986
 30
0.0
 11
88.717799999999997
 21
82.313799999999986
 31
0.0
  0
LINE
  5
E1
  8
0
 62
     7
 10
94.264399999999995
 20
210.76300000000001
 30
0.0
 11
96.644000000000005
 21
210.60599999999999
 31
0.0
  0
LINE
  5
E2
  8
0
 62
     7
 10
96.644000000000005
 20
210.60599999999999
 30
0.0
 11
94.662300000000016
 21
211.93199999999999
 31
0.0
  0
LINE
  5
E3
  8
0
 62
     7
 10
94.662300000000016
 20
211.93199999999999
 30
0.0
 11
94.264399999999995
 21
210.76300000000001
 31
0.0
  0
LINE
  5
E4
  8
0
 62
     7
 10
96.644000000000005
 20
210.60599999999999
 30
0.0
 11
88.566900000000004
 21
213.35499999999999
 31
0.0
  0
LINE
  5
E5
  8
0
 62
     7
 10
88.566900000000004
 20
213.35499999999999
 30
0.0
 11
88.566900000000004
 21
233.89699999999999
 31
0.0
  0
LINE
  5
E6
  8
0
 62
     7
 10
83.377899999999997
 20
74.291200000000003
 30
0.0
 11
83.995199999999997
 21
71.987799999999993
 31
0.0
  0
LINE
  5
E7
  8
0
 62
     7
 10
83.995199999999997
 20
71.987799999999993
 30
0.0
 11
84.612600000000015
 21
74.291200000000003
 31
0.0
  0
LINE
  5
E8
  8
0
 62
     7
 10
84.612600000000015
 20
74.291200000000003
 30
0.0
 11
83.377899999999997
 21
74.291200000000003
 31
0.0
  0
LINE
  5
E9
  8
0
 62
     7
 10
84.597399999999993
 20
84.836399999999983
 30
0.0
 11
83.980099999999993
 21
87.139799999999994
 31
0.0
  0
LINE
  5
EA
  8
0
 62
     7
 10
83.980099999999993
 20
87.139799999999994
 30
0.0
 11
83.362700000000004
 21
84.836399999999983
 31
0.0
  0
LINE
  5
EB
  8
0
 62
     7
 10
83.362700000000004
 20
84.836399999999983
 30
0.0
 11
84.597399999999993
 21
84.836399999999983
 31
0.0
  0
LINE
  5
EC
  8
0
 62
     7
 10
83.987700000000004
 20
72.063900000000004
 30
0.0
 11
83.987700000000004
 21
87.063599999999994
 31
0.0
  0
LINE
  5
ED
  8
0
 62
     7
 10
109.49299999999999
 20
72.063900000000004
 30
0.0
 11
83.2821
 21
72.063900000000004
 31
0.0
  0
LINE
  5
EE
  8
0
 62
     7
 10
107.241
 20
87.063599999999994
 30
0.0
 11
83.2821
 21
87.063599999999994
 31
0.0
  0
LINE
  5
EF
  8
0
 62
     7
 10
123.21899999999999
 20
62.7883
 30
0.0
 11
125.523
 21
63.405700000000003
 31
0.0
  0
LINE
  5
F0
  8
0
 62
     7
 10
125.523
 20
63.405700000000003
 30
0.0
 11
123.21899999999999
 21
64.022999999999996
 31
0.0
  0
LINE
  5
F1
  8
0
 62
     7
 10
123.21899999999999
 20
64.022999999999996
 30
0.0
 11
123.21899999999999
 21
62.7883
 31
0.0
  0
LINE
  5
F2
  8
0
 62
     7
 10
110.175
 20
64.007900000000006
 30
0.0
 11
107.871
 21
63.390500000000003
 31
0.0
  0
LINE
  5
F3
  8
0
 62
     7
 10
107.871
 20
63.390500000000003
 30
0.0
 11
110.175
 21
62.773099999999992
 31
0.0
  0
LINE
  5
F4
  8
0
 62
     7
 10
110.175
 20
62.773099999999992
 30
0.0
 11
110.175
 21
64.007900000000006
 31
0.0
  0
LINE
  5
F5
  8
0
 62
     7
 10
125.447
 20
63.398099999999992
 30
0.0
 11
107.947
 21
63.398099999999992
 31
0.0
  0
LINE
  5
F6
  8
0
 62
     7
 10
125.447
 20
73.384100000000004
 30
0.0
 11
125.447
 21
62.692500000000003
 31
0.0
  0
LINE
  5
F7
  8
0
 62
     7
 10
107.947
 20
73.261499999999998
 30
0.0
 11
107.947
 21
62.692500000000003
 31
0.0
  0
LINE
  5
F8
  8
0
 62
     7
 10
136.303
 20
219.565
 30
0.0
 11
124.997
 21
219.565
 31
0.0
  0
LINE
  5
F9
  8
0
 62
     7
 10
59.824100000000001
 20
204.565
 30
0.0
 11
53.573999999999998
 21
204.565
 31
0.0
  0
LINE
  5
FA
  8
0
 62
     7
 10
59.824100000000001
 20
87.063999999999993
 30
0.0
 11
53.573999999999998
 21
87.063999999999993
 31
0.0
  0
LINE
  5
FB
  8
0
 62
     7
 10
136.303
 20
72.063900000000004
 30
0.0
 11
124.042
 21
72.063900000000004
 31
0.0
  0
TEXT
  5
FC
  8
_________2
 62
     7
 10
24.586400000000001
 20
0.707627
 30
0.0
 40
3.9357000000000002
  1
洗面器SB3004R専用品
 41
0.5
  0
TEXT
  5
FD
  8
_________2
 62
     7
 10
20.673999999999999
 20
45.816600000000001
 30
0.0
 40
4.2168199999999993
  1
・（　）内寸法は参考寸法です。陶器に寸法公差がありますので、取付時に
 41
0.5
  0
TEXT
  5
FE
  8
_________2
 62
     7
 10
20.673999999999999
 20
40.5456
 30
0.0
 40
4.2168199999999993
  1
　現品に合わせて調整ください。
 41
0.5
  0
TEXT
  5
FF
  8
_________2
 62
     7
 10
109.179
 20
24.226099999999999
 30
0.0
 40
3.9357000000000002
  1
タオルバー
 41
0.5
  0
LINE
  5
100
  8
_________2
 62
     7
 10
205.30099999999999
 20
127.411
 30
0.0
 11
183.55099999999999
 21
127.411
 31
0.0
  0
LINE
  5
101
  8
_________2
 62
     7
 10
100.3
 20
-4.0910799999999998
 30
0.0
 11
100.3
 21
-21.071000000000002
 31
0.0
  0
LINE
  5
102
  8
_________2
 62
     7
 10
100.3
 20
275.93099999999998
 30
0.0
 11
100.3
 21
258.911
 31
0.0
  0
LINE
  5
103
  8
_________2
 62
     7
 10
17.049199999999999
 20
127.411
 30
0.0
 11
-4.7012099999999988
 21
127.411
 31
0.0
  0
LINE
  5
104
  8
_________2
 62
     7
 10
76.740700000000004
 20
29.8047
 30
0.0
 11
74.554400000000001
 21
29.8047
 31
0.0
  0
LINE
  5
105
  8
_________2
 62
     7
 10
77.2333
 20
29.8047
 30
0.0
 11
76.981099999999984
 21
29.8047
 31
0.0
  0
LINE
  5
106
  8
_________2
 62
     7
 10
77.725999999999999
 20
29.8047
 30
0.0
 11
80.650899999999993
 21
29.8047
 31
0.0
  0
LINE
  5
107
  8
_________2
 62
     7
 10
77.2333
 20
29.8047
 30
0.0
 11
77.485500000000002
 21
29.8047
 31
0.0
  0
LINE
  5
108
  8
_________2
 62
     7
 10
70.837100000000007
 20
29.8047
 30
0.0
 11
68.650199999999998
 21
29.8047
 31
0.0
  0
LINE
  5
109
  8
_________2
 62
     7
 10
71.329099999999997
 20
29.8047
 30
0.0
 11
71.077600000000004
 21
29.8047
 31
0.0
  0
LINE
  5
10A
  8
_________2
 62
     7
 10
71.329099999999997
 20
30.2974
 30
0.0
 11
71.329099999999997
 21
32.484400000000001
 31
0.0
  0
LINE
  5
10B
  8
_________2
 62
     7
 10
71.329099999999997
 20
29.8047
 30
0.0
 11
71.329099999999997
 21
30.057300000000001
 31
0.0
  0
LINE
  5
10C
  8
_________2
 62
     7
 10
71.821700000000007
 20
29.8047
 30
0.0
 11
74.008700000000005
 21
29.8047
 31
0.0
  0
LINE
  5
10D
  8
_________2
 62
     7
 10
71.329099999999997
 20
29.8047
 30
0.0
 11
71.581299999999985
 21
29.8047
 31
0.0
  0
LINE
  5
10E
  8
_________2
 62
     7
 10
71.329099999999997
 20
29.312799999999999
 30
0.0
 11
71.329099999999997
 21
27.126200000000001
 31
0.0
  0
LINE
  5
10F
  8
_________2
 62
     7
 10
71.329099999999997
 20
29.8047
 30
0.0
 11
71.329099999999997
 21
29.5532
 31
0.0
  0
LINE
  5
110
  8
_________2
 62
     7
 10
75.040199999999999
 20
28.5852
 30
0.0
 11
80.218199999999996
 21
27.720400000000001
 31
0.0
  0
LINE
  5
111
  8
_________2
 62
     7
 10
75.040199999999999
 20
31.024699999999999
 30
0.0
 11
80.218199999999996
 21
31.8901
 31
0.0
  0
LINE
  5
112
  8
_________2
 62
     7
 10
80.218199999999996
 20
27.720400000000001
 30
0.0
 11
80.218199999999996
 21
31.8901
 31
0.0
  0
LINE
  5
113
  8
_________2
 62
     7
 10
75.040199999999999
 20
28.5852
 30
0.0
 11
75.040199999999999
 21
31.024699999999999
 31
0.0
  0
ARC
  5
114
  8
_________2
 62
     7
 10
71.282501999999994
 20
29.757801000000001
 30
0.0
 40
1.267714
 50
2.1220840000000001
 51
87.894083999999992
  0
ARC
  5
115
  8
_________2
 62
     7
 10
71.375640000000004
 20
29.758545999999999
 30
0.0
 40
1.2669680000000001
 50
92.105782999999988
 51
177.91037
  0
ARC
  5
116
  8
_________2
 62
     7
 10
71.376013999999998
 20
29.851671
 30
0.0
 40
1.2673680000000001
 50
182.12203600000001
 51
267.877993
  0
ARC
  5
117
  8
_________2
 62
     7
 10
71.282195999999999
 20
29.852347999999999
 30
0.0
 40
1.2680439999999991
 50
272.11916400000001
 51
357.84848499999998
  0
ARC
  5
118
  8
_________2
 62
     7
 10
71.248716999999985
 20
29.724731999999999
 30
0.0
 40
2.1668310000000002
 50
2.1161439999999989
 51
87.874379000000005
  0
ARC
  5
119
  8
_________2
 62
     7
 10
71.408756000000011
 20
29.726146
 30
0.0
 40
2.165392999999999
 50
92.108508999999998
 51
177.91986499999999
  0
ARC
  5
11A
  8
_________2
 62
     7
 10
71.409094999999994
 20
29.884751999999999
 30
0.0
 40
2.1657829999999998
 50
182.117133
 51
267.88289700000001
  0
ARC
  5
11B
  8
_________2
 62
     7
 10
71.249115000000003
 20
29.885429999999999
 30
0.0
 40
2.1664590000000001
 50
272.11546800000002
 51
357.86560400000002
  0
TEXT
  5
11C
  8
_________2
 62
     7
 10
104.605
 20
1.6794899999999999
 30
0.0
 40
3.0923400000000001
  1
図番
 41
0.5
  0
LINE
  5
11D
  8
_________2
 62
     7
 10
103.55
 20
5.9087199999999989
 30
0.0
 11
183.55099999999999
 21
5.9087199999999989
 31
0.0
  0
TEXT
  5
11E
  8
_________2
 62
     7
 10
104.605
 20
11.6793
 30
0.0
 40
3.0923400000000001
  1
品番
 41
0.5
  0
TEXT
  5
11F
  8
_________2
 62
     7
 10
104.605
 20
31.8184
 30
0.0
 40
3.0923400000000001
  1
名称
 41
0.5
  0
TEXT
  5
120
  8
_________2
 62
     7
 10
91.844758333333345
 20
26.822299999999998
 30
0.0
 40
3.6545800000000002
  1
mm
 41
0.5
 72
     1
 11
93.367500000000007
 21
26.822299999999998
 31
0.0
  0
TEXT
  5
121
  8
_________2
 62
     7
 10
85.642899999999983
 20
31.8184
 30
0.0
 40
3.0923400000000001
  1
単位
 41
0.5
  0
TEXT
  5
122
  8
_________2
 62
     7
 10
85.642899999999983
 20
19.410799999999998
 30
0.0
 40
3.0923400000000001
  1
尺度
 41
0.5
  0
TEXT
  5
123
  8
_________2
 62
     7
 10
90.548458666666676
 20
13.2182
 30
0.0
 40
3.6545800000000002
  1
1 ： 4
 41
0.5
 72
     1
 11
93.959400000000016
 21
13.2182
 31
0.0
  0
TEXT
  5
124
  8
_________2
 62
     7
 10
136.66252499999999
 20
9.1082000000000001
 30
0.0
 40
3.9357000000000002
  1
SB10042R
 41
0.5
 72
     1
 11
143.55000000000001
 21
9.1082000000000001
 31
0.0
  0
TEXT
  5
125
  8
_________2
 62
     7
 10
136.66252499999999
 20
-0.8926299999999999
 30
0.0
 40
3.9357000000000002
  1
SB10042R
 41
0.5
 72
     1
 11
143.55000000000001
 21
-0.8926299999999999
 31
0.0
  0
TEXT
  5
126
  8
_________2
 62
     7
 10
39.364090666666669
 20
13.603400000000001
 30
0.0
 40
3.6545800000000002
  1
平井
 41
0.5
 72
     1
 11
41.313200000000002
 21
13.603400000000001
 31
0.0
  0
TEXT
  5
127
  8
_________2
 62
     7
 10
20.790090666666661
 20
13.603400000000001
 30
0.0
 40
3.6545800000000002
  1
石原
 41
0.5
 72
     1
 11
22.7392
 21
13.603400000000001
 31
0.0
  0
TEXT
  5
128
  8
_________2
 62
     7
 10
67.785399999999996
 20
13.2182
 30
0.0
 40
3.6545800000000002
  1
16.10.20
 41
0.5
  0
TEXT
  5
129
  8
_________2
 62
     7
 10
66.592699999999994
 20
19.410799999999998
 30
0.0
 40
3.0923400000000001
  1
日付
 41
0.5
  0
TEXT
  5
12A
  8
_________2
 62
     7
 10
29.638999999999999
 20
19.410799999999998
 30
0.0
 40
3.0923400000000001
  1
検図
 41
0.5
  0
TEXT
  5
12B
  8
_________2
 62
     7
 10
18.020700000000001
 20
5.21143
 30
0.0
 40
3.0923400000000001
  1
備考
 41
0.5
  0
TEXT
  5
12C
  8
_________2
 62
     7
 10
18.020700000000001
 20
19.410799999999998
 30
0.0
 40
3.0923400000000001
  1
製図
 41
0.5
  0
TEXT
  5
12D
  8
_________2
 62
     7
 10
23.788165333333339
 20
27.936800000000002
 30
0.0
 40
4.4979399999999989
  1
セラトレーディング株式会社
 41
0.5
 72
     1
 11
41.180199999999999
 21
27.936800000000002
 31
0.0
  0
LINE
  5
12E
  8
_________2
 62
     7
 10
183.55099999999999
 20
-4.0910799999999998
 30
0.0
 11
17.049199999999999
 21
-4.0910799999999998
 31
0.0
  0
LINE
  5
12F
  8
_________2
 62
     7
 10
17.049199999999999
 20
-4.0910799999999998
 30
0.0
 11
17.049199999999999
 21
258.911
 31
0.0
  0
LINE
  5
130
  8
_________2
 62
     7
 10
17.049199999999999
 20
258.911
 30
0.0
 11
183.55099999999999
 21
258.911
 31
0.0
  0
LINE
  5
131
  8
_________2
 62
     7
 10
183.55099999999999
 20
258.911
 30
0.0
 11
183.55099999999999
 21
-4.0910799999999998
 31
0.0
  0
LINE
  5
132
  8
_________2
 62
     7
 10
65.549599999999998
 20
9.4092999999999982
 30
0.0
 11
65.549599999999998
 21
35.909100000000002
 31
0.0
  0
LINE
  5
133
  8
_________2
 62
     7
 10
84.549400000000006
 20
9.4092999999999982
 30
0.0
 11
84.549400000000006
 21
35.909100000000002
 31
0.0
  0
LINE
  5
134
  8
_________2
 62
     7
 10
103.55
 20
-4.0910799999999998
 30
0.0
 11
103.55
 21
35.909100000000002
 31
0.0
  0
LINE
  5
135
  8
_________2
 62
     7
 10
28.548999999999999
 20
9.4092999999999982
 30
0.0
 11
28.548999999999999
 21
23.409199999999998
 31
0.0
  0
LINE
  5
136
  8
_________2
 62
     7
 10
17.049199999999999
 20
9.4092999999999982
 30
0.0
 11
103.55
 21
9.4092999999999982
 31
0.0
  0
LINE
  5
137
  8
_________2
 62
     7
 10
17.049199999999999
 20
23.409199999999998
 30
0.0
 11
103.55
 21
23.409199999999998
 31
0.0
  0
LINE
  5
138
  8
_________2
 62
     7
 10
103.55
 20
15.9085
 30
0.0
 11
183.55099999999999
 21
15.9085
 31
0.0
  0
LINE
  5
139
  8
_________2
 62
     7
 10
17.049199999999999
 20
35.909100000000002
 30
0.0
 11
183.55099999999999
 21
35.909100000000002
 31
0.0
  0
ENDSEC
  0
EOF
