  0
SECTION
  2
HEADER
  9
$ACADVER
  1
AC1009
  9
$INSBASE
 10
0.0
 20
0.0
 30
0.0
  9
$EXTMIN
 10
-4.7012099999999988
 20
-21.071000000000002
 30
0.0
  9
$EXTMAX
 10
205.30099999999999
 20
275.93099999999998
 30
0.0
  9
$LIMMIN
 10
0.0
 20
0.0
  9
$LIMMAX
 10
12.0
 20
9.0
  9
$ORTHOMODE
 70
     0
  9
$REGENMODE
 70
     1
  9
$FILLMODE
 70
     1
  9
$QTEXTMODE
 70
     0
  9
$MIRRTEXT
 70
     1
  9
$DRAGMODE
 70
     2
  9
$LTSCALE
 40
1.0
  9
$OSMODE
 70
    37
  9
$ATTMODE
 70
     1
  9
$TEXTSIZE
 40
0.0
  9
$TRACEWID
 40
0.05
  9
$TEXTSTYLE
  7
STANDARD
  9
$CLAYER
  8
0
  9
$CELTYPE
  6
CONTINUOUS
  9
$CECOLOR
 62
   256
  9
$DIMSCALE
 40
1.0
  9
$DIMASZ
 40
0.18
  9
$DIMEXO
 40
0.0625
  9
$DIMDLI
 40
0.38
  9
$DIMRND
 40
0.0
  9
$DIMDLE
 40
0.0
  9
$DIMEXE
 40
0.18
  9
$DIMTP
 40
0.0
  9
$DIMTM
 40
0.0
  9
$DIMTXT
 40
0.18
  9
$DIMCEN
 40
0.09
  9
$DIMTSZ
 40
0.0
  9
$DIMTOL
 70
     0
  9
$DIMLIM
 70
     0
  9
$DIMTIH
 70
     1
  9
$DIMTOH
 70
     1
  9
$DIMSE1
 70
     0
  9
$DIMSE2
 70
     0
  9
$DIMTAD
 70
     0
  9
$DIMZIN
 70
     0
  9
$DIMBLK
  1

  9
$DIMASO
 70
     1
  9
$DIMSHO
 70
     1
  9
$DIMPOST
  1

  9
$DIMAPOST
  1

  9
$DIMALT
 70
     0
  9
$DIMALTD
 70
     2
  9
$DIMALTF
 40
25.399999999999999
  9
$DIMLFAC
 40
1.0
  9
$DIMTOFL
 70
     0
  9
$DIMTVP
 40
0.0
  9
$DIMTIX
 70
     0
  9
$DIMSOXD
 70
     0
  9
$DIMSAH
 70
     0
  9
$DIMBLK1
  1

  9
$DIMBLK2
  1

  9
$DIMSTYLE
  2
STANDARD
  9
$DIMCLRD
 70
     0
  9
$DIMCLRE
 70
     0
  9
$DIMCLRT
 70
     0
  9
$DIMTFAC
 40
1.0
  9
$DIMGAP
 40
0.09
  9
$LUNITS
 70
     2
  9
$LUPREC
 70
     4
  9
$SKETCHINC
 40
0.1
  9
$FILLETRAD
 40
0.0
  9
$AUNITS
 70
     0
  9
$AUPREC
 70
     0
  9
$MENU
  1
.
  9
$ELEVATION
 40
0.0
  9
$PELEVATION
 40
0.0
  9
$THICKNESS
 40
0.0
  9
$LIMCHECK
 70
     0
  9
$BLIPMODE
 70
     0
  9
$CHAMFERA
 40
0.0
  9
$CHAMFERB
 40
0.0
  9
$SKPOLY
 70
     0
  9
$TDCREATE
 40
2444972.375
  9
$TDUPDATE
 40
2458004.2504763659
  9
$TDINDWG
 40
0.0000301273
  9
$TDUSRTIMER
 40
0.0000301273
  9
$USRTIMER
 70
     1
  9
$ANGBASE
 50
0.0
  9
$ANGDIR
 70
     0
  9
$PDMODE
 70
     0
  9
$PDSIZE
 40
0.0
  9
$PLINEWID
 40
0.0
  9
$COORDS
 70
     1
  9
$SPLFRAME
 70
     0
  9
$SPLINETYPE
 70
     6
  9
$SPLINESEGS
 70
     8
  9
$ATTDIA
 70
     1
  9
$ATTREQ
 70
     1
  9
$HANDLING
 70
     1
  9
$HANDSEED
  5
24E
  9
$SURFTAB1
 70
     6
  9
$SURFTAB2
 70
     6
  9
$SURFTYPE
 70
     6
  9
$SURFU
 70
     6
  9
$SURFV
 70
     6
  9
$UCSNAME
  2

  9
$UCSORG
 10
0.0
 20
0.0
 30
0.0
  9
$UCSXDIR
 10
1.0
 20
0.0
 30
0.0
  9
$UCSYDIR
 10
0.0
 20
1.0
 30
0.0
  9
$PUCSNAME
  2

  9
$PUCSORG
 10
0.0
 20
0.0
 30
0.0
  9
$PUCSXDIR
 10
1.0
 20
0.0
 30
0.0
  9
$PUCSYDIR
 10
0.0
 20
1.0
 30
0.0
  9
$USERI1
 70
     0
  9
$USERI2
 70
     0
  9
$USERI3
 70
     0
  9
$USERI4
 70
     0
  9
$USERI5
 70
     0
  9
$USERR1
 40
0.0
  9
$USERR2
 40
0.0
  9
$USERR3
 40
0.0
  9
$USERR4
 40
0.0
  9
$USERR5
 40
0.0
  9
$WORLDVIEW
 70
     1
  9
$SHADEDGE
 70
     3
  9
$SHADEDIF
 70
    70
  9
$TILEMODE
 70
     1
  9
$MAXACTVP
 70
    48
  9
$PLIMCHECK
 70
     0
  9
$PEXTMIN
 10
1.0000000000000000E+020
 20
1.0000000000000000E+020
 30
1.0000000000000000E+020
  9
$PEXTMAX
 10
-1.0000000000000000E+020
 20
-1.0000000000000000E+020
 30
-1.0000000000000000E+020
  9
$PLIMMIN
 10
0.0
 20
0.0
  9
$PLIMMAX
 10
12.0
 20
9.0
  9
$UNITMODE
 70
     0
  9
$VISRETAIN
 70
     1
  9
$PLINEGEN
 70
     0
  9
$PSLTSCALE
 70
     1
  0
ENDSEC
  0
SECTION
  2
TABLES
  0
TABLE
  2
VPORT
 70
     1
  0
VPORT
  2
*ACTIVE
 70
     0
 10
0.0
 20
0.0
 11
1.0
 21
1.0
 12
165.7276238025147
 22
127.42999999999989
 13
0.0
 23
0.0
 14
1.0
 24
1.0
 15
0.0
 25
0.0
 16
0.0
 26
0.0
 36
1.0
 17
0.0
 27
0.0
 37
0.0
 40
283.528435666853
 41
2.1001926782273599
 42
50.0
 43
0.0
 44
0.0
 50
0.0
 51
0.0
 71
     0
 72
   100
 73
     1
 74
     1
 75
     0
 76
     0
 77
     0
 78
     0
  0
ENDTAB
  0
TABLE
  2
LTYPE
 70
     2
  0
LTYPE
  2
CONTINUOUS
 70
     0
  3
Solid line
 72
    65
 73
     0
 40
0.0
  0
LTYPE
  2
AIGENLINE001
 70
     0
  3
generate AI->DXF Converter
 72
    65
 73
     4
 40
5.8561449999999988
 49
3.5278
 49
-0.776115
 49
0.776115
 49
-0.776115
  0
ENDTAB
  0
TABLE
  2
LAYER
 70
     4
  0
LAYER
  2
0
 70
     0
 62
     7
  6
CONTINUOUS
  0
LAYER
  2
____
 70
     0
 62
     7
  6
CONTINUOUS
  0
LAYER
  2
_________1
 70
     0
 62
     7
  6
CONTINUOUS
  0
LAYER
  2
_________2
 70
     0
 62
     7
  6
CONTINUOUS
  0
ENDTAB
  0
TABLE
  2
STYLE
 70
     1
  0
STYLE
  2
STANDARD
 70
     0
 40
0.0
 41
0.0
 50
0.0
 71
     0
 42
0.0
  3
TXT
  4
EXTFONT.SHX
  0
ENDTAB
  0
TABLE
  2
VIEW
 70
     0
  0
ENDTAB
  0
TABLE
  2
UCS
 70
     0
  0
ENDTAB
  0
TABLE
  2
APPID
 70
     3
  0
APPID
  2
ACAD
 70
     0
  0
APPID
  2
ACAD_NAV_VCDISPLAY
 70
     0
  0
APPID
  2
ACAD_MLEADERVER
 70
     0
  0
ENDTAB
  0
TABLE
  2
DIMSTYLE
 70
     1
  0
DIMSTYLE
  2
STANDARD
 70
     0
  3

  4

  5

  6

  7

 40
1.0
 41
0.18
 42
0.0625
 43
0.38
 44
0.18
 45
0.0
 46
0.0
 47
0.0
 48
0.0
140
0.18
141
0.09
142
0.0
143
25.399999999999999
144
1.0
145
0.0
146
1.0
147
0.09
 71
     0
 72
     0
 73
     1
 74
     1
 75
     0
 76
     0
 77
     0
 78
     0
170
     0
171
     2
172
     0
173
     0
174
     0
175
     0
176
     0
177
     0
178
     0
  0
ENDTAB
  0
ENDSEC
  0
SECTION
  2
BLOCKS
  0
BLOCK
  8
0
  2
$MODEL_SPACE
 70
     0
 10
0.0
 20
0.0
 30
0.0
  3
$MODEL_SPACE
  1

  0
ENDBLK
  5
1A
  8
0
  0
BLOCK
 67
     1
  8
0
  2
$PAPER_SPACE
 70
     0
 10
0.0
 20
0.0
 30
0.0
  3
$PAPER_SPACE
  1

  0
ENDBLK
  5
17
 67
     1
  8
0
  0
BLOCK
  8
_________1
  2
AIGNBL02010002
 70
     0
 10
0.0
 20
0.0
 30
0.0
  3
AIGNBL02010002
  1

  0
LINE
  5
26
  8
_________1
 62
     7
 10
111.08499999999999
 20
216.44900000000001
 30
0.0
 11
113.40600000000001
 21
215.90299999999999
 31
0.0
  0
LINE
  5
27
  8
_________1
 62
     7
 10
113.40600000000001
 20
215.90299999999999
 30
0.0
 11
111.669
 21
217.536
 31
0.0
  0
LINE
  5
28
  8
_________1
 62
     7
 10
111.669
 20
217.536
 30
0.0
 11
111.08499999999999
 21
216.44900000000001
 31
0.0
  0
LINE
  5
29
  8
_________1
 62
     7
 10
113.411
 20
215.93000000000001
 30
0.0
 11
106.214
 21
219.797
 31
0.0
  0
ENDBLK
  5
2A
  8
_________1
  0
BLOCK
  8
_________1
  2
AIGNBL02010003
 70
     0
 10
0.0
 20
0.0
 30
0.0
  3
AIGNBL02010003
  1

  0
LINE
  5
2D
  8
_________1
 62
     7
 10
55.72890000000001
 20
63.110799999999998
 30
0.0
 11
58.032299999999999
 21
63.728099999999998
 31
0.0
  0
LINE
  5
2E
  8
_________1
 62
     7
 10
58.032299999999999
 20
63.728099999999998
 30
0.0
 11
55.72890000000001
 21
64.345500000000001
 31
0.0
  0
LINE
  5
2F
  8
_________1
 62
     7
 10
55.72890000000001
 20
64.345500000000001
 30
0.0
 11
55.72890000000001
 21
63.110799999999998
 31
0.0
  0
LINE
  5
30
  8
_________1
 62
     7
 10
64.502600000000001
 20
64.345500000000001
 30
0.0
 11
62.199199999999998
 21
63.728099999999998
 31
0.0
  0
LINE
  5
31
  8
_________1
 62
     7
 10
62.199199999999998
 20
63.728099999999998
 30
0.0
 11
64.502600000000001
 21
63.110799999999998
 31
0.0
  0
LINE
  5
32
  8
_________1
 62
     7
 10
64.502600000000001
 20
63.110799999999998
 30
0.0
 11
64.502600000000001
 21
64.345500000000001
 31
0.0
  0
LINE
  5
33
  8
_________1
 62
     7
 10
62.199199999999998
 20
63.728099999999998
 30
0.0
 11
58.032299999999999
 21
63.728099999999998
 31
0.0
  0
ENDBLK
  5
34
  8
_________1
  0
BLOCK
  8
_________1
  2
AIGNBL02010004
 70
     0
 10
0.0
 20
0.0
 30
0.0
  3
AIGNBL02010004
  1

  0
LINE
  5
37
  8
_________1
 62
     7
 10
128.267
 20
101.812
 30
0.0
 11
125.964
 21
101.194
 31
0.0
  0
LINE
  5
38
  8
_________1
 62
     7
 10
125.964
 20
101.194
 30
0.0
 11
128.267
 21
100.577
 31
0.0
  0
LINE
  5
39
  8
_________1
 62
     7
 10
128.267
 20
100.577
 30
0.0
 11
128.267
 21
101.812
 31
0.0
  0
LINE
  5
3A
  8
_________1
 62
     7
 10
122.994
 20
100.577
 30
0.0
 11
125.297
 21
101.194
 31
0.0
  0
LINE
  5
3B
  8
_________1
 62
     7
 10
125.297
 20
101.194
 30
0.0
 11
122.994
 21
101.812
 31
0.0
  0
LINE
  5
3C
  8
_________1
 62
     7
 10
122.994
 20
101.812
 30
0.0
 11
122.994
 21
100.577
 31
0.0
  0
LINE
  5
3D
  8
_________1
 62
     7
 10
126.015
 20
101.18899999999999
 30
0.0
 11
130.001
 21
101.18899999999999
 31
0.0
  0
ENDBLK
  5
3E
  8
_________1
  0
BLOCK
  8
_________1
  2
AIGNBL02010005
 70
     0
 10
0.0
 20
0.0
 30
0.0
  3
AIGNBL02010005
  1

  0
LINE
  5
41
  8
_________1
 62
     7
 10
136.09100000000001
 20
72.627899999999997
 30
0.0
 11
136.709
 21
70.3245
 31
0.0
  0
LINE
  5
42
  8
_________1
 62
     7
 10
136.709
 20
70.3245
 30
0.0
 11
137.32599999999999
 21
72.627899999999997
 31
0.0
  0
LINE
  5
43
  8
_________1
 62
     7
 10
137.32599999999999
 20
72.627899999999997
 30
0.0
 11
136.09100000000001
 21
72.627899999999997
 31
0.0
  0
LINE
  5
44
  8
_________1
 62
     7
 10
137.31899999999999
 20
219.904
 30
0.0
 11
136.70099999999999
 21
222.20699999999999
 31
0.0
  0
LINE
  5
45
  8
_________1
 62
     7
 10
136.70099999999999
 20
222.20699999999999
 30
0.0
 11
136.084
 21
219.904
 31
0.0
  0
LINE
  5
46
  8
_________1
 62
     7
 10
136.084
 20
219.904
 30
0.0
 11
137.31899999999999
 21
219.904
 31
0.0
  0
LINE
  5
47
  8
_________1
 62
     7
 10
136.70099999999999
 20
72.206900000000005
 30
0.0
 11
136.70099999999999
 21
222.20699999999999
 31
0.0
  0
ENDBLK
  5
48
  8
_________1
  0
BLOCK
  8
_________1
  2
AIGNBL02010006
 70
     0
 10
0.0
 20
0.0
 30
0.0
  3
AIGNBL02010006
  1

  0
LINE
  5
4B
  8
_________1
 62
     7
 10
98.410600000000002
 20
81.444999999999979
 30
0.0
 11
99.027699999999996
 21
79.141599999999997
 31
0.0
  0
LINE
  5
4C
  8
_________1
 62
     7
 10
99.027699999999996
 20
79.141599999999997
 30
0.0
 11
99.64500000000001
 21
81.444999999999979
 31
0.0
  0
LINE
  5
4D
  8
_________1
 62
     7
 10
99.64500000000001
 20
81.444999999999979
 30
0.0
 11
98.410600000000002
 21
81.444999999999979
 31
0.0
  0
LINE
  5
4E
  8
_________1
 62
     7
 10
99.644800000000004
 20
213.071
 30
0.0
 11
99.027799999999985
 21
215.374
 31
0.0
  0
LINE
  5
4F
  8
_________1
 62
     7
 10
99.027799999999985
 20
215.374
 30
0.0
 11
98.410499999999999
 21
213.071
 31
0.0
  0
LINE
  5
50
  8
_________1
 62
     7
 10
98.410499999999999
 20
213.071
 30
0.0
 11
99.644800000000004
 21
213.071
 31
0.0
  0
LINE
  5
51
  8
_________1
 62
     7
 10
99.027699999999996
 20
79.141599999999997
 30
0.0
 11
99.027699999999996
 21
215.374
 31
0.0
  0
ENDBLK
  5
52
  8
_________1
  0
BLOCK
  8
_________1
  2
AIGNBL02010007
 70
     0
 10
0.0
 20
0.0
 30
0.0
  3
AIGNBL02010007
  1

  0
LINE
  5
55
  8
_________1
 62
     7
 10
104.383
 20
216.36500000000001
 30
0.0
 11
106.762
 21
216.20699999999999
 31
0.0
  0
LINE
  5
56
  8
_________1
 62
     7
 10
106.762
 20
216.20699999999999
 30
0.0
 11
104.78
 21
217.53299999999999
 31
0.0
  0
LINE
  5
57
  8
_________1
 62
     7
 10
104.78
 20
217.53299999999999
 30
0.0
 11
104.383
 21
216.36500000000001
 31
0.0
  0
LINE
  5
58
  8
_________1
 62
     7
 10
106.762
 20
216.23500000000001
 30
0.0
 11
99.027699999999996
 21
218.86699999999999
 31
0.0
  0
ENDBLK
  5
59
  8
_________1
  0
BLOCK
  8
_________1
  2
AIGNBL02010008
 70
     0
 10
0.0
 20
0.0
 30
0.0
  3
AIGNBL02010008
  1

  0
LINE
  5
5C
  8
_________1
 62
     7
 10
93.410399999999996
 20
74.510300000000001
 30
0.0
 11
94.027399999999986
 21
72.206900000000005
 31
0.0
  0
LINE
  5
5D
  8
_________1
 62
     7
 10
94.027399999999986
 20
72.206900000000005
 30
0.0
 11
94.644800000000004
 21
74.510300000000001
 31
0.0
  0
LINE
  5
5E
  8
_________1
 62
     7
 10
94.644800000000004
 20
74.510300000000001
 30
0.0
 11
93.410399999999996
 21
74.510300000000001
 31
0.0
  0
LINE
  5
5F
  8
_________1
 62
     7
 10
94.644400000000005
 20
79.903300000000002
 30
0.0
 11
94.027399999999986
 21
82.206699999999998
 31
0.0
  0
LINE
  5
60
  8
_________1
 62
     7
 10
94.027399999999986
 20
82.206699999999998
 30
0.0
 11
93.409999999999997
 21
79.903300000000002
 31
0.0
  0
LINE
  5
61
  8
_________1
 62
     7
 10
93.409999999999997
 20
79.903300000000002
 30
0.0
 11
94.644400000000005
 21
79.903300000000002
 31
0.0
  0
LINE
  5
62
  8
_________1
 62
     7
 10
94.027399999999986
 20
72.206900000000005
 30
0.0
 11
94.027399999999986
 21
82.206699999999998
 31
0.0
  0
ENDBLK
  5
63
  8
_________1
  0
BLOCK
  8
_________1
  2
AIGNBL02010009
 70
     0
 10
0.0
 20
0.0
 30
0.0
  3
AIGNBL02010009
  1

  0
LINE
  5
66
  8
_________1
 62
     7
 10
123.66
 20
63.110799999999998
 30
0.0
 11
125.964
 21
63.728099999999998
 31
0.0
  0
LINE
  5
67
  8
_________1
 62
     7
 10
125.964
 20
63.728099999999998
 30
0.0
 11
123.66
 21
64.345500000000001
 31
0.0
  0
LINE
  5
68
  8
_________1
 62
     7
 10
123.66
 20
64.345500000000001
 30
0.0
 11
123.66
 21
63.110799999999998
 31
0.0
  0
LINE
  5
69
  8
_________1
 62
     7
 10
116.601
 20
64.345500000000001
 30
0.0
 11
114.297
 21
63.728099999999998
 31
0.0
  0
LINE
  5
6A
  8
_________1
 62
     7
 10
114.297
 20
63.728099999999998
 30
0.0
 11
116.601
 21
63.110799999999998
 31
0.0
  0
LINE
  5
6B
  8
_________1
 62
     7
 10
116.601
 20
63.110799999999998
 30
0.0
 11
116.601
 21
64.345500000000001
 31
0.0
  0
LINE
  5
6C
  8
_________1
 62
     7
 10
125.964
 20
63.728099999999998
 30
0.0
 11
114.297
 21
63.728099999999998
 31
0.0
  0
ENDBLK
  5
6D
  8
_________1
  0
ENDSEC
  0
SECTION
  2
ENTITIES
  0
TEXT
  5
6E
  8
____
 62
     7
 10
105.514
 20
229.918612
 30
0.0
 40
3.0923400000000001
  1
取付用ねじ（2本）
 50
90.0
 41
0.5
 72
     2
 11
105.514
 21
244.96799999999999
 31
0.0
  0
TEXT
  5
6F
  8
____
 62
     7
 10
51.554299999999991
 20
64.428200000000004
 30
0.0
 40
3.0923400000000001
  1
25
 41
0.5
  0
TEXT
  5
70
  8
____
 62
     7
 10
98.327600000000004
 20
143.3673445
 30
0.0
 40
3.0923400000000001
  1
（820）
 50
90.0
 41
0.5
 72
     1
 11
98.327600000000004
 21
147.20699999999999
 31
0.0
  0
TEXT
  5
71
  8
____
 62
     7
 10
171.49000000000001
 20
86.681917999999996
 30
0.0
 40
3.0923400000000001
  1
同梱品：対辺4mm六角レンチ
 50
90.0
 41
0.5
 72
     1
 11
171.49000000000001
 21
98.948200000000014
 31
0.0
  0
TEXT
  5
72
  8
____
 62
     7
 10
98.327600000000004
 20
231.098804
 30
0.0
 40
3.0923400000000001
  1
取付用ブッシュ（2個）
 50
90.0
 41
0.5
 72
     2
 11
98.327600000000004
 21
249.85900000000001
 31
0.0
  0
TEXT
  5
73
  8
____
 62
     7
 10
93.327399999999983
 20
76.047172500000002
 30
0.0
 40
3.0923400000000001
  1
60
 50
90.0
 41
0.5
 72
     1
 11
93.327399999999983
 21
77.206800000000001
 31
0.0
  0
TEXT
  5
74
  8
____
 62
     7
 10
120.36
 20
101.889
 30
0.0
 40
3.0923400000000001
  1
4
 41
0.5
  0
TEXT
  5
75
  8
____
 62
     7
 10
118.9713725
 20
64.428200000000004
 30
0.0
 40
3.0923400000000001
  1
70
 41
0.5
 72
     1
 11
120.131
 21
64.428200000000004
 31
0.0
  0
TEXT
  5
76
  8
____
 62
     7
 10
136.001
 20
145.40313499999999
 30
0.0
 40
3.0923400000000001
  1
900
 50
90.0
 41
0.5
 72
     1
 11
136.001
 21
147.20699999999999
 31
0.0
  0
INSERT
  5
77
  8
_________1
 62
     7
  2
AIGNBL02010002
 10
0.0
 20
0.0
 30
0.0
  0
LINE
  5
78
  8
_________1
 62
     7
 10
106.214
 20
219.797
 30
0.0
 11
106.214
 21
243.554
 31
0.0
  0
LINE
  5
79
  8
_________1
 62
     7
 10
110.797
 20
79.373400000000004
 30
0.0
 11
114.297
 21
79.373400000000004
 31
0.0
  0
LINE
  5
7A
  8
_________1
 62
     7
 10
110.797
 20
78.706800000000001
 30
0.0
 11
114.297
 21
78.706800000000001
 31
0.0
  0
LINE
  5
7B
  8
_________1
 62
     7
 10
110.964
 20
78.540099999999995
 30
0.0
 11
110.964
 21
79.540199999999984
 31
0.0
  0
LINE
  5
7C
  8
_________1
 62
     7
 10
110.964
 20
78.540099999999995
 30
0.0
 11
110.797
 21
78.706800000000001
 31
0.0
  0
LINE
  5
7D
  8
_________1
 62
     7
 10
110.797
 20
78.706800000000001
 30
0.0
 11
110.797
 21
79.373400000000004
 31
0.0
  0
LINE
  5
7E
  8
_________1
 62
     7
 10
110.797
 20
79.373400000000004
 30
0.0
 11
110.964
 21
79.540199999999984
 31
0.0
  0
LINE
  5
7F
  8
_________1
 62
     7
 10
110.964
 20
79.540199999999984
 30
0.0
 11
114.297
 21
79.540199999999984
 31
0.0
  0
LINE
  5
80
  8
_________1
 62
     7
 10
110.964
 20
78.540099999999995
 30
0.0
 11
114.297
 21
78.540099999999995
 31
0.0
  0
LINE
  5
81
  8
_________1
 62
     7
 10
110.797
 20
215.70699999999999
 30
0.0
 11
114.297
 21
215.70699999999999
 31
0.0
  0
LINE
  5
82
  8
_________1
 62
     7
 10
110.797
 20
215.041
 30
0.0
 11
114.297
 21
215.041
 31
0.0
  0
LINE
  5
83
  8
_________1
 62
     7
 10
110.964
 20
214.874
 30
0.0
 11
110.964
 21
215.874
 31
0.0
  0
LINE
  5
84
  8
_________1
 62
     7
 10
110.964
 20
214.874
 30
0.0
 11
110.797
 21
215.041
 31
0.0
  0
LINE
  5
85
  8
_________1
 62
     7
 10
110.797
 20
215.041
 30
0.0
 11
110.797
 21
215.70699999999999
 31
0.0
  0
LINE
  5
86
  8
_________1
 62
     7
 10
110.797
 20
215.70699999999999
 30
0.0
 11
110.964
 21
215.874
 31
0.0
  0
LINE
  5
87
  8
_________1
 62
     7
 10
110.964
 20
215.874
 30
0.0
 11
114.297
 21
215.874
 31
0.0
  0
LINE
  5
88
  8
_________1
 62
     7
 10
110.964
 20
214.874
 30
0.0
 11
114.297
 21
214.874
 31
0.0
  0
LINE
  5
89
  8
_________1
 62
     7
 10
110.797
 20
246.75
 30
0.0
 11
114.297
 21
246.75
 31
0.0
  0
LINE
  5
8A
  8
_________1
 62
     7
 10
110.797
 20
246.084
 30
0.0
 11
114.297
 21
246.084
 31
0.0
  0
LINE
  5
8B
  8
_________1
 62
     7
 10
110.964
 20
245.917
 30
0.0
 11
110.964
 21
246.917
 31
0.0
  0
LINE
  5
8C
  8
_________1
 62
     7
 10
110.964
 20
245.917
 30
0.0
 11
110.797
 21
246.084
 31
0.0
  0
LINE
  5
8D
  8
_________1
 62
     7
 10
110.797
 20
246.084
 30
0.0
 11
110.797
 21
246.75
 31
0.0
  0
LINE
  5
8E
  8
_________1
 62
     7
 10
110.797
 20
246.75
 30
0.0
 11
110.964
 21
246.917
 31
0.0
  0
LINE
  5
8F
  8
_________1
 62
     7
 10
110.964
 20
246.917
 30
0.0
 11
114.297
 21
246.917
 31
0.0
  0
LINE
  5
90
  8
_________1
 62
     7
 10
110.964
 20
245.917
 30
0.0
 11
114.297
 21
245.917
 31
0.0
  0
LINE
  5
91
  8
_________1
 62
     7
 10
106.762
 20
245.334
 30
0.0
 11
107.262
 21
245.334
 31
0.0
  0
LINE
  5
92
  8
_________1
 62
     7
 10
106.762
 20
247.5
 30
0.0
 11
107.262
 21
247.5
 31
0.0
  0
LINE
  5
93
  8
_________1
 62
     7
 10
107.262
 20
245.501
 30
0.0
 11
107.76300000000001
 21
245.334
 31
0.0
  0
LINE
  5
94
  8
_________1
 62
     7
 10
107.262
 20
247.333
 30
0.0
 11
107.76300000000001
 21
247.5
 31
0.0
  0
LINE
  5
95
  8
_________1
 62
     7
 10
107.76300000000001
 20
245.501
 30
0.0
 11
108.261
 21
245.334
 31
0.0
  0
LINE
  5
96
  8
_________1
 62
     7
 10
107.76300000000001
 20
247.333
 30
0.0
 11
108.261
 21
247.5
 31
0.0
  0
LINE
  5
97
  8
_________1
 62
     7
 10
108.261
 20
245.334
 30
0.0
 11
108.429
 21
245.29300000000001
 31
0.0
  0
LINE
  5
98
  8
_________1
 62
     7
 10
108.261
 20
247.5
 30
0.0
 11
108.429
 21
247.541
 31
0.0
  0
LINE
  5
99
  8
_________1
 62
     7
 10
108.429
 20
245.334
 30
0.0
 11
109.428
 21
245.334
 31
0.0
  0
LINE
  5
9A
  8
_________1
 62
     7
 10
108.429
 20
247.5
 30
0.0
 11
109.428
 21
247.5
 31
0.0
  0
LINE
  5
9B
  8
_________1
 62
     7
 10
109.428
 20
245.334
 30
0.0
 11
109.762
 21
244.917
 31
0.0
  0
LINE
  5
9C
  8
_________1
 62
     7
 10
109.428
 20
247.5
 30
0.0
 11
109.762
 21
247.917
 31
0.0
  0
LINE
  5
9D
  8
_________1
 62
     7
 10
107.262
 20
245.334
 30
0.0
 11
107.262
 21
247.5
 31
0.0
  0
LINE
  5
9E
  8
_________1
 62
     7
 10
107.76300000000001
 20
245.334
 30
0.0
 11
107.76300000000001
 21
247.5
 31
0.0
  0
LINE
  5
9F
  8
_________1
 62
     7
 10
108.261
 20
245.334
 30
0.0
 11
108.261
 21
247.5
 31
0.0
  0
LINE
  5
A0
  8
_________1
 62
     7
 10
108.429
 20
245.29300000000001
 30
0.0
 11
108.429
 21
247.541
 31
0.0
  0
LINE
  5
A1
  8
_________1
 62
     7
 10
109.428
 20
245.334
 30
0.0
 11
109.428
 21
247.5
 31
0.0
  0
LINE
  5
A2
  8
_________1
 62
     7
 10
109.762
 20
244.917
 30
0.0
 11
109.762
 21
247.917
 31
0.0
  0
LINE
  5
A3
  8
_________1
 62
     7
 10
106.762
 20
245.334
 30
0.0
 11
106.762
 21
245.584
 31
0.0
  0
LINE
  5
A4
  8
_________1
 62
     7
 10
106.762
 20
245.72499999999999
 30
0.0
 11
106.762
 21
247.10900000000001
 31
0.0
  0
LINE
  5
A5
  8
_________1
 62
     7
 10
106.762
 20
247.25
 30
0.0
 11
106.762
 21
247.5
 31
0.0
  0
LINE
  5
A6
  8
_________1
 62
     7
 10
107.012
 20
247.10900000000001
 30
0.0
 11
106.762
 21
247.10900000000001
 31
0.0
  0
LINE
  5
A7
  8
_________1
 62
     7
 10
106.762
 20
245.72499999999999
 30
0.0
 11
107.012
 21
245.72499999999999
 31
0.0
  0
LINE
  5
A8
  8
_________1
 62
     7
 10
107.012
 20
245.584
 30
0.0
 11
106.762
 21
245.584
 31
0.0
  0
LINE
  5
A9
  8
_________1
 62
     7
 10
107.012
 20
247.10900000000001
 30
0.0
 11
107.012
 21
247.25
 31
0.0
  0
LINE
  5
AA
  8
_________1
 62
     7
 10
107.012
 20
245.584
 30
0.0
 11
107.012
 21
245.72499999999999
 31
0.0
  0
LINE
  5
AB
  8
_________1
 62
     7
 10
106.762
 20
247.25
 30
0.0
 11
107.012
 21
247.25
 31
0.0
  0
LINE
  5
AC
  8
_________1
 62
     7
 10
106.762
 20
77.956800000000001
 30
0.0
 11
107.262
 21
77.956800000000001
 31
0.0
  0
LINE
  5
AD
  8
_________1
 62
     7
 10
106.762
 20
80.123400000000004
 30
0.0
 11
107.262
 21
80.123400000000004
 31
0.0
  0
LINE
  5
AE
  8
_________1
 62
     7
 10
107.262
 20
78.123900000000006
 30
0.0
 11
107.76300000000001
 21
77.956800000000001
 31
0.0
  0
LINE
  5
AF
  8
_________1
 62
     7
 10
107.262
 20
79.956299999999999
 30
0.0
 11
107.76300000000001
 21
80.123400000000004
 31
0.0
  0
LINE
  5
B0
  8
_________1
 62
     7
 10
107.76300000000001
 20
78.123900000000006
 30
0.0
 11
108.261
 21
77.956800000000001
 31
0.0
  0
LINE
  5
B1
  8
_________1
 62
     7
 10
107.76300000000001
 20
79.956299999999999
 30
0.0
 11
108.261
 21
80.123400000000004
 31
0.0
  0
LINE
  5
B2
  8
_________1
 62
     7
 10
108.261
 20
77.956800000000001
 30
0.0
 11
108.429
 21
77.915499999999994
 31
0.0
  0
LINE
  5
B3
  8
_________1
 62
     7
 10
108.261
 20
80.123400000000004
 30
0.0
 11
108.429
 21
80.164400000000015
 31
0.0
  0
LINE
  5
B4
  8
_________1
 62
     7
 10
108.429
 20
77.956800000000001
 30
0.0
 11
109.428
 21
77.956800000000001
 31
0.0
  0
LINE
  5
B5
  8
_________1
 62
     7
 10
108.429
 20
80.123400000000004
 30
0.0
 11
109.428
 21
80.123400000000004
 31
0.0
  0
LINE
  5
B6
  8
_________1
 62
     7
 10
109.428
 20
77.956800000000001
 30
0.0
 11
109.762
 21
77.539900000000003
 31
0.0
  0
LINE
  5
B7
  8
_________1
 62
     7
 10
109.428
 20
80.123400000000004
 30
0.0
 11
109.762
 21
80.540000000000006
 31
0.0
  0
LINE
  5
B8
  8
_________1
 62
     7
 10
107.262
 20
77.956800000000001
 30
0.0
 11
107.262
 21
80.123400000000004
 31
0.0
  0
LINE
  5
B9
  8
_________1
 62
     7
 10
107.76300000000001
 20
77.956800000000001
 30
0.0
 11
107.76300000000001
 21
80.123400000000004
 31
0.0
  0
LINE
  5
BA
  8
_________1
 62
     7
 10
108.261
 20
77.956800000000001
 30
0.0
 11
108.261
 21
80.123400000000004
 31
0.0
  0
LINE
  5
BB
  8
_________1
 62
     7
 10
108.429
 20
77.915499999999994
 30
0.0
 11
108.429
 21
80.164400000000015
 31
0.0
  0
LINE
  5
BC
  8
_________1
 62
     7
 10
109.428
 20
77.956800000000001
 30
0.0
 11
109.428
 21
80.123400000000004
 31
0.0
  0
LINE
  5
BD
  8
_________1
 62
     7
 10
109.762
 20
77.539900000000003
 30
0.0
 11
109.762
 21
80.540000000000006
 31
0.0
  0
LINE
  5
BE
  8
_________1
 62
     7
 10
106.762
 20
77.956800000000001
 30
0.0
 11
106.762
 21
78.207599999999985
 31
0.0
  0
LINE
  5
BF
  8
_________1
 62
     7
 10
106.762
 20
78.348200000000006
 30
0.0
 11
106.762
 21
79.732100000000003
 31
0.0
  0
LINE
  5
C0
  8
_________1
 62
     7
 10
106.762
 20
79.872600000000006
 30
0.0
 11
106.762
 21
80.123400000000004
 31
0.0
  0
LINE
  5
C1
  8
_________1
 62
     7
 10
107.012
 20
79.732100000000003
 30
0.0
 11
106.762
 21
79.732100000000003
 31
0.0
  0
LINE
  5
C2
  8
_________1
 62
     7
 10
106.762
 20
78.348200000000006
 30
0.0
 11
107.012
 21
78.348200000000006
 31
0.0
  0
LINE
  5
C3
  8
_________1
 62
     7
 10
107.012
 20
78.207599999999985
 30
0.0
 11
106.762
 21
78.207599999999985
 31
0.0
  0
LINE
  5
C4
  8
_________1
 62
     7
 10
107.012
 20
79.732100000000003
 30
0.0
 11
107.012
 21
79.872600000000006
 31
0.0
  0
LINE
  5
C5
  8
_________1
 62
     7
 10
107.012
 20
78.207599999999985
 30
0.0
 11
107.012
 21
78.348200000000006
 31
0.0
  0
LINE
  5
C6
  8
_________1
 62
     7
 10
106.762
 20
79.872600000000006
 30
0.0
 11
107.012
 21
79.872600000000006
 31
0.0
  0
LINE
  5
C7
  8
_________1
 62
     7
 10
115.45099999999999
 20
79.554000000000002
 30
0.0
 11
115.143
 21
80.003900000000016
 31
0.0
  0
LINE
  5
C8
  8
_________1
 62
     7
 10
115.45099999999999
 20
78.525899999999993
 30
0.0
 11
115.143
 21
78.075999999999993
 31
0.0
  0
LINE
  5
C9
  8
_________1
 62
     7
 10
115.008
 20
77.873400000000004
 30
0.0
 11
115.087
 21
77.873400000000004
 31
0.0
  0
LINE
  5
CA
  8
_________1
 62
     7
 10
115.008
 20
80.206800000000001
 30
0.0
 11
115.087
 21
80.206800000000001
 31
0.0
  0
ARC
  5
CB
  8
_________1
 62
     7
 10
115.420124
 20
79.52487099999999
 30
0.0
 40
0.045393
 50
0.188335
 51
42.746963000000001
  0
ARC
  5
CC
  8
_________1
 62
     7
 10
115.419616
 20
78.556944999999999
 30
0.0
 40
0.045901
 50
317.50235800000002
 51
359.99663600000002
  0
ARC
  5
CD
  8
_________1
 62
     7
 10
115.177769
 20
80.034982000000014
 30
0.0
 40
0.047118
 50
180.10289299999999
 51
221.28804400000001
  0
ARC
  5
CE
  8
_________1
 62
     7
 10
115.17570600000001
 20
78.047421
 30
0.0
 40
0.045056
 50
137.73102499999999
 51
180.4530179999999
  0
ARC
  5
CF
  8
_________1
 62
     7
 10
115.085983
 20
77.918084999999991
 30
0.0
 40
0.044672
 50
271.61610400000001
 51
359.28618299999999
  0
ARC
  5
D0
  8
_________1
 62
     7
 10
115.085284
 20
80.161442000000008
 30
0.0
 40
0.045385
 50
1.602762999999999
 51
88.397227000000015
  0
ARC
  5
D1
  8
_________1
 62
     7
 10
115.00956499999999
 20
80.161151999999987
 30
0.0
 40
0.045684
 50
91.956246999999976
 51
178.043723
  0
ARC
  5
D2
  8
_________1
 62
     7
 10
115.010361
 20
77.919883999999996
 30
0.0
 40
0.046484
 50
182.05557400000001
 51
267.944456
  0
LINE
  5
D3
  8
_________1
 62
     7
 10
115.464
 20
79.524299999999997
 30
0.0
 11
115.464
 21
78.555899999999994
 31
0.0
  0
LINE
  5
D4
  8
_________1
 62
     7
 10
115.131
 20
80.162700000000001
 30
0.0
 11
115.131
 21
77.917500000000004
 31
0.0
  0
LINE
  5
D5
  8
_________1
  6
AIGENLINE001
 62
     7
 10
116.17
 20
79.039900000000003
 30
0.0
 11
105.25
 21
79.039900000000003
 31
0.0
  0
LINE
  5
D6
  8
_________1
 62
     7
 10
106.762
 20
214.291
 30
0.0
 11
107.262
 21
214.291
 31
0.0
  0
LINE
  5
D7
  8
_________1
 62
     7
 10
106.762
 20
216.45699999999999
 30
0.0
 11
107.262
 21
216.45699999999999
 31
0.0
  0
LINE
  5
D8
  8
_________1
 62
     7
 10
107.262
 20
214.458
 30
0.0
 11
107.76300000000001
 21
214.291
 31
0.0
  0
LINE
  5
D9
  8
_________1
 62
     7
 10
107.262
 20
216.28999999999999
 30
0.0
 11
107.76300000000001
 21
216.45699999999999
 31
0.0
  0
LINE
  5
DA
  8
_________1
 62
     7
 10
107.76300000000001
 20
214.458
 30
0.0
 11
108.261
 21
214.291
 31
0.0
  0
LINE
  5
DB
  8
_________1
 62
     7
 10
107.76300000000001
 20
216.28999999999999
 30
0.0
 11
108.261
 21
216.45699999999999
 31
0.0
  0
LINE
  5
DC
  8
_________1
 62
     7
 10
108.261
 20
214.291
 30
0.0
 11
108.429
 21
214.25
 31
0.0
  0
LINE
  5
DD
  8
_________1
 62
     7
 10
108.261
 20
216.45699999999999
 30
0.0
 11
108.429
 21
216.499
 31
0.0
  0
LINE
  5
DE
  8
_________1
 62
     7
 10
108.429
 20
214.291
 30
0.0
 11
109.428
 21
214.291
 31
0.0
  0
LINE
  5
DF
  8
_________1
 62
     7
 10
108.429
 20
216.45699999999999
 30
0.0
 11
109.428
 21
216.45699999999999
 31
0.0
  0
LINE
  5
E0
  8
_________1
 62
     7
 10
109.428
 20
214.291
 30
0.0
 11
109.762
 21
213.874
 31
0.0
  0
LINE
  5
E1
  8
_________1
 62
     7
 10
109.428
 20
216.45699999999999
 30
0.0
 11
109.762
 21
216.874
 31
0.0
  0
LINE
  5
E2
  8
_________1
 62
     7
 10
107.262
 20
214.291
 30
0.0
 11
107.262
 21
216.45699999999999
 31
0.0
  0
LINE
  5
E3
  8
_________1
 62
     7
 10
107.76300000000001
 20
214.291
 30
0.0
 11
107.76300000000001
 21
216.45699999999999
 31
0.0
  0
LINE
  5
E4
  8
_________1
 62
     7
 10
108.261
 20
214.291
 30
0.0
 11
108.261
 21
216.45699999999999
 31
0.0
  0
LINE
  5
E5
  8
_________1
 62
     7
 10
108.429
 20
214.25
 30
0.0
 11
108.429
 21
216.499
 31
0.0
  0
LINE
  5
E6
  8
_________1
 62
     7
 10
109.428
 20
214.291
 30
0.0
 11
109.428
 21
216.45699999999999
 31
0.0
  0
LINE
  5
E7
  8
_________1
 62
     7
 10
109.762
 20
213.874
 30
0.0
 11
109.762
 21
216.874
 31
0.0
  0
LINE
  5
E8
  8
_________1
 62
     7
 10
106.762
 20
214.291
 30
0.0
 11
106.762
 21
214.541
 31
0.0
  0
LINE
  5
E9
  8
_________1
 62
     7
 10
106.762
 20
214.68199999999999
 30
0.0
 11
106.762
 21
216.066
 31
0.0
  0
LINE
  5
EA
  8
_________1
 62
     7
 10
106.762
 20
216.20699999999999
 30
0.0
 11
106.762
 21
216.45699999999999
 31
0.0
  0
LINE
  5
EB
  8
_________1
 62
     7
 10
107.012
 20
216.066
 30
0.0
 11
106.762
 21
216.066
 31
0.0
  0
LINE
  5
EC
  8
_________1
 62
     7
 10
106.762
 20
214.68199999999999
 30
0.0
 11
107.012
 21
214.68199999999999
 31
0.0
  0
LINE
  5
ED
  8
_________1
 62
     7
 10
107.012
 20
214.541
 30
0.0
 11
106.762
 21
214.541
 31
0.0
  0
LINE
  5
EE
  8
_________1
 62
     7
 10
107.012
 20
216.066
 30
0.0
 11
107.012
 21
216.20699999999999
 31
0.0
  0
LINE
  5
EF
  8
_________1
 62
     7
 10
107.012
 20
214.541
 30
0.0
 11
107.012
 21
214.68199999999999
 31
0.0
  0
LINE
  5
F0
  8
_________1
 62
     7
 10
106.762
 20
216.20699999999999
 30
0.0
 11
107.012
 21
216.20699999999999
 31
0.0
  0
LINE
  5
F1
  8
_________1
 62
     7
 10
115.45099999999999
 20
215.88800000000001
 30
0.0
 11
115.143
 21
216.33799999999999
 31
0.0
  0
LINE
  5
F2
  8
_________1
 62
     7
 10
115.45099999999999
 20
214.86000000000001
 30
0.0
 11
115.143
 21
214.41
 31
0.0
  0
LINE
  5
F3
  8
_________1
 62
     7
 10
115.008
 20
214.20699999999999
 30
0.0
 11
115.087
 21
214.20699999999999
 31
0.0
  0
LINE
  5
F4
  8
_________1
 62
     7
 10
115.008
 20
216.541
 30
0.0
 11
115.087
 21
216.541
 31
0.0
  0
ARC
  5
F5
  8
_________1
 62
     7
 10
115.42010999999999
 20
215.858835
 30
0.0
 40
0.045407
 50
0.195594
 51
42.739703999999989
  0
ARC
  5
F6
  8
_________1
 62
     7
 10
115.42066199999999
 20
214.89067700000001
 30
0.0
 40
0.044855
 50
316.98518899999999
 51
0.079513
  0
ARC
  5
F7
  8
_________1
 62
     7
 10
115.177497
 20
216.369022
 30
0.0
 40
0.046846
 50
180.18893800000001
 51
221.41349099999999
  0
ARC
  5
F8
  8
_________1
 62
     7
 10
115.175827
 20
214.38134500000001
 30
0.0
 40
0.045177
 50
137.79070400000001
 51
180.39333999999999
  0
ARC
  5
F9
  8
_________1
 62
     7
 10
115.085983
 20
214.25205500000001
 30
0.0
 40
0.044672
 50
271.61610400000001
 51
359.28618299999999
  0
ARC
  5
FA
  8
_________1
 62
     7
 10
115.085284
 20
216.49541199999999
 30
0.0
 40
0.045385
 50
1.602762999999999
 51
88.397227000000015
  0
ARC
  5
FB
  8
_________1
 62
     7
 10
115.009631
 20
216.49505500000001
 30
0.0
 40
0.045752
 50
92.036667000000008
 51
177.963303
  0
ARC
  5
FC
  8
_________1
 62
     7
 10
115.010531
 20
214.254017
 30
0.0
 40
0.046653
 50
182.03635
 51
267.74373500000002
  0
LINE
  5
FD
  8
_________1
 62
     7
 10
115.464
 20
215.858
 30
0.0
 11
115.464
 21
214.88999999999999
 31
0.0
  0
LINE
  5
FE
  8
_________1
 62
     7
 10
115.131
 20
216.49700000000001
 30
0.0
 11
115.131
 21
214.251
 31
0.0
  0
LINE
  5
FF
  8
_________1
 62
     7
 10
159.55799999999999
 20
88.919200000000004
 30
0.0
 11
159.55799999999999
 21
89.919600000000003
 31
0.0
  0
LINE
  5
100
  8
_________1
 62
     7
 10
158.05799999999999
 20
89.419399999999996
 30
0.0
 11
159.55799999999999
 21
89.419399999999996
 31
0.0
  0
LINE
  5
101
  8
_________1
 62
     7
 10
163.80699999999999
 20
102.669
 30
0.0
 11
164.80699999999999
 21
102.669
 31
0.0
  0
LINE
  5
102
  8
_________1
 62
     7
 10
164.30799999999999
 20
104.17
 30
0.0
 11
164.30799999999999
 21
102.669
 31
0.0
  0
ARC
  5
103
  8
_________1
 62
     7
 10
163.54763199999999
 20
90.179397999999978
 30
0.0
 40
0.25995
 50
272.12853799999999
 51
357.8714720000001
  0
LINE
  5
104
  8
_________1
 62
     7
 10
163.55699999999999
 20
89.919600000000003
 30
0.0
 11
158.05799999999999
 21
89.919600000000003
 31
0.0
  0
LINE
  5
105
  8
_________1
 62
     7
 10
158.05799999999999
 20
89.919600000000003
 30
0.0
 11
158.05799999999999
 21
88.919200000000004
 31
0.0
  0
LINE
  5
106
  8
_________1
 62
     7
 10
158.05799999999999
 20
88.919200000000004
 30
0.0
 11
163.55699999999999
 21
88.919200000000004
 31
0.0
  0
LINE
  5
107
  8
_________1
 62
     7
 10
163.80699999999999
 20
90.169700000000006
 30
0.0
 11
163.80699999999999
 21
104.17
 31
0.0
  0
LINE
  5
108
  8
_________1
 62
     7
 10
163.80699999999999
 20
104.17
 30
0.0
 11
164.80699999999999
 21
104.17
 31
0.0
  0
LINE
  5
109
  8
_________1
 62
     7
 10
164.80699999999999
 20
104.17
 30
0.0
 11
164.80699999999999
 21
90.169700000000006
 31
0.0
  0
ARC
  5
10A
  8
_________1
 62
     7
 10
163.50908899999999
 20
90.217225999999997
 30
0.0
 40
1.298954999999999
 50
272.12646599999999
 51
357.90512100000001
  0
LINE
  5
10B
  8
_________1
  6
AIGENLINE001
 62
     7
 10
60.11569999999999
 20
212.99100000000001
 30
0.0
 11
60.11569999999999
 21
217.87799999999999
 31
0.0
  0
ARC
  5
10C
  8
_________1
 62
     7
 10
60.090415999999998
 20
214.81599600000001
 30
0.0
 40
0.692603
 50
272.09592300000003
 51
357.88928399999998
  0
ARC
  5
10D
  8
_________1
 62
     7
 10
60.142023999999999
 20
214.81694400000001
 30
0.0
 40
0.6935850000000001
 50
182.186104
 51
267.82872900000001
  0
LINE
  5
10E
  8
_________1
 62
     7
 10
59.448900000000002
 20
214.78999999999999
 30
0.0
 11
59.448900000000002
 21
215.95699999999999
 31
0.0
  0
ARC
  5
10F
  8
_________1
 62
     7
 10
60.141249999999992
 20
215.93167199999999
 30
0.0
 40
0.6927760000000001
 50
92.109782999999979
 51
177.890187
  0
ARC
  5
110
  8
_________1
 62
     7
 10
60.089455999999998
 20
215.93088599999999
 30
0.0
 40
0.693591
 50
2.172267999999999
 51
87.827722999999992
  0
LINE
  5
111
  8
_________1
 62
     7
 10
60.782499999999999
 20
215.95699999999999
 30
0.0
 11
60.782499999999999
 21
214.78999999999999
 31
0.0
  0
ARC
  5
112
  8
_________1
 62
     7
 10
60.10034799999999
 20
215.38932199999999
 30
0.0
 40
0.424103
 50
272.08076
 51
357.89508000000001
  0
ARC
  5
113
  8
_________1
 62
     7
 10
60.132092000000007
 20
215.39027100000001
 30
0.0
 40
0.425086
 50
182.228003
 51
267.796198
  0
ARC
  5
114
  8
_________1
 62
     7
 10
60.131318
 20
215.35817299999999
 30
0.0
 40
0.4242770000000001
 50
92.103413000000003
 51
177.896557
  0
ARC
  5
115
  8
_________1
 62
     7
 10
60.099387
 20
215.35738699999999
 30
0.0
 40
0.4250920000000001
 50
2.2054200000000002
 51
87.794569999999979
  0
LINE
  5
116
  8
_________1
  6
AIGENLINE001
 62
     7
 10
61.670699999999989
 20
215.374
 30
0.0
 11
58.423999999999999
 21
215.374
 31
0.0
  0
LINE
  5
117
  8
_________1
  6
AIGENLINE001
 62
     7
 10
60.11569999999999
 20
76.675899999999999
 30
0.0
 11
60.11569999999999
 21
81.4178
 31
0.0
  0
ARC
  5
118
  8
_________1
 62
     7
 10
60.090764
 20
78.481863000000004
 30
0.0
 40
0.6922550000000001
 50
272.06811900000002
 51
357.88747000000001
  0
ARC
  5
119
  8
_________1
 62
     7
 10
60.141213999999998
 20
78.482348999999999
 30
0.0
 40
0.6927590000000001
 50
182.15128300000001
 51
267.89316700000001
  0
LINE
  5
11A
  8
_________1
 62
     7
 10
59.448900000000002
 20
78.456299999999985
 30
0.0
 11
59.448900000000002
 21
79.623599999999996
 31
0.0
  0
ARC
  5
11B
  8
_________1
 62
     7
 10
60.140726999999998
 20
79.598031999999989
 30
0.0
 40
0.6922540000000002
 50
92.06808199999999
 51
177.88746699999999
  0
ARC
  5
11C
  8
_________1
 62
     7
 10
60.090278000000012
 20
79.597545999999994
 30
0.0
 40
0.6927590000000001
 50
2.151263999999999
 51
87.893147999999997
  0
LINE
  5
11D
  8
_________1
 62
     7
 10
60.782499999999999
 20
79.623599999999996
 30
0.0
 11
60.782499999999999
 21
78.456299999999985
 31
0.0
  0
ARC
  5
11E
  8
_________1
 62
     7
 10
60.099998999999997
 20
79.055515
 30
0.0
 40
0.424451
 50
272.12613099999999
 51
357.89803899999998
  0
ARC
  5
11F
  8
_________1
 62
     7
 10
60.13133100000001
 20
79.055352999999997
 30
0.0
 40
0.424283
 50
182.08089799999999
 51
267.894971
  0
ARC
  5
120
  8
_________1
 62
     7
 10
60.131493000000013
 20
79.024379999999994
 30
0.0
 40
0.424451
 50
92.126094000000009
 51
177.89803599999999
  0
ARC
  5
121
  8
_________1
 62
     7
 10
60.100161
 20
79.024540999999985
 30
0.0
 40
0.424283
 50
2.0808960000000001
 51
87.894933999999992
  0
LINE
  5
122
  8
_________1
  6
AIGENLINE001
 62
     7
 10
126.89400000000001
 20
246.417
 30
0.0
 11
105.51300000000001
 21
246.417
 31
0.0
  0
LINE
  5
123
  8
_________1
  6
AIGENLINE001
 62
     7
 10
116.17
 20
215.374
 30
0.0
 11
105.25
 21
215.374
 31
0.0
  0
LINE
  5
124
  8
_________1
  6
AIGENLINE001
 62
     7
 10
61.670699999999989
 20
79.039900000000003
 30
0.0
 11
58.423999999999999
 21
79.039900000000003
 31
0.0
  0
LINE
  5
125
  8
_________1
 62
     7
 10
58.032299999999999
 20
63.728099999999998
 30
0.0
 11
51.554299999999991
 21
63.728099999999998
 31
0.0
  0
LINE
  5
126
  8
_________1
 62
     7
 10
66.366
 20
63.728099999999998
 30
0.0
 11
62.199199999999998
 21
63.728099999999998
 31
0.0
  0
INSERT
  5
127
  8
_________1
 62
     7
  2
AIGNBL02010003
 10
0.0
 20
0.0
 30
0.0
  0
LINE
  5
128
  8
_________1
 62
     7
 10
62.199199999999998
 20
71.506900000000002
 30
0.0
 11
62.199199999999998
 21
63.028100000000002
 31
0.0
  0
LINE
  5
129
  8
_________1
 62
     7
 10
58.032299999999999
 20
71.506900000000002
 30
0.0
 11
58.032299999999999
 21
63.028100000000002
 31
0.0
  0
LINE
  5
12A
  8
_________1
 62
     7
 10
125.297
 20
101.194
 30
0.0
 11
125.964
 21
101.194
 31
0.0
  0
INSERT
  5
12B
  8
_________1
 62
     7
  2
AIGNBL02010004
 10
0.0
 20
0.0
 30
0.0
  0
LINE
  5
12C
  8
_________1
 62
     7
 10
125.246
 20
101.18899999999999
 30
0.0
 11
120.36
 21
101.18899999999999
 31
0.0
  0
LINE
  5
12D
  8
_________1
 62
     7
 10
114.964
 20
212.20699999999999
 30
0.0
 11
114.297
 21
212.20699999999999
 31
0.0
  0
ARC
  5
12E
  8
_________1
 62
     7
 10
122.99555100000001
 20
219.23920799999999
 30
0.0
 40
2.3032119999999989
 50
2.1162930000000002
 51
87.883696999999998
  0
ARC
  5
12F
  8
_________1
 62
     7
 10
117.18049600000001
 20
219.32426100000001
 30
0.0
 40
2.216588999999999
 50
90.0
 51
179.99996999999999
  0
LINE
  5
130
  8
_________1
 62
     7
 10
125.297
 20
219.32400000000001
 30
0.0
 11
125.297
 21
121.374
 31
0.0
  0
LINE
  5
131
  8
_________1
 62
     7
 10
125.964
 20
219.32400000000001
 30
0.0
 11
125.964
 21
121.374
 31
0.0
  0
LINE
  5
132
  8
_________1
 62
     7
 10
114.964
 20
219.32400000000001
 30
0.0
 11
114.964
 21
212.20699999999999
 31
0.0
  0
LINE
  5
133
  8
_________1
 62
     7
 10
114.297
 20
219.32400000000001
 30
0.0
 11
114.297
 21
212.20699999999999
 31
0.0
  0
LINE
  5
134
  8
_________1
 62
     7
 10
123.081
 20
221.541
 30
0.0
 11
117.18000000000001
 21
221.541
 31
0.0
  0
LINE
  5
135
  8
_________1
 62
     7
 10
123.081
 20
222.20699999999999
 30
0.0
 11
117.18000000000001
 21
222.20699999999999
 31
0.0
  0
ARC
  5
136
  8
_________1
 62
     7
 10
123.080603
 20
219.32426100000001
 30
0.0
 40
2.883219
 50
0.00001
 51
89.999980000000008
  0
ARC
  5
137
  8
_________1
 62
     7
 10
117.180497
 20
219.32426100000001
 30
0.0
 40
2.883219
 50
90.0
 51
179.99996999999999
  0
LINE
  5
138
  8
_________1
 62
     7
 10
114.964
 20
82.206699999999998
 30
0.0
 11
114.297
 21
82.206699999999998
 31
0.0
  0
ARC
  5
139
  8
_________1
 62
     7
 10
122.995531
 20
75.174848999999995
 30
0.0
 40
2.3032330000000001
 50
272.11678599999999
 51
357.88322399999998
  0
ARC
  5
13A
  8
_________1
 62
     7
 10
117.265558
 20
75.174837999999994
 30
0.0
 40
2.3032219999999999
 50
182.11653699999999
 51
267.88349299999999
  0
LINE
  5
13B
  8
_________1
 62
     7
 10
125.297
 20
75.089799999999997
 30
0.0
 11
125.297
 21
121.374
 31
0.0
  0
LINE
  5
13C
  8
_________1
 62
     7
 10
125.964
 20
75.089799999999997
 30
0.0
 11
125.964
 21
121.374
 31
0.0
  0
LINE
  5
13D
  8
_________1
 62
     7
 10
114.964
 20
75.089799999999997
 30
0.0
 11
114.964
 21
82.206699999999998
 31
0.0
  0
LINE
  5
13E
  8
_________1
 62
     7
 10
114.297
 20
75.089799999999997
 30
0.0
 11
114.297
 21
82.206699999999998
 31
0.0
  0
LINE
  5
13F
  8
_________1
 62
     7
 10
123.081
 20
72.873199999999997
 30
0.0
 11
117.18000000000001
 21
72.873199999999997
 31
0.0
  0
LINE
  5
140
  8
_________1
 62
     7
 10
123.081
 20
72.206900000000005
 30
0.0
 11
117.18000000000001
 21
72.206900000000005
 31
0.0
  0
ARC
  5
141
  8
_________1
 62
     7
 10
123.080776
 20
75.089949000000004
 30
0.0
 40
2.883046999999999
 50
269.99659700000001
 51
359.99656700000003
  0
ARC
  5
142
  8
_________1
 62
     7
 10
117.180323
 20
75.089947999999993
 30
0.0
 40
2.8830459999999989
 50
180.00343299999989
 51
270.003443
  0
LINE
  5
143
  8
_________1
 62
     7
 10
62.199199999999998
 20
222.20699999999999
 30
0.0
 11
62.199199999999998
 21
72.206900000000005
 31
0.0
  0
LINE
  5
144
  8
_________1
 62
     7
 10
62.199199999999998
 20
72.206900000000005
 30
0.0
 11
58.032299999999999
 21
72.206900000000005
 31
0.0
  0
LINE
  5
145
  8
_________1
 62
     7
 10
58.032299999999999
 20
72.206900000000005
 30
0.0
 11
58.032299999999999
 21
222.20699999999999
 31
0.0
  0
LINE
  5
146
  8
_________1
 62
     7
 10
58.032299999999999
 20
222.20699999999999
 30
0.0
 11
62.199199999999998
 21
222.20699999999999
 31
0.0
  0
LINE
  5
147
  8
_________1
 62
     7
 10
114.297
 20
248.5
 30
0.0
 11
125.964
 21
248.5
 31
0.0
  0
LINE
  5
148
  8
_________1
 62
     7
 10
125.964
 20
248.5
 30
0.0
 11
125.964
 21
244.334
 31
0.0
  0
LINE
  5
149
  8
_________1
 62
     7
 10
125.964
 20
244.334
 30
0.0
 11
114.297
 21
244.334
 31
0.0
  0
LINE
  5
14A
  8
_________1
 62
     7
 10
114.297
 20
244.334
 30
0.0
 11
114.297
 21
248.5
 31
0.0
  0
INSERT
  5
14B
  8
_________1
 62
     7
  2
AIGNBL02010005
 10
0.0
 20
0.0
 30
0.0
  0
INSERT
  5
14C
  8
_________1
 62
     7
  2
AIGNBL02010006
 10
0.0
 20
0.0
 30
0.0
  0
LINE
  5
14D
  8
_________1
 62
     7
 10
104.55
 20
215.374
 30
0.0
 11
98.327600000000004
 21
215.374
 31
0.0
  0
LINE
  5
14E
  8
_________1
 62
     7
 10
104.559
 20
79.039900000000003
 30
0.0
 11
98.327600000000004
 21
79.039900000000003
 31
0.0
  0
INSERT
  5
14F
  8
_________1
 62
     7
  2
AIGNBL02010007
 10
0.0
 20
0.0
 30
0.0
  0
LINE
  5
150
  8
_________1
 62
     7
 10
99.027699999999996
 20
218.86699999999999
 30
0.0
 11
99.027699999999996
 21
248.29900000000001
 31
0.0
  0
INSERT
  5
151
  8
_________1
 62
     7
  2
AIGNBL02010008
 10
0.0
 20
0.0
 30
0.0
  0
LINE
  5
152
  8
_________1
 62
     7
 10
115.099
 20
72.206900000000005
 30
0.0
 11
93.327399999999983
 21
72.206900000000005
 31
0.0
  0
LINE
  5
153
  8
_________1
 62
     7
 10
113.59699999999999
 20
82.206699999999998
 30
0.0
 11
93.327399999999983
 21
82.206699999999998
 31
0.0
  0
INSERT
  5
154
  8
_________1
 62
     7
  2
AIGNBL02010009
 10
0.0
 20
0.0
 30
0.0
  0
LINE
  5
155
  8
_________1
 62
     7
 10
125.964
 20
73.086799999999997
 30
0.0
 11
125.964
 21
63.028100000000002
 31
0.0
  0
LINE
  5
156
  8
_________1
 62
     7
 10
114.297
 20
73.004800000000003
 30
0.0
 11
114.297
 21
63.028100000000002
 31
0.0
  0
LINE
  5
157
  8
_________1
 62
     7
 10
137.40100000000001
 20
222.20699999999999
 30
0.0
 11
125.664
 21
222.20699999999999
 31
0.0
  0
LINE
  5
158
  8
_________1
 62
     7
 10
62.199199999999998
 20
212.20699999999999
 30
0.0
 11
58.032299999999999
 21
212.20699999999999
 31
0.0
  0
LINE
  5
159
  8
_________1
 62
     7
 10
62.199199999999998
 20
82.206699999999998
 30
0.0
 11
58.032299999999999
 21
82.206699999999998
 31
0.0
  0
LINE
  5
15A
  8
_________1
 62
     7
 10
137.40100000000001
 20
72.206900000000005
 30
0.0
 11
125.02800000000001
 21
72.206900000000005
 31
0.0
  0
TEXT
  5
15B
  8
_________2
 62
     7
 10
24.586400000000001
 20
0.707627
 30
0.0
 40
3.9357000000000002
  1
洗面器SB3005専用品
 41
0.5
  0
TEXT
  5
15C
  8
_________2
 62
     7
 10
20.673999999999999
 20
45.816600000000001
 30
0.0
 40
4.2168199999999993
  1
・（　）内寸法は参考寸法です。陶器に寸法公差がありますので、取付時に
 41
0.5
  0
TEXT
  5
15D
  8
_________2
 62
     7
 10
20.673999999999999
 20
40.5456
 30
0.0
 40
4.2168199999999993
  1
　現品に合わせて調整ください。
 41
0.5
  0
TEXT
  5
15E
  8
_________2
 62
     7
 10
109.179
 20
24.226099999999999
 30
0.0
 40
3.9357000000000002
  1
タオルバー
 41
0.5
  0
LINE
  5
15F
  8
_________2
 62
     7
 10
205.30099999999999
 20
127.411
 30
0.0
 11
183.55099999999999
 21
127.411
 31
0.0
  0
LINE
  5
160
  8
_________2
 62
     7
 10
100.3
 20
-4.0910799999999998
 30
0.0
 11
100.3
 21
-21.071000000000002
 31
0.0
  0
LINE
  5
161
  8
_________2
 62
     7
 10
100.3
 20
275.93099999999998
 30
0.0
 11
100.3
 21
258.911
 31
0.0
  0
LINE
  5
162
  8
_________2
 62
     7
 10
17.049199999999999
 20
127.411
 30
0.0
 11
-4.7012099999999988
 21
127.411
 31
0.0
  0
LINE
  5
163
  8
_________2
 62
     7
 10
76.740700000000004
 20
29.8047
 30
0.0
 11
74.554400000000001
 21
29.8047
 31
0.0
  0
LINE
  5
164
  8
_________2
 62
     7
 10
77.2333
 20
29.8047
 30
0.0
 11
76.981099999999984
 21
29.8047
 31
0.0
  0
LINE
  5
165
  8
_________2
 62
     7
 10
77.725999999999999
 20
29.8047
 30
0.0
 11
80.650899999999993
 21
29.8047
 31
0.0
  0
LINE
  5
166
  8
_________2
 62
     7
 10
77.2333
 20
29.8047
 30
0.0
 11
77.485500000000002
 21
29.8047
 31
0.0
  0
LINE
  5
167
  8
_________2
 62
     7
 10
70.837100000000007
 20
29.8047
 30
0.0
 11
68.650199999999998
 21
29.8047
 31
0.0
  0
LINE
  5
168
  8
_________2
 62
     7
 10
71.329099999999997
 20
29.8047
 30
0.0
 11
71.077600000000004
 21
29.8047
 31
0.0
  0
LINE
  5
169
  8
_________2
 62
     7
 10
71.329099999999997
 20
30.2974
 30
0.0
 11
71.329099999999997
 21
32.484400000000001
 31
0.0
  0
LINE
  5
16A
  8
_________2
 62
     7
 10
71.329099999999997
 20
29.8047
 30
0.0
 11
71.329099999999997
 21
30.057300000000001
 31
0.0
  0
LINE
  5
16B
  8
_________2
 62
     7
 10
71.821700000000007
 20
29.8047
 30
0.0
 11
74.008700000000005
 21
29.8047
 31
0.0
  0
LINE
  5
16C
  8
_________2
 62
     7
 10
71.329099999999997
 20
29.8047
 30
0.0
 11
71.581299999999985
 21
29.8047
 31
0.0
  0
LINE
  5
16D
  8
_________2
 62
     7
 10
71.329099999999997
 20
29.312799999999999
 30
0.0
 11
71.329099999999997
 21
27.126200000000001
 31
0.0
  0
LINE
  5
16E
  8
_________2
 62
     7
 10
71.329099999999997
 20
29.8047
 30
0.0
 11
71.329099999999997
 21
29.5532
 31
0.0
  0
LINE
  5
16F
  8
_________2
 62
     7
 10
75.040199999999999
 20
28.5852
 30
0.0
 11
80.218199999999996
 21
27.720400000000001
 31
0.0
  0
LINE
  5
170
  8
_________2
 62
     7
 10
75.040199999999999
 20
31.024699999999999
 30
0.0
 11
80.218199999999996
 21
31.8901
 31
0.0
  0
LINE
  5
171
  8
_________2
 62
     7
 10
80.218199999999996
 20
27.720400000000001
 30
0.0
 11
80.218199999999996
 21
31.8901
 31
0.0
  0
LINE
  5
172
  8
_________2
 62
     7
 10
75.040199999999999
 20
28.5852
 30
0.0
 11
75.040199999999999
 21
31.024699999999999
 31
0.0
  0
ARC
  5
173
  8
_________2
 62
     7
 10
71.282501999999994
 20
29.757801000000001
 30
0.0
 40
1.267714
 50
2.1220840000000001
 51
87.894083999999992
  0
ARC
  5
174
  8
_________2
 62
     7
 10
71.375640000000004
 20
29.758545999999999
 30
0.0
 40
1.2669680000000001
 50
92.105782999999988
 51
177.91037
  0
ARC
  5
175
  8
_________2
 62
     7
 10
71.376013999999998
 20
29.851671
 30
0.0
 40
1.2673680000000001
 50
182.12203600000001
 51
267.877993
  0
ARC
  5
176
  8
_________2
 62
     7
 10
71.282195999999999
 20
29.852347999999999
 30
0.0
 40
1.2680439999999991
 50
272.11916400000001
 51
357.84848499999998
  0
ARC
  5
177
  8
_________2
 62
     7
 10
71.248716999999985
 20
29.724731999999999
 30
0.0
 40
2.1668310000000002
 50
2.1161439999999989
 51
87.874379000000005
  0
ARC
  5
178
  8
_________2
 62
     7
 10
71.408756000000011
 20
29.726146
 30
0.0
 40
2.165392999999999
 50
92.108508999999998
 51
177.91986499999999
  0
ARC
  5
179
  8
_________2
 62
     7
 10
71.409094999999994
 20
29.884751999999999
 30
0.0
 40
2.1657829999999998
 50
182.117133
 51
267.88289700000001
  0
ARC
  5
17A
  8
_________2
 62
     7
 10
71.249115000000003
 20
29.885429999999999
 30
0.0
 40
2.1664590000000001
 50
272.11546800000002
 51
357.86560400000002
  0
TEXT
  5
17B
  8
_________2
 62
     7
 10
104.605
 20
1.6794899999999999
 30
0.0
 40
3.0923400000000001
  1
図番
 41
0.5
  0
LINE
  5
17C
  8
_________2
 62
     7
 10
103.55
 20
5.9087199999999989
 30
0.0
 11
183.55099999999999
 21
5.9087199999999989
 31
0.0
  0
TEXT
  5
17D
  8
_________2
 62
     7
 10
104.605
 20
11.6793
 30
0.0
 40
3.0923400000000001
  1
品番
 41
0.5
  0
TEXT
  5
17E
  8
_________2
 62
     7
 10
104.605
 20
31.8184
 30
0.0
 40
3.0923400000000001
  1
名称
 41
0.5
  0
TEXT
  5
17F
  8
_________2
 62
     7
 10
91.844758333333345
 20
26.822299999999998
 30
0.0
 40
3.6545800000000002
  1
mm
 41
0.5
 72
     1
 11
93.367500000000007
 21
26.822299999999998
 31
0.0
  0
TEXT
  5
180
  8
_________2
 62
     7
 10
85.642899999999983
 20
31.8184
 30
0.0
 40
3.0923400000000001
  1
単位
 41
0.5
  0
TEXT
  5
181
  8
_________2
 62
     7
 10
85.642899999999983
 20
19.410799999999998
 30
0.0
 40
3.0923400000000001
  1
尺度
 41
0.5
  0
TEXT
  5
182
  8
_________2
 62
     7
 10
90.548458666666676
 20
13.2182
 30
0.0
 40
3.6545800000000002
  1
1 ： 6
 41
0.5
 72
     1
 11
93.959400000000016
 21
13.2182
 31
0.0
  0
TEXT
  5
183
  8
_________2
 62
     7
 10
137.64644999999999
 20
9.1082000000000001
 30
0.0
 40
3.9357000000000002
  1
SB10044
 41
0.5
 72
     1
 11
143.55000000000001
 21
9.1082000000000001
 31
0.0
  0
TEXT
  5
184
  8
_________2
 62
     7
 10
137.64644999999999
 20
-0.8926299999999999
 30
0.0
 40
3.9357000000000002
  1
SB10044
 41
0.5
 72
     1
 11
143.55000000000001
 21
-0.8926299999999999
 31
0.0
  0
TEXT
  5
185
  8
_________2
 62
     7
 10
39.364090666666669
 20
13.603400000000001
 30
0.0
 40
3.6545800000000002
  1
篠崎
 41
0.5
 72
     1
 11
41.313200000000002
 21
13.603400000000001
 31
0.0
  0
TEXT
  5
186
  8
_________2
 62
     7
 10
20.790090666666671
 20
13.603400000000001
 30
0.0
 40
3.6545800000000002
  1
菅原
 41
0.5
 72
     1
 11
22.7392
 21
13.603400000000001
 31
0.0
  0
TEXT
  5
187
  8
_________2
 62
     7
 10
67.785399999999996
 20
13.2182
 30
0.0
 40
3.6545800000000002
  1
17.08.18
 41
0.5
  0
TEXT
  5
188
  8
_________2
 62
     7
 10
66.592699999999994
 20
19.410799999999998
 30
0.0
 40
3.0923400000000001
  1
日付
 41
0.5
  0
TEXT
  5
189
  8
_________2
 62
     7
 10
29.638999999999999
 20
19.410799999999998
 30
0.0
 40
3.0923400000000001
  1
検図
 41
0.5
  0
TEXT
  5
18A
  8
_________2
 62
     7
 10
18.020700000000001
 20
5.21143
 30
0.0
 40
3.0923400000000001
  1
備考
 41
0.5
  0
TEXT
  5
18B
  8
_________2
 62
     7
 10
18.020700000000001
 20
19.410799999999998
 30
0.0
 40
3.0923400000000001
  1
製図
 41
0.5
  0
TEXT
  5
18C
  8
_________2
 62
     7
 10
23.788165333333339
 20
27.936800000000002
 30
0.0
 40
4.4979399999999989
  1
セラトレーディング株式会社
 41
0.5
 72
     1
 11
41.180199999999999
 21
27.936800000000002
 31
0.0
  0
LINE
  5
18D
  8
_________2
 62
     7
 10
183.55099999999999
 20
-4.0910799999999998
 30
0.0
 11
17.049199999999999
 21
-4.0910799999999998
 31
0.0
  0
LINE
  5
18E
  8
_________2
 62
     7
 10
17.049199999999999
 20
-4.0910799999999998
 30
0.0
 11
17.049199999999999
 21
258.911
 31
0.0
  0
LINE
  5
18F
  8
_________2
 62
     7
 10
17.049199999999999
 20
258.911
 30
0.0
 11
183.55099999999999
 21
258.911
 31
0.0
  0
LINE
  5
190
  8
_________2
 62
     7
 10
183.55099999999999
 20
258.911
 30
0.0
 11
183.55099999999999
 21
-4.0910799999999998
 31
0.0
  0
LINE
  5
191
  8
_________2
 62
     7
 10
65.549599999999998
 20
9.4092999999999982
 30
0.0
 11
65.549599999999998
 21
35.909100000000002
 31
0.0
  0
LINE
  5
192
  8
_________2
 62
     7
 10
84.549400000000006
 20
9.4092999999999982
 30
0.0
 11
84.549400000000006
 21
35.909100000000002
 31
0.0
  0
LINE
  5
193
  8
_________2
 62
     7
 10
103.55
 20
-4.0910799999999998
 30
0.0
 11
103.55
 21
35.909100000000002
 31
0.0
  0
LINE
  5
194
  8
_________2
 62
     7
 10
28.548999999999999
 20
9.4092999999999982
 30
0.0
 11
28.548999999999999
 21
23.409199999999998
 31
0.0
  0
LINE
  5
195
  8
_________2
 62
     7
 10
17.049199999999999
 20
9.4092999999999982
 30
0.0
 11
103.55
 21
9.4092999999999982
 31
0.0
  0
LINE
  5
196
  8
_________2
 62
     7
 10
17.049199999999999
 20
23.409199999999998
 30
0.0
 11
103.55
 21
23.409199999999998
 31
0.0
  0
LINE
  5
197
  8
_________2
 62
     7
 10
103.55
 20
15.9085
 30
0.0
 11
183.55099999999999
 21
15.9085
 31
0.0
  0
LINE
  5
198
  8
_________2
 62
     7
 10
17.049199999999999
 20
35.909100000000002
 30
0.0
 11
183.55099999999999
 21
35.909100000000002
 31
0.0
  0
ENDSEC
  0
EOF
