  0
SECTION
  2
HEADER
  9
$ACADVER
  1
AC1009
  9
$INSBASE
 10
0.0
 20
0.0
 30
0.0
  9
$EXTMIN
 10
0.238402
 20
0.447865
 30
0.0
  9
$EXTMAX
 10
210.24000000000001
 20
297.44999999999999
 30
0.0
  9
$LIMMIN
 10
0.0
 20
0.0
  9
$LIMMAX
 10
12.0
 20
9.0
  9
$ORTHOMODE
 70
     0
  9
$REGENMODE
 70
     1
  9
$FILLMODE
 70
     1
  9
$QTEXTMODE
 70
     0
  9
$MIRRTEXT
 70
     1
  9
$DRAGMODE
 70
     2
  9
$LTSCALE
 40
1.0
  9
$OSMODE
 70
    37
  9
$ATTMODE
 70
     1
  9
$TEXTSIZE
 40
0.0
  9
$TRACEWID
 40
0.05
  9
$TEXTSTYLE
  7
STANDARD
  9
$CLAYER
  8
0
  9
$CELTYPE
  6
CONTINUOUS
  9
$CECOLOR
 62
   256
  9
$DIMSCALE
 40
1.0
  9
$DIMASZ
 40
0.18
  9
$DIMEXO
 40
0.0625
  9
$DIMDLI
 40
0.38
  9
$DIMRND
 40
0.0
  9
$DIMDLE
 40
0.0
  9
$DIMEXE
 40
0.18
  9
$DIMTP
 40
0.0
  9
$DIMTM
 40
0.0
  9
$DIMTXT
 40
0.18
  9
$DIMCEN
 40
0.09
  9
$DIMTSZ
 40
0.0
  9
$DIMTOL
 70
     0
  9
$DIMLIM
 70
     0
  9
$DIMTIH
 70
     1
  9
$DIMTOH
 70
     1
  9
$DIMSE1
 70
     0
  9
$DIMSE2
 70
     0
  9
$DIMTAD
 70
     0
  9
$DIMZIN
 70
     0
  9
$DIMBLK
  1

  9
$DIMASO
 70
     1
  9
$DIMSHO
 70
     1
  9
$DIMPOST
  1

  9
$DIMAPOST
  1

  9
$DIMALT
 70
     0
  9
$DIMALTD
 70
     2
  9
$DIMALTF
 40
25.399999999999999
  9
$DIMLFAC
 40
1.0
  9
$DIMTOFL
 70
     0
  9
$DIMTVP
 40
0.0
  9
$DIMTIX
 70
     0
  9
$DIMSOXD
 70
     0
  9
$DIMSAH
 70
     0
  9
$DIMBLK1
  1

  9
$DIMBLK2
  1

  9
$DIMSTYLE
  2
STANDARD
  9
$DIMCLRD
 70
     0
  9
$DIMCLRE
 70
     0
  9
$DIMCLRT
 70
     0
  9
$DIMTFAC
 40
1.0
  9
$DIMGAP
 40
0.09
  9
$LUNITS
 70
     2
  9
$LUPREC
 70
     4
  9
$SKETCHINC
 40
0.1
  9
$FILLETRAD
 40
0.0
  9
$AUNITS
 70
     0
  9
$AUPREC
 70
     0
  9
$MENU
  1
.
  9
$ELEVATION
 40
0.0
  9
$PELEVATION
 40
0.0
  9
$THICKNESS
 40
0.0
  9
$LIMCHECK
 70
     0
  9
$BLIPMODE
 70
     0
  9
$CHAMFERA
 40
0.0
  9
$CHAMFERB
 40
0.0
  9
$SKPOLY
 70
     0
  9
$TDCREATE
 40
2444972.375
  9
$TDUPDATE
 40
2457829.252183646
  9
$TDINDWG
 40
0.0000264931
  9
$TDUSRTIMER
 40
0.0000264931
  9
$USRTIMER
 70
     1
  9
$ANGBASE
 50
0.0
  9
$ANGDIR
 70
     0
  9
$PDMODE
 70
     0
  9
$PDSIZE
 40
0.0
  9
$PLINEWID
 40
0.0
  9
$COORDS
 70
     1
  9
$SPLFRAME
 70
     0
  9
$SPLINETYPE
 70
     6
  9
$SPLINESEGS
 70
     8
  9
$ATTDIA
 70
     1
  9
$ATTREQ
 70
     1
  9
$HANDLING
 70
     1
  9
$HANDSEED
  5
1CA
  9
$SURFTAB1
 70
     6
  9
$SURFTAB2
 70
     6
  9
$SURFTYPE
 70
     6
  9
$SURFU
 70
     6
  9
$SURFV
 70
     6
  9
$UCSNAME
  2

  9
$UCSORG
 10
0.0
 20
0.0
 30
0.0
  9
$UCSXDIR
 10
1.0
 20
0.0
 30
0.0
  9
$UCSYDIR
 10
0.0
 20
1.0
 30
0.0
  9
$PUCSNAME
  2

  9
$PUCSORG
 10
0.0
 20
0.0
 30
0.0
  9
$PUCSXDIR
 10
1.0
 20
0.0
 30
0.0
  9
$PUCSYDIR
 10
0.0
 20
1.0
 30
0.0
  9
$USERI1
 70
     0
  9
$USERI2
 70
     0
  9
$USERI3
 70
     0
  9
$USERI4
 70
     0
  9
$USERI5
 70
     0
  9
$USERR1
 40
0.0
  9
$USERR2
 40
0.0
  9
$USERR3
 40
0.0
  9
$USERR4
 40
0.0
  9
$USERR5
 40
0.0
  9
$WORLDVIEW
 70
     1
  9
$SHADEDGE
 70
     3
  9
$SHADEDIF
 70
    70
  9
$TILEMODE
 70
     1
  9
$MAXACTVP
 70
    48
  9
$PLIMCHECK
 70
     0
  9
$PEXTMIN
 10
1.0000000000000000E+020
 20
1.0000000000000000E+020
 30
1.0000000000000000E+020
  9
$PEXTMAX
 10
-1.0000000000000000E+020
 20
-1.0000000000000000E+020
 30
-1.0000000000000000E+020
  9
$PLIMMIN
 10
0.0
 20
0.0
  9
$PLIMMAX
 10
12.0
 20
9.0
  9
$UNITMODE
 70
     0
  9
$VISRETAIN
 70
     1
  9
$PLINEGEN
 70
     0
  9
$PSLTSCALE
 70
     1
  0
ENDSEC
  0
SECTION
  2
TABLES
  0
TABLE
  2
VPORT
 70
     1
  0
VPORT
  2
*ACTIVE
 70
     0
 10
0.0
 20
0.0
 11
1.0
 21
1.0
 12
177.98836336455309
 22
148.72499999999999
 13
0.0
 23
0.0
 14
1.0
 24
1.0
 15
0.0
 25
0.0
 16
0.0
 26
0.0
 36
1.0
 17
0.0
 27
0.0
 37
0.0
 40
290.0781911758238
 41
2.1063583815028899
 42
50.0
 43
0.0
 44
0.0
 50
0.0
 51
0.0
 71
     0
 72
   100
 73
     1
 74
     1
 75
     0
 76
     0
 77
     0
 78
     0
  0
ENDTAB
  0
TABLE
  2
LTYPE
 70
     3
  0
LTYPE
  2
CONTINUOUS
 70
     0
  3
Solid line
 72
    65
 73
     0
 40
0.0
  0
LTYPE
  2
AIGENLINE001
 70
     0
  3
generate AI->DXF Converter
 72
    65
 73
     2
 40
1.5522299999999991
 49
0.776115
 49
-0.776115
  0
LTYPE
  2
AIGENLINE002
 70
     0
  3
generate AI->DXF Converter
 72
    65
 73
     2
 40
1.5522299999999991
 49
0.776115
 49
-0.776115
  0
ENDTAB
  0
TABLE
  2
LAYER
 70
     2
  0
LAYER
  2
0
 70
     0
 62
     7
  6
CONTINUOUS
  0
LAYER
  2
_________2
 70
     0
 62
     7
  6
CONTINUOUS
  0
ENDTAB
  0
TABLE
  2
STYLE
 70
     1
  0
STYLE
  2
STANDARD
 70
     0
 40
0.0
 41
0.0
 50
0.0
 71
     0
 42
0.0
  3
TXT
  4
EXTFONT.SHX
  0
ENDTAB
  0
TABLE
  2
VIEW
 70
     0
  0
ENDTAB
  0
TABLE
  2
UCS
 70
     0
  0
ENDTAB
  0
TABLE
  2
APPID
 70
     3
  0
APPID
  2
ACAD
 70
     0
  0
APPID
  2
ACAD_NAV_VCDISPLAY
 70
     0
  0
APPID
  2
ACAD_MLEADERVER
 70
     0
  0
ENDTAB
  0
TABLE
  2
DIMSTYLE
 70
     1
  0
DIMSTYLE
  2
STANDARD
 70
     0
  3

  4

  5

  6

  7

 40
1.0
 41
0.18
 42
0.0625
 43
0.38
 44
0.18
 45
0.0
 46
0.0
 47
0.0
 48
0.0
140
0.18
141
0.09
142
0.0
143
25.399999999999999
144
1.0
145
0.0
146
1.0
147
0.09
 71
     0
 72
     0
 73
     1
 74
     1
 75
     0
 76
     0
 77
     0
 78
     0
170
     0
171
     2
172
     0
173
     0
174
     0
175
     0
176
     0
177
     0
178
     0
  0
ENDTAB
  0
ENDSEC
  0
SECTION
  2
BLOCKS
  0
BLOCK
  8
0
  2
$MODEL_SPACE
 70
     0
 10
0.0
 20
0.0
 30
0.0
  3
$MODEL_SPACE
  1

  0
ENDBLK
  5
1A
  8
0
  0
BLOCK
 67
     1
  8
0
  2
$PAPER_SPACE
 70
     0
 10
0.0
 20
0.0
 30
0.0
  3
$PAPER_SPACE
  1

  0
ENDBLK
  5
17
 67
     1
  8
0
  0
ENDSEC
  0
SECTION
  2
ENTITIES
  0
TEXT
  5
23
  8
0
 62
     7
 10
167.27167750000001
 20
105.196
 30
0.0
 40
3.0923400000000001
  1
110
 41
0.5
 72
     1
 11
168.68899999999999
 21
105.196
 31
0.0
  0
TEXT
  5
24
  8
0
 62
     7
 10
33.174199999999999
 20
126.64783
 30
0.0
 40
3.0923400000000001
  1
100
 50
90.0
 41
0.5
 72
     1
 11
33.174199999999999
 21
128.19399999999999
 31
0.0
  0
TEXT
  5
25
  8
0
 62
     7
 10
173.81179499999999
 20
219.47300000000001
 30
0.0
 40
3.0923400000000001
  1
%%c120
 41
0.5
 72
     2
 11
178.708
 21
219.47300000000001
 31
0.0
  0
TEXT
  5
26
  8
0
 62
     7
 10
92.146079999999998
 20
213.75399999999999
 30
0.0
 40
3.0923400000000001
  1
%%c45
 41
0.5
 72
     2
 11
96.269199999999998
 21
213.75399999999999
 31
0.0
  0
TEXT
  5
27
  8
0
 62
     7
 10
37.724699999999999
 20
236.97300000000001
 30
0.0
 40
3.0923400000000001
  1
メーカーロゴ
 41
0.5
  0
TEXT
  5
28
  8
0
 62
     7
 10
78.5880875
 20
168.30099999999999
 30
0.0
 40
3.0923400000000001
  1
290
 41
0.5
 72
     1
 11
80.520799999999994
 21
168.30099999999999
 31
0.0
  0
TEXT
  5
29
  8
0
 62
     7
 10
78.716934999999992
 20
162.80099999999999
 30
0.0
 40
3.0923400000000001
  1
300
 41
0.5
 72
     1
 11
80.520799999999994
 21
162.80099999999999
 31
0.0
  0
TEXT
  5
2A
  8
0
 62
     7
 10
33.174199999999999
 20
203.27298250000001
 30
0.0
 40
3.0923400000000001
  1
210
 50
90.0
 41
0.5
 72
     1
 11
33.174199999999999
 21
204.94800000000001
 31
0.0
  0
TEXT
  5
2B
  8
0
 62
     7
 10
27.674299999999999
 20
203.0152875
 30
0.0
 40
3.0923400000000001
  1
220
 50
90.0
 41
0.5
 72
     1
 11
27.674299999999999
 21
204.94800000000001
 31
0.0
  0
TEXT
  5
2C
  8
0
 62
     7
 10
146.69275999999999
 20
178.142
 30
0.0
 40
3.0923400000000001
  1
カウンター切込寸法
 41
0.5
 72
     1
 11
154.93899999999999
 21
178.142
 31
0.0
  0
TEXT
  5
2D
  8
0
 62
     7
 10
151.636
 20
130.033525
 30
0.0
 40
3.0923400000000001
  1
75
 50
90.0
 41
0.5
 72
     1
 11
151.636
 21
131.322
 31
0.0
  0
LINE
  5
2E
  8
0
 62
     7
 10
144.33199999999999
 20
194.34100000000001
 30
0.0
 11
168.76400000000001
 21
218.773
 31
0.0
  0
LINE
  5
2F
  8
0
 62
     7
 10
168.76400000000001
 20
218.773
 30
0.0
 11
178.708
 21
218.773
 31
0.0
  0
LINE
  5
30
  8
0
 62
     7
 10
157.15100000000001
 20
105.08799999999999
 30
0.0
 11
154.93899999999999
 21
104.496
 31
0.0
  0
LINE
  5
31
  8
0
 62
     7
 10
154.93899999999999
 20
104.496
 30
0.0
 11
157.15100000000001
 21
103.90300000000001
 31
0.0
  0
LINE
  5
32
  8
0
 62
     7
 10
157.15100000000001
 20
103.90300000000001
 30
0.0
 11
157.15100000000001
 21
105.08799999999999
 31
0.0
  0
LINE
  5
33
  8
0
 62
     7
 10
180.22800000000001
 20
103.91800000000001
 30
0.0
 11
182.43899999999999
 21
104.51000000000001
 31
0.0
  0
LINE
  5
34
  8
0
 62
     7
 10
182.43899999999999
 20
104.51000000000001
 30
0.0
 11
180.22800000000001
 21
105.10299999999999
 31
0.0
  0
LINE
  5
35
  8
0
 62
     7
 10
180.22800000000001
 20
105.10299999999999
 30
0.0
 11
180.22800000000001
 21
103.91800000000001
 31
0.0
  0
LINE
  5
36
  8
0
 62
     7
 10
154.93899999999999
 20
104.496
 30
0.0
 11
182.43899999999999
 21
104.496
 31
0.0
  0
LINE
  5
37
  8
0
 62
     7
 10
182.43899999999999
 20
103.79600000000001
 30
0.0
 11
182.43899999999999
 21
115.54600000000001
 31
0.0
  0
LINE
  5
38
  8
0
 62
     7
 10
154.93899999999999
 20
103.79600000000001
 30
0.0
 11
154.93899999999999
 21
112.146
 31
0.0
  0
LINE
  5
39
  8
0
 62
     7
 10
34.466799999999999
 20
138.47900000000001
 30
0.0
 11
33.874299999999998
 21
140.691
 31
0.0
  0
LINE
  5
3A
  8
0
 62
     7
 10
33.874299999999998
 20
140.691
 30
0.0
 11
33.281700000000001
 21
138.47900000000001
 31
0.0
  0
LINE
  5
3B
  8
0
 62
     7
 10
33.281700000000001
 20
138.47900000000001
 30
0.0
 11
34.466799999999999
 21
138.47900000000001
 31
0.0
  0
LINE
  5
3C
  8
0
 62
     7
 10
33.296199999999999
 20
117.908
 30
0.0
 11
33.888800000000003
 21
115.696
 31
0.0
  0
LINE
  5
3D
  8
0
 62
     7
 10
33.888800000000003
 20
115.696
 30
0.0
 11
34.481299999999997
 21
117.908
 31
0.0
  0
LINE
  5
3E
  8
0
 62
     7
 10
34.481299999999997
 20
117.908
 30
0.0
 11
33.296199999999999
 21
117.908
 31
0.0
  0
LINE
  5
3F
  8
0
 62
     7
 10
33.874299999999998
 20
140.691
 30
0.0
 11
33.874299999999998
 21
116.825
 31
0.0
  0
LINE
  5
40
  8
0
 62
     7
 10
33.174199999999999
 20
140.691
 30
0.0
 11
42.756300000000003
 21
140.691
 31
0.0
  0
LINE
  5
41
  8
0
 62
     7
 10
33.174199999999999
 20
115.696
 30
0.0
 11
42.756300000000003
 21
115.696
 31
0.0
  0
LINE
  5
42
  8
0
 62
     7
 10
145.47799999999989
 20
196.32400000000001
 30
0.0
 11
144.33199999999999
 21
194.34100000000001
 31
0.0
  0
LINE
  5
43
  8
0
 62
     7
 10
144.33199999999999
 20
194.34100000000001
 30
0.0
 11
146.316
 21
195.48599999999999
 31
0.0
  0
LINE
  5
44
  8
0
 62
     7
 10
146.316
 20
195.48599999999999
 30
0.0
 11
145.47799999999989
 21
196.32400000000001
 31
0.0
  0
LINE
  5
45
  8
0
 62
     7
 10
164.4009999999999
 20
213.571
 30
0.0
 11
165.54499999999999
 21
215.554
 31
0.0
  0
LINE
  5
46
  8
0
 62
     7
 10
165.54499999999999
 20
215.554
 30
0.0
 11
163.56299999999999
 21
214.40899999999999
 31
0.0
  0
LINE
  5
47
  8
0
 62
     7
 10
163.56299999999999
 20
214.40899999999999
 30
0.0
 11
164.4009999999999
 21
213.571
 31
0.0
  0
LINE
  5
48
  8
0
 62
     7
 10
77.688299999999998
 20
202.953
 30
0.0
 11
76.543300000000002
 21
200.971
 31
0.0
  0
LINE
  5
49
  8
0
 62
     7
 10
76.543300000000002
 20
200.971
 30
0.0
 11
78.526300000000006
 21
202.11600000000001
 31
0.0
  0
LINE
  5
4A
  8
0
 62
     7
 10
78.526300000000006
 20
202.11600000000001
 30
0.0
 11
77.688299999999998
 21
202.953
 31
0.0
  0
LINE
  5
4B
  8
0
 62
     7
 10
83.353399999999993
 20
206.94300000000001
 30
0.0
 11
84.498199999999997
 21
208.92599999999999
 31
0.0
  0
LINE
  5
4C
  8
0
 62
     7
 10
84.498199999999997
 20
208.92599999999999
 30
0.0
 11
82.5154
 21
207.78100000000001
 31
0.0
  0
LINE
  5
4D
  8
0
 62
     7
 10
82.5154
 20
207.78100000000001
 30
0.0
 11
83.353399999999993
 21
206.94300000000001
 31
0.0
  0
LINE
  5
4E
  8
0
 62
     7
 10
76.543300000000002
 20
200.971
 30
0.0
 11
88.627000000000024
 21
213.054
 31
0.0
  0
LINE
  5
4F
  8
0
 62
     7
 10
88.627000000000024
 20
213.054
 30
0.0
 11
96.269199999999998
 21
213.054
 31
0.0
  0
LINE
  5
50
  8
0
 62
     7
 10
42.575799999999987
 20
227.78399999999999
 30
0.0
 11
43.020599999999988
 21
225.53800000000001
 31
0.0
  0
LINE
  5
51
  8
0
 62
     7
 10
43.020599999999988
 20
225.53800000000001
 30
0.0
 11
41.51209999999999
 21
227.261
 31
0.0
  0
LINE
  5
52
  8
0
 62
     7
 10
41.51209999999999
 20
227.261
 30
0.0
 11
42.575799999999987
 21
227.78399999999999
 31
0.0
  0
LINE
  5
53
  8
0
 62
     7
 10
43.020599999999988
 20
225.53800000000001
 30
0.0
 11
37.724699999999999
 21
236.273
 31
0.0
  0
LINE
  5
54
  8
0
 62
     7
 10
58.504300000000001
 20
236.273
 30
0.0
 11
37.724699999999999
 21
236.273
 31
0.0
  0
LINE
  5
55
  8
0
 62
     7
 10
116.771
 20
166.90100000000001
 30
0.0
 11
116.771
 21
178.34100000000001
 31
0.0
  0
LINE
  5
56
  8
0
 62
     7
 10
44.270599999999988
 20
166.90100000000001
 30
0.0
 11
44.270599999999988
 21
178.34100000000001
 31
0.0
  0
LINE
  5
57
  8
0
 62
     7
 10
46.482599999999991
 20
168.19399999999999
 30
0.0
 11
44.270800000000001
 21
167.601
 31
0.0
  0
LINE
  5
58
  8
0
 62
     7
 10
44.270800000000001
 20
167.601
 30
0.0
 11
46.482599999999991
 21
167.00899999999999
 31
0.0
  0
LINE
  5
59
  8
0
 62
     7
 10
46.482599999999991
 20
167.00899999999999
 30
0.0
 11
46.482599999999991
 21
168.19399999999999
 31
0.0
  0
LINE
  5
5A
  8
0
 62
     7
 10
114.559
 20
167.023
 30
0.0
 11
116.771
 21
167.61600000000001
 31
0.0
  0
LINE
  5
5B
  8
0
 62
     7
 10
116.771
 20
167.61600000000001
 30
0.0
 11
114.559
 21
168.208
 31
0.0
  0
LINE
  5
5C
  8
0
 62
     7
 10
114.559
 20
168.208
 30
0.0
 11
114.559
 21
167.023
 31
0.0
  0
LINE
  5
5D
  8
0
 62
     7
 10
44.270800000000001
 20
167.601
 30
0.0
 11
116.771
 21
167.601
 31
0.0
  0
LINE
  5
5E
  8
0
 62
     7
 10
45.232300000000002
 20
162.69399999999999
 30
0.0
 11
43.020599999999988
 21
162.101
 31
0.0
  0
LINE
  5
5F
  8
0
 62
     7
 10
43.020599999999988
 20
162.101
 30
0.0
 11
45.232300000000002
 21
161.50899999999999
 31
0.0
  0
LINE
  5
60
  8
0
 62
     7
 10
45.232300000000002
 20
161.50899999999999
 30
0.0
 11
45.232300000000002
 21
162.69399999999999
 31
0.0
  0
LINE
  5
61
  8
0
 62
     7
 10
115.809
 20
161.523
 30
0.0
 11
118.021
 21
162.11600000000001
 31
0.0
  0
LINE
  5
62
  8
0
 62
     7
 10
118.021
 20
162.11600000000001
 30
0.0
 11
115.809
 21
162.708
 31
0.0
  0
LINE
  5
63
  8
0
 62
     7
 10
115.809
 20
162.708
 30
0.0
 11
115.809
 21
161.523
 31
0.0
  0
LINE
  5
64
  8
0
 62
     7
 10
43.020599999999988
 20
162.101
 30
0.0
 11
118.021
 21
162.101
 31
0.0
  0
LINE
  5
65
  8
0
 62
     7
 10
43.020599999999988
 20
161.40100000000001
 30
0.0
 11
43.020599999999988
 21
178.19800000000001
 31
0.0
  0
LINE
  5
66
  8
0
 62
     7
 10
118.021
 20
161.40100000000001
 30
0.0
 11
118.021
 21
178.19800000000001
 31
0.0
  0
ARC
  5
67
  8
0
  6
AIGENLINE001
 62
     7
 10
72.099605000000011
 20
175.797504
 30
0.0
 40
60.214762
 50
286.51861400000001
 51
290.53472199999999
  0
ARC
  5
68
  8
0
  6
AIGENLINE001
 62
     7
 10
88.807417999999998
 20
175.57806400000001
 30
0.0
 40
59.983387
 50
249.45589000000001
 51
253.48942299999999
  0
ARC
  5
69
  8
0
  6
AIGENLINE001
 62
     7
 10
181.324185
 20
140.43616299999999
 30
0.0
 40
0.254863
 50
90.638597000000004
 51
146.83166499999999
  0
ARC
  5
6A
  8
0
  6
AIGENLINE001
 62
     7
 10
125.94045699999999
 20
173.80430799999999
 30
0.0
 40
67.439723000000001
 50
304.01635099999999
 51
306.23741000000001
  0
ARC
  5
6B
  8
0
  6
AIGENLINE001
 62
     7
 10
125.439722
 20
175.170536
 30
0.0
 40
65.544336999999999
 50
305.69737599999991
 51
328.14277299999998
  0
ARC
  5
6C
  8
0
 62
     7
 10
181.189052
 20
116.946573
 30
0.0
 40
1.250232999999999
 50
270.00002000000001
 51
359.99999000000003
  0
ARC
  5
6D
  8
0
 62
     7
 10
181.145726
 20
139.40753599999999
 30
0.0
 40
1.294149999999999
 50
1.7312129999999999
 51
82.400843999999978
  0
ARC
  5
6E
  8
0
 62
     7
 10
181.19211000000001
 20
139.43924899999999
 30
0.0
 40
1.2572769999999991
 50
84.305310000000006
 51
90.139329000000004
  0
LINE
  5
6F
  8
0
 62
     7
 10
182.43899999999999
 20
116.947
 30
0.0
 11
182.43899999999999
 21
139.447
 31
0.0
  0
LINE
  5
70
  8
0
  6
AIGENLINE001
 62
     7
 10
160.56399999999999
 20
115.696
 30
0.0
 11
160.56399999999999
 21
118.196
 31
0.0
  0
LINE
  5
71
  8
0
  6
AIGENLINE001
 62
     7
 10
160.56399999999999
 20
118.196
 30
0.0
 11
163.68899999999999
 21
121.946
 31
0.0
  0
LINE
  5
72
  8
0
  6
AIGENLINE001
 62
     7
 10
154.93899999999999
 20
118.196
 30
0.0
 11
160.56399999999999
 21
118.196
 31
0.0
  0
LINE
  5
73
  8
0
  6
AIGENLINE001
 62
     7
 10
163.68899999999999
 20
115.696
 30
0.0
 11
163.68899999999999
 21
117.919
 31
0.0
  0
LINE
  5
74
  8
0
 62
     7
 10
181.18899999999999
 20
115.696
 30
0.0
 11
154.93899999999999
 21
115.696
 31
0.0
  0
LINE
  5
75
  8
0
  6
AIGENLINE001
 62
     7
 10
163.68899999999999
 20
121.946
 30
0.0
 11
154.93899999999999
 21
121.946
 31
0.0
  0
LINE
  5
76
  8
0
 62
     7
 10
181.18899999999999
 20
140.697
 30
0.0
 11
154.93899999999999
 21
140.697
 31
0.0
  0
ARC
  5
77
  8
0
  6
AIGENLINE001
 62
     7
 10
128.55412200000001
 20
140.43616299999999
 30
0.0
 40
0.254863
 50
33.168315999999997
 51
89.361382999999989
  0
ARC
  5
78
  8
0
  6
AIGENLINE001
 62
     7
 10
184.34271799999999
 20
174.36857499999999
 30
0.0
 40
68.134123000000002
 50
233.76954000000001
 51
235.966679
  0
ARC
  5
79
  8
0
  6
AIGENLINE001
 62
     7
 10
184.43858499999999
 20
175.170536
 30
0.0
 40
65.544336999999999
 50
211.857247
 51
234.30264399999999
  0
ARC
  5
7A
  8
0
 62
     7
 10
128.689255
 20
116.946572
 30
0.0
 40
1.250232999999999
 50
179.99996999999999
 51
270.00002000000001
  0
ARC
  5
7B
  8
0
 62
     7
 10
128.732609
 20
139.40755899999999
 30
0.0
 40
1.2941769999999999
 50
97.615584999999996
 51
178.26981499999999
  0
ARC
  5
7C
  8
0
 62
     7
 10
128.68806900000001
 20
139.39362
 30
0.0
 40
1.3029029999999999
 50
89.947855000000004
 51
95.592556000000002
  0
LINE
  5
7D
  8
0
  6
AIGENLINE002
 62
     7
 10
154.93899999999999
 20
113.197
 30
0.0
 11
154.93899999999999
 21
143.197
 31
0.0
  0
LINE
  5
7E
  8
0
 62
     7
 10
127.43899999999999
 20
116.947
 30
0.0
 11
127.43899999999999
 21
139.447
 31
0.0
  0
LINE
  5
7F
  8
0
  6
AIGENLINE001
 62
     7
 10
149.31399999999999
 20
115.696
 30
0.0
 11
149.31399999999999
 21
118.196
 31
0.0
  0
LINE
  5
80
  8
0
  6
AIGENLINE001
 62
     7
 10
149.31399999999999
 20
118.196
 30
0.0
 11
146.18899999999999
 21
121.946
 31
0.0
  0
LINE
  5
81
  8
0
  6
AIGENLINE001
 62
     7
 10
154.93899999999999
 20
118.196
 30
0.0
 11
149.31399999999999
 21
118.196
 31
0.0
  0
LINE
  5
82
  8
0
  6
AIGENLINE001
 62
     7
 10
146.18899999999999
 20
115.696
 30
0.0
 11
146.18899999999999
 21
117.919
 31
0.0
  0
LINE
  5
83
  8
0
  6
AIGENLINE001
 62
     7
 10
154.93899999999999
 20
115.696
 30
0.0
 11
163.68899999999999
 21
115.696
 31
0.0
  0
LINE
  5
84
  8
0
  6
AIGENLINE001
 62
     7
 10
146.18899999999999
 20
115.696
 30
0.0
 11
154.93899999999999
 21
115.696
 31
0.0
  0
LINE
  5
85
  8
0
 62
     7
 10
128.68899999999999
 20
115.696
 30
0.0
 11
154.93899999999999
 21
115.696
 31
0.0
  0
LINE
  5
86
  8
0
  6
AIGENLINE001
 62
     7
 10
146.18899999999999
 20
121.946
 30
0.0
 11
154.93899999999999
 21
121.946
 31
0.0
  0
LINE
  5
87
  8
0
 62
     7
 10
128.68899999999999
 20
140.697
 30
0.0
 11
154.93899999999999
 21
140.697
 31
0.0
  0
ARC
  5
88
  8
0
 62
     7
 10
116.770871
 20
116.946573
 30
0.0
 40
1.250232999999999
 50
270.00002000000001
 51
359.99999000000003
  0
ARC
  5
89
  8
0
 62
     7
 10
44.270703999999988
 20
116.94648599999999
 30
0.0
 40
1.250146999999999
 50
179.99602300000001
 51
269.99607200000003
  0
ARC
  5
8A
  8
0
  6
AIGENLINE001
 62
     7
 10
116.887602
 20
140.43582799999999
 30
0.0
 40
0.254848
 50
90.528932999999995
 51
140.38192900000001
  0
ARC
  5
8B
  8
0
 62
     7
 10
116.72751700000001
 20
139.40755899999999
 30
0.0
 40
1.2941780000000001
 50
1.730183
 51
82.384377999999984
  0
ARC
  5
8C
  8
0
 62
     7
 10
116.773826
 20
139.430181
 30
0.0
 40
1.2663450000000001
 50
84.325875999999994
 51
90.133673000000002
  0
ARC
  5
8D
  8
0
  6
AIGENLINE001
 62
     7
 10
71.857179000000002
 20
177.043397
 30
0.0
 40
57.778418999999992
 50
287.52416899999997
 51
320.89327500000002
  0
LINE
  5
8E
  8
0
 62
     7
 10
118.021
 20
116.947
 30
0.0
 11
118.021
 21
139.447
 31
0.0
  0
LINE
  5
8F
  8
0
  6
AIGENLINE001
 62
     7
 10
86.145799999999994
 20
115.696
 30
0.0
 11
86.145799999999994
 21
118.196
 31
0.0
  0
LINE
  5
90
  8
0
  6
AIGENLINE001
 62
     7
 10
86.145799999999994
 20
118.196
 30
0.0
 11
89.270899999999983
 21
121.946
 31
0.0
  0
LINE
  5
91
  8
0
  6
AIGENLINE001
 62
     7
 10
80.520700000000005
 20
118.196
 30
0.0
 11
86.145799999999994
 21
118.196
 31
0.0
  0
LINE
  5
92
  8
0
  6
AIGENLINE001
 62
     7
 10
89.270899999999983
 20
115.696
 30
0.0
 11
89.270899999999983
 21
118.06399999999999
 31
0.0
  0
LINE
  5
93
  8
0
 62
     7
 10
116.771
 20
115.696
 30
0.0
 11
80.520700000000005
 21
115.696
 31
0.0
  0
LINE
  5
94
  8
0
  6
AIGENLINE001
 62
     7
 10
89.270899999999983
 20
121.946
 30
0.0
 11
80.520700000000005
 21
121.946
 31
0.0
  0
LINE
  5
95
  8
0
 62
     7
 10
116.771
 20
140.697
 30
0.0
 11
80.520700000000005
 21
140.697
 31
0.0
  0
ARC
  5
96
  8
0
  6
AIGENLINE001
 62
     7
 10
44.154059999999987
 20
140.436195
 30
0.0
 40
0.254481
 50
39.579157000000002
 51
89.470417999999995
  0
ARC
  5
97
  8
0
 62
     7
 10
44.314599000000001
 20
139.40712500000001
 30
0.0
 40
1.2946439999999999
 50
97.625412999999995
 51
178.251237
  0
ARC
  5
98
  8
0
 62
     7
 10
44.269628999999988
 20
139.39661899999999
 30
0.0
 40
1.299903
 50
89.956384
 51
95.598937000000006
  0
ARC
  5
99
  8
0
  6
AIGENLINE001
 62
     7
 10
89.184751000000006
 20
177.043632
 30
0.0
 40
57.778775000000003
 50
219.10675699999999
 51
252.475504
  0
ARC
  5
9A
  8
0
 62
     7
 10
115.520983
 20
179.947777
 30
0.0
 40
1.249889
 50
270.00002000000001
 51
359.99999000000003
  0
ARC
  5
9B
  8
0
 62
     7
 10
115.520983
 20
179.947777
 30
0.0
 40
2.5001220000000002
 50
270.00002000000001
 51
359.99999000000003
  0
ARC
  5
9C
  8
0
 62
     7
 10
115.520983
 20
229.94814099999999
 30
0.0
 40
1.249889
 50
0.00001
 51
89.999980000000008
  0
ARC
  5
9D
  8
0
 62
     7
 10
115.521069
 20
229.94805500000001
 30
0.0
 40
2.5000360000000001
 50
0.001984
 51
90.001953999999998
  0
ARC
  5
9E
  8
0
 62
     7
 10
45.520592999999991
 20
179.94786199999999
 30
0.0
 40
1.249973999999999
 50
180.00395800000001
 51
270.0039680000001
  0
ARC
  5
9F
  8
0
 62
     7
 10
45.520677999999997
 20
179.947776
 30
0.0
 40
2.500121
 50
179.99996999999999
 51
270.00002000000001
  0
ARC
  5
A0
  8
0
 62
     7
 10
45.520592999999991
 20
229.94805500000001
 30
0.0
 40
1.2499750000000001
 50
89.996052000000006
 51
179.99602200000001
  0
ARC
  5
A1
  8
0
 62
     7
 10
45.520592999999991
 20
229.94805500000001
 30
0.0
 40
2.5000360000000001
 50
89.998025999999996
 51
179.997996
  0
LINE
  5
A2
  8
0
  6
AIGENLINE002
 62
     7
 10
80.520700000000005
 20
113.197
 30
0.0
 11
80.521000000000015
 21
143.197
 31
0.0
  0
LINE
  5
A3
  8
0
  6
AIGENLINE002
 62
     7
 10
154.93899999999999
 20
186.19799999999989
 30
0.0
 11
154.93899999999999
 21
223.69800000000001
 31
0.0
  0
LINE
  5
A4
  8
0
  6
AIGENLINE002
 62
     7
 10
136.18899999999999
 20
204.94800000000001
 30
0.0
 11
173.68899999999999
 21
204.94800000000001
 31
0.0
  0
ARC
  5
A5
  8
0
 62
     7
 10
154.93915100000001
 20
204.947789
 30
0.0
 40
14.999871000000001
 50
270.00067799999999
 51
0.000648
  0
ARC
  5
A6
  8
0
 62
     7
 10
154.93915100000001
 20
204.94812899999999
 30
0.0
 40
15.000209999999999
 50
180.00066799999999
 51
270.00067799999999
  0
ARC
  5
A7
  8
0
 62
     7
 10
154.939156
 20
204.94778400000001
 30
0.0
 40
15.000215000000001
 50
89.999342000000013
 51
179.999312
  0
ARC
  5
A8
  8
0
 62
     7
 10
154.93915100000001
 20
204.94812899999999
 30
0.0
 40
14.999871000000001
 50
359.99935199999999
 51
89.999321999999992
  0
LINE
  5
A9
  8
0
  6
AIGENLINE002
 62
     7
 10
80.520700000000005
 20
174.94800000000001
 30
0.0
 11
80.520700000000005
 21
234.94800000000001
 31
0.0
  0
LINE
  5
AA
  8
0
 62
     7
 10
45.520699999999991
 20
231.19800000000001
 30
0.0
 11
115.521
 21
231.19800000000001
 31
0.0
  0
LINE
  5
AB
  8
0
 62
     7
 10
45.520499999999998
 20
232.44800000000001
 30
0.0
 11
115.521
 21
232.44800000000001
 31
0.0
  0
LINE
  5
AC
  8
0
 62
     7
 10
116.771
 20
179.94799999999989
 30
0.0
 11
116.771
 21
229.94800000000001
 31
0.0
  0
LINE
  5
AD
  8
0
 62
     7
 10
118.021
 20
179.94799999999989
 30
0.0
 11
118.021
 21
229.94800000000001
 31
0.0
  0
LINE
  5
AE
  8
0
 62
     7
 10
44.270599999999988
 20
179.94799999999989
 30
0.0
 11
44.270599999999988
 21
229.94800000000001
 31
0.0
  0
LINE
  5
AF
  8
0
 62
     7
 10
43.020599999999988
 20
116.947
 30
0.0
 11
43.020599999999988
 21
139.447
 31
0.0
  0
LINE
  5
B0
  8
0
 62
     7
 10
43.020599999999988
 20
179.94799999999989
 30
0.0
 11
43.020599999999988
 21
229.94800000000001
 31
0.0
  0
LINE
  5
B1
  8
0
 62
     7
 10
45.520699999999991
 20
178.69799999999989
 30
0.0
 11
115.521
 21
178.69799999999989
 31
0.0
  0
LINE
  5
B2
  8
0
  6
AIGENLINE001
 62
     7
 10
74.895799999999994
 20
115.696
 30
0.0
 11
74.895799999999994
 21
118.196
 31
0.0
  0
LINE
  5
B3
  8
0
  6
AIGENLINE001
 62
     7
 10
74.895799999999994
 20
118.196
 30
0.0
 11
71.770700000000005
 21
121.946
 31
0.0
  0
LINE
  5
B4
  8
0
  6
AIGENLINE001
 62
     7
 10
89.270899999999983
 20
115.696
 30
0.0
 11
80.520700000000005
 21
115.696
 31
0.0
  0
LINE
  5
B5
  8
0
  6
AIGENLINE001
 62
     7
 10
80.520700000000005
 20
115.696
 30
0.0
 11
71.770700000000005
 21
115.696
 31
0.0
  0
LINE
  5
B6
  8
0
  6
AIGENLINE001
 62
     7
 10
80.520700000000005
 20
118.196
 30
0.0
 11
74.895799999999994
 21
118.196
 31
0.0
  0
LINE
  5
B7
  8
0
  6
AIGENLINE001
 62
     7
 10
71.770700000000005
 20
115.696
 30
0.0
 11
71.770700000000005
 21
118.06399999999999
 31
0.0
  0
LINE
  5
B8
  8
0
 62
     7
 10
44.270599999999988
 20
115.696
 30
0.0
 11
80.520700000000005
 21
115.696
 31
0.0
  0
LINE
  5
B9
  8
0
  6
AIGENLINE001
 62
     7
 10
71.770700000000005
 20
121.946
 30
0.0
 11
80.520700000000005
 21
121.946
 31
0.0
  0
LINE
  5
BA
  8
0
 62
     7
 10
44.270599999999988
 20
140.697
 30
0.0
 11
80.520700000000005
 21
140.697
 31
0.0
  0
LINE
  5
BB
  8
0
 62
     7
 10
45.520499999999998
 20
177.44800000000001
 30
0.0
 11
115.521
 21
177.44800000000001
 31
0.0
  0
LINE
  5
BC
  8
0
  6
AIGENLINE002
 62
     7
 10
40.520599999999988
 20
204.94800000000001
 30
0.0
 11
120.521
 21
204.94800000000001
 31
0.0
  0
ARC
  5
BD
  8
0
 62
     7
 10
80.52074300000001
 20
204.948047
 30
0.0
 40
8.7501689999999996
 50
269.99945600000001
 51
359.99942600000003
  0
ARC
  5
BE
  8
0
 62
     7
 10
80.52074300000001
 20
204.94787099999999
 30
0.0
 40
8.7499929999999981
 50
179.99940599999999
 51
269.99945600000001
  0
ARC
  5
BF
  8
0
 62
     7
 10
80.520746000000003
 20
204.94804400000001
 30
0.0
 40
8.7499960000000012
 50
90.000563999999997
 51
180.000574
  0
ARC
  5
C0
  8
0
 62
     7
 10
80.52074300000001
 20
204.94787099999999
 30
0.0
 40
8.7501689999999996
 50
0.000574
 51
90.000543999999991
  0
ARC
  5
C1
  8
0
 62
     7
 10
80.520743999999993
 20
204.94804600000001
 30
0.0
 40
5.625102
 50
269.999143
 51
359.99911300000002
  0
ARC
  5
C2
  8
0
 62
     7
 10
80.520743999999993
 20
204.94787199999999
 30
0.0
 40
5.6249279999999988
 50
179.99909299999999
 51
269.999143
  0
ARC
  5
C3
  8
0
 62
     7
 10
80.520746000000003
 20
204.94804400000001
 30
0.0
 40
5.6249299999999991
 50
90.000876999999988
 51
180.00088700000001
  0
ARC
  5
C4
  8
0
 62
     7
 10
80.520743999999993
 20
204.94787199999999
 30
0.0
 40
5.625102
 50
0.000887
 51
90.000857000000011
  0
LINE
  5
C5
  8
0
 62
     7
 10
34.466799999999999
 20
228.98599999999999
 30
0.0
 11
33.874299999999998
 21
231.19800000000001
 31
0.0
  0
LINE
  5
C6
  8
0
 62
     7
 10
33.874299999999998
 20
231.19800000000001
 30
0.0
 11
33.281700000000001
 21
228.98599999999999
 31
0.0
  0
LINE
  5
C7
  8
0
 62
     7
 10
33.281700000000001
 20
228.98599999999999
 30
0.0
 11
34.466799999999999
 21
228.98599999999999
 31
0.0
  0
LINE
  5
C8
  8
0
 62
     7
 10
33.296199999999999
 20
180.91
 30
0.0
 11
33.888800000000003
 21
178.69799999999989
 31
0.0
  0
LINE
  5
C9
  8
0
 62
     7
 10
33.888800000000003
 20
178.69799999999989
 30
0.0
 11
34.481299999999997
 21
180.91
 31
0.0
  0
LINE
  5
CA
  8
0
 62
     7
 10
34.481299999999997
 20
180.91
 30
0.0
 11
33.296199999999999
 21
180.91
 31
0.0
  0
LINE
  5
CB
  8
0
 62
     7
 10
33.874299999999998
 20
231.19800000000001
 30
0.0
 11
33.874299999999998
 21
178.69799999999989
 31
0.0
  0
LINE
  5
CC
  8
0
 62
     7
 10
33.174199999999999
 20
178.69799999999989
 30
0.0
 11
44.264200000000002
 21
178.69799999999989
 31
0.0
  0
LINE
  5
CD
  8
0
 62
     7
 10
33.174199999999999
 20
231.19800000000001
 30
0.0
 11
44.264200000000002
 21
231.19800000000001
 31
0.0
  0
LINE
  5
CE
  8
0
 62
     7
 10
28.966899999999999
 20
230.23599999999999
 30
0.0
 11
28.374300000000002
 21
232.44800000000001
 31
0.0
  0
LINE
  5
CF
  8
0
 62
     7
 10
28.374300000000002
 20
232.44800000000001
 30
0.0
 11
27.7818
 21
230.23599999999999
 31
0.0
  0
LINE
  5
D0
  8
0
 62
     7
 10
27.7818
 20
230.23599999999999
 30
0.0
 11
28.966899999999999
 21
230.23599999999999
 31
0.0
  0
LINE
  5
D1
  8
0
 62
     7
 10
27.796199999999999
 20
179.65899999999999
 30
0.0
 11
28.3888
 21
177.44800000000001
 31
0.0
  0
LINE
  5
D2
  8
0
 62
     7
 10
28.3888
 20
177.44800000000001
 30
0.0
 11
28.981400000000001
 21
179.65899999999999
 31
0.0
  0
LINE
  5
D3
  8
0
 62
     7
 10
28.981400000000001
 20
179.65899999999999
 30
0.0
 11
27.796199999999999
 21
179.65899999999999
 31
0.0
  0
LINE
  5
D4
  8
0
 62
     7
 10
28.374300000000002
 20
232.44800000000001
 30
0.0
 11
28.374300000000002
 21
177.44800000000001
 31
0.0
  0
LINE
  5
D5
  8
0
 62
     7
 10
27.674299999999999
 20
232.44800000000001
 30
0.0
 11
43.42049999999999
 21
232.44800000000001
 31
0.0
  0
LINE
  5
D6
  8
0
 62
     7
 10
27.674299999999999
 20
177.44800000000001
 30
0.0
 11
43.42049999999999
 21
177.44800000000001
 31
0.0
  0
LINE
  5
D7
  8
0
 62
     7
 10
151.75800000000001
 20
124.158
 30
0.0
 11
152.351
 21
121.946
 31
0.0
  0
LINE
  5
D8
  8
0
 62
     7
 10
152.351
 20
121.946
 30
0.0
 11
152.94399999999999
 21
124.158
 31
0.0
  0
LINE
  5
D9
  8
0
 62
     7
 10
152.94399999999999
 20
124.158
 30
0.0
 11
151.75800000000001
 21
124.158
 31
0.0
  0
LINE
  5
DA
  8
0
 62
     7
 10
152.929
 20
138.48500000000001
 30
0.0
 11
152.33699999999999
 21
140.697
 31
0.0
  0
LINE
  5
DB
  8
0
 62
     7
 10
152.33699999999999
 20
140.697
 30
0.0
 11
151.744
 21
138.48500000000001
 31
0.0
  0
LINE
  5
DC
  8
0
 62
     7
 10
151.744
 20
138.48500000000001
 30
0.0
 11
152.929
 21
138.48500000000001
 31
0.0
  0
LINE
  5
DD
  8
0
 62
     7
 10
152.33699999999999
 20
121.946
 30
0.0
 11
152.33699999999999
 21
140.697
 31
0.0
  0
LINE
  5
DE
  8
_________2
 62
     7
 10
210.24000000000001
 20
148.93000000000001
 30
0.0
 11
188.489
 21
148.93000000000001
 31
0.0
  0
LINE
  5
DF
  8
_________2
 62
     7
 10
105.239
 20
17.4282
 30
0.0
 11
105.239
 21
0.447865
 31
0.0
  0
LINE
  5
E0
  8
_________2
 62
     7
 10
105.239
 20
297.44999999999999
 30
0.0
 11
105.239
 21
280.43000000000001
 31
0.0
  0
LINE
  5
E1
  8
_________2
 62
     7
 10
21.988499999999998
 20
148.93000000000001
 30
0.0
 11
0.238402
 21
148.93000000000001
 31
0.0
  0
LINE
  5
E2
  8
_________2
 62
     7
 10
81.679900000000004
 20
51.323999999999998
 30
0.0
 11
79.493700000000004
 21
51.323999999999998
 31
0.0
  0
LINE
  5
E3
  8
_________2
 62
     7
 10
82.172600000000017
 20
51.323999999999998
 30
0.0
 11
81.920400000000001
 21
51.323999999999998
 31
0.0
  0
LINE
  5
E4
  8
_________2
 62
     7
 10
82.665199999999984
 20
51.323999999999998
 30
0.0
 11
85.590100000000007
 21
51.323999999999998
 31
0.0
  0
LINE
  5
E5
  8
_________2
 62
     7
 10
82.172600000000017
 20
51.323999999999998
 30
0.0
 11
82.424400000000006
 21
51.323999999999998
 31
0.0
  0
LINE
  5
E6
  8
_________2
 62
     7
 10
75.77600000000001
 20
51.323999999999998
 30
0.0
 11
73.589399999999998
 21
51.323999999999998
 31
0.0
  0
LINE
  5
E7
  8
_________2
 62
     7
 10
76.2684
 20
51.323999999999998
 30
0.0
 11
76.016499999999994
 21
51.323999999999998
 31
0.0
  0
LINE
  5
E8
  8
_________2
 62
     7
 10
76.2684
 20
51.816600000000001
 30
0.0
 11
76.2684
 21
54.003599999999999
 31
0.0
  0
LINE
  5
E9
  8
_________2
 62
     7
 10
76.2684
 20
51.323999999999998
 30
0.0
 11
76.2684
 21
51.5762
 31
0.0
  0
LINE
  5
EA
  8
_________2
 62
     7
 10
76.76100000000001
 20
51.323999999999998
 30
0.0
 11
78.947999999999993
 21
51.323999999999998
 31
0.0
  0
LINE
  5
EB
  8
_________2
 62
     7
 10
76.2684
 20
51.323999999999998
 30
0.0
 11
76.520499999999998
 21
51.323999999999998
 31
0.0
  0
LINE
  5
EC
  8
_________2
 62
     7
 10
76.2684
 20
50.832000000000001
 30
0.0
 11
76.2684
 21
48.645099999999999
 31
0.0
  0
LINE
  5
ED
  8
_________2
 62
     7
 10
76.2684
 20
51.323999999999998
 30
0.0
 11
76.2684
 21
51.072499999999998
 31
0.0
  0
LINE
  5
EE
  8
_________2
 62
     7
 10
79.979399999999984
 20
50.104399999999998
 30
0.0
 11
85.157399999999996
 21
49.239699999999999
 31
0.0
  0
LINE
  5
EF
  8
_________2
 62
     7
 10
79.979399999999984
 20
52.543599999999998
 30
0.0
 11
85.157399999999996
 21
53.408999999999999
 31
0.0
  0
LINE
  5
F0
  8
_________2
 62
     7
 10
85.157399999999996
 20
49.239699999999999
 30
0.0
 11
85.157399999999996
 21
53.408999999999999
 31
0.0
  0
LINE
  5
F1
  8
_________2
 62
     7
 10
79.979399999999984
 20
50.104399999999998
 30
0.0
 11
79.979399999999984
 21
52.543599999999998
 31
0.0
  0
ARC
  5
F2
  8
_________2
 62
     7
 10
76.221776000000006
 20
51.277046999999989
 30
0.0
 40
1.2673589999999999
 50
2.122214
 51
87.893958999999995
  0
ARC
  5
F3
  8
_________2
 62
     7
 10
76.315273000000005
 20
51.277056000000002
 30
0.0
 40
1.267363
 50
92.121785999999986
 51
177.878185
  0
ARC
  5
F4
  8
_________2
 62
     7
 10
76.315273000000005
 20
51.370902000000001
 30
0.0
 40
1.267363
 50
182.121815
 51
267.87821400000001
  0
ARC
  5
F5
  8
_________2
 62
     7
 10
76.221451999999999
 20
51.371234999999999
 30
0.0
 40
1.267695999999999
 50
272.12015300000002
 51
357.863674
  0
ARC
  5
F6
  8
_________2
 62
     7
 10
76.268349999999984
 20
51.323979000000001
 30
0.0
 40
2.0849849999999992
 50
0.00001
 51
89.999980000000008
  0
ARC
  5
F7
  8
_________2
 62
     7
 10
76.268523000000002
 20
51.324151000000001
 30
0.0
 40
2.084813
 50
90.004733999999999
 51
180.00474399999999
  0
ARC
  5
F8
  8
_________2
 62
     7
 10
76.348021000000003
 20
51.404007
 30
0.0
 40
2.1657899999999999
 50
182.117637
 51
267.891862
  0
ARC
  5
F9
  8
_________2
 62
     7
 10
76.188378999999983
 20
51.404665999999992
 30
0.0
 40
2.1664590000000001
 50
272.11546800000002
 51
357.86560400000002
  0
TEXT
  5
FA
  8
_________2
 62
     7
 10
109.544
 20
23.198699999999999
 30
0.0
 40
3.0923400000000001
  1
図番
 41
0.5
  0
LINE
  5
FB
  8
_________2
 62
     7
 10
108.489
 20
27.428000000000001
 30
0.0
 11
188.49000000000001
 21
27.428000000000001
 31
0.0
  0
TEXT
  5
FC
  8
_________2
 62
     7
 10
109.544
 20
33.19850000000001
 30
0.0
 40
3.0923400000000001
  1
品番
 41
0.5
  0
TEXT
  5
FD
  8
_________2
 62
     7
 10
109.544
 20
53.337299999999999
 30
0.0
 40
3.0923400000000001
  1
名称
 41
0.5
  0
TEXT
  5
FE
  8
_________2
 62
     7
 10
96.784058333333334
 20
48.341200000000001
 30
0.0
 40
3.6545800000000002
  1
mm
 41
0.5
 72
     1
 11
98.306799999999996
 21
48.341200000000001
 31
0.0
  0
TEXT
  5
FF
  8
_________2
 62
     7
 10
90.582099999999997
 20
53.337299999999999
 30
0.0
 40
3.0923400000000001
  1
単位
 41
0.5
  0
TEXT
  5
100
  8
_________2
 62
     7
 10
90.582099999999997
 20
40.930100000000003
 30
0.0
 40
3.0923400000000001
  1
尺度
 41
0.5
  0
TEXT
  5
101
  8
_________2
 62
     7
 10
95.487658666666675
 20
34.737099999999998
 30
0.0
 40
3.6545800000000002
  1
1 ： 4
 41
0.5
 72
     1
 11
98.898600000000002
 21
34.737099999999998
 31
0.0
  0
TEXT
  5
102
  8
_________2
 62
     7
 10
143.40538749999999
 20
30.627099999999999
 30
0.0
 40
3.9357000000000002
  1
SB1503
 41
0.5
 72
     1
 11
148.489
 21
30.627099999999999
 31
0.0
  0
TEXT
  5
103
  8
_________2
 62
     7
 10
143.40538749999999
 20
20.6266
 30
0.0
 40
3.9357000000000002
  1
SB1503
 41
0.5
 72
     1
 11
148.489
 21
20.6266
 31
0.0
  0
TEXT
  5
104
  8
_________2
 62
     7
 10
29.525700000000001
 20
22.226500000000001
 30
0.0
 40
3.9357000000000002
  1
重量：4.0kg、オーバーフローなし
 41
0.5
  0
TEXT
  5
105
  8
_________2
 62
     7
 10
114.117
 20
45.74499999999999
 30
0.0
 40
3.9357000000000002
  1
ソフト手洗器
 41
0.5
  0
TEXT
  5
106
  8
_________2
 62
     7
 10
44.303290666666669
 20
35.12230000000001
 30
0.0
 40
3.6545800000000002
  1
篠崎
 41
0.5
 72
     1
 11
46.252400000000002
 21
35.12230000000001
 31
0.0
  0
TEXT
  5
107
  8
_________2
 62
     7
 10
25.728990666666672
 20
35.12230000000001
 30
0.0
 40
3.6545800000000002
  1
菅原
 41
0.5
 72
     1
 11
27.678100000000001
 21
35.12230000000001
 31
0.0
  0
TEXT
  5
108
  8
_________2
 62
     7
 10
72.724400000000003
 20
34.737099999999998
 30
0.0
 40
3.6545800000000002
  1
16.12.09
 41
0.5
  0
TEXT
  5
109
  8
_________2
 62
     7
 10
71.531999999999996
 20
40.930100000000003
 30
0.0
 40
3.0923400000000001
  1
日付
 41
0.5
  0
TEXT
  5
10A
  8
_________2
 62
     7
 10
34.578299999999999
 20
40.930100000000003
 30
0.0
 40
3.0923400000000001
  1
検図
 41
0.5
  0
TEXT
  5
10B
  8
_________2
 62
     7
 10
22.960000000000001
 20
26.730699999999999
 30
0.0
 40
3.0923400000000001
  1
備考
 41
0.5
  0
TEXT
  5
10C
  8
_________2
 62
     7
 10
22.960000000000001
 20
40.930100000000003
 30
0.0
 40
3.0923400000000001
  1
製図
 41
0.5
  0
TEXT
  5
10D
  8
_________2
 62
     7
 10
28.727365333333339
 20
49.456000000000003
 30
0.0
 40
4.4979399999999989
  1
セラトレーディング株式会社
 41
0.5
 72
     1
 11
46.119399999999992
 21
49.456000000000003
 31
0.0
  0
LINE
  5
10E
  8
_________2
 62
     7
 10
188.49000000000001
 20
17.4282
 30
0.0
 11
21.988499999999998
 21
17.4282
 31
0.0
  0
LINE
  5
10F
  8
_________2
 62
     7
 10
21.988499999999998
 20
17.4282
 30
0.0
 11
21.988499999999998
 21
280.43000000000001
 31
0.0
  0
LINE
  5
110
  8
_________2
 62
     7
 10
21.988499999999998
 20
280.43000000000001
 30
0.0
 11
188.49000000000001
 21
280.43000000000001
 31
0.0
  0
LINE
  5
111
  8
_________2
 62
     7
 10
188.49000000000001
 20
280.43000000000001
 30
0.0
 11
188.49000000000001
 21
17.4282
 31
0.0
  0
LINE
  5
112
  8
_________2
 62
     7
 10
70.488500000000002
 20
30.9282
 30
0.0
 11
70.488500000000002
 21
57.427999999999997
 31
0.0
  0
LINE
  5
113
  8
_________2
 62
     7
 10
89.488600000000005
 20
30.9282
 30
0.0
 11
89.488600000000005
 21
57.427999999999997
 31
0.0
  0
LINE
  5
114
  8
_________2
 62
     7
 10
108.489
 20
17.4282
 30
0.0
 11
108.489
 21
57.427999999999997
 31
0.0
  0
LINE
  5
115
  8
_________2
 62
     7
 10
33.488300000000002
 20
30.9282
 30
0.0
 11
33.488300000000002
 21
44.928499999999993
 31
0.0
  0
LINE
  5
116
  8
_________2
 62
     7
 10
21.988499999999998
 20
30.9282
 30
0.0
 11
108.489
 21
30.9282
 31
0.0
  0
LINE
  5
117
  8
_________2
 62
     7
 10
21.988499999999998
 20
44.928499999999993
 30
0.0
 11
108.489
 21
44.928499999999993
 31
0.0
  0
LINE
  5
118
  8
_________2
 62
     7
 10
108.489
 20
37.427799999999998
 30
0.0
 11
188.49000000000001
 21
37.427799999999998
 31
0.0
  0
LINE
  5
119
  8
_________2
 62
     7
 10
21.988499999999998
 20
57.427999999999997
 30
0.0
 11
188.49000000000001
 21
57.427999999999997
 31
0.0
  0
ENDSEC
  0
EOF
