  0
SECTION
  2
HEADER
  9
$ACADVER
  1
AC1009
  9
$INSBASE
 10
0.0
 20
0.0
 30
0.0
  9
$EXTMIN
 10
0.238402
 20
0.4485540000000001
 30
0.0
  9
$EXTMAX
 10
210.24000000000001
 20
297.45100000000002
 30
0.0
  9
$LIMMIN
 10
0.0
 20
0.0
  9
$LIMMAX
 10
12.0
 20
9.0
  9
$ORTHOMODE
 70
     0
  9
$REGENMODE
 70
     1
  9
$FILLMODE
 70
     1
  9
$QTEXTMODE
 70
     0
  9
$MIRRTEXT
 70
     1
  9
$DRAGMODE
 70
     2
  9
$LTSCALE
 40
1.0
  9
$OSMODE
 70
    37
  9
$ATTMODE
 70
     1
  9
$TEXTSIZE
 40
0.0
  9
$TRACEWID
 40
0.05
  9
$TEXTSTYLE
  7
STANDARD
  9
$CLAYER
  8
0
  9
$CELTYPE
  6
CONTINUOUS
  9
$CECOLOR
 62
   256
  9
$DIMSCALE
 40
1.0
  9
$DIMASZ
 40
0.18
  9
$DIMEXO
 40
0.0625
  9
$DIMDLI
 40
0.38
  9
$DIMRND
 40
0.0
  9
$DIMDLE
 40
0.0
  9
$DIMEXE
 40
0.18
  9
$DIMTP
 40
0.0
  9
$DIMTM
 40
0.0
  9
$DIMTXT
 40
0.18
  9
$DIMCEN
 40
0.09
  9
$DIMTSZ
 40
0.0
  9
$DIMTOL
 70
     0
  9
$DIMLIM
 70
     0
  9
$DIMTIH
 70
     1
  9
$DIMTOH
 70
     1
  9
$DIMSE1
 70
     0
  9
$DIMSE2
 70
     0
  9
$DIMTAD
 70
     0
  9
$DIMZIN
 70
     0
  9
$DIMBLK
  1

  9
$DIMASO
 70
     1
  9
$DIMSHO
 70
     1
  9
$DIMPOST
  1

  9
$DIMAPOST
  1

  9
$DIMALT
 70
     0
  9
$DIMALTD
 70
     2
  9
$DIMALTF
 40
25.399999999999999
  9
$DIMLFAC
 40
1.0
  9
$DIMTOFL
 70
     0
  9
$DIMTVP
 40
0.0
  9
$DIMTIX
 70
     0
  9
$DIMSOXD
 70
     0
  9
$DIMSAH
 70
     0
  9
$DIMBLK1
  1

  9
$DIMBLK2
  1

  9
$DIMSTYLE
  2
STANDARD
  9
$DIMCLRD
 70
     0
  9
$DIMCLRE
 70
     0
  9
$DIMCLRT
 70
     0
  9
$DIMTFAC
 40
1.0
  9
$DIMGAP
 40
0.09
  9
$LUNITS
 70
     2
  9
$LUPREC
 70
     4
  9
$SKETCHINC
 40
0.1
  9
$FILLETRAD
 40
0.0
  9
$AUNITS
 70
     0
  9
$AUPREC
 70
     0
  9
$MENU
  1
.
  9
$ELEVATION
 40
0.0
  9
$PELEVATION
 40
0.0
  9
$THICKNESS
 40
0.0
  9
$LIMCHECK
 70
     0
  9
$BLIPMODE
 70
     0
  9
$CHAMFERA
 40
0.0
  9
$CHAMFERB
 40
0.0
  9
$SKPOLY
 70
     0
  9
$TDCREATE
 40
2444972.375
  9
$TDUPDATE
 40
2458311.24884015
  9
$TDINDWG
 40
0.0000265278
  9
$TDUSRTIMER
 40
0.0000265278
  9
$USRTIMER
 70
     1
  9
$ANGBASE
 50
0.0
  9
$ANGDIR
 70
     0
  9
$PDMODE
 70
     0
  9
$PDSIZE
 40
0.0
  9
$PLINEWID
 40
0.0
  9
$COORDS
 70
     1
  9
$SPLFRAME
 70
     0
  9
$SPLINETYPE
 70
     6
  9
$SPLINESEGS
 70
     8
  9
$ATTDIA
 70
     1
  9
$ATTREQ
 70
     1
  9
$HANDLING
 70
     1
  9
$HANDSEED
  5
2C3
  9
$SURFTAB1
 70
     6
  9
$SURFTAB2
 70
     6
  9
$SURFTYPE
 70
     6
  9
$SURFU
 70
     6
  9
$SURFV
 70
     6
  9
$UCSNAME
  2

  9
$UCSORG
 10
0.0
 20
0.0
 30
0.0
  9
$UCSXDIR
 10
1.0
 20
0.0
 30
0.0
  9
$UCSYDIR
 10
0.0
 20
1.0
 30
0.0
  9
$PUCSNAME
  2

  9
$PUCSORG
 10
0.0
 20
0.0
 30
0.0
  9
$PUCSXDIR
 10
1.0
 20
0.0
 30
0.0
  9
$PUCSYDIR
 10
0.0
 20
1.0
 30
0.0
  9
$USERI1
 70
     0
  9
$USERI2
 70
     0
  9
$USERI3
 70
     0
  9
$USERI4
 70
     0
  9
$USERI5
 70
     0
  9
$USERR1
 40
0.0
  9
$USERR2
 40
0.0
  9
$USERR3
 40
0.0
  9
$USERR4
 40
0.0
  9
$USERR5
 40
0.0
  9
$WORLDVIEW
 70
     1
  9
$SHADEDGE
 70
     3
  9
$SHADEDIF
 70
    70
  9
$TILEMODE
 70
     1
  9
$MAXACTVP
 70
    48
  9
$PLIMCHECK
 70
     0
  9
$PEXTMIN
 10
1.0000000000000000E+020
 20
1.0000000000000000E+020
 30
1.0000000000000000E+020
  9
$PEXTMAX
 10
-1.0000000000000000E+020
 20
-1.0000000000000000E+020
 30
-1.0000000000000000E+020
  9
$PLIMMIN
 10
0.0
 20
0.0
  9
$PLIMMAX
 10
12.0
 20
9.0
  9
$UNITMODE
 70
     0
  9
$VISRETAIN
 70
     1
  9
$PLINEGEN
 70
     0
  9
$PSLTSCALE
 70
     1
  0
ENDSEC
  0
SECTION
  2
TABLES
  0
TABLE
  2
VPORT
 70
     1
  0
VPORT
  2
*ACTIVE
 70
     0
 10
0.0
 20
0.0
 11
1.0
 21
1.0
 12
195.83847240083131
 22
148.72550000000001
 13
0.0
 23
0.0
 14
1.0
 24
1.0
 15
0.0
 25
0.0
 16
0.0
 26
0.0
 36
1.0
 17
0.0
 27
0.0
 37
0.0
 40
281.37364046443349
 41
2.298642533936651
 42
50.0
 43
0.0
 44
0.0
 50
0.0
 51
0.0
 71
     0
 72
   100
 73
     1
 74
     1
 75
     0
 76
     0
 77
     0
 78
     0
  0
ENDTAB
  0
TABLE
  2
LTYPE
 70
     3
  0
LTYPE
  2
CONTINUOUS
 70
     0
  3
Solid line
 72
    65
 73
     0
 40
0.0
  0
LTYPE
  2
AIGENLINE001
 70
     0
  3
generate AI->DXF Converter
 72
    65
 73
     2
 40
1.5522299999999991
 49
0.776115
 49
-0.776115
  0
LTYPE
  2
AIGENLINE002
 70
     0
  3
generate AI->DXF Converter
 72
    65
 73
     2
 40
1.5522299999999991
 49
0.776115
 49
-0.776115
  0
ENDTAB
  0
TABLE
  2
LAYER
 70
     2
  0
LAYER
  2
0
 70
     0
 62
     7
  6
CONTINUOUS
  0
LAYER
  2
_________2
 70
     0
 62
     7
  6
CONTINUOUS
  0
ENDTAB
  0
TABLE
  2
STYLE
 70
     1
  0
STYLE
  2
STANDARD
 70
     0
 40
0.0
 41
0.0
 50
0.0
 71
     0
 42
0.0
  3
TXT
  4
EXTFONT.SHX
  0
ENDTAB
  0
TABLE
  2
VIEW
 70
     0
  0
ENDTAB
  0
TABLE
  2
UCS
 70
     0
  0
ENDTAB
  0
TABLE
  2
APPID
 70
     3
  0
APPID
  2
ACAD
 70
     0
  0
APPID
  2
ACAD_NAV_VCDISPLAY
 70
     0
  0
APPID
  2
ACAD_MLEADERVER
 70
     0
  0
ENDTAB
  0
TABLE
  2
DIMSTYLE
 70
     1
  0
DIMSTYLE
  2
STANDARD
 70
     0
  3

  4

  5

  6

  7

 40
1.0
 41
0.18
 42
0.0625
 43
0.38
 44
0.18
 45
0.0
 46
0.0
 47
0.0
 48
0.0
140
0.18
141
0.09
142
0.0
143
25.399999999999999
144
1.0
145
0.0
146
1.0
147
0.09
 71
     0
 72
     0
 73
     1
 74
     1
 75
     0
 76
     0
 77
     0
 78
     0
170
     0
171
     2
172
     0
173
     0
174
     0
175
     0
176
     0
177
     0
178
     0
  0
ENDTAB
  0
ENDSEC
  0
SECTION
  2
BLOCKS
  0
BLOCK
  8
0
  2
$MODEL_SPACE
 70
     0
 10
0.0
 20
0.0
 30
0.0
  3
$MODEL_SPACE
  1

  0
ENDBLK
  5
1A
  8
0
  0
BLOCK
 67
     1
  8
0
  2
$PAPER_SPACE
 70
     0
 10
0.0
 20
0.0
 30
0.0
  3
$PAPER_SPACE
  1

  0
ENDBLK
  5
17
 67
     1
  8
0
  0
ENDSEC
  0
SECTION
  2
ENTITIES
  0
TEXT
  5
23
  8
0
 62
     7
 10
86.248172499999995
 20
107.575
 30
0.0
 40
3.0923400000000001
  1
70
 41
0.5
 72
     1
 11
87.407799999999995
 21
107.575
 31
0.0
  0
TEXT
  5
24
  8
0
 62
     7
 10
82.123146000000006
 20
87.668199999999999
 30
0.0
 40
3.0923400000000001
  1
3/8\U+00D7100
 41
0.5
 72
     2
 11
91.709399999999988
 21
87.668199999999999
 31
0.0
  0
TEXT
  5
25
  8
0
 62
     7
 10
37.939399999999999
 20
97.33108750000001
 30
0.0
 40
3.0923400000000001
  1
%%c30
 50
90.0
 41
0.5
 72
     1
 11
37.939399999999999
 21
99.263800000000003
 31
0.0
  0
TEXT
  5
26
  8
0
 62
     7
 10
45.773200000000003
 20
97.202240000000003
 30
0.0
 40
3.0923400000000001
  1
%%c35
 50
90.0
 41
0.5
 72
     1
 11
45.773200000000003
 21
99.263800000000003
 31
0.0
  0
TEXT
  5
27
  8
0
 62
     7
 10
123.76137
 20
257.04500000000002
 30
0.0
 40
3.0923400000000001
  1
タオル掛け
 41
0.5
 72
     2
 11
132.523
 21
257.04500000000002
 31
0.0
  0
TEXT
  5
28
  8
0
 62
     7
 10
34.998987999999997
 20
256.62200000000001
 30
0.0
 40
3.0923400000000001
  1
メーカーロゴ
 41
0.5
 72
     2
 11
45.71909999999999
 21
256.62200000000001
 31
0.0
  0
TEXT
  5
29
  8
0
 62
     7
 10
49.353400000000001
 20
234.63499999999999
 30
0.0
 40
3.0923400000000001
  1
%%c45
 41
0.5
  0
TEXT
  5
2A
  8
0
 62
     7
 10
79.9148
 20
244.07400000000001
 30
0.0
 40
3.0923400000000001
  1
%%c35
 41
0.5
  0
TEXT
  5
2B
  8
0
 62
     7
 10
119.449
 20
225.55513500000001
 30
0.0
 40
3.0923400000000001
  1
184
 50
90.0
 41
0.5
 72
     1
 11
119.449
 21
227.35900000000001
 31
0.0
  0
TEXT
  5
2C
  8
0
 62
     7
 10
131.03700000000001
 20
225.4252875
 30
0.0
 40
3.0923400000000001
  1
220
 50
90.0
 41
0.5
 72
     1
 11
131.03700000000001
 21
227.358
 31
0.0
  0
TEXT
  5
2D
  8
0
 62
     7
 10
125.53700000000001
 20
242.1983725
 30
0.0
 40
3.0923400000000001
  1
60
 50
90.0
 41
0.5
 72
     1
 11
125.53700000000001
 21
243.358
 31
0.0
  0
TEXT
  5
2E
  8
0
 62
     7
 10
84.720287499999984
 20
196.48500000000001
 30
0.0
 40
3.0923400000000001
  1
240
 41
0.5
 72
     1
 11
86.653000000000006
 21
196.48500000000001
 31
0.0
  0
TEXT
  5
2F
  8
0
 62
     7
 10
68.848735000000005
 20
188.95599999999999
 30
0.0
 40
3.0923400000000001
  1
400
 41
0.5
 72
     1
 11
70.652600000000007
 21
188.95599999999999
 31
0.0
  0
TEXT
  5
30
  8
0
 62
     7
 10
102.46637250000001
 20
256.50400000000002
 30
0.0
 40
3.0923400000000001
  1
30
 41
0.5
 72
     1
 11
103.626
 21
256.50400000000002
 31
0.0
  0
TEXT
  5
31
  8
0
 62
     7
 10
107.5543725
 20
256.50400000000002
 30
0.0
 40
3.0923400000000001
  1
20
 41
0.5
 72
     1
 11
108.714
 21
256.50400000000002
 31
0.0
  0
TEXT
  5
32
  8
0
 62
     7
 10
100.49337250000001
 20
264.40899999999999
 30
0.0
 40
3.0923400000000001
  1
90
 41
0.5
 72
     1
 11
101.65300000000001
 21
264.40899999999999
 31
0.0
  0
TEXT
  5
33
  8
0
 62
     7
 10
169.0906775
 20
165.18700000000001
 30
0.0
 40
3.0923400000000001
  1
110
 41
0.5
 72
     1
 11
170.50800000000001
 21
165.18700000000001
 31
0.0
  0
TEXT
  5
34
  8
0
 62
     7
 10
127.953
 20
145.3273725
 30
0.0
 40
3.0923400000000001
  1
90
 50
90.0
 41
0.5
 72
     1
 11
127.953
 21
146.48699999999999
 31
0.0
  0
TEXT
  5
35
  8
0
 62
     7
 10
122.453
 20
146.3273725
 30
0.0
 40
3.0923400000000001
  1
80
 50
90.0
 41
0.5
 72
     1
 11
122.453
 21
147.48699999999999
 31
0.0
  0
TEXT
  5
36
  8
0
 62
     7
 10
116.953
 20
149.69852499999999
 30
0.0
 40
3.0923400000000001
  1
45
 50
90.0
 41
0.5
 72
     1
 11
116.953
 21
150.98699999999999
 31
0.0
  0
TEXT
  5
37
  8
0
 62
     7
 10
55.165717000000008
 20
116.09699999999999
 30
0.0
 40
3.0923400000000001
  1
取付ボルト\U+00D72セット付（尺度1：2）
 41
0.5
 72
     1
 11
70.472800000000007
 21
116.09699999999999
 31
0.0
  0
TEXT
  5
38
  8
0
 62
     7
 10
37.564225
 20
165.18700000000001
 30
0.0
 40
3.0923400000000001
  1
82
 41
0.5
 72
     1
 11
38.852699999999999
 21
165.18700000000001
 31
0.0
  0
TEXT
  5
39
  8
0
 62
     7
 10
60.548935
 20
165.18700000000001
 30
0.0
 40
3.0923400000000001
  1
153
 41
0.5
 72
     1
 11
62.352800000000002
 21
165.18700000000001
 31
0.0
  0
TEXT
  5
3A
  8
0
 62
     7
 10
92.34913499999999
 20
165.18700000000001
 30
0.0
 40
3.0923400000000001
  1
165
 41
0.5
 72
     1
 11
94.153000000000006
 21
165.18700000000001
 31
0.0
  0
TEXT
  5
3B
  8
0
 62
     7
 10
156.911
 20
148.69852499999999
 30
0.0
 40
3.0923400000000001
  1
55
 50
90.0
 41
0.5
 72
     1
 11
156.911
 21
149.98699999999999
 31
0.0
  0
LINE
  5
3C
  8
0
 62
     7
 10
102.696
 20
106.283
 30
0.0
 11
104.908
 21
106.875
 31
0.0
  0
LINE
  5
3D
  8
0
 62
     7
 10
104.908
 20
106.875
 30
0.0
 11
102.696
 21
107.468
 31
0.0
  0
LINE
  5
3E
  8
0
 62
     7
 10
102.696
 20
107.468
 30
0.0
 11
102.696
 21
106.283
 31
0.0
  0
LINE
  5
3F
  8
0
 62
     7
 10
72.119399999999999
 20
107.468
 30
0.0
 11
69.907600000000002
 21
106.875
 31
0.0
  0
LINE
  5
40
  8
0
 62
     7
 10
69.907600000000002
 20
106.875
 30
0.0
 11
72.119399999999999
 21
106.283
 31
0.0
  0
LINE
  5
41
  8
0
 62
     7
 10
72.119399999999999
 20
106.283
 30
0.0
 11
72.119399999999999
 21
107.468
 31
0.0
  0
LINE
  5
42
  8
0
 62
     7
 10
104.908
 20
106.875
 30
0.0
 11
69.907600000000002
 21
106.875
 31
0.0
  0
LINE
  5
43
  8
0
 62
     7
 10
104.908
 20
107.575
 30
0.0
 11
104.908
 21
99.978300000000004
 31
0.0
  0
LINE
  5
44
  8
0
 62
     7
 10
69.907600000000002
 20
107.575
 30
0.0
 11
69.907600000000002
 21
102.133
 31
0.0
  0
LINE
  5
45
  8
0
 62
     7
 10
45.880699999999997
 20
104.56699999999999
 30
0.0
 11
46.473300000000002
 21
106.77800000000001
 31
0.0
  0
LINE
  5
46
  8
0
 62
     7
 10
46.473300000000002
 20
106.77800000000001
 30
0.0
 11
47.065800000000003
 21
104.56699999999999
 31
0.0
  0
LINE
  5
47
  8
0
 62
     7
 10
47.065800000000003
 20
104.56699999999999
 30
0.0
 11
45.880699999999997
 21
104.56699999999999
 31
0.0
  0
LINE
  5
48
  8
0
 62
     7
 10
47.065800000000003
 20
93.989999999999995
 30
0.0
 11
46.473300000000002
 21
91.778300000000002
 31
0.0
  0
LINE
  5
49
  8
0
 62
     7
 10
46.473300000000002
 20
91.778300000000002
 30
0.0
 11
45.880699999999997
 21
93.989999999999995
 31
0.0
  0
LINE
  5
4A
  8
0
 62
     7
 10
45.880699999999997
 20
93.989999999999995
 30
0.0
 11
47.065800000000003
 21
93.989999999999995
 31
0.0
  0
LINE
  5
4B
  8
0
 62
     7
 10
46.473300000000002
 20
106.77800000000001
 30
0.0
 11
46.473300000000002
 21
91.778300000000002
 31
0.0
  0
LINE
  5
4C
  8
0
 62
     7
 10
38.046799999999998
 20
105.816
 30
0.0
 11
38.639400000000002
 21
108.02800000000001
 31
0.0
  0
LINE
  5
4D
  8
0
 62
     7
 10
38.639400000000002
 20
108.02800000000001
 30
0.0
 11
39.231999999999999
 21
105.816
 31
0.0
  0
LINE
  5
4E
  8
0
 62
     7
 10
39.231999999999999
 20
105.816
 30
0.0
 11
38.046799999999998
 21
105.816
 31
0.0
  0
LINE
  5
4F
  8
0
 62
     7
 10
39.231999999999999
 20
92.740099999999998
 30
0.0
 11
38.639400000000002
 21
90.528400000000005
 31
0.0
  0
LINE
  5
50
  8
0
 62
     7
 10
38.639400000000002
 20
90.528400000000005
 30
0.0
 11
38.046799999999998
 21
92.740099999999998
 31
0.0
  0
LINE
  5
51
  8
0
 62
     7
 10
38.046799999999998
 20
92.740099999999998
 30
0.0
 11
39.231999999999999
 21
92.740099999999998
 31
0.0
  0
LINE
  5
52
  8
0
 62
     7
 10
38.639400000000002
 20
108.02800000000001
 30
0.0
 11
38.639400000000002
 21
90.528400000000005
 31
0.0
  0
LINE
  5
53
  8
0
 62
     7
 10
76.411500000000004
 20
95.178299999999993
 30
0.0
 11
75.0274
 21
97.000400000000013
 31
0.0
  0
LINE
  5
54
  8
0
 62
     7
 10
75.0274
 20
97.000400000000013
 30
0.0
 11
75.314899999999994
 21
94.729699999999994
 31
0.0
  0
LINE
  5
55
  8
0
 62
     7
 10
75.314899999999994
 20
94.729699999999994
 30
0.0
 11
76.411500000000004
 21
95.178299999999993
 31
0.0
  0
LINE
  5
56
  8
0
 62
     7
 10
91.709399999999988
 20
86.968199999999996
 30
0.0
 11
79.126800000000003
 21
86.968199999999996
 31
0.0
  0
LINE
  5
57
  8
0
 62
     7
 10
79.126800000000003
 20
86.968199999999996
 30
0.0
 11
75.0274
 21
97.000400000000013
 31
0.0
  0
LINE
  5
58
  8
0
 62
     7
 10
37.939399999999999
 20
90.528400000000005
 30
0.0
 11
58.503300000000003
 21
90.528400000000005
 31
0.0
  0
LINE
  5
59
  8
0
 62
     7
 10
45.773200000000003
 20
91.778300000000002
 30
0.0
 11
59.445
 21
91.778300000000002
 31
0.0
  0
LINE
  5
5A
  8
0
 62
     7
 10
45.773200000000003
 20
106.77800000000001
 30
0.0
 11
59.445
 21
106.77800000000001
 31
0.0
  0
LINE
  5
5B
  8
0
 62
     7
 10
37.939399999999999
 20
108.02800000000001
 30
0.0
 11
58.503300000000003
 21
108.02800000000001
 31
0.0
  0
LINE
  5
5C
  8
0
  6
AIGENLINE002
 62
     7
 10
106.84099999999999
 20
99.278300000000002
 30
0.0
 11
49.323900000000002
 21
99.278300000000002
 31
0.0
  0
LINE
  5
5D
  8
0
 62
     7
 10
102.756
 20
97.549499999999995
 30
0.0
 11
104.908
 21
99.278300000000002
 31
0.0
  0
LINE
  5
5E
  8
0
 62
     7
 10
102.756
 20
101.00700000000001
 30
0.0
 11
104.908
 21
99.278300000000002
 31
0.0
  0
LINE
  5
5F
  8
0
 62
     7
 10
102.756
 20
101.00700000000001
 30
0.0
 11
102.756
 21
97.549499999999995
 31
0.0
  0
LINE
  5
60
  8
0
 62
     7
 10
100.251
 20
101.542
 30
0.0
 11
102.544
 21
97.000400000000013
 31
0.0
  0
LINE
  5
61
  8
0
 62
     7
 10
98.134500000000017
 20
101.542
 30
0.0
 11
100.428
 21
97.000400000000013
 31
0.0
  0
LINE
  5
62
  8
0
 62
     7
 10
96.017799999999994
 20
101.542
 30
0.0
 11
98.310900000000004
 21
97.000400000000013
 31
0.0
  0
LINE
  5
63
  8
0
 62
     7
 10
93.901099999999985
 20
101.542
 30
0.0
 11
96.194199999999995
 21
97.000400000000013
 31
0.0
  0
LINE
  5
64
  8
0
 62
     7
 10
91.784499999999994
 20
101.542
 30
0.0
 11
94.077500000000001
 21
97.000400000000013
 31
0.0
  0
LINE
  5
65
  8
0
 62
     7
 10
89.667799999999986
 20
101.542
 30
0.0
 11
91.960899999999995
 21
97.000400000000013
 31
0.0
  0
LINE
  5
66
  8
0
 62
     7
 10
87.551100000000005
 20
101.542
 30
0.0
 11
89.844200000000001
 21
97.000400000000013
 31
0.0
  0
LINE
  5
67
  8
0
 62
     7
 10
85.434399999999997
 20
101.542
 30
0.0
 11
87.727500000000006
 21
97.000400000000013
 31
0.0
  0
LINE
  5
68
  8
0
 62
     7
 10
83.317700000000002
 20
101.542
 30
0.0
 11
85.610799999999998
 21
97.000400000000013
 31
0.0
  0
LINE
  5
69
  8
0
 62
     7
 10
81.201099999999997
 20
101.542
 30
0.0
 11
83.494100000000003
 21
97.000400000000013
 31
0.0
  0
LINE
  5
6A
  8
0
 62
     7
 10
79.084400000000002
 20
101.542
 30
0.0
 11
81.377499999999998
 21
97.000400000000013
 31
0.0
  0
LINE
  5
6B
  8
0
 62
     7
 10
76.967699999999994
 20
101.542
 30
0.0
 11
79.260800000000003
 21
97.000400000000013
 31
0.0
  0
LINE
  5
6C
  8
0
 62
     7
 10
74.850999999999999
 20
101.542
 30
0.0
 11
77.144099999999995
 21
97.000400000000013
 31
0.0
  0
LINE
  5
6D
  8
0
 62
     7
 10
72.734300000000005
 20
101.542
 30
0.0
 11
75.0274
 21
97.000400000000013
 31
0.0
  0
LINE
  5
6E
  8
0
 62
     7
 10
70.617699999999999
 20
101.542
 30
0.0
 11
72.910700000000006
 21
97.000400000000013
 31
0.0
  0
LINE
  5
6F
  8
0
 62
     7
 10
62.94019999999999
 20
99.278300000000002
 30
0.0
 11
62.94019999999999
 21
101.786
 31
0.0
  0
LINE
  5
70
  8
0
 62
     7
 10
60.512799999999999
 20
101.286
 30
0.0
 11
62.969900000000003
 21
101.286
 31
0.0
  0
LINE
  5
71
  8
0
 62
     7
 10
62.969900000000003
 20
101.286
 30
0.0
 11
63.4694
 21
101.43300000000001
 31
0.0
  0
LINE
  5
72
  8
0
 62
     7
 10
63.4694
 20
101.43300000000001
 30
0.0
 11
62.94019999999999
 21
101.786
 31
0.0
  0
LINE
  5
73
  8
0
 62
     7
 10
62.94019999999999
 20
101.786
 30
0.0
 11
60.512799999999999
 21
101.786
 31
0.0
  0
LINE
  5
74
  8
0
 62
     7
 10
63.4694
 20
101.43300000000001
 30
0.0
 11
69.907600000000002
 21
101.43300000000001
 31
0.0
  0
LINE
  5
75
  8
0
 62
     7
 10
69.907600000000002
 20
101.43300000000001
 30
0.0
 11
69.907600000000002
 21
99.278300000000002
 31
0.0
  0
LINE
  5
76
  8
0
 62
     7
 10
62.94019999999999
 20
99.278300000000002
 30
0.0
 11
62.94019999999999
 21
96.770899999999983
 31
0.0
  0
LINE
  5
77
  8
0
 62
     7
 10
60.512799999999999
 20
97.270499999999998
 30
0.0
 11
62.969900000000003
 21
97.270499999999998
 31
0.0
  0
LINE
  5
78
  8
0
 62
     7
 10
62.969900000000003
 20
97.270499999999998
 30
0.0
 11
63.4694
 21
97.123699999999985
 31
0.0
  0
LINE
  5
79
  8
0
 62
     7
 10
63.4694
 20
97.123699999999985
 30
0.0
 11
62.94019999999999
 21
96.770899999999983
 31
0.0
  0
LINE
  5
7A
  8
0
 62
     7
 10
62.94019999999999
 20
96.770899999999983
 30
0.0
 11
60.512799999999999
 21
96.770899999999983
 31
0.0
  0
LINE
  5
7B
  8
0
 62
     7
 10
63.4694
 20
97.123699999999985
 30
0.0
 11
69.907600000000002
 21
97.123699999999985
 31
0.0
  0
LINE
  5
7C
  8
0
 62
     7
 10
69.907600000000002
 20
97.123699999999985
 30
0.0
 11
69.907600000000002
 21
99.278300000000002
 31
0.0
  0
LINE
  5
7D
  8
0
 62
     7
 10
69.907600000000002
 20
97.549499999999995
 30
0.0
 11
102.756
 21
97.549499999999995
 31
0.0
  0
LINE
  5
7E
  8
0
 62
     7
 10
102.756
 20
101.00700000000001
 30
0.0
 11
69.907600000000002
 21
101.00700000000001
 31
0.0
  0
LINE
  5
7F
  8
0
 62
     7
 10
60.512799999999999
 20
91.778300000000002
 30
0.0
 11
59.831000000000003
 21
91.778300000000002
 31
0.0
  0
LINE
  5
80
  8
0
 62
     7
 10
59.831000000000003
 20
91.778300000000002
 30
0.0
 11
59.831000000000003
 21
106.77800000000001
 31
0.0
  0
LINE
  5
81
  8
0
 62
     7
 10
59.831000000000003
 20
106.77800000000001
 30
0.0
 11
60.512799999999999
 21
106.77800000000001
 31
0.0
  0
LINE
  5
82
  8
0
 62
     7
 10
60.512799999999999
 20
106.77800000000001
 30
0.0
 11
60.512799999999999
 21
91.778300000000002
 31
0.0
  0
LINE
  5
83
  8
0
 62
     7
 10
59.831000000000003
 20
90.528400000000005
 30
0.0
 11
59.242899999999999
 21
90.528400000000005
 31
0.0
  0
LINE
  5
84
  8
0
 62
     7
 10
59.242899999999999
 20
90.528400000000005
 30
0.0
 11
59.242899999999999
 21
108.02800000000001
 31
0.0
  0
LINE
  5
85
  8
0
 62
     7
 10
59.242899999999999
 20
108.02800000000001
 30
0.0
 11
59.831000000000003
 21
108.02800000000001
 31
0.0
  0
LINE
  5
86
  8
0
 62
     7
 10
59.831000000000003
 20
108.02800000000001
 30
0.0
 11
59.831000000000003
 21
90.528400000000005
 31
0.0
  0
ARC
  5
87
  8
0
 62
     7
 10
51.074036
 20
94.083331999999984
 30
0.0
 40
3.407163999999999
 50
22.233823000000001
 51
24.820550000000001
  0
ARC
  5
88
  8
0
 62
     7
 10
49.323401000000011
 20
93.322081999999995
 30
0.0
 40
5.3158240000000001
 50
24.346876999999999
 51
32.737828999999998
  0
ARC
  5
89
  8
0
 62
     7
 10
51.853907
 20
94.915199999999984
 30
0.0
 40
2.3259009999999991
 50
33.438167999999997
 51
42.14212899999999
  0
ARC
  5
8A
  8
0
 62
     7
 10
52.758673999999999
 20
95.718580000000003
 30
0.0
 40
1.116045999999999
 50
42.726405999999997
 51
52.778404000000009
  0
ARC
  5
8B
  8
0
 62
     7
 10
61.178655999999997
 20
107.10909700000001
 30
0.0
 40
13.048802
 50
232.250989
 51
233.59193300000001
  0
ARC
  5
8C
  8
0
 62
     7
 10
55.934105000000002
 20
100.283632
 30
0.0
 40
4.441285999999999
 50
219.67203699999999
 51
231.84190599999999
  0
ARC
  5
8D
  8
0
 62
     7
 10
54.925088000000002
 20
99.394936000000001
 30
0.0
 40
3.0975549999999989
 50
193.80139800000001
 51
218.934144
  0
ARC
  5
8E
  8
0
 62
     7
 10
54.699809999999999
 20
99.288892000000004
 30
0.0
 40
2.8539080000000001
 50
179.83244099999999
 51
192.812781
  0
LINE
  5
8F
  8
0
 62
     7
 10
54.896599999999999
 20
96.78370000000001
 30
0.0
 11
54.353299999999997
 21
99.297200000000004
 31
0.0
  0
LINE
  5
90
  8
0
 62
     7
 10
59.242899999999999
 20
94.534700000000015
 30
0.0
 11
55.063999999999993
 21
94.534700000000015
 31
0.0
  0
LINE
  5
91
  8
0
 62
     7
 10
55.063999999999993
 20
94.534700000000015
 30
0.0
 11
54.227899999999991
 21
95.592999999999975
 31
0.0
  0
LINE
  5
92
  8
0
 62
     7
 10
54.227899999999991
 20
95.592999999999975
 30
0.0
 11
54.896599999999999
 21
96.78370000000001
 31
0.0
  0
LINE
  5
93
  8
0
 62
     7
 10
54.896599999999999
 20
96.78370000000001
 30
0.0
 11
59.242899999999999
 21
96.78370000000001
 31
0.0
  0
ARC
  5
94
  8
0
 62
     7
 10
51.074036
 20
104.47290099999999
 30
0.0
 40
3.407163999999999
 50
335.17944999999997
 51
337.76617700000003
  0
ARC
  5
95
  8
0
 62
     7
 10
49.323401000000011
 20
105.234151
 30
0.0
 40
5.3158240000000001
 50
327.26217100000002
 51
335.65312299999999
  0
ARC
  5
96
  8
0
 62
     7
 10
51.853907
 20
103.64103299999999
 30
0.0
 40
2.3259009999999991
 50
317.85787099999999
 51
326.56183199999998
  0
ARC
  5
97
  8
0
 62
     7
 10
52.758673999999999
 20
102.837653
 30
0.0
 40
1.116045999999999
 50
307.22159599999998
 51
317.273594
  0
ARC
  5
98
  8
0
 62
     7
 10
61.178655999999997
 20
91.447136000000015
 30
0.0
 40
13.048802
 50
126.408067
 51
127.749011
  0
ARC
  5
99
  8
0
 62
     7
 10
55.934105000000002
 20
98.272600999999995
 30
0.0
 40
4.441285999999999
 50
128.15809400000001
 51
140.32796300000001
  0
ARC
  5
9A
  8
0
 62
     7
 10
54.925088000000002
 20
99.16129699999999
 30
0.0
 40
3.0975549999999989
 50
141.065856
 51
166.19860199999999
  0
ARC
  5
9B
  8
0
 62
     7
 10
54.699809999999999
 20
99.267341000000002
 30
0.0
 40
2.8539080000000001
 50
167.187219
 51
180.16755900000001
  0
LINE
  5
9C
  8
0
 62
     7
 10
54.896599999999999
 20
101.773
 30
0.0
 11
54.353299999999997
 21
99.259
 31
0.0
  0
LINE
  5
9D
  8
0
 62
     7
 10
59.242899999999999
 20
104.02200000000001
 30
0.0
 11
55.063999999999993
 21
104.02200000000001
 31
0.0
  0
LINE
  5
9E
  8
0
 62
     7
 10
55.063999999999993
 20
104.02200000000001
 30
0.0
 11
54.227899999999991
 21
102.96299999999999
 31
0.0
  0
LINE
  5
9F
  8
0
 62
     7
 10
54.227899999999991
 20
102.96299999999999
 30
0.0
 11
54.896599999999999
 21
101.773
 31
0.0
  0
LINE
  5
A0
  8
0
 62
     7
 10
54.896599999999999
 20
101.773
 30
0.0
 11
59.242899999999999
 21
101.773
 31
0.0
  0
ARC
  5
A1
  8
0
 62
     7
 10
106.609792
 20
255.81965099999999
 30
0.0
 40
0.439942
 50
272.07099499999998
 51
357.90571899999998
  0
ARC
  5
A2
  8
0
 62
     7
 10
106.642537
 20
255.82060000000001
 30
0.0
 40
0.4409250000000001
 50
182.212976
 51
267.81034899999997
  0
ARC
  5
A3
  8
0
 62
     7
 10
106.641589
 20
255.787497
 30
0.0
 40
0.439942
 50
92.07095799999999
 51
177.9057169999999
  0
ARC
  5
A4
  8
0
 62
     7
 10
106.608844
 20
255.78654800000001
 30
0.0
 40
0.4409250000000001
 50
2.2129560000000001
 51
87.81032900000001
  0
LINE
  5
A5
  8
0
 62
     7
 10
33.862699999999997
 20
247.43299999999999
 30
0.0
 11
34.307499999999997
 21
245.18700000000001
 31
0.0
  0
LINE
  5
A6
  8
0
 62
     7
 10
34.307499999999997
 20
245.18700000000001
 30
0.0
 11
32.799100000000003
 21
246.90899999999999
 31
0.0
  0
LINE
  5
A7
  8
0
 62
     7
 10
32.799100000000003
 20
246.90899999999999
 30
0.0
 11
33.862699999999997
 21
247.43299999999999
 31
0.0
  0
LINE
  5
A8
  8
0
 62
     7
 10
104.86799999999999
 20
243.41800000000001
 30
0.0
 11
118.506
 21
256.34500000000003
 31
0.0
  0
LINE
  5
A9
  8
0
 62
     7
 10
132.523
 20
256.34500000000003
 30
0.0
 11
118.506
 21
256.34500000000003
 31
0.0
  0
LINE
  5
AA
  8
0
 62
     7
 10
34.307499999999997
 20
245.18700000000001
 30
0.0
 11
29.011700000000001
 21
255.922
 31
0.0
  0
LINE
  5
AB
  8
0
 62
     7
 10
45.71909999999999
 20
255.922
 30
0.0
 11
29.011700000000001
 21
255.922
 31
0.0
  0
ARC
  5
AC
  8
0
 62
     7
 10
103.153099
 20
243.25861
 30
0.0
 40
2.5000360000000001
 50
89.998025999999996
 51
179.997996
  0
LINE
  5
AD
  8
0
 62
     7
 10
103.65300000000001
 20
245.75899999999999
 30
0.0
 11
103.15300000000001
 21
245.75899999999999
 31
0.0
  0
ARC
  5
AE
  8
0
 62
     7
 10
103.153184
 20
211.458541
 30
0.0
 40
2.500121
 50
179.99996999999999
 51
270.00002000000001
  0
LINE
  5
AF
  8
0
 62
     7
 10
103.65300000000001
 20
208.958
 30
0.0
 11
103.15300000000001
 21
208.958
 31
0.0
  0
LINE
  5
B0
  8
0
 62
     7
 10
100.65300000000001
 20
243.25899999999999
 30
0.0
 11
100.65300000000001
 21
211.459
 31
0.0
  0
ARC
  5
B1
  8
0
 62
     7
 10
104.15312900000001
 20
243.25852399999999
 30
0.0
 40
2.5001220000000002
 50
0.003958
 51
90.003928000000016
  0
LINE
  5
B2
  8
0
 62
     7
 10
103.65300000000001
 20
245.75899999999999
 30
0.0
 11
104.15300000000001
 21
245.75899999999999
 31
0.0
  0
ARC
  5
B3
  8
0
 62
     7
 10
104.153043
 20
211.458628
 30
0.0
 40
2.5002080000000002
 50
269.99804599999999
 51
359.99801600000001
  0
LINE
  5
B4
  8
0
 62
     7
 10
103.65300000000001
 20
208.958
 30
0.0
 11
104.15300000000001
 21
208.958
 31
0.0
  0
LINE
  5
B5
  8
0
 62
     7
 10
56.075499999999991
 20
233.935
 30
0.0
 11
68.686700000000002
 21
221.32400000000001
 31
0.0
  0
LINE
  5
B6
  8
0
 62
     7
 10
66.980000000000004
 20
222.19399999999999
 30
0.0
 11
65.834800000000001
 21
224.17699999999999
 31
0.0
  0
LINE
  5
B7
  8
0
 62
     7
 10
65.834800000000001
 20
224.17699999999999
 30
0.0
 11
67.818200000000004
 21
223.03200000000001
 31
0.0
  0
LINE
  5
B8
  8
0
 62
     7
 10
67.818200000000004
 20
223.03200000000001
 30
0.0
 11
66.980000000000004
 21
222.19399999999999
 31
0.0
  0
LINE
  5
B9
  8
0
 62
     7
 10
58.325499999999998
 20
232.524
 30
0.0
 11
59.470599999999997
 21
230.541
 31
0.0
  0
LINE
  5
BA
  8
0
 62
     7
 10
59.470599999999997
 20
230.541
 30
0.0
 11
57.487299999999998
 21
231.685
 31
0.0
  0
LINE
  5
BB
  8
0
 62
     7
 10
57.487299999999998
 20
231.685
 30
0.0
 11
58.325499999999998
 21
232.524
 31
0.0
  0
LINE
  5
BC
  8
0
 62
     7
 10
56.075499999999991
 20
233.935
 30
0.0
 11
49.353400000000001
 21
233.935
 31
0.0
  0
LINE
  5
BD
  8
0
 62
     7
 10
86.636899999999997
 20
243.374
 30
0.0
 11
97.980000000000004
 21
232.03100000000001
 31
0.0
  0
LINE
  5
BE
  8
0
 62
     7
 10
96.273300000000006
 20
232.90000000000001
 30
0.0
 11
95.128099999999989
 21
234.88300000000001
 31
0.0
  0
LINE
  5
BF
  8
0
 62
     7
 10
95.128099999999989
 20
234.88300000000001
 30
0.0
 11
97.111099999999993
 21
233.739
 31
0.0
  0
LINE
  5
C0
  8
0
 62
     7
 10
97.111099999999993
 20
233.739
 30
0.0
 11
96.273300000000006
 21
232.90000000000001
 31
0.0
  0
LINE
  5
C1
  8
0
 62
     7
 10
89.032999999999987
 20
241.816
 30
0.0
 11
90.178200000000004
 21
239.833
 31
0.0
  0
LINE
  5
C2
  8
0
 62
     7
 10
90.178200000000004
 20
239.833
 30
0.0
 11
88.1952
 21
240.97800000000001
 31
0.0
  0
LINE
  5
C3
  8
0
 62
     7
 10
88.1952
 20
240.97800000000001
 30
0.0
 11
89.032999999999987
 21
241.816
 31
0.0
  0
LINE
  5
C4
  8
0
 62
     7
 10
86.636899999999997
 20
243.374
 30
0.0
 11
79.9148
 21
243.374
 31
0.0
  0
LINE
  5
C5
  8
0
 62
     7
 10
120.871
 20
208.958
 30
0.0
 11
105.90300000000001
 21
208.958
 31
0.0
  0
LINE
  5
C6
  8
0
 62
     7
 10
120.871
 20
245.75899999999999
 30
0.0
 11
105.90300000000001
 21
245.75899999999999
 31
0.0
  0
LINE
  5
C7
  8
0
 62
     7
 10
120.735
 20
243.548
 30
0.0
 11
120.142
 21
245.75899999999999
 31
0.0
  0
LINE
  5
C8
  8
0
 62
     7
 10
120.142
 20
245.75899999999999
 30
0.0
 11
119.55
 21
243.548
 31
0.0
  0
LINE
  5
C9
  8
0
 62
     7
 10
119.55
 20
243.548
 30
0.0
 11
120.735
 21
243.548
 31
0.0
  0
LINE
  5
CA
  8
0
 62
     7
 10
119.563
 20
211.16900000000001
 30
0.0
 11
120.15600000000001
 21
208.958
 31
0.0
  0
LINE
  5
CB
  8
0
 62
     7
 10
120.15600000000001
 20
208.958
 30
0.0
 11
120.749
 21
211.16900000000001
 31
0.0
  0
LINE
  5
CC
  8
0
 62
     7
 10
120.749
 20
211.16900000000001
 30
0.0
 11
119.563
 21
211.16900000000001
 31
0.0
  0
LINE
  5
CD
  8
0
 62
     7
 10
120.149
 20
245.75800000000001
 30
0.0
 11
120.149
 21
208.959
 31
0.0
  0
LINE
  5
CE
  8
0
 62
     7
 10
132.459
 20
205.358
 30
0.0
 11
109.453
 21
205.358
 31
0.0
  0
LINE
  5
CF
  8
0
 62
     7
 10
132.459
 20
249.358
 30
0.0
 11
109.453
 21
249.358
 31
0.0
  0
LINE
  5
D0
  8
0
 62
     7
 10
126.959
 20
237.358
 30
0.0
 11
97.853200000000001
 21
237.358
 31
0.0
  0
LINE
  5
D1
  8
0
 62
     7
 10
132.32300000000001
 20
247.14699999999999
 30
0.0
 11
131.73099999999999
 21
249.358
 31
0.0
  0
LINE
  5
D2
  8
0
 62
     7
 10
131.73099999999999
 20
249.358
 30
0.0
 11
131.13800000000001
 21
247.14699999999999
 31
0.0
  0
LINE
  5
D3
  8
0
 62
     7
 10
131.13800000000001
 20
247.14699999999999
 30
0.0
 11
132.32300000000001
 21
247.14699999999999
 31
0.0
  0
LINE
  5
D4
  8
0
 62
     7
 10
131.15199999999999
 20
207.56800000000001
 30
0.0
 11
131.744
 21
205.358
 31
0.0
  0
LINE
  5
D5
  8
0
 62
     7
 10
131.744
 20
205.358
 30
0.0
 11
132.33699999999999
 21
207.56800000000001
 31
0.0
  0
LINE
  5
D6
  8
0
 62
     7
 10
132.33699999999999
 20
207.56800000000001
 30
0.0
 11
131.15199999999999
 21
207.56800000000001
 31
0.0
  0
LINE
  5
D7
  8
0
 62
     7
 10
131.73699999999999
 20
249.357
 30
0.0
 11
131.73699999999999
 21
205.35900000000001
 31
0.0
  0
LINE
  5
D8
  8
0
 62
     7
 10
126.82299999999999
 20
247.14699999999999
 30
0.0
 11
126.23099999999999
 21
249.358
 31
0.0
  0
LINE
  5
D9
  8
0
 62
     7
 10
126.23099999999999
 20
249.358
 30
0.0
 11
125.63800000000001
 21
247.14699999999999
 31
0.0
  0
LINE
  5
DA
  8
0
 62
     7
 10
125.63800000000001
 20
247.14699999999999
 30
0.0
 11
126.82299999999999
 21
247.14699999999999
 31
0.0
  0
LINE
  5
DB
  8
0
 62
     7
 10
125.652
 20
239.56899999999999
 30
0.0
 11
126.245
 21
237.358
 31
0.0
  0
LINE
  5
DC
  8
0
 62
     7
 10
126.245
 20
237.358
 30
0.0
 11
126.836
 21
239.56899999999999
 31
0.0
  0
LINE
  5
DD
  8
0
 62
     7
 10
126.836
 20
239.56899999999999
 30
0.0
 11
125.652
 21
239.56899999999999
 31
0.0
  0
LINE
  5
DE
  8
0
 62
     7
 10
126.23699999999999
 20
249.357
 30
0.0
 11
126.23699999999999
 21
237.35900000000001
 31
0.0
  0
LINE
  5
DF
  8
0
 62
     7
 10
62.652900000000002
 20
195.12
 30
0.0
 11
62.652900000000002
 21
201.19900000000001
 31
0.0
  0
LINE
  5
E0
  8
0
 62
     7
 10
108.44199999999999
 20
195.19999999999999
 30
0.0
 11
110.65300000000001
 21
195.792
 31
0.0
  0
LINE
  5
E1
  8
0
 62
     7
 10
110.65300000000001
 20
195.792
 30
0.0
 11
108.44199999999999
 21
196.38399999999999
 31
0.0
  0
LINE
  5
E2
  8
0
 62
     7
 10
108.44199999999999
 20
196.38399999999999
 30
0.0
 11
108.44199999999999
 21
195.19999999999999
 31
0.0
  0
LINE
  5
E3
  8
0
 62
     7
 10
64.863299999999995
 20
196.37
 30
0.0
 11
62.652900000000002
 21
195.77799999999991
 31
0.0
  0
LINE
  5
E4
  8
0
 62
     7
 10
62.652900000000002
 20
195.77799999999991
 30
0.0
 11
64.863299999999995
 21
195.18600000000001
 31
0.0
  0
LINE
  5
E5
  8
0
 62
     7
 10
64.863299999999995
 20
195.18600000000001
 30
0.0
 11
64.863299999999995
 21
196.37
 31
0.0
  0
LINE
  5
E6
  8
0
 62
     7
 10
110.652
 20
195.785
 30
0.0
 11
62.653599999999997
 21
195.785
 31
0.0
  0
LINE
  5
E7
  8
0
 62
     7
 10
110.65300000000001
 20
187.44999999999999
 30
0.0
 11
110.65300000000001
 21
206.55799999999999
 31
0.0
  0
LINE
  5
E8
  8
0
 62
     7
 10
30.652799999999999
 20
187.44999999999999
 30
0.0
 11
30.652799999999999
 21
206.55799999999999
 31
0.0
  0
LINE
  5
E9
  8
0
 62
     7
 10
108.44199999999999
 20
187.53
 30
0.0
 11
110.65300000000001
 21
188.12299999999999
 31
0.0
  0
LINE
  5
EA
  8
0
 62
     7
 10
110.65300000000001
 20
188.12299999999999
 30
0.0
 11
108.44199999999999
 21
188.715
 31
0.0
  0
LINE
  5
EB
  8
0
 62
     7
 10
108.44199999999999
 20
188.715
 30
0.0
 11
108.44199999999999
 21
187.53
 31
0.0
  0
LINE
  5
EC
  8
0
 62
     7
 10
32.863500000000002
 20
188.70099999999999
 30
0.0
 11
30.652799999999999
 21
188.10900000000001
 31
0.0
  0
LINE
  5
ED
  8
0
 62
     7
 10
30.652799999999999
 20
188.10900000000001
 30
0.0
 11
32.863500000000002
 21
187.517
 31
0.0
  0
LINE
  5
EE
  8
0
 62
     7
 10
32.863500000000002
 20
187.517
 30
0.0
 11
32.863500000000002
 21
188.70099999999999
 31
0.0
  0
LINE
  5
EF
  8
0
 62
     7
 10
110.652
 20
188.11600000000001
 30
0.0
 11
30.6538
 21
188.11600000000001
 31
0.0
  0
LINE
  5
F0
  8
0
  6
AIGENLINE002
 62
     7
 10
77.653099999999995
 20
246.858
 30
0.0
 11
77.653099999999995
 21
251.858
 31
0.0
  0
LINE
  5
F1
  8
0
  6
AIGENLINE002
 62
     7
 10
47.052700000000002
 20
246.858
 30
0.0
 11
47.052700000000002
 21
251.858
 31
0.0
  0
ARC
  5
F2
  8
0
 62
     7
 10
75.842343
 20
227.36963399999999
 30
0.0
 40
13.81081
 50
335.7979279999999
 51
359.95144499999998
  0
ARC
  5
F3
  8
0
 62
     7
 10
73.852795999999998
 20
228.16379900000001
 30
0.0
 40
15.951320000000001
 50
323.64475800000002
 51
336.12574499999999
  0
ARC
  5
F4
  8
0
 62
     7
 10
71.336019999999991
 20
229.90253300000001
 30
0.0
 40
19.009148
 50
312.954161
 51
323.92090400000001
  0
ARC
  5
F5
  8
0
 62
     7
 10
68.490393999999995
 20
232.79647299999999
 30
0.0
 40
23.066533
 50
302.27392700000001
 51
313.229242
  0
ARC
  5
F6
  8
0
 62
     7
 10
65.709885
 20
236.91969499999999
 30
0.0
 40
28.037837
 50
291.73422999999991
 51
302.578958
  0
ARC
  5
F7
  8
0
 62
     7
 10
63.627634999999991
 20
241.71226799999999
 30
0.0
 40
33.261156
 50
279.99503600000003
 51
292.00903699999998
  0
ARC
  5
F8
  8
0
 62
     7
 10
62.729959999999998
 20
245.846442
 30
0.0
 40
37.488757
 50
269.88197600000001
 51
280.24952500000001
  0
ARC
  5
F9
  8
0
 62
     7
 10
62.652606000000013
 20
246.309788
 30
0.0
 40
37.952024000000002
 50
255.841318
 51
270.00019800000001
  0
ARC
  5
FA
  8
0
 62
     7
 10
61.577181999999993
 20
241.390906
 30
0.0
 40
32.919902
 50
243.76101199999999
 51
255.56206800000001
  0
ARC
  5
FB
  8
0
 62
     7
 10
59.214108999999993
 20
236.239307
 30
0.0
 40
27.254840000000002
 50
232.61756
 51
243.42879500000001
  0
ARC
  5
FC
  8
0
 62
     7
 10
56.184782999999989
 20
232.05438699999999
 30
0.0
 40
22.090702
 50
221.19274200000001
 51
232.27079000000001
  0
ARC
  5
FD
  8
0
 62
     7
 10
53.206947
 20
229.29553899999999
 30
0.0
 40
18.033290000000001
 50
209.58965799999999
 51
220.82785699999999
  0
ARC
  5
FE
  8
0
 62
     7
 10
50.779609000000001
 20
227.82219499999999
 30
0.0
 40
15.195225000000001
 50
194.58987300000001
 51
209.27814699999999
  0
ARC
  5
FF
  8
0
 62
     7
 10
49.374901000000001
 20
227.370352
 30
0.0
 40
13.722249
 50
180.05188699999999
 51
194.24152000000001
  0
ARC
  5
100
  8
0
 62
     7
 10
49.465094999999998
 20
227.345911
 30
0.0
 40
13.812443
 50
155.799521
 51
179.95012500000001
  0
ARC
  5
101
  8
0
 62
     7
 10
51.453710000000001
 20
226.551738
 30
0.0
 40
15.952106000000001
 50
143.645374
 51
156.12570500000001
  0
ARC
  5
102
  8
0
 62
     7
 10
53.968077000000001
 20
224.81496200000001
 30
0.0
 40
19.006836
 50
132.95388500000001
 51
143.92190199999999
  0
ARC
  5
103
  8
0
 62
     7
 10
56.814227999999993
 20
221.92104599999999
 30
0.0
 40
23.064561999999999
 50
122.273872
 51
133.23003
  0
ARC
  5
104
  8
0
 62
     7
 10
59.595128000000003
 20
217.79775599999999
 30
0.0
 40
28.036133
 50
111.734258
 51
122.579528
  0
ARC
  5
105
  8
0
 62
     7
 10
61.678235000000001
 20
213.00297399999999
 30
0.0
 40
33.261822000000002
 50
99.995386999999994
 51
112.009012
  0
ARC
  5
106
  8
0
 62
     7
 10
62.575472999999988
 20
208.87063000000001
 30
0.0
 40
37.487546000000002
 50
89.881909999999976
 51
100.24967100000001
  0
ARC
  5
107
  8
0
 62
     7
 10
62.652856000000007
 20
208.40517299999999
 30
0.0
 40
37.952922999999998
 50
75.841467000000009
 51
90.000180999999998
  0
ARC
  5
108
  8
0
 62
     7
 10
63.727943000000003
 20
213.32324299999999
 30
0.0
 40
32.921669999999999
 50
63.761481000000011
 51
75.562033999999997
  0
ARC
  5
109
  8
0
 62
     7
 10
66.091926999999998
 20
218.47680299999999
 30
0.0
 40
27.254446000000002
 50
52.617758000000002
 51
63.429257
  0
ARC
  5
10A
  8
0
 62
     7
 10
69.119928999999999
 20
222.66019600000001
 30
0.0
 40
22.092324999999999
 50
41.19344199999999
 51
52.270744999999991
  0
ARC
  5
10B
  8
0
 62
     7
 10
72.097605000000001
 20
225.419299
 30
0.0
 40
18.034866000000001
 50
29.590529
 51
40.827801999999998
  0
ARC
  5
10C
  8
0
 62
     7
 10
74.523481000000004
 20
226.89251400000001
 30
0.0
 40
15.198138
 50
14.591478
 51
29.276944
  0
ARC
  5
10D
  8
0
 62
     7
 10
75.930715000000006
 20
227.345463
 30
0.0
 40
13.722438
 50
0.052055
 51
14.241493999999999
  0
ARC
  5
10E
  8
0
 62
     7
 10
92.653154999999984
 20
237.35807299999999
 30
0.0
 40
3.4998949999999991
 50
270.00002000000001
 51
359.99999000000003
  0
ARC
  5
10F
  8
0
 62
     7
 10
92.652982999999992
 20
237.35824400000001
 30
0.0
 40
3.5000659999999999
 50
180.00282999999999
 51
270.00283999999999
  0
ARC
  5
110
  8
0
 62
     7
 10
92.652984000000004
 20
237.357899
 30
0.0
 40
3.500067
 50
89.997179999999986
 51
179.99715
  0
ARC
  5
111
  8
0
 62
     7
 10
92.653154999999984
 20
237.358071
 30
0.0
 40
3.4998949999999991
 50
0.00001
 51
89.999980000000008
  0
LINE
  5
112
  8
0
 62
     7
 10
106.65300000000001
 20
243.25899999999999
 30
0.0
 11
106.65300000000001
 21
211.459
 31
0.0
  0
ARC
  5
113
  8
0
 62
     7
 10
62.653073999999997
 20
227.35879199999999
 30
0.0
 40
6.499731999999999
 50
269.99850099999998
 51
359.99847199999999
  0
ARC
  5
114
  8
0
 62
     7
 10
62.652643000000012
 20
227.35887600000001
 30
0.0
 40
6.499814999999999
 50
180.00228799999999
 51
270.002297
  0
ARC
  5
115
  8
0
 62
     7
 10
62.652990000000003
 20
227.35870399999999
 30
0.0
 40
6.5001620000000004
 50
90.000758999999974
 51
180.00076899999999
  0
ARC
  5
116
  8
0
 62
     7
 10
62.652729000000001
 20
227.35879
 30
0.0
 40
6.5000759999999991
 50
359.998492
 51
89.998462000000004
  0
ARC
  5
117
  8
0
 62
     7
 10
62.652901999999997
 20
227.35862
 30
0.0
 40
4.500013
 50
270.00002000000001
 51
359.99999000000003
  0
ARC
  5
118
  8
0
 62
     7
 10
62.652816000000001
 20
227.35870399999999
 30
0.0
 40
4.5000980000000004
 50
180.00110699999999
 51
270.00111600000002
  0
ARC
  5
119
  8
0
 62
     7
 10
62.652988999999998
 20
227.35870399999999
 30
0.0
 40
4.5002709999999988
 50
90.001097000000016
 51
180.00110599999999
  0
ARC
  5
11A
  8
0
 62
     7
 10
62.652729999999998
 20
227.358791
 30
0.0
 40
4.5001850000000001
 50
359.997817
 51
89.997787000000002
  0
ARC
  5
11B
  8
0
 62
     7
 10
106.653251
 20
209.35788199999999
 30
0.0
 40
3.9997820000000002
 50
270.00002000000001
 51
359.99999000000003
  0
ARC
  5
11C
  8
0
 62
     7
 10
106.653164
 20
245.35823600000001
 30
0.0
 40
3.9998680000000002
 50
359.99877600000002
 51
89.998745999999997
  0
ARC
  5
11D
  8
0
 62
     7
 10
34.652625
 20
209.357967
 30
0.0
 40
3.9998669999999992
 50
180.00124400000001
 51
270.00125400000002
  0
ARC
  5
11E
  8
0
 62
     7
 10
34.652712999999999
 20
245.35814999999999
 30
0.0
 40
3.9999539999999998
 50
90.0
 51
179.99996999999999
  0
LINE
  5
11F
  8
0
  6
AIGENLINE002
 62
     7
 10
113.486
 20
227.358
 30
0.0
 11
27.235900000000001
 21
227.35900000000001
 31
0.0
  0
LINE
  5
120
  8
0
  6
AIGENLINE002
 62
     7
 10
62.652900000000002
 20
201.90000000000001
 30
0.0
 11
62.652900000000002
 21
252.31800000000001
 31
0.0
  0
LINE
  5
121
  8
0
 62
     7
 10
110.65300000000001
 20
209.358
 30
0.0
 11
110.65300000000001
 21
245.358
 31
0.0
  0
LINE
  5
122
  8
0
 62
     7
 10
30.652799999999999
 20
209.358
 30
0.0
 11
30.652799999999999
 21
245.358
 31
0.0
  0
LINE
  5
123
  8
0
 62
     7
 10
34.652700000000003
 20
205.358
 30
0.0
 11
106.65300000000001
 21
205.358
 31
0.0
  0
LINE
  5
124
  8
0
  6
AIGENLINE002
 62
     7
 10
92.653199999999998
 20
232.858
 30
0.0
 11
92.653199999999998
 21
241.858
 31
0.0
  0
LINE
  5
125
  8
0
  6
AIGENLINE002
 62
     7
 10
88.153099999999995
 20
237.358
 30
0.0
 11
97.153199999999998
 21
237.358
 31
0.0
  0
LINE
  5
126
  8
0
 62
     7
 10
34.652700000000003
 20
249.358
 30
0.0
 11
106.65300000000001
 21
249.358
 31
0.0
  0
LINE
  5
127
  8
0
 62
     7
 10
110.65300000000001
 20
248.15799999999999
 30
0.0
 11
110.65300000000001
 21
264.40199999999999
 31
0.0
  0
LINE
  5
128
  8
0
 62
     7
 10
100.626
 20
245.17500000000001
 30
0.0
 11
100.626
 21
256.49700000000001
 31
0.0
  0
LINE
  5
129
  8
0
 62
     7
 10
106.626
 20
245.17500000000001
 30
0.0
 11
106.626
 21
256.49700000000001
 31
0.0
  0
LINE
  5
12A
  8
0
 62
     7
 10
98.414400000000001
 20
255.21100000000001
 30
0.0
 11
100.626
 21
255.804
 31
0.0
  0
LINE
  5
12B
  8
0
 62
     7
 10
100.626
 20
255.804
 30
0.0
 11
98.414400000000001
 21
256.39600000000002
 31
0.0
  0
LINE
  5
12C
  8
0
 62
     7
 10
98.414400000000001
 20
256.39600000000002
 30
0.0
 11
98.414400000000001
 21
255.21100000000001
 31
0.0
  0
LINE
  5
12D
  8
0
 62
     7
 10
112.863
 20
256.39600000000002
 30
0.0
 11
110.65300000000001
 21
255.804
 31
0.0
  0
LINE
  5
12E
  8
0
 62
     7
 10
110.65300000000001
 20
255.804
 30
0.0
 11
112.863
 21
255.21100000000001
 31
0.0
  0
LINE
  5
12F
  8
0
 62
     7
 10
112.863
 20
255.21100000000001
 30
0.0
 11
112.863
 21
256.39600000000002
 31
0.0
  0
LINE
  5
130
  8
0
 62
     7
 10
114.113
 20
255.804
 30
0.0
 11
97.139200000000017
 21
255.804
 31
0.0
  0
LINE
  5
131
  8
0
 62
     7
 10
92.653199999999998
 20
242.55799999999999
 30
0.0
 11
92.653199999999998
 21
264.40199999999999
 31
0.0
  0
LINE
  5
132
  8
0
 62
     7
 10
108.44199999999999
 20
263.12299999999999
 30
0.0
 11
110.65300000000001
 21
263.71499999999997
 31
0.0
  0
LINE
  5
133
  8
0
 62
     7
 10
110.65300000000001
 20
263.71499999999997
 30
0.0
 11
108.44199999999999
 21
264.30799999999999
 31
0.0
  0
LINE
  5
134
  8
0
 62
     7
 10
108.44199999999999
 20
264.30799999999999
 30
0.0
 11
108.44199999999999
 21
263.12299999999999
 31
0.0
  0
LINE
  5
135
  8
0
 62
     7
 10
94.863499999999988
 20
264.29399999999998
 30
0.0
 11
92.653199999999998
 21
263.702
 31
0.0
  0
LINE
  5
136
  8
0
 62
     7
 10
92.653199999999998
 20
263.702
 30
0.0
 11
94.863499999999988
 21
263.10899999999998
 31
0.0
  0
LINE
  5
137
  8
0
 62
     7
 10
94.863499999999988
 20
263.10899999999998
 30
0.0
 11
94.863499999999988
 21
264.29399999999998
 31
0.0
  0
LINE
  5
138
  8
0
 62
     7
 10
110.652
 20
263.709
 30
0.0
 11
92.653800000000004
 21
263.709
 31
0.0
  0
LINE
  5
139
  8
0
 62
     7
 10
181.50800000000001
 20
155.68799999999999
 30
0.0
 11
181.50800000000001
 21
165.19399999999999
 31
0.0
  0
LINE
  5
13A
  8
0
 62
     7
 10
159.50800000000001
 20
158.18700000000001
 30
0.0
 11
159.50800000000001
 21
165.19399999999999
 31
0.0
  0
LINE
  5
13B
  8
0
 62
     7
 10
179.297
 20
163.90199999999999
 30
0.0
 11
181.50800000000001
 21
164.494
 31
0.0
  0
LINE
  5
13C
  8
0
 62
     7
 10
181.50800000000001
 20
164.494
 30
0.0
 11
179.297
 21
165.0859999999999
 31
0.0
  0
LINE
  5
13D
  8
0
 62
     7
 10
179.297
 20
165.0859999999999
 30
0.0
 11
179.297
 21
163.90199999999999
 31
0.0
  0
LINE
  5
13E
  8
0
 62
     7
 10
161.71899999999999
 20
165.0859999999999
 30
0.0
 11
159.50800000000001
 21
164.494
 31
0.0
  0
LINE
  5
13F
  8
0
 62
     7
 10
159.50800000000001
 20
164.494
 30
0.0
 11
161.71899999999999
 21
163.90199999999999
 31
0.0
  0
LINE
  5
140
  8
0
 62
     7
 10
161.71899999999999
 20
163.90199999999999
 30
0.0
 11
161.71899999999999
 21
165.0859999999999
 31
0.0
  0
LINE
  5
141
  8
0
 62
     7
 10
181.50700000000001
 20
164.48699999999999
 30
0.0
 11
159.50899999999999
 21
164.48699999999999
 31
0.0
  0
LINE
  5
142
  8
0
 62
     7
 10
123.875
 20
139.48699999999999
 30
0.0
 11
70.352900000000005
 21
139.48699999999999
 31
0.0
  0
LINE
  5
143
  8
0
 62
     7
 10
129.375
 20
137.48699999999999
 30
0.0
 11
111.053
 21
137.48699999999999
 31
0.0
  0
LINE
  5
144
  8
0
 62
     7
 10
129.375
 20
155.48699999999999
 30
0.0
 11
111.053
 21
155.48699999999999
 31
0.0
  0
LINE
  5
145
  8
0
 62
     7
 10
118.375
 20
146.48699999999999
 30
0.0
 11
82.212900000000005
 21
146.48699999999999
 31
0.0
  0
LINE
  5
146
  8
0
 62
     7
 10
129.239
 20
153.27600000000001
 30
0.0
 11
128.64699999999999
 21
155.48699999999999
 31
0.0
  0
LINE
  5
147
  8
0
 62
     7
 10
128.64699999999999
 20
155.48699999999999
 30
0.0
 11
128.054
 21
153.27600000000001
 31
0.0
  0
LINE
  5
148
  8
0
 62
     7
 10
128.054
 20
153.27600000000001
 30
0.0
 11
129.239
 21
153.27600000000001
 31
0.0
  0
LINE
  5
149
  8
0
 62
     7
 10
128.06800000000001
 20
139.697
 30
0.0
 11
128.661
 21
137.48699999999999
 31
0.0
  0
LINE
  5
14A
  8
0
 62
     7
 10
128.661
 20
137.48699999999999
 30
0.0
 11
129.25299999999999
 21
139.697
 31
0.0
  0
LINE
  5
14B
  8
0
 62
     7
 10
129.25299999999999
 20
139.697
 30
0.0
 11
128.06800000000001
 21
139.697
 31
0.0
  0
LINE
  5
14C
  8
0
 62
     7
 10
128.65299999999999
 20
155.48599999999999
 30
0.0
 11
128.65299999999999
 21
137.488
 31
0.0
  0
LINE
  5
14D
  8
0
 62
     7
 10
123.739
 20
153.27600000000001
 30
0.0
 11
123.14700000000001
 21
155.48699999999999
 31
0.0
  0
LINE
  5
14E
  8
0
 62
     7
 10
123.14700000000001
 20
155.48699999999999
 30
0.0
 11
122.554
 21
153.27600000000001
 31
0.0
  0
LINE
  5
14F
  8
0
 62
     7
 10
122.554
 20
153.27600000000001
 30
0.0
 11
123.739
 21
153.27600000000001
 31
0.0
  0
LINE
  5
150
  8
0
 62
     7
 10
122.568
 20
141.69800000000001
 30
0.0
 11
123.161
 21
139.48699999999999
 31
0.0
  0
LINE
  5
151
  8
0
 62
     7
 10
123.161
 20
139.48699999999999
 30
0.0
 11
123.753
 21
141.69800000000001
 31
0.0
  0
LINE
  5
152
  8
0
 62
     7
 10
123.753
 20
141.69800000000001
 30
0.0
 11
122.568
 21
141.69800000000001
 31
0.0
  0
LINE
  5
153
  8
0
 62
     7
 10
123.15300000000001
 20
155.48599999999999
 30
0.0
 11
123.15300000000001
 21
139.488
 31
0.0
  0
LINE
  5
154
  8
0
 62
     7
 10
118.239
 20
153.27600000000001
 30
0.0
 11
117.64700000000001
 21
155.48699999999999
 31
0.0
  0
LINE
  5
155
  8
0
 62
     7
 10
117.64700000000001
 20
155.48699999999999
 30
0.0
 11
117.054
 21
153.27600000000001
 31
0.0
  0
LINE
  5
156
  8
0
 62
     7
 10
117.054
 20
153.27600000000001
 30
0.0
 11
118.239
 21
153.27600000000001
 31
0.0
  0
LINE
  5
157
  8
0
 62
     7
 10
117.068
 20
148.69799999999989
 30
0.0
 11
117.66
 21
146.48699999999999
 31
0.0
  0
LINE
  5
158
  8
0
 62
     7
 10
117.66
 20
146.48699999999999
 30
0.0
 11
118.253
 21
148.69799999999989
 31
0.0
  0
LINE
  5
159
  8
0
 62
     7
 10
118.253
 20
148.69799999999989
 30
0.0
 11
117.068
 21
148.69799999999989
 31
0.0
  0
LINE
  5
15A
  8
0
 62
     7
 10
117.65300000000001
 20
155.48599999999999
 30
0.0
 11
117.65300000000001
 21
146.488
 31
0.0
  0
ARC
  5
15B
  8
0
  6
AIGENLINE001
 62
     7
 10
167.019092
 20
141.113223
 30
0.0
 40
1.0113000000000001
 50
137.940775
 51
179.79585
  0
ARC
  5
15C
  8
0
  6
AIGENLINE001
 62
     7
 10
23.117771999999999
 20
271.16155099999997
 30
0.0
 40
192.94786500000001
 50
317.894612
 51
318.96477199999998
  0
ARC
  5
15D
  8
0
  6
AIGENLINE001
 62
     7
 10
15.337389
 20
278.03382800000003
 30
0.0
 40
201.32872599999999
 50
318.44582000000003
 51
321.78446700000001
  0
ARC
  5
15E
  8
0
  6
AIGENLINE001
 62
     7
 10
178.50618499999999
 20
147.34830700000001
 30
0.0
 40
8.1387929999999997
 50
89.989200999999994
 51
104.563272
  0
ARC
  5
15F
  8
0
  6
AIGENLINE001
 62
     7
 10
178.198038
 20
148.7721699999999
 30
0.0
 40
6.6834619999999987
 50
105.075785
 51
125.56322
  0
ARC
  5
160
  8
0
  6
AIGENLINE001
 62
     7
 10
177.41810799999999
 20
149.95837
 30
0.0
 40
5.2652019999999986
 50
126.16654699999999
 51
134.93006600000001
  0
ARC
  5
161
  8
0
  6
AIGENLINE001
 62
     7
 10
175.75336899999999
 20
151.64380700000001
 30
0.0
 40
2.8962779999999988
 50
135.16241199999999
 51
140.47951599999999
  0
ARC
  5
162
  8
0
 62
     7
 10
180.469312
 20
154.44867199999999
 30
0.0
 40
1.0391330000000001
 50
2.1318060000000001
 51
87.887923999999998
  0
LINE
  5
163
  8
0
  6
AIGENLINE002
 62
     7
 10
183.5079999999999
 20
146.48699999999999
 30
0.0
 11
179.50800000000001
 21
146.48699999999999
 31
0.0
  0
LINE
  5
164
  8
0
  6
AIGENLINE002
 62
     7
 10
169.50800000000001
 20
153.48699999999999
 30
0.0
 11
169.50800000000001
 21
157.48699999999999
 31
0.0
  0
LINE
  5
165
  8
0
  6
AIGENLINE001
 62
     7
 10
159.50800000000001
 20
139.48699999999999
 30
0.0
 11
166.50800000000001
 21
139.48699999999999
 31
0.0
  0
LINE
  5
166
  8
0
  6
AIGENLINE001
 62
     7
 10
159.50800000000001
 20
141.48699999999999
 30
0.0
 11
164.00800000000001
 21
141.48699999999999
 31
0.0
  0
LINE
  5
167
  8
0
  6
AIGENLINE001
 62
     7
 10
159.50800000000001
 20
144.488
 30
0.0
 11
166.0079999999999
 21
144.488
 31
0.0
  0
LINE
  5
168
  8
0
  6
AIGENLINE001
 62
     7
 10
164.00800000000001
 20
141.48699999999999
 30
0.0
 11
166.0079999999999
 21
144.488
 31
0.0
  0
LINE
  5
169
  8
0
  6
AIGENLINE001
 62
     7
 10
166.0079999999999
 20
139.48699999999999
 30
0.0
 11
166.0079999999999
 21
141.11699999999999
 31
0.0
  0
LINE
  5
16A
  8
0
  6
AIGENLINE001
 62
     7
 10
164.00800000000001
 20
139.48699999999999
 30
0.0
 11
164.00800000000001
 21
141.48699999999999
 31
0.0
  0
LINE
  5
16B
  8
0
 62
     7
 10
181.50800000000001
 20
137.48699999999999
 30
0.0
 11
181.50800000000001
 21
154.48699999999999
 31
0.0
  0
LINE
  5
16C
  8
0
 62
     7
 10
180.50800000000001
 20
155.48699999999999
 30
0.0
 11
159.50800000000001
 21
155.48699999999999
 31
0.0
  0
LINE
  5
16D
  8
0
 62
     7
 10
181.50800000000001
 20
137.48699999999999
 30
0.0
 11
159.50800000000001
 21
137.48699999999999
 31
0.0
  0
ARC
  5
16E
  8
0
  6
AIGENLINE001
 62
     7
 10
151.996354
 20
141.113223
 30
0.0
 40
1.011301
 50
0.20415
 51
42.05918599999999
  0
ARC
  5
16F
  8
0
  6
AIGENLINE001
 62
     7
 10
305.15587399999998
 20
279.38550600000002
 30
0.0
 40
205.33080100000001
 50
221.06949399999999
 51
222.075793
  0
ARC
  5
170
  8
0
  6
AIGENLINE001
 62
     7
 10
303.67805800000002
 20
278.03382800000003
 30
0.0
 40
201.32872599999999
 50
218.215553
 51
221.55420000000001
  0
ARC
  5
171
  8
0
  6
AIGENLINE001
 62
     7
 10
140.509264
 20
147.34874300000001
 30
0.0
 40
8.1383559999999981
 50
75.436316000000005
 51
90.010793000000007
  0
ARC
  5
172
  8
0
  6
AIGENLINE001
 62
     7
 10
140.81750600000001
 20
148.77310600000001
 30
0.0
 40
6.6825190000000001
 50
54.434269999999991
 51
74.923356000000013
  0
ARC
  5
173
  8
0
  6
AIGENLINE001
 62
     7
 10
141.596564
 20
149.958404
 30
0.0
 40
5.2655050000000001
 50
45.066082000000009
 51
53.828293000000002
  0
ARC
  5
174
  8
0
  6
AIGENLINE001
 62
     7
 10
143.263248
 20
151.645512
 30
0.0
 40
2.8940250000000001
 50
39.513503
 51
44.834321000000003
  0
ARC
  5
175
  8
0
 62
     7
 10
138.54612399999999
 20
154.44869700000001
 30
0.0
 40
1.0391209999999991
 50
92.130477999999997
 51
177.86949300000001
  0
LINE
  5
176
  8
0
  6
AIGENLINE002
 62
     7
 10
159.50800000000001
 20
135.48699999999999
 30
0.0
 11
159.50800000000001
 21
157.48699999999999
 31
0.0
  0
LINE
  5
177
  8
0
  6
AIGENLINE001
 62
     7
 10
159.50800000000001
 20
139.48699999999999
 30
0.0
 11
152.5079999999999
 21
139.48699999999999
 31
0.0
  0
LINE
  5
178
  8
0
  6
AIGENLINE001
 62
     7
 10
159.50800000000001
 20
141.48699999999999
 30
0.0
 11
155.00800000000001
 21
141.48699999999999
 31
0.0
  0
LINE
  5
179
  8
0
  6
AIGENLINE001
 62
     7
 10
159.50800000000001
 20
144.488
 30
0.0
 11
153.00800000000001
 21
144.488
 31
0.0
  0
LINE
  5
17A
  8
0
  6
AIGENLINE001
 62
     7
 10
155.00800000000001
 20
141.48699999999999
 30
0.0
 11
153.00800000000001
 21
144.488
 31
0.0
  0
LINE
  5
17B
  8
0
  6
AIGENLINE001
 62
     7
 10
153.00800000000001
 20
139.48699999999999
 30
0.0
 11
153.00800000000001
 21
141.11699999999999
 31
0.0
  0
LINE
  5
17C
  8
0
  6
AIGENLINE001
 62
     7
 10
155.00800000000001
 20
139.48699999999999
 30
0.0
 11
155.00800000000001
 21
141.48699999999999
 31
0.0
  0
LINE
  5
17D
  8
0
 62
     7
 10
137.50800000000001
 20
137.48699999999999
 30
0.0
 11
137.50800000000001
 21
154.48699999999999
 31
0.0
  0
LINE
  5
17E
  8
0
 62
     7
 10
138.50700000000001
 20
155.48699999999999
 30
0.0
 11
159.50800000000001
 21
155.48699999999999
 31
0.0
  0
LINE
  5
17F
  8
0
 62
     7
 10
137.50700000000001
 20
137.48699999999999
 30
0.0
 11
159.50800000000001
 21
137.48699999999999
 31
0.0
  0
ARC
  5
180
  8
0
  6
AIGENLINE001
 62
     7
 10
35.648878000000011
 20
147.398143
 30
0.0
 40
8.0889579999999999
 50
79.178150000000002
 51
89.973219000000014
  0
ARC
  5
181
  8
0
  6
AIGENLINE001
 62
     7
 10
35.234439000000002
 20
144.897412
 30
0.0
 40
10.623211
 50
68.922972000000001
 51
79.515018000000012
  0
ARC
  5
182
  8
0
  6
AIGENLINE001
 62
     7
 10
34.376449999999998
 20
142.41252900000001
 30
0.0
 40
13.250729
 50
56.694307999999999
 51
69.325243
  0
ARC
  5
183
  8
0
  6
AIGENLINE001
 62
     7
 10
40.396200999999991
 20
150.69502800000001
 30
0.0
 40
1.0310109999999999
 50
91.424345000000002
 51
168.673721
  0
ARC
  5
184
  8
0
  6
AIGENLINE001
 62
     7
 10
40.368625999999999
 20
150.71571800000001
 30
0.0
 40
1.0100049999999989
 50
56.252626999999997
 51
89.889521999999985
  0
ARC
  5
185
  8
0
  6
AIGENLINE001
 62
     7
 10
69.664105000000006
 20
141.824164
 30
0.0
 40
0.5113410000000001
 50
119.73307800000001
 51
179.272729
  0
LINE
  5
186
  8
0
  6
AIGENLINE001
 62
     7
 10
69.152799999999999
 20
139.48699999999999
 30
0.0
 11
69.152799999999999
 21
141.83099999999999
 31
0.0
  0
ARC
  5
187
  8
0
  6
AIGENLINE001
 62
     7
 10
55.641528000000001
 20
141.824164
 30
0.0
 40
0.5113410000000001
 50
0.727251
 51
60.266902000000002
  0
ARC
  5
188
  8
0
  6
AIGENLINE001
 62
     7
 10
84.811752999999996
 20
148.24451199999999
 30
0.0
 40
3.6105839999999989
 50
124.281121
 51
126.719054
  0
ARC
  5
189
  8
0
  6
AIGENLINE001
 62
     7
 10
88.744845999999995
 20
142.593221
 30
0.0
 40
10.495697
 50
120.74238800000001
 51
124.645444
  0
ARC
  5
18A
  8
0
  6
AIGENLINE001
 62
     7
 10
90.579234999999997
 20
139.5943429999999
 30
0.0
 40
14.010925
 50
105.115156
 51
120.920877
  0
ARC
  5
18B
  8
0
  6
AIGENLINE001
 62
     7
 10
89.761020000000002
 20
142.368562
 30
0.0
 40
11.119524999999999
 50
90.561161000000027
 51
104.772486
  0
ARC
  5
18C
  8
0
  6
AIGENLINE001
 62
     7
 10
84.738973000000001
 20
150.20497
 30
0.0
 40
3.8869910000000001
 50
119.990405
 51
122.437901
  0
ARC
  5
18D
  8
0
  6
AIGENLINE001
 62
     7
 10
88.922888999999998
 20
143.089911
 30
0.0
 40
12.140946
 50
114.461133
 51
120.30767400000001
  0
ARC
  5
18E
  8
0
  6
AIGENLINE001
 62
     7
 10
90.273178000000001
 20
140.347295
 30
0.0
 40
15.196801000000001
 50
99.613783000000012
 51
114.813419
  0
ARC
  5
18F
  8
0
  6
AIGENLINE001
 62
     7
 10
89.696823999999992
 20
143.170177
 30
0.0
 40
12.317689
 50
90.203950999999989
 51
99.163416999999995
  0
ARC
  5
190
  8
0
  6
AIGENLINE001
 62
     7
 10
169.57057599999999
 20
6.0732319999999991
 30
0.0
 40
169.05947499999999
 50
123.378908
 51
126.33138
  0
ARC
  5
191
  8
0
  6
AIGENLINE001
 62
     7
 10
200.105988
 20
-39.524845999999997
 30
0.0
 40
223.93631999999999
 50
121.63403599999999
 51
123.484257
  0
LINE
  5
192
  8
0
  6
AIGENLINE002
 62
     7
 10
81.512900000000016
 20
146.48699999999999
 30
0.0
 11
73.793000000000006
 21
146.48699999999999
 31
0.0
  0
LINE
  5
193
  8
0
  6
AIGENLINE002
 62
     7
 10
77.652900000000002
 20
143.98699999999999
 30
0.0
 11
77.652900000000002
 21
148.988
 31
0.0
  0
ARC
  5
194
  8
0
  6
AIGENLINE001
 62
     7
 10
47.976384000000003
 20
146.56388899999999
 30
0.0
 40
2.0777669999999988
 50
272.108812
 51
357.881327
  0
ARC
  5
195
  8
0
  6
AIGENLINE001
 62
     7
 10
48.052667999999997
 20
146.487247
 30
0.0
 40
2.000062999999999
 50
359.99507499999999
 51
89.995045999999988
  0
ARC
  5
196
  8
0
  6
AIGENLINE001
 62
     7
 10
46.129229000000002
 20
146.564063
 30
0.0
 40
2.077941
 50
182.12332599999991
 51
267.89150899999999
  0
ARC
  5
197
  8
0
  6
AIGENLINE001
 62
     7
 10
46.052863999999992
 20
146.48716099999999
 30
0.0
 40
2.0001489999999991
 50
90.00246700000001
 51
180.002477
  0
LINE
  5
198
  8
0
  6
AIGENLINE001
 62
     7
 10
46.052799999999991
 20
144.48699999999999
 30
0.0
 11
48.052799999999991
 21
144.48699999999999
 31
0.0
  0
LINE
  5
199
  8
0
  6
AIGENLINE001
 62
     7
 10
46.052799999999991
 20
148.48699999999999
 30
0.0
 11
48.052799999999991
 21
148.48699999999999
 31
0.0
  0
ARC
  5
19A
  8
0
  6
AIGENLINE001
 62
     7
 10
78.576442
 20
146.56405799999999
 30
0.0
 40
2.0779359999999998
 50
272.10837800000002
 51
357.87682599999999
  0
ARC
  5
19B
  8
0
  6
AIGENLINE001
 62
     7
 10
78.652801999999994
 20
146.48716099999999
 30
0.0
 40
2.0001489999999991
 50
359.99754300000001
 51
89.997512999999984
  0
ARC
  5
19C
  8
0
  6
AIGENLINE001
 62
     7
 10
76.729444000000001
 20
146.56405799999999
 30
0.0
 40
2.0779359999999998
 50
182.12319400000001
 51
267.89164199999999
  0
ARC
  5
19D
  8
0
  6
AIGENLINE001
 62
     7
 10
76.653083999999993
 20
146.48716099999999
 30
0.0
 40
2.0001489999999991
 50
90.00246700000001
 51
180.002477
  0
LINE
  5
19E
  8
0
  6
AIGENLINE001
 62
     7
 10
76.653000000000006
 20
144.48699999999999
 30
0.0
 11
78.652900000000002
 21
144.48699999999999
 31
0.0
  0
LINE
  5
19F
  8
0
  6
AIGENLINE001
 62
     7
 10
76.653000000000006
 20
148.48699999999999
 30
0.0
 11
78.652900000000002
 21
148.48699999999999
 31
0.0
  0
ARC
  5
1A0
  8
0
  6
AIGENLINE001
 62
     7
 10
187.151025
 20
-17.938133000000001
 30
0.0
 40
200.76273399999999
 50
121.365774
 51
125.997462
  0
ARC
  5
1A1
  8
0
  6
AIGENLINE001
 62
     7
 10
141.232023
 20
295.36433299999999
 30
0.0
 40
175.273461
 50
237.89186100000001
 51
240.86445399999999
  0
ARC
  5
1A2
  8
0
  6
AIGENLINE001
 62
     7
 10
166.357946
 20
336.133309
 30
0.0
 40
223.161914
 50
235.80224899999999
 51
237.99113700000001
  0
ARC
  5
1A3
  8
0
  6
AIGENLINE001
 62
     7
 10
154.384995
 20
319.03569599999997
 30
0.0
 40
200.28737100000001
 50
235.74663100000001
 51
240.632105
  0
ARC
  5
1A4
  8
0
 62
     7
 10
109.61463000000001
 20
154.44869700000001
 30
0.0
 40
1.0391209999999991
 50
2.130487
 51
87.869502999999995
  0
ARC
  5
1A5
  8
0
 62
     7
 10
31.690774000000001
 20
154.44907699999999
 30
0.0
 40
1.0387200000000001
 50
92.100432999999981
 51
177.88966600000001
  0
LINE
  5
1A6
  8
0
  6
AIGENLINE002
 62
     7
 10
50.912599999999998
 20
146.48699999999999
 30
0.0
 11
43.193000000000012
 21
146.48699999999999
 31
0.0
  0
LINE
  5
1A7
  8
0
  6
AIGENLINE002
 62
     7
 10
47.052700000000002
 20
143.98699999999999
 30
0.0
 11
47.052700000000002
 21
148.988
 31
0.0
  0
LINE
  5
1A8
  8
0
  6
AIGENLINE002
 62
     7
 10
62.652900000000002
 20
135.48699999999999
 30
0.0
 11
62.652900000000002
 21
157.48699999999999
 31
0.0
  0
LINE
  5
1A9
  8
0
  6
AIGENLINE001
 62
     7
 10
100.65300000000001
 20
153.488
 30
0.0
 11
89.652999999999992
 21
153.488
 31
0.0
  0
LINE
  5
1AA
  8
0
  6
AIGENLINE001
 62
     7
 10
100.65300000000001
 20
153.488
 30
0.0
 11
100.65300000000001
 21
155.48699999999999
 31
0.0
  0
LINE
  5
1AB
  8
0
  6
AIGENLINE002
 62
     7
 10
92.652999999999992
 20
151.40199999999999
 30
0.0
 11
92.652999999999992
 21
157.626
 31
0.0
  0
LINE
  5
1AC
  8
0
  6
AIGENLINE001
 62
     7
 10
106.65300000000001
 20
137.48699999999999
 30
0.0
 11
106.65300000000001
 21
155.48699999999999
 31
0.0
  0
LINE
  5
1AD
  8
0
 62
     7
 10
110.65300000000001
 20
137.48699999999999
 30
0.0
 11
110.65300000000001
 21
154.48699999999999
 31
0.0
  0
LINE
  5
1AE
  8
0
  6
AIGENLINE001
 62
     7
 10
69.652900000000002
 20
139.48699999999999
 30
0.0
 11
55.652799999999999
 21
139.48699999999999
 31
0.0
  0
LINE
  5
1AF
  8
0
  6
AIGENLINE001
 62
     7
 10
67.152900000000002
 20
141.48699999999999
 30
0.0
 11
58.152900000000002
 21
141.48699999999999
 31
0.0
  0
LINE
  5
1B0
  8
0
  6
AIGENLINE001
 62
     7
 10
69.152799999999999
 20
144.488
 30
0.0
 11
56.152799999999999
 21
144.488
 31
0.0
  0
LINE
  5
1B1
  8
0
  6
AIGENLINE001
 62
     7
 10
67.152900000000002
 20
141.48699999999999
 30
0.0
 11
69.152799999999999
 21
144.488
 31
0.0
  0
LINE
  5
1B2
  8
0
  6
AIGENLINE001
 62
     7
 10
67.152900000000002
 20
139.48699999999999
 30
0.0
 11
67.152900000000002
 21
141.48699999999999
 31
0.0
  0
LINE
  5
1B3
  8
0
  6
AIGENLINE001
 62
     7
 10
58.152900000000002
 20
141.48699999999999
 30
0.0
 11
56.152799999999999
 21
144.488
 31
0.0
  0
LINE
  5
1B4
  8
0
  6
AIGENLINE001
 62
     7
 10
56.152799999999999
 20
139.48699999999999
 30
0.0
 11
56.152799999999999
 21
141.83099999999999
 31
0.0
  0
LINE
  5
1B5
  8
0
  6
AIGENLINE001
 62
     7
 10
58.152700000000003
 20
139.48699999999999
 30
0.0
 11
58.152700000000003
 21
141.48699999999999
 31
0.0
  0
LINE
  5
1B6
  8
0
  6
AIGENLINE001
 62
     7
 10
37.052799999999998
 20
137.48699999999999
 30
0.0
 11
39.385300000000001
 21
150.898
 31
0.0
  0
LINE
  5
1B7
  8
0
 62
     7
 10
30.652799999999999
 20
137.48699999999999
 30
0.0
 11
30.652799999999999
 21
154.48699999999999
 31
0.0
  0
LINE
  5
1B8
  8
0
 62
     7
 10
31.652699999999999
 20
155.48699999999999
 30
0.0
 11
109.65300000000001
 21
155.48699999999999
 31
0.0
  0
LINE
  5
1B9
  8
0
 62
     7
 10
30.652799999999999
 20
137.48699999999999
 30
0.0
 11
110.65300000000001
 21
137.48699999999999
 31
0.0
  0
LINE
  5
1BA
  8
0
 62
     7
 10
30.652799999999999
 20
155.68799999999999
 30
0.0
 11
30.652799999999999
 21
165.18000000000001
 31
0.0
  0
LINE
  5
1BB
  8
0
 62
     7
 10
110.65300000000001
 20
155.68799999999999
 30
0.0
 11
110.65300000000001
 21
165.18000000000001
 31
0.0
  0
LINE
  5
1BC
  8
0
 62
     7
 10
47.052700000000002
 20
149.68799999999999
 30
0.0
 11
47.052700000000002
 21
165.18000000000001
 31
0.0
  0
LINE
  5
1BD
  8
0
 62
     7
 10
77.652900000000002
 20
149.68799999999999
 30
0.0
 11
77.652900000000002
 21
165.18000000000001
 31
0.0
  0
LINE
  5
1BE
  8
0
 62
     7
 10
108.44199999999999
 20
163.90100000000001
 30
0.0
 11
110.65300000000001
 21
164.494
 31
0.0
  0
LINE
  5
1BF
  8
0
 62
     7
 10
110.65300000000001
 20
164.494
 30
0.0
 11
108.44199999999999
 21
165.0859999999999
 31
0.0
  0
LINE
  5
1C0
  8
0
 62
     7
 10
108.44199999999999
 20
165.0859999999999
 30
0.0
 11
108.44199999999999
 21
163.90100000000001
 31
0.0
  0
LINE
  5
1C1
  8
0
 62
     7
 10
49.263500000000001
 20
165.072
 30
0.0
 11
47.052700000000002
 21
164.47999999999999
 31
0.0
  0
LINE
  5
1C2
  8
0
 62
     7
 10
47.052700000000002
 20
164.47999999999999
 30
0.0
 11
49.263500000000001
 21
163.88800000000001
 31
0.0
  0
LINE
  5
1C3
  8
0
 62
     7
 10
49.263500000000001
 20
163.88800000000001
 30
0.0
 11
49.263500000000001
 21
165.072
 31
0.0
  0
LINE
  5
1C4
  8
0
 62
     7
 10
75.4422
 20
165.072
 30
0.0
 11
77.652900000000002
 21
164.47999999999999
 31
0.0
  0
LINE
  5
1C5
  8
0
 62
     7
 10
77.652900000000002
 20
164.47999999999999
 30
0.0
 11
75.4422
 21
163.88800000000001
 31
0.0
  0
LINE
  5
1C6
  8
0
 62
     7
 10
75.4422
 20
163.88800000000001
 30
0.0
 11
75.4422
 21
165.072
 31
0.0
  0
LINE
  5
1C7
  8
0
 62
     7
 10
44.841999999999999
 20
165.072
 30
0.0
 11
47.052700000000002
 21
164.47999999999999
 31
0.0
  0
LINE
  5
1C8
  8
0
 62
     7
 10
47.052700000000002
 20
164.47999999999999
 30
0.0
 11
44.841999999999999
 21
163.88800000000001
 31
0.0
  0
LINE
  5
1C9
  8
0
 62
     7
 10
44.841999999999999
 20
163.88800000000001
 30
0.0
 11
44.841999999999999
 21
165.072
 31
0.0
  0
LINE
  5
1CA
  8
0
 62
     7
 10
32.863500000000002
 20
165.072
 30
0.0
 11
30.652799999999999
 21
164.47999999999999
 31
0.0
  0
LINE
  5
1CB
  8
0
 62
     7
 10
30.652799999999999
 20
164.47999999999999
 30
0.0
 11
32.863500000000002
 21
163.88800000000001
 31
0.0
  0
LINE
  5
1CC
  8
0
 62
     7
 10
32.863500000000002
 20
163.88800000000001
 30
0.0
 11
32.863500000000002
 21
165.072
 31
0.0
  0
LINE
  5
1CD
  8
0
 62
     7
 10
110.652
 20
164.48699999999999
 30
0.0
 11
30.6538
 21
164.48699999999999
 31
0.0
  0
LINE
  5
1CE
  8
0
 62
     7
 10
157.02500000000001
 20
153.27600000000001
 30
0.0
 11
157.61799999999999
 21
155.48699999999999
 31
0.0
  0
LINE
  5
1CF
  8
0
 62
     7
 10
157.61799999999999
 20
155.48699999999999
 30
0.0
 11
158.21000000000001
 21
153.27600000000001
 31
0.0
  0
LINE
  5
1D0
  8
0
 62
     7
 10
158.21000000000001
 20
153.27600000000001
 30
0.0
 11
157.02500000000001
 21
153.27600000000001
 31
0.0
  0
LINE
  5
1D1
  8
0
 62
     7
 10
157.02500000000001
 20
146.69900000000001
 30
0.0
 11
157.61799999999999
 21
144.488
 31
0.0
  0
LINE
  5
1D2
  8
0
 62
     7
 10
157.61799999999999
 20
144.488
 30
0.0
 11
158.21000000000001
 21
146.69900000000001
 31
0.0
  0
LINE
  5
1D3
  8
0
 62
     7
 10
158.21000000000001
 20
146.69900000000001
 30
0.0
 11
157.02500000000001
 21
146.69900000000001
 31
0.0
  0
LINE
  5
1D4
  8
0
 62
     7
 10
157.61099999999999
 20
155.48699999999999
 30
0.0
 11
157.61099999999999
 21
144.489
 31
0.0
  0
TEXT
  5
1D5
  8
_________2
 62
     7
 10
26.512799999999999
 20
66.368099999999998
 30
0.0
 40
3.9357000000000002
  1
※壁取付部には厚さ30mm以上の補強木を入れてください。
 41
0.5
  0
TEXT
  5
1D6
  8
_________2
 62
     7
 10
26.512799999999999
 20
61.448500000000003
 30
0.0
 40
3.9357000000000002
  1
※タオルを掛ける仕様になっています。タオル掛けの下のスペースは空けてください。
 41
0.5
  0
TEXT
  5
1D7
  8
_________2
 62
     7
 10
29.525700000000001
 20
22.2272
 30
0.0
 40
3.9357000000000002
  1
重量：5.0kg、オーバーフローなし
 41
0.5
  0
LINE
  5
1D8
  8
_________2
 62
     7
 10
105.239
 20
17.4285
 30
0.0
 11
105.239
 21
0.4485540000000001
 31
0.0
  0
LINE
  5
1D9
  8
_________2
 62
     7
 10
81.679900000000004
 20
51.324300000000001
 30
0.0
 11
79.493700000000004
 21
51.324300000000001
 31
0.0
  0
LINE
  5
1DA
  8
_________2
 62
     7
 10
82.172600000000017
 20
51.324300000000001
 30
0.0
 11
81.920400000000001
 21
51.324300000000001
 31
0.0
  0
LINE
  5
1DB
  8
_________2
 62
     7
 10
82.665199999999984
 20
51.324300000000001
 30
0.0
 11
85.590100000000007
 21
51.324300000000001
 31
0.0
  0
LINE
  5
1DC
  8
_________2
 62
     7
 10
82.172600000000017
 20
51.324300000000001
 30
0.0
 11
82.424800000000005
 21
51.324300000000001
 31
0.0
  0
LINE
  5
1DD
  8
_________2
 62
     7
 10
75.776399999999995
 20
51.324300000000001
 30
0.0
 11
73.589399999999998
 21
51.324300000000001
 31
0.0
  0
LINE
  5
1DE
  8
_________2
 62
     7
 10
76.2684
 20
51.324300000000001
 30
0.0
 11
76.016900000000007
 21
51.324300000000001
 31
0.0
  0
LINE
  5
1DF
  8
_________2
 62
     7
 10
76.2684
 20
51.817
 30
0.0
 11
76.2684
 21
54.003900000000002
 31
0.0
  0
LINE
  5
1E0
  8
_________2
 62
     7
 10
76.2684
 20
51.324300000000001
 30
0.0
 11
76.2684
 21
51.576900000000002
 31
0.0
  0
LINE
  5
1E1
  8
_________2
 62
     7
 10
76.76100000000001
 20
51.324300000000001
 30
0.0
 11
78.947999999999993
 21
51.324300000000001
 31
0.0
  0
LINE
  5
1E2
  8
_________2
 62
     7
 10
76.2684
 20
51.324300000000001
 30
0.0
 11
76.520499999999998
 21
51.324300000000001
 31
0.0
  0
LINE
  5
1E3
  8
_________2
 62
     7
 10
76.2684
 20
50.832399999999993
 30
0.0
 11
76.2684
 21
48.645699999999998
 31
0.0
  0
LINE
  5
1E4
  8
_________2
 62
     7
 10
76.2684
 20
51.324300000000001
 30
0.0
 11
76.2684
 21
51.072800000000001
 31
0.0
  0
LINE
  5
1E5
  8
_________2
 62
     7
 10
79.979399999999984
 20
50.104799999999997
 30
0.0
 11
85.157399999999996
 21
49.240000000000002
 31
0.0
  0
LINE
  5
1E6
  8
_________2
 62
     7
 10
79.979399999999984
 20
52.544199999999989
 30
0.0
 11
85.157399999999996
 21
53.409700000000001
 31
0.0
  0
LINE
  5
1E7
  8
_________2
 62
     7
 10
85.157399999999996
 20
49.240000000000002
 30
0.0
 11
85.157399999999996
 21
53.409700000000001
 31
0.0
  0
LINE
  5
1E8
  8
_________2
 62
     7
 10
79.979399999999984
 20
50.104799999999997
 30
0.0
 11
79.979399999999984
 21
52.544199999999989
 31
0.0
  0
ARC
  5
1E9
  8
_________2
 62
     7
 10
76.221766000000002
 20
51.277380999999998
 30
0.0
 40
1.267714
 50
2.1220840000000001
 51
87.894083999999992
  0
ARC
  5
1EA
  8
_________2
 62
     7
 10
76.315297000000001
 20
51.277734999999993
 30
0.0
 40
1.267374999999999
 50
92.122849999999985
 51
177.893304
  0
ARC
  5
1EB
  8
_________2
 62
     7
 10
76.315273000000005
 20
51.371245999999992
 30
0.0
 40
1.267363
 50
182.121815
 51
267.87821400000001
  0
ARC
  5
1EC
  8
_________2
 62
     7
 10
76.221461000000005
 20
51.371928999999987
 30
0.0
 40
1.2680439999999991
 50
272.11916400000001
 51
357.84848499999998
  0
ARC
  5
1ED
  8
_________2
 62
     7
 10
76.187981999999991
 20
51.244312999999998
 30
0.0
 40
2.1668310000000002
 50
2.1161439999999989
 51
87.874379000000005
  0
ARC
  5
1EE
  8
_________2
 62
     7
 10
76.348411999999996
 20
51.245334999999997
 30
0.0
 40
2.1657980000000001
 50
92.118487999999999
 51
177.909886
  0
ARC
  5
1EF
  8
_________2
 62
     7
 10
76.348354
 20
51.404327000000002
 30
0.0
 40
2.1657779999999991
 50
182.11700400000001
 51
267.88302499999998
  0
ARC
  5
1F0
  8
_________2
 62
     7
 10
76.188378999999983
 20
51.405009999999997
 30
0.0
 40
2.1664590000000001
 50
272.11546800000002
 51
357.86560400000002
  0
TEXT
  5
1F1
  8
_________2
 62
     7
 10
109.544
 20
23.199100000000001
 30
0.0
 40
3.0923400000000001
  1
図番
 41
0.5
  0
LINE
  5
1F2
  8
_________2
 62
     7
 10
108.489
 20
27.4283
 30
0.0
 11
188.49000000000001
 21
27.4283
 31
0.0
  0
TEXT
  5
1F3
  8
_________2
 62
     7
 10
109.544
 20
33.198900000000002
 30
0.0
 40
3.0923400000000001
  1
品番
 41
0.5
  0
TEXT
  5
1F4
  8
_________2
 62
     7
 10
109.544
 20
53.338000000000001
 30
0.0
 40
3.0923400000000001
  1
名称
 41
0.5
  0
TEXT
  5
1F5
  8
_________2
 62
     7
 10
96.784058333333334
 20
48.341900000000003
 30
0.0
 40
3.6545800000000002
  1
mm
 41
0.5
 72
     1
 11
98.306799999999996
 21
48.341900000000003
 31
0.0
  0
TEXT
  5
1F6
  8
_________2
 62
     7
 10
90.582099999999997
 20
53.338000000000001
 30
0.0
 40
3.0923400000000001
  1
単位
 41
0.5
  0
TEXT
  5
1F7
  8
_________2
 62
     7
 10
90.582099999999997
 20
40.930399999999999
 30
0.0
 40
3.0923400000000001
  1
尺度
 41
0.5
  0
TEXT
  5
1F8
  8
_________2
 62
     7
 10
95.487658666666675
 20
34.7378
 30
0.0
 40
3.6545800000000002
  1
1 ： 5
 41
0.5
 72
     1
 11
98.898600000000002
 21
34.7378
 31
0.0
  0
TEXT
  5
1F9
  8
_________2
 62
     7
 10
142.58545000000001
 20
30.627800000000001
 30
0.0
 40
3.9357000000000002
  1
SB1513S
 41
0.5
 72
     1
 11
148.489
 21
30.627800000000001
 31
0.0
  0
TEXT
  5
1FA
  8
_________2
 62
     7
 10
142.58545000000001
 20
20.626999999999999
 30
0.0
 40
3.9357000000000002
  1
SB1513S
 41
0.5
 72
     1
 11
148.489
 21
20.626999999999999
 31
0.0
  0
TEXT
  5
1FB
  8
_________2
 62
     7
 10
114.11799999999999
 20
45.745600000000003
 30
0.0
 40
3.9357000000000002
  1
ハング手洗器
 41
0.5
  0
TEXT
  5
1FC
  8
_________2
 62
     7
 10
44.364200333333329
 20
35.123000000000012
 30
0.0
 40
3.6545800000000002
  1
井田
 41
0.5
 72
     1
 11
46.252400000000002
 21
35.123000000000012
 31
0.0
  0
TEXT
  5
1FD
  8
_________2
 62
     7
 10
25.790200333333338
 20
35.123000000000012
 30
0.0
 40
3.6545800000000002
  1
福田
 41
0.5
 72
     1
 11
27.6784
 21
35.123000000000012
 31
0.0
  0
TEXT
  5
1FE
  8
_________2
 62
     7
 10
72.724699999999999
 20
34.7378
 30
0.0
 40
3.6545800000000002
  1
18.07.10
 41
0.5
  0
TEXT
  5
1FF
  8
_________2
 62
     7
 10
71.531999999999996
 20
40.930399999999999
 30
0.0
 40
3.0923400000000001
  1
日付
 41
0.5
  0
TEXT
  5
200
  8
_________2
 62
     7
 10
34.578299999999999
 20
40.930399999999999
 30
0.0
 40
3.0923400000000001
  1
検図
 41
0.5
  0
TEXT
  5
201
  8
_________2
 62
     7
 10
22.9602
 20
26.731000000000002
 30
0.0
 40
3.0923400000000001
  1
備考
 41
0.5
  0
TEXT
  5
202
  8
_________2
 62
     7
 10
22.9602
 20
40.930399999999999
 30
0.0
 40
3.0923400000000001
  1
製図
 41
0.5
  0
TEXT
  5
203
  8
_________2
 62
     7
 10
28.727365333333339
 20
49.456400000000002
 30
0.0
 40
4.4979399999999989
  1
セラトレーディング株式会社
 41
0.5
 72
     1
 11
46.119399999999992
 21
49.456400000000002
 31
0.0
  0
LINE
  5
204
  8
_________2
 62
     7
 10
188.49000000000001
 20
17.4285
 30
0.0
 11
21.988499999999998
 21
17.4285
 31
0.0
  0
LINE
  5
205
  8
_________2
 62
     7
 10
21.988499999999998
 20
17.4285
 30
0.0
 11
21.988499999999998
 21
280.43000000000001
 31
0.0
  0
LINE
  5
206
  8
_________2
 62
     7
 10
21.988499999999998
 20
280.43000000000001
 30
0.0
 11
188.49000000000001
 21
280.43000000000001
 31
0.0
  0
LINE
  5
207
  8
_________2
 62
     7
 10
188.49000000000001
 20
280.43000000000001
 30
0.0
 11
188.49000000000001
 21
17.4285
 31
0.0
  0
LINE
  5
208
  8
_________2
 62
     7
 10
70.488799999999998
 20
30.928899999999999
 30
0.0
 11
70.488799999999998
 21
57.428699999999992
 31
0.0
  0
LINE
  5
209
  8
_________2
 62
     7
 10
89.488600000000005
 20
30.928899999999999
 30
0.0
 11
89.488600000000005
 21
57.428699999999992
 31
0.0
  0
LINE
  5
20A
  8
_________2
 62
     7
 10
108.489
 20
17.4285
 30
0.0
 11
108.489
 21
57.428699999999992
 31
0.0
  0
LINE
  5
20B
  8
_________2
 62
     7
 10
33.488300000000002
 20
30.928899999999999
 30
0.0
 11
33.488300000000002
 21
44.928800000000003
 31
0.0
  0
LINE
  5
20C
  8
_________2
 62
     7
 10
21.988499999999998
 20
30.928899999999999
 30
0.0
 11
108.489
 21
30.928899999999999
 31
0.0
  0
LINE
  5
20D
  8
_________2
 62
     7
 10
21.988499999999998
 20
44.928800000000003
 30
0.0
 11
108.489
 21
44.928800000000003
 31
0.0
  0
LINE
  5
20E
  8
_________2
 62
     7
 10
108.489
 20
37.428100000000001
 30
0.0
 11
188.49000000000001
 21
37.428100000000001
 31
0.0
  0
LINE
  5
20F
  8
_________2
 62
     7
 10
21.988499999999998
 20
57.428699999999992
 30
0.0
 11
188.49000000000001
 21
57.428699999999992
 31
0.0
  0
LINE
  5
210
  8
_________2
 62
     7
 10
210.24000000000001
 20
148.93100000000001
 30
0.0
 11
188.489
 21
148.93100000000001
 31
0.0
  0
LINE
  5
211
  8
_________2
 62
     7
 10
105.239
 20
297.45100000000002
 30
0.0
 11
105.239
 21
280.43000000000001
 31
0.0
  0
LINE
  5
212
  8
_________2
 62
     7
 10
21.988499999999998
 20
148.93100000000001
 30
0.0
 11
0.238402
 21
148.93100000000001
 31
0.0
  0
ENDSEC
  0
EOF
