  0
SECTION
  2
HEADER
  9
$ACADVER
  1
AC1009
  9
$INSBASE
 10
0.0
 20
0.0
 30
0.0
  9
$EXTMIN
 10
0.238402
 20
0.4485540000000001
 30
0.0
  9
$EXTMAX
 10
210.24000000000001
 20
297.45100000000002
 30
0.0
  9
$LIMMIN
 10
0.0
 20
0.0
  9
$LIMMAX
 10
12.0
 20
9.0
  9
$ORTHOMODE
 70
     0
  9
$REGENMODE
 70
     1
  9
$FILLMODE
 70
     1
  9
$QTEXTMODE
 70
     0
  9
$MIRRTEXT
 70
     1
  9
$DRAGMODE
 70
     2
  9
$LTSCALE
 40
1.0
  9
$OSMODE
 70
    37
  9
$ATTMODE
 70
     1
  9
$TEXTSIZE
 40
0.0
  9
$TRACEWID
 40
0.05
  9
$TEXTSTYLE
  7
STANDARD
  9
$CLAYER
  8
0
  9
$CELTYPE
  6
CONTINUOUS
  9
$CECOLOR
 62
   256
  9
$DIMSCALE
 40
1.0
  9
$DIMASZ
 40
0.18
  9
$DIMEXO
 40
0.0625
  9
$DIMDLI
 40
0.38
  9
$DIMRND
 40
0.0
  9
$DIMDLE
 40
0.0
  9
$DIMEXE
 40
0.18
  9
$DIMTP
 40
0.0
  9
$DIMTM
 40
0.0
  9
$DIMTXT
 40
0.18
  9
$DIMCEN
 40
0.09
  9
$DIMTSZ
 40
0.0
  9
$DIMTOL
 70
     0
  9
$DIMLIM
 70
     0
  9
$DIMTIH
 70
     1
  9
$DIMTOH
 70
     1
  9
$DIMSE1
 70
     0
  9
$DIMSE2
 70
     0
  9
$DIMTAD
 70
     0
  9
$DIMZIN
 70
     0
  9
$DIMBLK
  1

  9
$DIMASO
 70
     1
  9
$DIMSHO
 70
     1
  9
$DIMPOST
  1

  9
$DIMAPOST
  1

  9
$DIMALT
 70
     0
  9
$DIMALTD
 70
     2
  9
$DIMALTF
 40
25.399999999999999
  9
$DIMLFAC
 40
1.0
  9
$DIMTOFL
 70
     0
  9
$DIMTVP
 40
0.0
  9
$DIMTIX
 70
     0
  9
$DIMSOXD
 70
     0
  9
$DIMSAH
 70
     0
  9
$DIMBLK1
  1

  9
$DIMBLK2
  1

  9
$DIMSTYLE
  2
STANDARD
  9
$DIMCLRD
 70
     0
  9
$DIMCLRE
 70
     0
  9
$DIMCLRT
 70
     0
  9
$DIMTFAC
 40
1.0
  9
$DIMGAP
 40
0.09
  9
$LUNITS
 70
     2
  9
$LUPREC
 70
     4
  9
$SKETCHINC
 40
0.1
  9
$FILLETRAD
 40
0.0
  9
$AUNITS
 70
     0
  9
$AUPREC
 70
     0
  9
$MENU
  1
.
  9
$ELEVATION
 40
0.0
  9
$PELEVATION
 40
0.0
  9
$THICKNESS
 40
0.0
  9
$LIMCHECK
 70
     0
  9
$BLIPMODE
 70
     0
  9
$CHAMFERA
 40
0.0
  9
$CHAMFERB
 40
0.0
  9
$SKPOLY
 70
     0
  9
$TDCREATE
 40
2444972.375
  9
$TDUPDATE
 40
2457829.25136331
  9
$TDINDWG
 40
0.0000323843
  9
$TDUSRTIMER
 40
0.0000323843
  9
$USRTIMER
 70
     1
  9
$ANGBASE
 50
0.0
  9
$ANGDIR
 70
     0
  9
$PDMODE
 70
     0
  9
$PDSIZE
 40
0.0
  9
$PLINEWID
 40
0.0
  9
$COORDS
 70
     1
  9
$SPLFRAME
 70
     0
  9
$SPLINETYPE
 70
     6
  9
$SPLINESEGS
 70
     8
  9
$ATTDIA
 70
     1
  9
$ATTREQ
 70
     1
  9
$HANDLING
 70
     1
  9
$HANDSEED
  5
2C1
  9
$SURFTAB1
 70
     6
  9
$SURFTAB2
 70
     6
  9
$SURFTYPE
 70
     6
  9
$SURFU
 70
     6
  9
$SURFV
 70
     6
  9
$UCSNAME
  2

  9
$UCSORG
 10
0.0
 20
0.0
 30
0.0
  9
$UCSXDIR
 10
1.0
 20
0.0
 30
0.0
  9
$UCSYDIR
 10
0.0
 20
1.0
 30
0.0
  9
$PUCSNAME
  2

  9
$PUCSORG
 10
0.0
 20
0.0
 30
0.0
  9
$PUCSXDIR
 10
1.0
 20
0.0
 30
0.0
  9
$PUCSYDIR
 10
0.0
 20
1.0
 30
0.0
  9
$USERI1
 70
     0
  9
$USERI2
 70
     0
  9
$USERI3
 70
     0
  9
$USERI4
 70
     0
  9
$USERI5
 70
     0
  9
$USERR1
 40
0.0
  9
$USERR2
 40
0.0
  9
$USERR3
 40
0.0
  9
$USERR4
 40
0.0
  9
$USERR5
 40
0.0
  9
$WORLDVIEW
 70
     1
  9
$SHADEDGE
 70
     3
  9
$SHADEDIF
 70
    70
  9
$TILEMODE
 70
     1
  9
$MAXACTVP
 70
    48
  9
$PLIMCHECK
 70
     0
  9
$PEXTMIN
 10
1.0000000000000000E+020
 20
1.0000000000000000E+020
 30
1.0000000000000000E+020
  9
$PEXTMAX
 10
-1.0000000000000000E+020
 20
-1.0000000000000000E+020
 30
-1.0000000000000000E+020
  9
$PLIMMIN
 10
0.0
 20
0.0
  9
$PLIMMAX
 10
12.0
 20
9.0
  9
$UNITMODE
 70
     0
  9
$VISRETAIN
 70
     1
  9
$PLINEGEN
 70
     0
  9
$PSLTSCALE
 70
     1
  0
ENDSEC
  0
SECTION
  2
TABLES
  0
TABLE
  2
VPORT
 70
     1
  0
VPORT
  2
*ACTIVE
 70
     0
 10
0.0
 20
0.0
 11
1.0
 21
1.0
 12
247.97818972811851
 22
148.72550000000001
 13
0.0
 23
0.0
 14
1.0
 24
1.0
 15
0.0
 25
0.0
 16
0.0
 26
0.0
 36
1.0
 17
0.0
 27
0.0
 37
0.0
 40
271.48246340545728
 41
1.5328467153284671
 42
50.0
 43
0.0
 44
0.0
 50
0.0
 51
0.0
 71
     0
 72
   100
 73
     1
 74
     1
 75
     0
 76
     0
 77
     0
 78
     0
  0
ENDTAB
  0
TABLE
  2
LTYPE
 70
     3
  0
LTYPE
  2
CONTINUOUS
 70
     0
  3
Solid line
 72
    65
 73
     0
 40
0.0
  0
LTYPE
  2
AIGENLINE001
 70
     0
  3
generate AI->DXF Converter
 72
    65
 73
     2
 40
1.5522299999999991
 49
0.776115
 49
-0.776115
  0
LTYPE
  2
AIGENLINE002
 70
     0
  3
generate AI->DXF Converter
 72
    65
 73
     2
 40
1.5522299999999991
 49
0.776115
 49
-0.776115
  0
ENDTAB
  0
TABLE
  2
LAYER
 70
     2
  0
LAYER
  2
0
 70
     0
 62
     7
  6
CONTINUOUS
  0
LAYER
  2
_________2
 70
     0
 62
     7
  6
CONTINUOUS
  0
ENDTAB
  0
TABLE
  2
STYLE
 70
     1
  0
STYLE
  2
STANDARD
 70
     0
 40
0.0
 41
0.0
 50
0.0
 71
     0
 42
0.0
  3
TXT
  4
EXTFONT.SHX
  0
ENDTAB
  0
TABLE
  2
VIEW
 70
     0
  0
ENDTAB
  0
TABLE
  2
UCS
 70
     0
  0
ENDTAB
  0
TABLE
  2
APPID
 70
     3
  0
APPID
  2
ACAD
 70
     0
  0
APPID
  2
ACAD_NAV_VCDISPLAY
 70
     0
  0
APPID
  2
ACAD_MLEADERVER
 70
     0
  0
ENDTAB
  0
TABLE
  2
DIMSTYLE
 70
     1
  0
DIMSTYLE
  2
STANDARD
 70
     0
  3

  4

  5

  6

  7

 40
1.0
 41
0.18
 42
0.0625
 43
0.38
 44
0.18
 45
0.0
 46
0.0
 47
0.0
 48
0.0
140
0.18
141
0.09
142
0.0
143
25.399999999999999
144
1.0
145
0.0
146
1.0
147
0.09
 71
     0
 72
     0
 73
     1
 74
     1
 75
     0
 76
     0
 77
     0
 78
     0
170
     0
171
     2
172
     0
173
     0
174
     0
175
     0
176
     0
177
     0
178
     0
  0
ENDTAB
  0
ENDSEC
  0
SECTION
  2
BLOCKS
  0
BLOCK
  8
0
  2
$MODEL_SPACE
 70
     0
 10
0.0
 20
0.0
 30
0.0
  3
$MODEL_SPACE
  1

  0
ENDBLK
  5
1A
  8
0
  0
BLOCK
 67
     1
  8
0
  2
$PAPER_SPACE
 70
     0
 10
0.0
 20
0.0
 30
0.0
  3
$PAPER_SPACE
  1

  0
ENDBLK
  5
17
 67
     1
  8
0
  0
ENDSEC
  0
SECTION
  2
ENTITIES
  0
TEXT
  5
23
  8
0
 62
     7
 10
33.381887999999996
 20
246.60300000000001
 30
0.0
 40
3.0923400000000001
  1
メーカーロゴ
 41
0.5
 72
     2
 11
44.10199999999999
 21
246.60300000000001
 31
0.0
  0
TEXT
  5
24
  8
0
 62
     7
 10
49.353400000000001
 20
225.56100000000001
 30
0.0
 40
3.0923400000000001
  1
%%c45
 41
0.5
  0
TEXT
  5
25
  8
0
 62
     7
 10
79.9148
 20
235.0
 30
0.0
 40
3.0923400000000001
  1
%%c35
 41
0.5
  0
TEXT
  5
26
  8
0
 62
     7
 10
119.449
 20
216.48113499999999
 30
0.0
 40
3.0923400000000001
  1
184
 50
90.0
 41
0.5
 72
     1
 11
119.449
 21
218.285
 31
0.0
  0
TEXT
  5
27
  8
0
 62
     7
 10
131.03700000000001
 20
216.35128750000001
 30
0.0
 40
3.0923400000000001
  1
220
 50
90.0
 41
0.5
 72
     1
 11
131.03700000000001
 21
218.28399999999999
 31
0.0
  0
TEXT
  5
28
  8
0
 62
     7
 10
125.53700000000001
 20
233.12437249999999
 30
0.0
 40
3.0923400000000001
  1
60
 50
90.0
 41
0.5
 72
     1
 11
125.53700000000001
 21
234.28399999999999
 31
0.0
  0
TEXT
  5
29
  8
0
 62
     7
 10
84.720287499999984
 20
187.41099999999989
 30
0.0
 40
3.0923400000000001
  1
240
 41
0.5
 72
     1
 11
86.653000000000006
 21
187.41099999999989
 31
0.0
  0
TEXT
  5
2A
  8
0
 62
     7
 10
68.848735000000005
 20
179.88200000000001
 30
0.0
 40
3.0923400000000001
  1
400
 41
0.5
 72
     1
 11
70.652600000000007
 21
179.88200000000001
 31
0.0
  0
TEXT
  5
2B
  8
0
 62
     7
 10
102.46637250000001
 20
247.43000000000001
 30
0.0
 40
3.0923400000000001
  1
30
 41
0.5
 72
     1
 11
103.626
 21
247.43000000000001
 31
0.0
  0
TEXT
  5
2C
  8
0
 62
     7
 10
107.5543725
 20
247.43000000000001
 30
0.0
 40
3.0923400000000001
  1
20
 41
0.5
 72
     1
 11
108.714
 21
247.43000000000001
 31
0.0
  0
TEXT
  5
2D
  8
0
 62
     7
 10
100.49337250000001
 20
255.33500000000001
 30
0.0
 40
3.0923400000000001
  1
90
 41
0.5
 72
     1
 11
101.65300000000001
 21
255.33500000000001
 31
0.0
  0
TEXT
  5
2E
  8
0
 62
     7
 10
169.0906775
 20
162.03700000000001
 30
0.0
 40
3.0923400000000001
  1
110
 41
0.5
 72
     1
 11
170.50800000000001
 21
162.03700000000001
 31
0.0
  0
TEXT
  5
2F
  8
0
 62
     7
 10
127.953
 20
142.17737249999999
 30
0.0
 40
3.0923400000000001
  1
90
 50
90.0
 41
0.5
 72
     1
 11
127.953
 21
143.33699999999999
 31
0.0
  0
TEXT
  5
30
  8
0
 62
     7
 10
122.453
 20
143.17737249999999
 30
0.0
 40
3.0923400000000001
  1
80
 50
90.0
 41
0.5
 72
     1
 11
122.453
 21
144.33699999999999
 31
0.0
  0
TEXT
  5
31
  8
0
 62
     7
 10
116.953
 20
146.54852500000001
 30
0.0
 40
3.0923400000000001
  1
45
 50
90.0
 41
0.5
 72
     1
 11
116.953
 21
147.83699999999999
 31
0.0
  0
TEXT
  5
32
  8
0
 62
     7
 10
46.699017000000012
 20
113.804
 30
0.0
 40
3.0923400000000001
  1
取付ボルト\U+00D72セット付（尺度1：5）
 41
0.5
 72
     1
 11
62.006100000000011
 21
113.804
 31
0.0
  0
TEXT
  5
33
  8
0
 62
     7
 10
51.002523500000002
 20
109.93899999999999
 30
0.0
 40
3.0923400000000001
  1
※\U+03A612\U+00D760樹脂プラグ付
 41
0.5
 72
     1
 11
62.006100000000011
 21
109.93899999999999
 31
0.0
  0
TEXT
  5
34
  8
0
 62
     7
 10
57.003625
 20
100.28
 30
0.0
 40
3.0923400000000001
  1
45
 41
0.5
 72
     1
 11
58.292099999999991
 21
100.28
 31
0.0
  0
TEXT
  5
35
  8
0
 62
     7
 10
63.125619999999998
 20
100.28
 30
0.0
 40
3.0923400000000001
  1
15
 41
0.5
 72
     1
 11
64.156400000000005
 21
100.28
 31
0.0
  0
TEXT
  5
36
  8
0
 62
     7
 10
70.728272500000003
 20
100.28100000000001
 30
0.0
 40
3.0923400000000001
  1
60
 41
0.5
 72
     1
 11
71.887900000000002
 21
100.28100000000001
 31
0.0
  0
TEXT
  5
37
  8
0
 62
     7
 10
37.564225
 20
162.03700000000001
 30
0.0
 40
3.0923400000000001
  1
82
 41
0.5
 72
     1
 11
38.852699999999999
 21
162.03700000000001
 31
0.0
  0
TEXT
  5
38
  8
0
 62
     7
 10
60.548935
 20
162.03700000000001
 30
0.0
 40
3.0923400000000001
  1
153
 41
0.5
 72
     1
 11
62.352800000000002
 21
162.03700000000001
 31
0.0
  0
TEXT
  5
39
  8
0
 62
     7
 10
92.34913499999999
 20
162.03700000000001
 30
0.0
 40
3.0923400000000001
  1
165
 41
0.5
 72
     1
 11
94.153000000000006
 21
162.03700000000001
 31
0.0
  0
TEXT
  5
3A
  8
0
 62
     7
 10
156.911
 20
145.54852500000001
 30
0.0
 40
3.0923400000000001
  1
55
 50
90.0
 41
0.5
 72
     1
 11
156.911
 21
146.83699999999999
 31
0.0
  0
ARC
  5
3B
  8
0
 62
     7
 10
106.609792
 20
246.74572900000001
 30
0.0
 40
0.439942
 50
272.07099499999998
 51
357.90571899999998
  0
ARC
  5
3C
  8
0
 62
     7
 10
106.642537
 20
246.746678
 30
0.0
 40
0.4409250000000001
 50
182.212976
 51
267.81034899999997
  0
ARC
  5
3D
  8
0
 62
     7
 10
106.641589
 20
246.71357499999999
 30
0.0
 40
0.439942
 50
92.07095799999999
 51
177.9057169999999
  0
ARC
  5
3E
  8
0
 62
     7
 10
106.608844
 20
246.712626
 30
0.0
 40
0.4409250000000001
 50
2.2129560000000001
 51
87.81032900000001
  0
LINE
  5
3F
  8
0
 62
     7
 10
76.590800000000002
 20
94.317999999999998
 30
0.0
 11
77.791799999999995
 21
93.3172
 31
0.0
  0
LINE
  5
40
  8
0
 62
     7
 10
76.590800000000002
 20
92.317800000000005
 30
0.0
 11
65.7911
 21
92.317800000000005
 31
0.0
  0
LINE
  5
41
  8
0
 62
     7
 10
76.590800000000002
 20
94.317999999999998
 30
0.0
 11
65.7911
 21
94.317999999999998
 31
0.0
  0
LINE
  5
42
  8
0
 62
     7
 10
53.991500000000002
 20
92.418700000000001
 30
0.0
 11
53.792400000000001
 21
92.617199999999997
 31
0.0
  0
LINE
  5
43
  8
0
 62
     7
 10
62.791699999999999
 20
92.617199999999997
 30
0.0
 11
62.992199999999997
 21
92.418700000000001
 31
0.0
  0
LINE
  5
44
  8
0
 62
     7
 10
62.791699999999999
 20
94.017899999999997
 30
0.0
 11
62.992199999999997
 21
94.217799999999997
 31
0.0
  0
LINE
  5
45
  8
0
 62
     7
 10
53.793100000000003
 20
94.017300000000006
 30
0.0
 11
53.992899999999999
 21
94.217100000000002
 31
0.0
  0
LINE
  5
46
  8
0
 62
     7
 10
53.793100000000003
 20
94.017300000000006
 30
0.0
 11
62.791699999999999
 21
94.017899999999997
 31
0.0
  0
LINE
  5
47
  8
0
 62
     7
 10
53.792400000000001
 20
92.617199999999997
 30
0.0
 11
62.791699999999999
 21
92.617199999999997
 31
0.0
  0
LINE
  5
48
  8
0
 62
     7
 10
53.991500000000002
 20
92.418700000000001
 30
0.0
 11
63.591000000000001
 21
92.417999999999992
 31
0.0
  0
LINE
  5
49
  8
0
 62
     7
 10
53.992899999999999
 20
94.217100000000002
 30
0.0
 11
63.591000000000001
 21
94.217799999999997
 31
0.0
  0
LINE
  5
4A
  8
0
 62
     7
 10
65.7911
 20
94.017300000000006
 30
0.0
 11
63.792200000000001
 21
94.017899999999997
 31
0.0
  0
LINE
  5
4B
  8
0
 62
     7
 10
65.7911
 20
92.617199999999997
 30
0.0
 11
63.791499999999999
 21
92.617799999999988
 31
0.0
  0
LINE
  5
4C
  8
0
 62
     7
 10
63.591000000000001
 20
92.417999999999992
 30
0.0
 11
63.791499999999999
 21
92.617799999999988
 31
0.0
  0
LINE
  5
4D
  8
0
 62
     7
 10
63.792200000000001
 20
94.017899999999997
 30
0.0
 11
63.591000000000001
 21
94.217799999999997
 31
0.0
  0
LINE
  5
4E
  8
0
 62
     7
 10
77.791799999999995
 20
93.3172
 30
0.0
 11
76.590800000000002
 21
92.317800000000005
 31
0.0
  0
LINE
  5
4F
  8
0
 62
     7
 10
66.096299999999999
 20
94.517499999999998
 30
0.0
 11
67.119500000000002
 21
92.118999999999986
 31
0.0
  0
LINE
  5
50
  8
0
 62
     7
 10
66.983800000000002
 20
94.517499999999998
 30
0.0
 11
68.007599999999996
 21
92.118300000000005
 31
0.0
  0
LINE
  5
51
  8
0
 62
     7
 10
67.871899999999997
 20
94.517499999999998
 30
0.0
 11
68.896500000000003
 21
92.118300000000005
 31
0.0
  0
LINE
  5
52
  8
0
 62
     7
 10
68.760099999999994
 20
94.517499999999998
 30
0.0
 11
69.783999999999992
 21
92.118999999999986
 31
0.0
  0
LINE
  5
53
  8
0
 62
     7
 10
69.647499999999994
 20
94.516800000000003
 30
0.0
 11
70.6721
 21
92.118300000000005
 31
0.0
  0
LINE
  5
54
  8
0
 62
     7
 10
70.534300000000002
 20
94.517499999999998
 30
0.0
 11
71.558899999999994
 21
92.118300000000005
 31
0.0
  0
LINE
  5
55
  8
0
 62
     7
 10
71.421800000000005
 20
94.517499999999998
 30
0.0
 11
72.447000000000003
 21
92.118300000000005
 31
0.0
  0
LINE
  5
56
  8
0
 62
     7
 10
72.309899999999999
 20
94.516800000000003
 30
0.0
 11
73.333799999999997
 21
92.118300000000005
 31
0.0
  0
LINE
  5
57
  8
0
 62
     7
 10
73.198099999999997
 20
94.517499999999998
 30
0.0
 11
74.221999999999994
 21
92.118300000000005
 31
0.0
  0
LINE
  5
58
  8
0
 62
     7
 10
74.086200000000005
 20
94.516800000000003
 30
0.0
 11
75.109399999999994
 21
92.118300000000005
 31
0.0
  0
LINE
  5
59
  8
0
 62
     7
 10
74.973699999999994
 20
94.517499999999998
 30
0.0
 11
75.996200000000002
 21
92.118999999999986
 31
0.0
  0
LINE
  5
5A
  8
0
 62
     7
 10
75.860399999999998
 20
94.518199999999993
 30
0.0
 11
76.885000000000005
 21
92.118999999999986
 31
0.0
  0
LINE
  5
5B
  8
0
 62
     7
 10
65.7911
 20
94.317999999999998
 30
0.0
 11
65.7911
 21
92.317800000000005
 31
0.0
  0
LINE
  5
5C
  8
0
 62
     7
 10
62.793100000000003
 20
94.217100000000002
 30
0.0
 11
62.791699999999999
 21
92.418700000000001
 31
0.0
  0
LINE
  5
5D
  8
0
 62
     7
 10
53.992899999999999
 20
94.217100000000002
 30
0.0
 11
53.991500000000002
 21
92.418700000000001
 31
0.0
  0
LINE
  5
5E
  8
0
 62
     7
 10
53.793100000000003
 20
94.017300000000006
 30
0.0
 11
53.792400000000001
 21
92.617199999999997
 31
0.0
  0
LINE
  5
5F
  8
0
 62
     7
 10
30.207999999999998
 20
237.41300000000001
 30
0.0
 11
30.652799999999999
 21
235.167
 31
0.0
  0
LINE
  5
60
  8
0
 62
     7
 10
30.652799999999999
 20
235.167
 30
0.0
 11
29.144300000000001
 21
236.88999999999999
 31
0.0
  0
LINE
  5
61
  8
0
 62
     7
 10
29.144300000000001
 20
236.88999999999999
 30
0.0
 11
30.207999999999998
 21
237.41300000000001
 31
0.0
  0
LINE
  5
62
  8
0
 62
     7
 10
30.652799999999999
 20
235.167
 30
0.0
 11
25.3569
 21
245.90199999999999
 31
0.0
  0
LINE
  5
63
  8
0
 62
     7
 10
44.10199999999999
 20
245.90199999999999
 30
0.0
 11
25.3569
 21
245.90199999999999
 31
0.0
  0
ARC
  5
64
  8
0
 62
     7
 10
103.153099
 20
234.18468799999999
 30
0.0
 40
2.5000360000000001
 50
89.998025999999996
 51
179.997996
  0
LINE
  5
65
  8
0
 62
     7
 10
103.65300000000001
 20
236.685
 30
0.0
 11
103.15300000000001
 21
236.685
 31
0.0
  0
ARC
  5
66
  8
0
 62
     7
 10
103.153184
 20
202.38461899999999
 30
0.0
 40
2.500121
 50
179.99996999999999
 51
270.00002000000001
  0
LINE
  5
67
  8
0
 62
     7
 10
103.65300000000001
 20
199.88399999999999
 30
0.0
 11
103.15300000000001
 21
199.88399999999999
 31
0.0
  0
LINE
  5
68
  8
0
 62
     7
 10
100.65300000000001
 20
234.185
 30
0.0
 11
100.65300000000001
 21
202.38499999999999
 31
0.0
  0
ARC
  5
69
  8
0
 62
     7
 10
104.15312900000001
 20
234.18460200000001
 30
0.0
 40
2.5001220000000002
 50
0.003958
 51
90.003928000000016
  0
LINE
  5
6A
  8
0
 62
     7
 10
103.65300000000001
 20
236.685
 30
0.0
 11
104.15300000000001
 21
236.685
 31
0.0
  0
ARC
  5
6B
  8
0
 62
     7
 10
104.153043
 20
202.38470599999999
 30
0.0
 40
2.5002080000000002
 50
269.99804599999999
 51
359.99801600000001
  0
LINE
  5
6C
  8
0
 62
     7
 10
103.65300000000001
 20
199.88399999999999
 30
0.0
 11
104.15300000000001
 21
199.88399999999999
 31
0.0
  0
LINE
  5
6D
  8
0
 62
     7
 10
56.075499999999991
 20
224.86099999999999
 30
0.0
 11
68.686700000000002
 21
212.251
 31
0.0
  0
LINE
  5
6E
  8
0
 62
     7
 10
66.980000000000004
 20
213.12
 30
0.0
 11
65.834800000000001
 21
215.10300000000001
 31
0.0
  0
LINE
  5
6F
  8
0
 62
     7
 10
65.834800000000001
 20
215.10300000000001
 30
0.0
 11
67.818200000000004
 21
213.958
 31
0.0
  0
LINE
  5
70
  8
0
 62
     7
 10
67.818200000000004
 20
213.958
 30
0.0
 11
66.980000000000004
 21
213.12
 31
0.0
  0
LINE
  5
71
  8
0
 62
     7
 10
58.325499999999998
 20
223.44999999999999
 30
0.0
 11
59.470599999999997
 21
221.46700000000001
 31
0.0
  0
LINE
  5
72
  8
0
 62
     7
 10
59.470599999999997
 20
221.46700000000001
 30
0.0
 11
57.487299999999998
 21
222.61099999999999
 31
0.0
  0
LINE
  5
73
  8
0
 62
     7
 10
57.487299999999998
 20
222.61099999999999
 30
0.0
 11
58.325499999999998
 21
223.44999999999999
 31
0.0
  0
LINE
  5
74
  8
0
 62
     7
 10
56.075499999999991
 20
224.86099999999999
 30
0.0
 11
49.353400000000001
 21
224.86099999999999
 31
0.0
  0
LINE
  5
75
  8
0
 62
     7
 10
86.636899999999997
 20
234.30000000000001
 30
0.0
 11
97.980000000000004
 21
222.95699999999999
 31
0.0
  0
LINE
  5
76
  8
0
 62
     7
 10
96.273300000000006
 20
223.827
 30
0.0
 11
95.128099999999989
 21
225.81
 31
0.0
  0
LINE
  5
77
  8
0
 62
     7
 10
95.128099999999989
 20
225.81
 30
0.0
 11
97.111099999999993
 21
224.66499999999999
 31
0.0
  0
LINE
  5
78
  8
0
 62
     7
 10
97.111099999999993
 20
224.66499999999999
 30
0.0
 11
96.273300000000006
 21
223.827
 31
0.0
  0
LINE
  5
79
  8
0
 62
     7
 10
89.032999999999987
 20
232.74199999999999
 30
0.0
 11
90.178200000000004
 21
230.75899999999999
 31
0.0
  0
LINE
  5
7A
  8
0
 62
     7
 10
90.178200000000004
 20
230.75899999999999
 30
0.0
 11
88.1952
 21
231.904
 31
0.0
  0
LINE
  5
7B
  8
0
 62
     7
 10
88.1952
 20
231.904
 30
0.0
 11
89.032999999999987
 21
232.74199999999999
 31
0.0
  0
LINE
  5
7C
  8
0
 62
     7
 10
86.636899999999997
 20
234.30000000000001
 30
0.0
 11
79.9148
 21
234.30000000000001
 31
0.0
  0
LINE
  5
7D
  8
0
 62
     7
 10
120.871
 20
199.88399999999999
 30
0.0
 11
105.90300000000001
 21
199.88399999999999
 31
0.0
  0
LINE
  5
7E
  8
0
 62
     7
 10
120.871
 20
236.685
 30
0.0
 11
105.90300000000001
 21
236.685
 31
0.0
  0
LINE
  5
7F
  8
0
 62
     7
 10
120.735
 20
234.47399999999999
 30
0.0
 11
120.142
 21
236.685
 31
0.0
  0
LINE
  5
80
  8
0
 62
     7
 10
120.142
 20
236.685
 30
0.0
 11
119.55
 21
234.47399999999999
 31
0.0
  0
LINE
  5
81
  8
0
 62
     7
 10
119.55
 20
234.47399999999999
 30
0.0
 11
120.735
 21
234.47399999999999
 31
0.0
  0
LINE
  5
82
  8
0
 62
     7
 10
119.563
 20
202.095
 30
0.0
 11
120.15600000000001
 21
199.88399999999999
 31
0.0
  0
LINE
  5
83
  8
0
 62
     7
 10
120.15600000000001
 20
199.88399999999999
 30
0.0
 11
120.749
 21
202.095
 31
0.0
  0
LINE
  5
84
  8
0
 62
     7
 10
120.749
 20
202.095
 30
0.0
 11
119.563
 21
202.095
 31
0.0
  0
LINE
  5
85
  8
0
 62
     7
 10
120.149
 20
236.684
 30
0.0
 11
120.149
 21
199.88499999999999
 31
0.0
  0
LINE
  5
86
  8
0
 62
     7
 10
132.459
 20
196.28399999999999
 30
0.0
 11
109.453
 21
196.28399999999999
 31
0.0
  0
LINE
  5
87
  8
0
 62
     7
 10
132.459
 20
240.28399999999999
 30
0.0
 11
109.453
 21
240.28399999999999
 31
0.0
  0
LINE
  5
88
  8
0
 62
     7
 10
126.959
 20
228.28399999999999
 30
0.0
 11
97.853200000000001
 21
228.28399999999999
 31
0.0
  0
LINE
  5
89
  8
0
 62
     7
 10
132.32300000000001
 20
238.07300000000001
 30
0.0
 11
131.73099999999999
 21
240.28399999999999
 31
0.0
  0
LINE
  5
8A
  8
0
 62
     7
 10
131.73099999999999
 20
240.28399999999999
 30
0.0
 11
131.13800000000001
 21
238.07300000000001
 31
0.0
  0
LINE
  5
8B
  8
0
 62
     7
 10
131.13800000000001
 20
238.07300000000001
 30
0.0
 11
132.32300000000001
 21
238.07300000000001
 31
0.0
  0
LINE
  5
8C
  8
0
 62
     7
 10
131.15199999999999
 20
198.495
 30
0.0
 11
131.744
 21
196.28399999999999
 31
0.0
  0
LINE
  5
8D
  8
0
 62
     7
 10
131.744
 20
196.28399999999999
 30
0.0
 11
132.33699999999999
 21
198.495
 31
0.0
  0
LINE
  5
8E
  8
0
 62
     7
 10
132.33699999999999
 20
198.495
 30
0.0
 11
131.15199999999999
 21
198.495
 31
0.0
  0
LINE
  5
8F
  8
0
 62
     7
 10
131.73699999999999
 20
240.28299999999999
 30
0.0
 11
131.73699999999999
 21
196.285
 31
0.0
  0
LINE
  5
90
  8
0
 62
     7
 10
126.82299999999999
 20
238.07300000000001
 30
0.0
 11
126.23099999999999
 21
240.28399999999999
 31
0.0
  0
LINE
  5
91
  8
0
 62
     7
 10
126.23099999999999
 20
240.28399999999999
 30
0.0
 11
125.63800000000001
 21
238.07300000000001
 31
0.0
  0
LINE
  5
92
  8
0
 62
     7
 10
125.63800000000001
 20
238.07300000000001
 30
0.0
 11
126.82299999999999
 21
238.07300000000001
 31
0.0
  0
LINE
  5
93
  8
0
 62
     7
 10
125.652
 20
230.495
 30
0.0
 11
126.245
 21
228.28399999999999
 31
0.0
  0
LINE
  5
94
  8
0
 62
     7
 10
126.245
 20
228.28399999999999
 30
0.0
 11
126.836
 21
230.495
 31
0.0
  0
LINE
  5
95
  8
0
 62
     7
 10
126.836
 20
230.495
 30
0.0
 11
125.652
 21
230.495
 31
0.0
  0
LINE
  5
96
  8
0
 62
     7
 10
126.23699999999999
 20
240.28299999999999
 30
0.0
 11
126.23699999999999
 21
228.285
 31
0.0
  0
LINE
  5
97
  8
0
 62
     7
 10
62.652900000000002
 20
186.04599999999999
 30
0.0
 11
62.652900000000002
 21
192.126
 31
0.0
  0
LINE
  5
98
  8
0
 62
     7
 10
108.44199999999999
 20
186.12599999999989
 30
0.0
 11
110.65300000000001
 21
186.71799999999999
 31
0.0
  0
LINE
  5
99
  8
0
 62
     7
 10
110.65300000000001
 20
186.71799999999999
 30
0.0
 11
108.44199999999999
 21
187.31
 31
0.0
  0
LINE
  5
9A
  8
0
 62
     7
 10
108.44199999999999
 20
187.31
 30
0.0
 11
108.44199999999999
 21
186.12599999999989
 31
0.0
  0
LINE
  5
9B
  8
0
 62
     7
 10
64.863299999999995
 20
187.29599999999999
 30
0.0
 11
62.652900000000002
 21
186.70400000000001
 31
0.0
  0
LINE
  5
9C
  8
0
 62
     7
 10
62.652900000000002
 20
186.70400000000001
 30
0.0
 11
64.863299999999995
 21
186.11199999999999
 31
0.0
  0
LINE
  5
9D
  8
0
 62
     7
 10
64.863299999999995
 20
186.11199999999999
 30
0.0
 11
64.863299999999995
 21
187.29599999999999
 31
0.0
  0
LINE
  5
9E
  8
0
 62
     7
 10
110.652
 20
186.71100000000001
 30
0.0
 11
62.653599999999997
 21
186.71100000000001
 31
0.0
  0
LINE
  5
9F
  8
0
 62
     7
 10
110.65300000000001
 20
178.376
 30
0.0
 11
110.65300000000001
 21
197.48400000000001
 31
0.0
  0
LINE
  5
A0
  8
0
 62
     7
 10
30.652799999999999
 20
178.376
 30
0.0
 11
30.652799999999999
 21
197.48400000000001
 31
0.0
  0
LINE
  5
A1
  8
0
 62
     7
 10
108.44199999999999
 20
178.45599999999999
 30
0.0
 11
110.65300000000001
 21
179.04900000000001
 31
0.0
  0
LINE
  5
A2
  8
0
 62
     7
 10
110.65300000000001
 20
179.04900000000001
 30
0.0
 11
108.44199999999999
 21
179.64099999999999
 31
0.0
  0
LINE
  5
A3
  8
0
 62
     7
 10
108.44199999999999
 20
179.64099999999999
 30
0.0
 11
108.44199999999999
 21
178.45599999999999
 31
0.0
  0
LINE
  5
A4
  8
0
 62
     7
 10
32.863500000000002
 20
179.62700000000001
 30
0.0
 11
30.652799999999999
 21
179.035
 31
0.0
  0
LINE
  5
A5
  8
0
 62
     7
 10
30.652799999999999
 20
179.035
 30
0.0
 11
32.863500000000002
 21
178.44300000000001
 31
0.0
  0
LINE
  5
A6
  8
0
 62
     7
 10
32.863500000000002
 20
178.44300000000001
 30
0.0
 11
32.863500000000002
 21
179.62700000000001
 31
0.0
  0
LINE
  5
A7
  8
0
 62
     7
 10
110.652
 20
179.042
 30
0.0
 11
30.6538
 21
179.042
 31
0.0
  0
LINE
  5
A8
  8
0
  6
AIGENLINE002
 62
     7
 10
77.653099999999995
 20
237.78399999999999
 30
0.0
 11
77.653099999999995
 21
242.78399999999999
 31
0.0
  0
LINE
  5
A9
  8
0
  6
AIGENLINE002
 62
     7
 10
47.052700000000002
 20
237.78399999999999
 30
0.0
 11
47.052700000000002
 21
242.78399999999999
 31
0.0
  0
ARC
  5
AA
  8
0
 62
     7
 10
75.842343
 20
218.29571200000001
 30
0.0
 40
13.81081
 50
335.7979279999999
 51
359.95144499999998
  0
ARC
  5
AB
  8
0
 62
     7
 10
73.852795999999998
 20
219.089876
 30
0.0
 40
15.951320000000001
 50
323.64475800000002
 51
336.12574499999999
  0
ARC
  5
AC
  8
0
 62
     7
 10
71.336019999999991
 20
220.828611
 30
0.0
 40
19.009148
 50
312.954161
 51
323.92090400000001
  0
ARC
  5
AD
  8
0
 62
     7
 10
68.490393999999995
 20
223.72255100000001
 30
0.0
 40
23.066533
 50
302.27392700000001
 51
313.229242
  0
ARC
  5
AE
  8
0
 62
     7
 10
65.709885
 20
227.84577300000001
 30
0.0
 40
28.037837
 50
291.73422999999991
 51
302.578958
  0
ARC
  5
AF
  8
0
 62
     7
 10
63.627634999999991
 20
232.63834499999999
 30
0.0
 40
33.261156
 50
279.99503600000003
 51
292.00903699999998
  0
ARC
  5
B0
  8
0
 62
     7
 10
62.729959999999998
 20
236.77251899999999
 30
0.0
 40
37.488757
 50
269.88197600000001
 51
280.24952500000001
  0
ARC
  5
B1
  8
0
 62
     7
 10
62.652606000000013
 20
237.23586599999999
 30
0.0
 40
37.952024000000002
 50
255.841318
 51
270.00019800000001
  0
ARC
  5
B2
  8
0
 62
     7
 10
61.577181999999993
 20
232.31698399999999
 30
0.0
 40
32.919902
 50
243.76101199999999
 51
255.56206800000001
  0
ARC
  5
B3
  8
0
 62
     7
 10
59.214108999999993
 20
227.16538499999999
 30
0.0
 40
27.254840000000002
 50
232.61756
 51
243.42879500000001
  0
ARC
  5
B4
  8
0
 62
     7
 10
56.184782999999989
 20
222.98046400000001
 30
0.0
 40
22.090702
 50
221.19274200000001
 51
232.27079000000001
  0
ARC
  5
B5
  8
0
 62
     7
 10
53.206947
 20
220.22161700000001
 30
0.0
 40
18.033290000000001
 50
209.58965799999999
 51
220.82785699999999
  0
ARC
  5
B6
  8
0
 62
     7
 10
50.779609000000001
 20
218.74827300000001
 30
0.0
 40
15.195225000000001
 50
194.58987300000001
 51
209.27814699999999
  0
ARC
  5
B7
  8
0
 62
     7
 10
49.374901000000001
 20
218.29642999999999
 30
0.0
 40
13.722249
 50
180.05188699999999
 51
194.24152000000001
  0
ARC
  5
B8
  8
0
 62
     7
 10
49.465094999999998
 20
218.27198899999999
 30
0.0
 40
13.812443
 50
155.799521
 51
179.95012500000001
  0
ARC
  5
B9
  8
0
 62
     7
 10
51.453710000000001
 20
217.47781599999999
 30
0.0
 40
15.952106000000001
 50
143.645374
 51
156.12570500000001
  0
ARC
  5
BA
  8
0
 62
     7
 10
53.968077000000001
 20
215.741039
 30
0.0
 40
19.006836
 50
132.95388500000001
 51
143.92190199999999
  0
ARC
  5
BB
  8
0
 62
     7
 10
56.814227999999993
 20
212.84712400000001
 30
0.0
 40
23.064561999999999
 50
122.273872
 51
133.23003
  0
ARC
  5
BC
  8
0
 62
     7
 10
59.595128000000003
 20
208.72383400000001
 30
0.0
 40
28.036133
 50
111.734258
 51
122.579528
  0
ARC
  5
BD
  8
0
 62
     7
 10
61.678235000000001
 20
203.92905200000001
 30
0.0
 40
33.261822000000002
 50
99.995386999999994
 51
112.009012
  0
ARC
  5
BE
  8
0
 62
     7
 10
62.575472999999988
 20
199.796708
 30
0.0
 40
37.487546000000002
 50
89.881909999999976
 51
100.24967100000001
  0
ARC
  5
BF
  8
0
 62
     7
 10
62.652856000000007
 20
199.33125100000001
 30
0.0
 40
37.952922999999998
 50
75.841467000000009
 51
90.000180999999998
  0
ARC
  5
C0
  8
0
 62
     7
 10
63.727943000000003
 20
204.24932100000001
 30
0.0
 40
32.921669999999999
 50
63.761481000000011
 51
75.562033999999997
  0
ARC
  5
C1
  8
0
 62
     7
 10
66.091926999999998
 20
209.40288100000001
 30
0.0
 40
27.254446000000002
 50
52.617758000000002
 51
63.429257
  0
ARC
  5
C2
  8
0
 62
     7
 10
69.119928999999999
 20
213.586274
 30
0.0
 40
22.092324999999999
 50
41.19344199999999
 51
52.270744999999991
  0
ARC
  5
C3
  8
0
 62
     7
 10
72.097605000000001
 20
216.34537700000001
 30
0.0
 40
18.034866000000001
 50
29.590529
 51
40.827801999999998
  0
ARC
  5
C4
  8
0
 62
     7
 10
74.523481000000004
 20
217.818592
 30
0.0
 40
15.198138
 50
14.591478
 51
29.276944
  0
ARC
  5
C5
  8
0
 62
     7
 10
75.930715000000006
 20
218.27154100000001
 30
0.0
 40
13.722438
 50
0.052055
 51
14.241493999999999
  0
ARC
  5
C6
  8
0
 62
     7
 10
92.653154999999984
 20
228.28415000000001
 30
0.0
 40
3.4998949999999991
 50
270.00002000000001
 51
359.99999000000003
  0
ARC
  5
C7
  8
0
 62
     7
 10
92.652982999999992
 20
228.28432100000001
 30
0.0
 40
3.5000659999999999
 50
180.00282999999999
 51
270.00283999999999
  0
ARC
  5
C8
  8
0
 62
     7
 10
92.652984000000004
 20
228.28397699999999
 30
0.0
 40
3.500067
 50
89.997179999999986
 51
179.99715
  0
ARC
  5
C9
  8
0
 62
     7
 10
92.653154999999984
 20
228.28414900000001
 30
0.0
 40
3.4998949999999991
 50
0.00001
 51
89.999980000000008
  0
LINE
  5
CA
  8
0
 62
     7
 10
106.65300000000001
 20
234.185
 30
0.0
 11
106.65300000000001
 21
202.38499999999999
 31
0.0
  0
ARC
  5
CB
  8
0
 62
     7
 10
62.653073999999997
 20
218.28487000000001
 30
0.0
 40
6.499731999999999
 50
269.99850099999998
 51
359.99847199999999
  0
ARC
  5
CC
  8
0
 62
     7
 10
62.652643000000012
 20
218.284954
 30
0.0
 40
6.499814999999999
 50
180.00228799999999
 51
270.002297
  0
ARC
  5
CD
  8
0
 62
     7
 10
62.652990000000003
 20
218.28478200000001
 30
0.0
 40
6.5001620000000004
 50
90.000758999999974
 51
180.00076899999999
  0
ARC
  5
CE
  8
0
 62
     7
 10
62.652729000000001
 20
218.28486799999999
 30
0.0
 40
6.5000759999999991
 50
359.998492
 51
89.998462000000004
  0
ARC
  5
CF
  8
0
 62
     7
 10
62.652901999999997
 20
218.28469799999999
 30
0.0
 40
4.500013
 50
270.00002000000001
 51
359.99999000000003
  0
ARC
  5
D0
  8
0
 62
     7
 10
62.652816000000001
 20
218.28478200000001
 30
0.0
 40
4.5000980000000004
 50
180.00110699999999
 51
270.00111600000002
  0
ARC
  5
D1
  8
0
 62
     7
 10
62.652988999999998
 20
218.28478200000001
 30
0.0
 40
4.5002709999999988
 50
90.001097000000016
 51
180.00110599999999
  0
ARC
  5
D2
  8
0
 62
     7
 10
62.652729999999998
 20
218.28486799999999
 30
0.0
 40
4.5001850000000001
 50
359.997817
 51
89.997787000000002
  0
ARC
  5
D3
  8
0
 62
     7
 10
106.653251
 20
200.28396000000001
 30
0.0
 40
3.9997820000000002
 50
270.00002000000001
 51
359.99999000000003
  0
ARC
  5
D4
  8
0
 62
     7
 10
106.653164
 20
236.28431399999999
 30
0.0
 40
3.9998680000000002
 50
359.99877600000002
 51
89.998745999999997
  0
ARC
  5
D5
  8
0
 62
     7
 10
34.652625
 20
200.28404499999999
 30
0.0
 40
3.9998669999999992
 50
180.00124400000001
 51
270.00125400000002
  0
ARC
  5
D6
  8
0
 62
     7
 10
34.652712999999999
 20
236.28422800000001
 30
0.0
 40
3.9999539999999998
 50
90.0
 51
179.99996999999999
  0
LINE
  5
D7
  8
0
  6
AIGENLINE002
 62
     7
 10
113.486
 20
218.28399999999999
 30
0.0
 11
27.235900000000001
 21
218.285
 31
0.0
  0
LINE
  5
D8
  8
0
  6
AIGENLINE002
 62
     7
 10
62.652900000000002
 20
192.82599999999999
 30
0.0
 11
62.652900000000002
 21
243.244
 31
0.0
  0
LINE
  5
D9
  8
0
 62
     7
 10
110.65300000000001
 20
200.28399999999999
 30
0.0
 11
110.65300000000001
 21
236.28399999999999
 31
0.0
  0
LINE
  5
DA
  8
0
 62
     7
 10
30.652799999999999
 20
200.28399999999999
 30
0.0
 11
30.652799999999999
 21
236.28399999999999
 31
0.0
  0
LINE
  5
DB
  8
0
 62
     7
 10
34.652700000000003
 20
196.28399999999999
 30
0.0
 11
106.65300000000001
 21
196.28399999999999
 31
0.0
  0
LINE
  5
DC
  8
0
  6
AIGENLINE002
 62
     7
 10
92.653199999999998
 20
223.78399999999999
 30
0.0
 11
92.653199999999998
 21
232.78399999999999
 31
0.0
  0
LINE
  5
DD
  8
0
  6
AIGENLINE002
 62
     7
 10
88.153099999999995
 20
228.28399999999999
 30
0.0
 11
97.153199999999998
 21
228.28399999999999
 31
0.0
  0
LINE
  5
DE
  8
0
 62
     7
 10
34.652700000000003
 20
240.28399999999999
 30
0.0
 11
106.65300000000001
 21
240.28399999999999
 31
0.0
  0
LINE
  5
DF
  8
0
 62
     7
 10
110.65300000000001
 20
239.084
 30
0.0
 11
110.65300000000001
 21
255.328
 31
0.0
  0
LINE
  5
E0
  8
0
 62
     7
 10
100.626
 20
236.101
 30
0.0
 11
100.626
 21
247.423
 31
0.0
  0
LINE
  5
E1
  8
0
 62
     7
 10
106.626
 20
236.101
 30
0.0
 11
106.626
 21
247.423
 31
0.0
  0
LINE
  5
E2
  8
0
 62
     7
 10
98.414400000000001
 20
246.137
 30
0.0
 11
100.626
 21
246.72999999999999
 31
0.0
  0
LINE
  5
E3
  8
0
 62
     7
 10
100.626
 20
246.72999999999999
 30
0.0
 11
98.414400000000001
 21
247.322
 31
0.0
  0
LINE
  5
E4
  8
0
 62
     7
 10
98.414400000000001
 20
247.322
 30
0.0
 11
98.414400000000001
 21
246.137
 31
0.0
  0
LINE
  5
E5
  8
0
 62
     7
 10
112.863
 20
247.322
 30
0.0
 11
110.65300000000001
 21
246.72999999999999
 31
0.0
  0
LINE
  5
E6
  8
0
 62
     7
 10
110.65300000000001
 20
246.72999999999999
 30
0.0
 11
112.863
 21
246.137
 31
0.0
  0
LINE
  5
E7
  8
0
 62
     7
 10
112.863
 20
246.137
 30
0.0
 11
112.863
 21
247.322
 31
0.0
  0
LINE
  5
E8
  8
0
 62
     7
 10
114.113
 20
246.72999999999999
 30
0.0
 11
97.139200000000017
 21
246.72999999999999
 31
0.0
  0
LINE
  5
E9
  8
0
 62
     7
 10
92.653199999999998
 20
233.48400000000001
 30
0.0
 11
92.653199999999998
 21
255.328
 31
0.0
  0
LINE
  5
EA
  8
0
 62
     7
 10
108.44199999999999
 20
254.04900000000001
 30
0.0
 11
110.65300000000001
 21
254.64099999999999
 31
0.0
  0
LINE
  5
EB
  8
0
 62
     7
 10
110.65300000000001
 20
254.64099999999999
 30
0.0
 11
108.44199999999999
 21
255.23400000000001
 31
0.0
  0
LINE
  5
EC
  8
0
 62
     7
 10
108.44199999999999
 20
255.23400000000001
 30
0.0
 11
108.44199999999999
 21
254.04900000000001
 31
0.0
  0
LINE
  5
ED
  8
0
 62
     7
 10
94.863499999999988
 20
255.22
 30
0.0
 11
92.653199999999998
 21
254.62799999999999
 31
0.0
  0
LINE
  5
EE
  8
0
 62
     7
 10
92.653199999999998
 20
254.62799999999999
 30
0.0
 11
94.863499999999988
 21
254.035
 31
0.0
  0
LINE
  5
EF
  8
0
 62
     7
 10
94.863499999999988
 20
254.035
 30
0.0
 11
94.863499999999988
 21
255.22
 31
0.0
  0
LINE
  5
F0
  8
0
 62
     7
 10
110.652
 20
254.63499999999999
 30
0.0
 11
92.653800000000004
 21
254.63499999999999
 31
0.0
  0
LINE
  5
F1
  8
0
 62
     7
 10
50.782800000000002
 20
94.618099999999984
 30
0.0
 11
50.782800000000002
 21
93.318200000000004
 31
0.0
  0
LINE
  5
F2
  8
0
 62
     7
 10
47.582599999999992
 20
94.618099999999984
 30
0.0
 11
50.782800000000002
 21
94.618099999999984
 31
0.0
  0
LINE
  5
F3
  8
0
 62
     7
 10
47.182599999999987
 20
97.018300000000011
 30
0.0
 11
46.782600000000002
 21
94.818200000000004
 31
0.0
  0
LINE
  5
F4
  8
0
 62
     7
 10
47.582599999999992
 20
97.018300000000011
 30
0.0
 11
47.582599999999992
 21
93.318200000000004
 31
0.0
  0
LINE
  5
F5
  8
0
 62
     7
 10
47.582599999999992
 20
97.018300000000011
 30
0.0
 11
47.182599999999987
 21
97.018300000000011
 31
0.0
  0
LINE
  5
F6
  8
0
 62
     7
 10
46.782600000000002
 20
94.818200000000004
 30
0.0
 11
46.782600000000002
 21
93.318200000000004
 31
0.0
  0
LINE
  5
F7
  8
0
 62
     7
 10
50.782800000000002
 20
92.017999999999986
 30
0.0
 11
50.782800000000002
 21
93.318200000000004
 31
0.0
  0
LINE
  5
F8
  8
0
 62
     7
 10
47.582599999999992
 20
92.017999999999986
 30
0.0
 11
50.782800000000002
 21
92.017999999999986
 31
0.0
  0
LINE
  5
F9
  8
0
 62
     7
 10
47.182599999999987
 20
89.618200000000016
 30
0.0
 11
46.782600000000002
 21
91.818200000000004
 31
0.0
  0
LINE
  5
FA
  8
0
 62
     7
 10
47.582599999999992
 20
89.618200000000016
 30
0.0
 11
47.582599999999992
 21
93.318200000000004
 31
0.0
  0
LINE
  5
FB
  8
0
 62
     7
 10
47.582599999999992
 20
89.618200000000016
 30
0.0
 11
47.182599999999987
 21
89.618200000000016
 31
0.0
  0
LINE
  5
FC
  8
0
 62
     7
 10
46.782600000000002
 20
91.818200000000004
 30
0.0
 11
46.782600000000002
 21
93.318200000000004
 31
0.0
  0
LINE
  5
FD
  8
0
 62
     7
 10
44.087499999999999
 20
89.717699999999994
 30
0.0
 11
43.527700000000003
 21
89.717699999999994
 31
0.0
  0
LINE
  5
FE
  8
0
 62
     7
 10
43.527700000000003
 20
89.717699999999994
 30
0.0
 11
43.527700000000003
 21
96.917699999999996
 31
0.0
  0
LINE
  5
FF
  8
0
 62
     7
 10
43.527700000000003
 20
96.917699999999996
 30
0.0
 11
44.087499999999999
 21
96.917699999999996
 31
0.0
  0
LINE
  5
100
  8
0
 62
     7
 10
44.087499999999999
 20
96.917699999999996
 30
0.0
 11
44.087499999999999
 21
89.717699999999994
 31
0.0
  0
LINE
  5
101
  8
0
 62
     7
 10
40.137300000000003
 20
91.818600000000004
 30
0.0
 11
40.023000000000003
 21
92.318799999999996
 31
0.0
  0
ARC
  5
102
  8
0
 62
     7
 10
33.879924000000003
 20
93.330247999999997
 30
0.0
 40
6.2588049999999997
 50
355.43449600000002
 51
359.88688400000001
  0
ARC
  5
103
  8
0
 62
     7
 10
37.17007000000001
 20
93.074842000000004
 30
0.0
 40
2.9587779999999988
 50
347.53779300000002
 51
355.29321199999998
  0
ARC
  5
104
  8
0
 62
     7
 10
39.266646000000001
 20
92.615899999999996
 30
0.0
 40
0.812574
 50
338.554303
 51
347.23434300000002
  0
ARC
  5
105
  8
0
 62
     7
 10
39.262836
 20
91.820393999999979
 30
0.0
 40
0.8745049999999999
 50
347.30358000000001
 51
359.88092499999999
  0
ARC
  5
106
  8
0
 62
     7
 10
38.417543000000002
 20
91.977675000000005
 30
0.0
 40
1.7339990000000001
 50
337.67628300000001
 51
348.37249100000002
  0
ARC
  5
107
  8
0
 62
     7
 10
39.25740600000001
 20
94.824247999999997
 30
0.0
 40
0.881333
 50
347.14079099999998
 51
359.5870220000001
  0
ARC
  5
108
  8
0
 62
     7
 10
38.385247999999997
 20
94.989956000000006
 30
0.0
 40
1.7687959999999989
 50
337.68521399999997
 51
348.19527399999998
  0
ARC
  5
109
  8
0
 62
     7
 10
33.922769000000009
 20
93.307686000000004
 30
0.0
 40
6.2159559999999994
 50
0.094064
 51
4.5900910000000001
  0
ARC
  5
10A
  8
0
 62
     7
 10
37.219687
 20
93.564752999999996
 30
0.0
 40
2.9090489999999991
 50
4.7397539999999996
 51
12.635490000000001
  0
ARC
  5
10B
  8
0
 62
     7
 10
39.273410999999989
 20
94.019797999999994
 30
0.0
 40
0.805541
 50
13.007019
 51
21.754338000000001
  0
LINE
  5
10C
  8
0
 62
     7
 10
40.138699999999993
 20
94.817899999999995
 30
0.0
 11
40.023000000000003
 21
95.317400000000006
 31
0.0
  0
ARC
  5
10D
  8
0
 62
     7
 10
39.436435000000003
 20
91.818521999999987
 30
0.0
 40
0.8731700000000001
 50
167.40243699999999
 51
179.99644799999999
  0
ARC
  5
10E
  8
0
 62
     7
 10
40.26652399999999
 20
91.664332999999985
 30
0.0
 40
1.7171769999999991
 50
157.62089900000001
 51
168.42236
  0
ARC
  5
10F
  8
0
 62
     7
 10
44.702904999999987
 20
93.309814000000003
 30
0.0
 40
6.139645999999999
 50
179.91817499999999
 51
184.46414200000001
  0
ARC
  5
110
  8
0
 62
     7
 10
41.490254
 20
93.068912999999995
 30
0.0
 40
2.9180079999999999
 50
184.65825000000001
 51
192.42661899999999
  0
ARC
  5
111
  8
0
 62
     7
 10
39.449466000000001
 20
92.624258999999995
 30
0.0
 40
0.8293610000000001
 50
192.76638399999999
 51
201.66192799999999
  0
LINE
  5
112
  8
0
 62
     7
 10
38.563299999999998
 20
91.818600000000004
 30
0.0
 11
38.678699999999999
 21
91.318999999999988
 31
0.0
  0
ARC
  5
113
  8
0
 62
     7
 10
39.444192999999999
 20
94.821337
 30
0.0
 40
0.8812780000000001
 50
180.1789709999999
 51
192.64807300000001
  0
ARC
  5
114
  8
0
 62
     7
 10
40.299404000000003
 20
94.981103999999988
 30
0.0
 40
1.750999
 50
191.62160700000001
 51
202.24073899999999
  0
ARC
  5
115
  8
0
 62
     7
 10
44.752259000000002
 20
93.321664999999996
 30
0.0
 40
6.1889949999999994
 50
175.51977299999999
 51
180.028581
  0
ARC
  5
116
  8
0
 62
     7
 10
41.507466000000001
 20
93.565775999999985
 30
0.0
 40
2.9350659999999991
 50
167.60659100000001
 51
175.32257300000001
  0
ARC
  5
117
  8
0
 62
     7
 10
39.45108900000001
 20
94.012614999999997
 30
0.0
 40
0.8307219999999999
 50
158.40523400000001
 51
167.267382
  0
ARC
  5
118
  8
0
 62
     7
 10
39.432273000000002
 20
94.820304000000007
 30
0.0
 40
0.8693549999999998
 50
167.43765500000001
 51
180.11336
  0
ARC
  5
119
  8
0
 62
     7
 10
40.257854999999999
 20
94.668492000000001
 30
0.0
 40
1.7084799999999991
 50
157.62637100000001
 51
168.490329
  0
LINE
  5
11A
  8
0
  6
AIGENLINE002
 62
     7
 10
35.983600000000003
 20
93.317899999999995
 30
0.0
 11
80.081100000000006
 21
93.318600000000004
 31
0.0
  0
LINE
  5
11B
  8
0
 62
     7
 10
38.678000000000011
 20
95.318799999999996
 30
0.0
 11
40.023000000000003
 21
95.317400000000006
 31
0.0
  0
LINE
  5
11C
  8
0
 62
     7
 10
38.678699999999999
 20
94.318399999999997
 30
0.0
 11
40.021599999999992
 21
94.318399999999997
 31
0.0
  0
LINE
  5
11D
  8
0
 62
     7
 10
38.678699999999999
 20
91.318999999999988
 30
0.0
 11
40.021599999999992
 21
91.318999999999988
 31
0.0
  0
LINE
  5
11E
  8
0
 62
     7
 10
38.678000000000011
 20
92.318100000000015
 30
0.0
 11
40.023000000000003
 21
92.316699999999983
 31
0.0
  0
LINE
  5
11F
  8
0
 62
     7
 10
40.150399999999991
 20
91.645599999999988
 30
0.0
 11
40.151099999999992
 21
93.317899999999995
 31
0.0
  0
LINE
  5
120
  8
0
 62
     7
 10
40.151099999999992
 20
93.317899999999995
 30
0.0
 11
40.150399999999991
 21
94.990799999999993
 31
0.0
  0
LINE
  5
121
  8
0
 62
     7
 10
40.021599999999992
 20
91.318999999999988
 30
0.0
 11
40.150399999999991
 21
91.645599999999988
 31
0.0
  0
LINE
  5
122
  8
0
 62
     7
 10
38.551200000000001
 20
91.644900000000007
 30
0.0
 11
38.549799999999998
 21
94.990799999999993
 31
0.0
  0
LINE
  5
123
  8
0
 62
     7
 10
38.549799999999998
 20
94.990799999999993
 30
0.0
 11
38.678000000000011
 21
95.318799999999996
 31
0.0
  0
LINE
  5
124
  8
0
 62
     7
 10
38.551200000000001
 20
91.644900000000007
 30
0.0
 11
38.678699999999999
 21
91.318999999999988
 31
0.0
  0
LINE
  5
125
  8
0
 62
     7
 10
40.021599999999992
 20
91.318999999999988
 30
0.0
 11
40.150399999999991
 21
91.645599999999988
 31
0.0
  0
LINE
  5
126
  8
0
 62
     7
 10
40.023000000000003
 20
95.317400000000006
 30
0.0
 11
40.150399999999991
 21
94.990799999999993
 31
0.0
  0
LINE
  5
127
  8
0
 62
     7
 10
181.50800000000001
 20
152.53700000000001
 30
0.0
 11
181.50800000000001
 21
162.04400000000001
 31
0.0
  0
LINE
  5
128
  8
0
 62
     7
 10
159.50800000000001
 20
155.03700000000001
 30
0.0
 11
159.50800000000001
 21
162.04400000000001
 31
0.0
  0
LINE
  5
129
  8
0
 62
     7
 10
179.297
 20
160.75200000000001
 30
0.0
 11
181.50800000000001
 21
161.34399999999999
 31
0.0
  0
LINE
  5
12A
  8
0
 62
     7
 10
181.50800000000001
 20
161.34399999999999
 30
0.0
 11
179.297
 21
161.93600000000001
 31
0.0
  0
LINE
  5
12B
  8
0
 62
     7
 10
179.297
 20
161.93600000000001
 30
0.0
 11
179.297
 21
160.75200000000001
 31
0.0
  0
LINE
  5
12C
  8
0
 62
     7
 10
161.71899999999999
 20
161.93600000000001
 30
0.0
 11
159.50800000000001
 21
161.34399999999999
 31
0.0
  0
LINE
  5
12D
  8
0
 62
     7
 10
159.50800000000001
 20
161.34399999999999
 30
0.0
 11
161.71899999999999
 21
160.75200000000001
 31
0.0
  0
LINE
  5
12E
  8
0
 62
     7
 10
161.71899999999999
 20
160.75200000000001
 30
0.0
 11
161.71899999999999
 21
161.93600000000001
 31
0.0
  0
LINE
  5
12F
  8
0
 62
     7
 10
181.50700000000001
 20
161.33699999999999
 30
0.0
 11
159.50899999999999
 21
161.33699999999999
 31
0.0
  0
LINE
  5
130
  8
0
 62
     7
 10
123.875
 20
136.33699999999999
 30
0.0
 11
70.352900000000005
 21
136.33699999999999
 31
0.0
  0
LINE
  5
131
  8
0
 62
     7
 10
129.375
 20
134.33699999999999
 30
0.0
 11
111.053
 21
134.33699999999999
 31
0.0
  0
LINE
  5
132
  8
0
 62
     7
 10
129.375
 20
152.33699999999999
 30
0.0
 11
111.053
 21
152.33699999999999
 31
0.0
  0
LINE
  5
133
  8
0
 62
     7
 10
118.375
 20
143.33699999999999
 30
0.0
 11
82.212900000000005
 21
143.33699999999999
 31
0.0
  0
LINE
  5
134
  8
0
 62
     7
 10
129.239
 20
150.126
 30
0.0
 11
128.64699999999999
 21
152.33699999999999
 31
0.0
  0
LINE
  5
135
  8
0
 62
     7
 10
128.64699999999999
 20
152.33699999999999
 30
0.0
 11
128.054
 21
150.126
 31
0.0
  0
LINE
  5
136
  8
0
 62
     7
 10
128.054
 20
150.126
 30
0.0
 11
129.239
 21
150.126
 31
0.0
  0
LINE
  5
137
  8
0
 62
     7
 10
128.06800000000001
 20
136.547
 30
0.0
 11
128.661
 21
134.33699999999999
 31
0.0
  0
LINE
  5
138
  8
0
 62
     7
 10
128.661
 20
134.33699999999999
 30
0.0
 11
129.25299999999999
 21
136.547
 31
0.0
  0
LINE
  5
139
  8
0
 62
     7
 10
129.25299999999999
 20
136.547
 30
0.0
 11
128.06800000000001
 21
136.547
 31
0.0
  0
LINE
  5
13A
  8
0
 62
     7
 10
128.65299999999999
 20
152.33600000000001
 30
0.0
 11
128.65299999999999
 21
134.33799999999999
 31
0.0
  0
LINE
  5
13B
  8
0
 62
     7
 10
123.739
 20
150.126
 30
0.0
 11
123.14700000000001
 21
152.33699999999999
 31
0.0
  0
LINE
  5
13C
  8
0
 62
     7
 10
123.14700000000001
 20
152.33699999999999
 30
0.0
 11
122.554
 21
150.126
 31
0.0
  0
LINE
  5
13D
  8
0
 62
     7
 10
122.554
 20
150.126
 30
0.0
 11
123.739
 21
150.126
 31
0.0
  0
LINE
  5
13E
  8
0
 62
     7
 10
122.568
 20
138.547
 30
0.0
 11
123.161
 21
136.33699999999999
 31
0.0
  0
LINE
  5
13F
  8
0
 62
     7
 10
123.161
 20
136.33699999999999
 30
0.0
 11
123.753
 21
138.547
 31
0.0
  0
LINE
  5
140
  8
0
 62
     7
 10
123.753
 20
138.547
 30
0.0
 11
122.568
 21
138.547
 31
0.0
  0
LINE
  5
141
  8
0
 62
     7
 10
123.15300000000001
 20
152.33600000000001
 30
0.0
 11
123.15300000000001
 21
136.33799999999999
 31
0.0
  0
LINE
  5
142
  8
0
 62
     7
 10
118.239
 20
150.126
 30
0.0
 11
117.64700000000001
 21
152.33699999999999
 31
0.0
  0
LINE
  5
143
  8
0
 62
     7
 10
117.64700000000001
 20
152.33699999999999
 30
0.0
 11
117.054
 21
150.126
 31
0.0
  0
LINE
  5
144
  8
0
 62
     7
 10
117.054
 20
150.126
 30
0.0
 11
118.239
 21
150.126
 31
0.0
  0
LINE
  5
145
  8
0
 62
     7
 10
117.068
 20
145.548
 30
0.0
 11
117.66
 21
143.33699999999999
 31
0.0
  0
LINE
  5
146
  8
0
 62
     7
 10
117.66
 20
143.33699999999999
 30
0.0
 11
118.253
 21
145.548
 31
0.0
  0
LINE
  5
147
  8
0
 62
     7
 10
118.253
 20
145.548
 30
0.0
 11
117.068
 21
145.548
 31
0.0
  0
LINE
  5
148
  8
0
 62
     7
 10
117.65300000000001
 20
152.33600000000001
 30
0.0
 11
117.65300000000001
 21
143.33799999999999
 31
0.0
  0
ARC
  5
149
  8
0
  6
AIGENLINE001
 62
     7
 10
167.019092
 20
137.963008
 30
0.0
 40
1.0113000000000001
 50
137.940775
 51
179.79585
  0
ARC
  5
14A
  8
0
  6
AIGENLINE001
 62
     7
 10
23.117771999999999
 20
268.01133599999997
 30
0.0
 40
192.94786500000001
 50
317.894612
 51
318.96477199999998
  0
ARC
  5
14B
  8
0
  6
AIGENLINE001
 62
     7
 10
15.337389
 20
274.88361300000003
 30
0.0
 40
201.32872599999999
 50
318.44582000000003
 51
321.78446700000001
  0
ARC
  5
14C
  8
0
  6
AIGENLINE001
 62
     7
 10
178.50618499999999
 20
144.19809100000001
 30
0.0
 40
8.1387929999999997
 50
89.989200999999994
 51
104.563272
  0
ARC
  5
14D
  8
0
  6
AIGENLINE001
 62
     7
 10
178.198038
 20
145.62195500000001
 30
0.0
 40
6.6834619999999987
 50
105.075785
 51
125.56322
  0
ARC
  5
14E
  8
0
  6
AIGENLINE001
 62
     7
 10
177.41810799999999
 20
146.808155
 30
0.0
 40
5.2652019999999986
 50
126.16654699999999
 51
134.93006600000001
  0
ARC
  5
14F
  8
0
  6
AIGENLINE001
 62
     7
 10
175.75336899999999
 20
148.49359100000001
 30
0.0
 40
2.8962779999999988
 50
135.16241199999999
 51
140.47951599999999
  0
ARC
  5
150
  8
0
 62
     7
 10
180.469312
 20
151.29845700000001
 30
0.0
 40
1.0391330000000001
 50
2.1318060000000001
 51
87.887923999999998
  0
LINE
  5
151
  8
0
  6
AIGENLINE002
 62
     7
 10
183.5079999999999
 20
143.33699999999999
 30
0.0
 11
179.50800000000001
 21
143.33699999999999
 31
0.0
  0
LINE
  5
152
  8
0
  6
AIGENLINE002
 62
     7
 10
169.50800000000001
 20
150.33699999999999
 30
0.0
 11
169.50800000000001
 21
154.33699999999999
 31
0.0
  0
LINE
  5
153
  8
0
  6
AIGENLINE001
 62
     7
 10
159.50800000000001
 20
136.33699999999999
 30
0.0
 11
166.50800000000001
 21
136.33699999999999
 31
0.0
  0
LINE
  5
154
  8
0
  6
AIGENLINE001
 62
     7
 10
159.50800000000001
 20
138.33699999999999
 30
0.0
 11
164.00800000000001
 21
138.33699999999999
 31
0.0
  0
LINE
  5
155
  8
0
  6
AIGENLINE001
 62
     7
 10
159.50800000000001
 20
141.33699999999999
 30
0.0
 11
166.0079999999999
 21
141.33699999999999
 31
0.0
  0
LINE
  5
156
  8
0
  6
AIGENLINE001
 62
     7
 10
164.00800000000001
 20
138.33699999999999
 30
0.0
 11
166.0079999999999
 21
141.33699999999999
 31
0.0
  0
LINE
  5
157
  8
0
  6
AIGENLINE001
 62
     7
 10
166.0079999999999
 20
136.33699999999999
 30
0.0
 11
166.0079999999999
 21
137.96700000000001
 31
0.0
  0
LINE
  5
158
  8
0
  6
AIGENLINE001
 62
     7
 10
164.00800000000001
 20
136.33699999999999
 30
0.0
 11
164.00800000000001
 21
138.33699999999999
 31
0.0
  0
LINE
  5
159
  8
0
 62
     7
 10
181.50800000000001
 20
134.33699999999999
 30
0.0
 11
181.50800000000001
 21
151.33699999999999
 31
0.0
  0
LINE
  5
15A
  8
0
 62
     7
 10
180.50800000000001
 20
152.33699999999999
 30
0.0
 11
159.50800000000001
 21
152.33699999999999
 31
0.0
  0
LINE
  5
15B
  8
0
 62
     7
 10
181.50800000000001
 20
134.33699999999999
 30
0.0
 11
159.50800000000001
 21
134.33699999999999
 31
0.0
  0
ARC
  5
15C
  8
0
  6
AIGENLINE001
 62
     7
 10
151.996354
 20
137.963008
 30
0.0
 40
1.011301
 50
0.20415
 51
42.05918599999999
  0
ARC
  5
15D
  8
0
  6
AIGENLINE001
 62
     7
 10
305.15587399999998
 20
276.23529100000002
 30
0.0
 40
205.33080100000001
 50
221.06949399999999
 51
222.075793
  0
ARC
  5
15E
  8
0
  6
AIGENLINE001
 62
     7
 10
303.67805800000002
 20
274.88361300000003
 30
0.0
 40
201.32872599999999
 50
218.215553
 51
221.55420000000001
  0
ARC
  5
15F
  8
0
  6
AIGENLINE001
 62
     7
 10
140.509264
 20
144.19852800000001
 30
0.0
 40
8.1383559999999981
 50
75.436316000000005
 51
90.010793000000007
  0
ARC
  5
160
  8
0
  6
AIGENLINE001
 62
     7
 10
140.81750600000001
 20
145.62289100000001
 30
0.0
 40
6.6825190000000001
 50
54.434269999999991
 51
74.923356000000013
  0
ARC
  5
161
  8
0
  6
AIGENLINE001
 62
     7
 10
141.596564
 20
146.808189
 30
0.0
 40
5.2655050000000001
 50
45.066082000000009
 51
53.828293000000002
  0
ARC
  5
162
  8
0
  6
AIGENLINE001
 62
     7
 10
143.263248
 20
148.495296
 30
0.0
 40
2.8940250000000001
 50
39.513503
 51
44.834321000000003
  0
ARC
  5
163
  8
0
 62
     7
 10
138.54612399999999
 20
151.29848100000001
 30
0.0
 40
1.0391209999999991
 50
92.130477999999997
 51
177.86949300000001
  0
LINE
  5
164
  8
0
  6
AIGENLINE002
 62
     7
 10
159.50800000000001
 20
132.33699999999999
 30
0.0
 11
159.50800000000001
 21
154.33699999999999
 31
0.0
  0
LINE
  5
165
  8
0
  6
AIGENLINE001
 62
     7
 10
159.50800000000001
 20
136.33699999999999
 30
0.0
 11
152.5079999999999
 21
136.33699999999999
 31
0.0
  0
LINE
  5
166
  8
0
  6
AIGENLINE001
 62
     7
 10
159.50800000000001
 20
138.33699999999999
 30
0.0
 11
155.00800000000001
 21
138.33699999999999
 31
0.0
  0
LINE
  5
167
  8
0
  6
AIGENLINE001
 62
     7
 10
159.50800000000001
 20
141.33699999999999
 30
0.0
 11
153.00800000000001
 21
141.33699999999999
 31
0.0
  0
LINE
  5
168
  8
0
  6
AIGENLINE001
 62
     7
 10
155.00800000000001
 20
138.33699999999999
 30
0.0
 11
153.00800000000001
 21
141.33699999999999
 31
0.0
  0
LINE
  5
169
  8
0
  6
AIGENLINE001
 62
     7
 10
153.00800000000001
 20
136.33699999999999
 30
0.0
 11
153.00800000000001
 21
137.96700000000001
 31
0.0
  0
LINE
  5
16A
  8
0
  6
AIGENLINE001
 62
     7
 10
155.00800000000001
 20
136.33699999999999
 30
0.0
 11
155.00800000000001
 21
138.33699999999999
 31
0.0
  0
LINE
  5
16B
  8
0
 62
     7
 10
137.50800000000001
 20
134.33699999999999
 30
0.0
 11
137.50800000000001
 21
151.33699999999999
 31
0.0
  0
LINE
  5
16C
  8
0
 62
     7
 10
138.50700000000001
 20
152.33699999999999
 30
0.0
 11
159.50800000000001
 21
152.33699999999999
 31
0.0
  0
LINE
  5
16D
  8
0
 62
     7
 10
137.50700000000001
 20
134.33699999999999
 30
0.0
 11
159.50800000000001
 21
134.33699999999999
 31
0.0
  0
ARC
  5
16E
  8
0
  6
AIGENLINE001
 62
     7
 10
35.648878000000011
 20
144.247928
 30
0.0
 40
8.0889579999999999
 50
79.178150000000002
 51
89.973219000000014
  0
ARC
  5
16F
  8
0
  6
AIGENLINE001
 62
     7
 10
35.234439000000002
 20
141.747197
 30
0.0
 40
10.623211
 50
68.922972000000001
 51
79.515018000000012
  0
ARC
  5
170
  8
0
  6
AIGENLINE001
 62
     7
 10
34.376449999999998
 20
139.262314
 30
0.0
 40
13.250729
 50
56.694307999999999
 51
69.325243
  0
ARC
  5
171
  8
0
  6
AIGENLINE001
 62
     7
 10
40.396200999999991
 20
147.544813
 30
0.0
 40
1.0310109999999999
 50
91.424345000000002
 51
168.673721
  0
ARC
  5
172
  8
0
  6
AIGENLINE001
 62
     7
 10
40.368625999999999
 20
147.56550300000001
 30
0.0
 40
1.0100049999999989
 50
56.252626999999997
 51
89.889521999999985
  0
ARC
  5
173
  8
0
  6
AIGENLINE001
 62
     7
 10
69.664105000000006
 20
138.67394899999999
 30
0.0
 40
0.5113410000000001
 50
119.73307800000001
 51
179.272729
  0
LINE
  5
174
  8
0
  6
AIGENLINE001
 62
     7
 10
69.152799999999999
 20
136.33699999999999
 30
0.0
 11
69.152799999999999
 21
138.68100000000001
 31
0.0
  0
ARC
  5
175
  8
0
  6
AIGENLINE001
 62
     7
 10
55.641528000000001
 20
138.67394899999999
 30
0.0
 40
0.5113410000000001
 50
0.727251
 51
60.266902000000002
  0
ARC
  5
176
  8
0
  6
AIGENLINE001
 62
     7
 10
84.811752999999996
 20
145.09429700000001
 30
0.0
 40
3.6105839999999989
 50
124.281121
 51
126.719054
  0
ARC
  5
177
  8
0
  6
AIGENLINE001
 62
     7
 10
88.744845999999995
 20
139.443006
 30
0.0
 40
10.495697
 50
120.74238800000001
 51
124.645444
  0
ARC
  5
178
  8
0
  6
AIGENLINE001
 62
     7
 10
90.579234999999997
 20
136.44412800000001
 30
0.0
 40
14.010925
 50
105.115156
 51
120.920877
  0
ARC
  5
179
  8
0
  6
AIGENLINE001
 62
     7
 10
89.761020000000002
 20
139.218346
 30
0.0
 40
11.119524999999999
 50
90.561161000000027
 51
104.772486
  0
ARC
  5
17A
  8
0
  6
AIGENLINE001
 62
     7
 10
84.738973000000001
 20
147.054755
 30
0.0
 40
3.8869910000000001
 50
119.990405
 51
122.437901
  0
ARC
  5
17B
  8
0
  6
AIGENLINE001
 62
     7
 10
88.922888999999998
 20
139.939696
 30
0.0
 40
12.140946
 50
114.461133
 51
120.30767400000001
  0
ARC
  5
17C
  8
0
  6
AIGENLINE001
 62
     7
 10
90.273178000000001
 20
137.19708
 30
0.0
 40
15.196801000000001
 50
99.613783000000012
 51
114.813419
  0
ARC
  5
17D
  8
0
  6
AIGENLINE001
 62
     7
 10
89.696823999999992
 20
140.01996199999999
 30
0.0
 40
12.317689
 50
90.203950999999989
 51
99.163416999999995
  0
ARC
  5
17E
  8
0
  6
AIGENLINE001
 62
     7
 10
169.57057599999999
 20
2.9230160000000001
 30
0.0
 40
169.05947499999999
 50
123.378908
 51
126.33138
  0
ARC
  5
17F
  8
0
  6
AIGENLINE001
 62
     7
 10
200.105988
 20
-42.67506199999999
 30
0.0
 40
223.93631999999999
 50
121.63403599999999
 51
123.484257
  0
LINE
  5
180
  8
0
  6
AIGENLINE002
 62
     7
 10
81.512900000000016
 20
143.33699999999999
 30
0.0
 11
73.793000000000006
 21
143.33699999999999
 31
0.0
  0
LINE
  5
181
  8
0
  6
AIGENLINE002
 62
     7
 10
77.652900000000002
 20
140.83699999999999
 30
0.0
 11
77.652900000000002
 21
145.83699999999999
 31
0.0
  0
ARC
  5
182
  8
0
  6
AIGENLINE001
 62
     7
 10
47.976384000000003
 20
143.41367399999999
 30
0.0
 40
2.0777669999999988
 50
272.108812
 51
357.881327
  0
ARC
  5
183
  8
0
  6
AIGENLINE001
 62
     7
 10
48.052667999999997
 20
143.33703199999999
 30
0.0
 40
2.000062999999999
 50
359.99507499999999
 51
89.995045999999988
  0
ARC
  5
184
  8
0
  6
AIGENLINE001
 62
     7
 10
46.129229000000002
 20
143.413848
 30
0.0
 40
2.077941
 50
182.12332599999991
 51
267.89150899999999
  0
ARC
  5
185
  8
0
  6
AIGENLINE001
 62
     7
 10
46.052863999999992
 20
143.3369459999999
 30
0.0
 40
2.0001489999999991
 50
90.00246700000001
 51
180.002477
  0
LINE
  5
186
  8
0
  6
AIGENLINE001
 62
     7
 10
46.052799999999991
 20
141.33699999999999
 30
0.0
 11
48.052799999999991
 21
141.33699999999999
 31
0.0
  0
LINE
  5
187
  8
0
  6
AIGENLINE001
 62
     7
 10
46.052799999999991
 20
145.33699999999999
 30
0.0
 11
48.052799999999991
 21
145.33699999999999
 31
0.0
  0
ARC
  5
188
  8
0
  6
AIGENLINE001
 62
     7
 10
78.576442
 20
143.41384300000001
 30
0.0
 40
2.0779359999999998
 50
272.10837800000002
 51
357.87682599999999
  0
ARC
  5
189
  8
0
  6
AIGENLINE001
 62
     7
 10
78.652801999999994
 20
143.3369459999999
 30
0.0
 40
2.0001489999999991
 50
359.99754300000001
 51
89.997512999999984
  0
ARC
  5
18A
  8
0
  6
AIGENLINE001
 62
     7
 10
76.729444000000001
 20
143.41384300000001
 30
0.0
 40
2.0779359999999998
 50
182.12319400000001
 51
267.89164199999999
  0
ARC
  5
18B
  8
0
  6
AIGENLINE001
 62
     7
 10
76.653083999999993
 20
143.3369459999999
 30
0.0
 40
2.0001489999999991
 50
90.00246700000001
 51
180.002477
  0
LINE
  5
18C
  8
0
  6
AIGENLINE001
 62
     7
 10
76.653000000000006
 20
141.33699999999999
 30
0.0
 11
78.652900000000002
 21
141.33699999999999
 31
0.0
  0
LINE
  5
18D
  8
0
  6
AIGENLINE001
 62
     7
 10
76.653000000000006
 20
145.33699999999999
 30
0.0
 11
78.652900000000002
 21
145.33699999999999
 31
0.0
  0
ARC
  5
18E
  8
0
  6
AIGENLINE001
 62
     7
 10
187.151025
 20
-21.088348
 30
0.0
 40
200.76273399999999
 50
121.365774
 51
125.997462
  0
ARC
  5
18F
  8
0
  6
AIGENLINE001
 62
     7
 10
141.232023
 20
292.21411799999998
 30
0.0
 40
175.273461
 50
237.89186100000001
 51
240.86445399999999
  0
ARC
  5
190
  8
0
  6
AIGENLINE001
 62
     7
 10
166.357946
 20
332.98309399999999
 30
0.0
 40
223.161914
 50
235.80224899999999
 51
237.99113700000001
  0
ARC
  5
191
  8
0
  6
AIGENLINE001
 62
     7
 10
154.384995
 20
315.88548100000003
 30
0.0
 40
200.28737100000001
 50
235.74663100000001
 51
240.632105
  0
ARC
  5
192
  8
0
 62
     7
 10
109.61463000000001
 20
151.29848100000001
 30
0.0
 40
1.0391209999999991
 50
2.130487
 51
87.869502999999995
  0
ARC
  5
193
  8
0
 62
     7
 10
31.690774000000001
 20
151.29886200000001
 30
0.0
 40
1.0387200000000001
 50
92.100432999999981
 51
177.88966600000001
  0
LINE
  5
194
  8
0
  6
AIGENLINE002
 62
     7
 10
50.912599999999998
 20
143.33699999999999
 30
0.0
 11
43.193000000000012
 21
143.33699999999999
 31
0.0
  0
LINE
  5
195
  8
0
  6
AIGENLINE002
 62
     7
 10
47.052700000000002
 20
140.83699999999999
 30
0.0
 11
47.052700000000002
 21
145.83699999999999
 31
0.0
  0
LINE
  5
196
  8
0
  6
AIGENLINE002
 62
     7
 10
62.652900000000002
 20
132.33699999999999
 30
0.0
 11
62.652900000000002
 21
154.33699999999999
 31
0.0
  0
LINE
  5
197
  8
0
  6
AIGENLINE001
 62
     7
 10
100.65300000000001
 20
150.33699999999999
 30
0.0
 11
89.652999999999992
 21
150.33699999999999
 31
0.0
  0
LINE
  5
198
  8
0
  6
AIGENLINE001
 62
     7
 10
100.65300000000001
 20
150.33699999999999
 30
0.0
 11
100.65300000000001
 21
152.33699999999999
 31
0.0
  0
LINE
  5
199
  8
0
  6
AIGENLINE002
 62
     7
 10
92.652999999999992
 20
148.25200000000001
 30
0.0
 11
92.652999999999992
 21
154.476
 31
0.0
  0
LINE
  5
19A
  8
0
  6
AIGENLINE001
 62
     7
 10
106.65300000000001
 20
134.33699999999999
 30
0.0
 11
106.65300000000001
 21
152.33699999999999
 31
0.0
  0
LINE
  5
19B
  8
0
 62
     7
 10
110.65300000000001
 20
134.33699999999999
 30
0.0
 11
110.65300000000001
 21
151.33699999999999
 31
0.0
  0
LINE
  5
19C
  8
0
  6
AIGENLINE001
 62
     7
 10
69.652900000000002
 20
136.33699999999999
 30
0.0
 11
55.652799999999999
 21
136.33699999999999
 31
0.0
  0
LINE
  5
19D
  8
0
  6
AIGENLINE001
 62
     7
 10
67.152900000000002
 20
138.33699999999999
 30
0.0
 11
58.152900000000002
 21
138.33699999999999
 31
0.0
  0
LINE
  5
19E
  8
0
  6
AIGENLINE001
 62
     7
 10
69.152799999999999
 20
141.33699999999999
 30
0.0
 11
56.152799999999999
 21
141.33699999999999
 31
0.0
  0
LINE
  5
19F
  8
0
  6
AIGENLINE001
 62
     7
 10
67.152900000000002
 20
138.33699999999999
 30
0.0
 11
69.152799999999999
 21
141.33699999999999
 31
0.0
  0
LINE
  5
1A0
  8
0
  6
AIGENLINE001
 62
     7
 10
67.152900000000002
 20
136.33699999999999
 30
0.0
 11
67.152900000000002
 21
138.33699999999999
 31
0.0
  0
LINE
  5
1A1
  8
0
  6
AIGENLINE001
 62
     7
 10
58.152900000000002
 20
138.33699999999999
 30
0.0
 11
56.152799999999999
 21
141.33699999999999
 31
0.0
  0
LINE
  5
1A2
  8
0
  6
AIGENLINE001
 62
     7
 10
56.152799999999999
 20
136.33699999999999
 30
0.0
 11
56.152799999999999
 21
138.68100000000001
 31
0.0
  0
LINE
  5
1A3
  8
0
  6
AIGENLINE001
 62
     7
 10
58.152700000000003
 20
136.33699999999999
 30
0.0
 11
58.152700000000003
 21
138.33699999999999
 31
0.0
  0
LINE
  5
1A4
  8
0
  6
AIGENLINE001
 62
     7
 10
37.052799999999998
 20
134.33699999999999
 30
0.0
 11
39.385300000000001
 21
147.74700000000001
 31
0.0
  0
LINE
  5
1A5
  8
0
 62
     7
 10
30.652799999999999
 20
134.33699999999999
 30
0.0
 11
30.652799999999999
 21
151.33699999999999
 31
0.0
  0
LINE
  5
1A6
  8
0
 62
     7
 10
31.652699999999999
 20
152.33699999999999
 30
0.0
 11
109.65300000000001
 21
152.33699999999999
 31
0.0
  0
LINE
  5
1A7
  8
0
 62
     7
 10
30.652799999999999
 20
134.33699999999999
 30
0.0
 11
110.65300000000001
 21
134.33699999999999
 31
0.0
  0
LINE
  5
1A8
  8
0
 62
     7
 10
60.5824
 20
98.996099999999998
 30
0.0
 11
62.792799999999993
 21
99.587999999999994
 31
0.0
  0
LINE
  5
1A9
  8
0
 62
     7
 10
62.792799999999993
 20
99.587999999999994
 30
0.0
 11
60.5824
 21
100.181
 31
0.0
  0
LINE
  5
1AA
  8
0
 62
     7
 10
60.5824
 20
100.181
 30
0.0
 11
60.5824
 21
98.996099999999998
 31
0.0
  0
LINE
  5
1AB
  8
0
 62
     7
 10
75.581000000000003
 20
98.996099999999998
 30
0.0
 11
77.791399999999996
 21
99.587999999999994
 31
0.0
  0
LINE
  5
1AC
  8
0
 62
     7
 10
77.791399999999996
 20
99.587999999999994
 30
0.0
 11
75.581000000000003
 21
100.181
 31
0.0
  0
LINE
  5
1AD
  8
0
 62
     7
 10
75.581000000000003
 20
100.181
 30
0.0
 11
75.581000000000003
 21
98.996099999999998
 31
0.0
  0
LINE
  5
1AE
  8
0
 62
     7
 10
68.001800000000003
 20
100.166
 30
0.0
 11
65.791399999999996
 21
99.574200000000005
 31
0.0
  0
LINE
  5
1AF
  8
0
 62
     7
 10
65.791399999999996
 20
99.574200000000005
 30
0.0
 11
68.001800000000003
 21
98.981700000000004
 31
0.0
  0
LINE
  5
1B0
  8
0
 62
     7
 10
68.001800000000003
 20
98.981700000000004
 30
0.0
 11
68.001800000000003
 21
100.166
 31
0.0
  0
LINE
  5
1B1
  8
0
 62
     7
 10
56.003100000000003
 20
100.166
 30
0.0
 11
53.792400000000001
 21
99.574200000000005
 31
0.0
  0
LINE
  5
1B2
  8
0
 62
     7
 10
53.792400000000001
 20
99.574200000000005
 30
0.0
 11
56.003100000000003
 21
98.981700000000004
 31
0.0
  0
LINE
  5
1B3
  8
0
 62
     7
 10
56.003100000000003
 20
98.981700000000004
 30
0.0
 11
56.003100000000003
 21
100.166
 31
0.0
  0
LINE
  5
1B4
  8
0
 62
     7
 10
77.791399999999996
 20
99.581100000000006
 30
0.0
 11
53.792400000000001
 21
99.581100000000006
 31
0.0
  0
LINE
  5
1B5
  8
0
 62
     7
 10
77.791399999999996
 20
100.161
 30
0.0
 11
77.7911
 21
94.618799999999979
 31
0.0
  0
LINE
  5
1B6
  8
0
 62
     7
 10
65.7911
 20
100.161
 30
0.0
 11
65.7928
 21
94.618799999999979
 31
0.0
  0
LINE
  5
1B7
  8
0
 62
     7
 10
62.793100000000003
 20
100.161
 30
0.0
 11
62.791699999999999
 21
94.618799999999979
 31
0.0
  0
LINE
  5
1B8
  8
0
 62
     7
 10
53.792400000000001
 20
100.161
 30
0.0
 11
53.792400000000001
 21
94.620099999999994
 31
0.0
  0
LINE
  5
1B9
  8
0
 62
     7
 10
30.652799999999999
 20
152.53700000000001
 30
0.0
 11
30.652799999999999
 21
162.03
 31
0.0
  0
LINE
  5
1BA
  8
0
 62
     7
 10
110.65300000000001
 20
152.53700000000001
 30
0.0
 11
110.65300000000001
 21
162.03
 31
0.0
  0
LINE
  5
1BB
  8
0
 62
     7
 10
47.052700000000002
 20
146.53700000000001
 30
0.0
 11
47.052700000000002
 21
162.03
 31
0.0
  0
LINE
  5
1BC
  8
0
 62
     7
 10
77.652900000000002
 20
146.53700000000001
 30
0.0
 11
77.652900000000002
 21
162.03
 31
0.0
  0
LINE
  5
1BD
  8
0
 62
     7
 10
108.44199999999999
 20
160.751
 30
0.0
 11
110.65300000000001
 21
161.34399999999999
 31
0.0
  0
LINE
  5
1BE
  8
0
 62
     7
 10
110.65300000000001
 20
161.34399999999999
 30
0.0
 11
108.44199999999999
 21
161.93600000000001
 31
0.0
  0
LINE
  5
1BF
  8
0
 62
     7
 10
108.44199999999999
 20
161.93600000000001
 30
0.0
 11
108.44199999999999
 21
160.751
 31
0.0
  0
LINE
  5
1C0
  8
0
 62
     7
 10
49.263500000000001
 20
161.922
 30
0.0
 11
47.052700000000002
 21
161.33000000000001
 31
0.0
  0
LINE
  5
1C1
  8
0
 62
     7
 10
47.052700000000002
 20
161.33000000000001
 30
0.0
 11
49.263500000000001
 21
160.73699999999999
 31
0.0
  0
LINE
  5
1C2
  8
0
 62
     7
 10
49.263500000000001
 20
160.73699999999999
 30
0.0
 11
49.263500000000001
 21
161.922
 31
0.0
  0
LINE
  5
1C3
  8
0
 62
     7
 10
75.4422
 20
161.922
 30
0.0
 11
77.652900000000002
 21
161.33000000000001
 31
0.0
  0
LINE
  5
1C4
  8
0
 62
     7
 10
77.652900000000002
 20
161.33000000000001
 30
0.0
 11
75.4422
 21
160.73699999999999
 31
0.0
  0
LINE
  5
1C5
  8
0
 62
     7
 10
75.4422
 20
160.73699999999999
 30
0.0
 11
75.4422
 21
161.922
 31
0.0
  0
LINE
  5
1C6
  8
0
 62
     7
 10
44.841999999999999
 20
161.922
 30
0.0
 11
47.052700000000002
 21
161.33000000000001
 31
0.0
  0
LINE
  5
1C7
  8
0
 62
     7
 10
47.052700000000002
 20
161.33000000000001
 30
0.0
 11
44.841999999999999
 21
160.73699999999999
 31
0.0
  0
LINE
  5
1C8
  8
0
 62
     7
 10
44.841999999999999
 20
160.73699999999999
 30
0.0
 11
44.841999999999999
 21
161.922
 31
0.0
  0
LINE
  5
1C9
  8
0
 62
     7
 10
32.863500000000002
 20
161.922
 30
0.0
 11
30.652799999999999
 21
161.33000000000001
 31
0.0
  0
LINE
  5
1CA
  8
0
 62
     7
 10
30.652799999999999
 20
161.33000000000001
 30
0.0
 11
32.863500000000002
 21
160.73699999999999
 31
0.0
  0
LINE
  5
1CB
  8
0
 62
     7
 10
32.863500000000002
 20
160.73699999999999
 30
0.0
 11
32.863500000000002
 21
161.922
 31
0.0
  0
LINE
  5
1CC
  8
0
 62
     7
 10
110.652
 20
161.33699999999999
 30
0.0
 11
30.6538
 21
161.33699999999999
 31
0.0
  0
LINE
  5
1CD
  8
0
 62
     7
 10
157.02500000000001
 20
150.126
 30
0.0
 11
157.61799999999999
 21
152.33699999999999
 31
0.0
  0
LINE
  5
1CE
  8
0
 62
     7
 10
157.61799999999999
 20
152.33699999999999
 30
0.0
 11
158.21000000000001
 21
150.126
 31
0.0
  0
LINE
  5
1CF
  8
0
 62
     7
 10
158.21000000000001
 20
150.126
 30
0.0
 11
157.02500000000001
 21
150.126
 31
0.0
  0
LINE
  5
1D0
  8
0
 62
     7
 10
157.02500000000001
 20
143.548
 30
0.0
 11
157.61799999999999
 21
141.33699999999999
 31
0.0
  0
LINE
  5
1D1
  8
0
 62
     7
 10
157.61799999999999
 20
141.33699999999999
 30
0.0
 11
158.21000000000001
 21
143.548
 31
0.0
  0
LINE
  5
1D2
  8
0
 62
     7
 10
158.21000000000001
 20
143.548
 30
0.0
 11
157.02500000000001
 21
143.548
 31
0.0
  0
LINE
  5
1D3
  8
0
 62
     7
 10
157.61099999999999
 20
152.33699999999999
 30
0.0
 11
157.61099999999999
 21
141.339
 31
0.0
  0
TEXT
  5
1D4
  8
_________2
 62
     7
 10
26.512799999999999
 20
60.020800000000001
 30
0.0
 40
3.9357000000000002
  1
※壁取付部には厚さ30mm以上の補強木を入れてください。
 41
0.5
  0
TEXT
  5
1D5
  8
_________2
 62
     7
 10
29.525700000000001
 20
22.2272
 30
0.0
 40
3.9357000000000002
  1
重量：5.0kg、オーバーフローなし
 41
0.5
  0
LINE
  5
1D6
  8
_________2
 62
     7
 10
105.239
 20
17.4285
 30
0.0
 11
105.239
 21
0.4485540000000001
 31
0.0
  0
LINE
  5
1D7
  8
_________2
 62
     7
 10
81.679900000000004
 20
51.324300000000001
 30
0.0
 11
79.493700000000004
 21
51.324300000000001
 31
0.0
  0
LINE
  5
1D8
  8
_________2
 62
     7
 10
82.172600000000017
 20
51.324300000000001
 30
0.0
 11
81.920400000000001
 21
51.324300000000001
 31
0.0
  0
LINE
  5
1D9
  8
_________2
 62
     7
 10
82.665199999999984
 20
51.324300000000001
 30
0.0
 11
85.590100000000007
 21
51.324300000000001
 31
0.0
  0
LINE
  5
1DA
  8
_________2
 62
     7
 10
82.172600000000017
 20
51.324300000000001
 30
0.0
 11
82.424800000000005
 21
51.324300000000001
 31
0.0
  0
LINE
  5
1DB
  8
_________2
 62
     7
 10
75.776399999999995
 20
51.324300000000001
 30
0.0
 11
73.589399999999998
 21
51.324300000000001
 31
0.0
  0
LINE
  5
1DC
  8
_________2
 62
     7
 10
76.2684
 20
51.324300000000001
 30
0.0
 11
76.016900000000007
 21
51.324300000000001
 31
0.0
  0
LINE
  5
1DD
  8
_________2
 62
     7
 10
76.2684
 20
51.817
 30
0.0
 11
76.2684
 21
54.003900000000002
 31
0.0
  0
LINE
  5
1DE
  8
_________2
 62
     7
 10
76.2684
 20
51.324300000000001
 30
0.0
 11
76.2684
 21
51.576900000000002
 31
0.0
  0
LINE
  5
1DF
  8
_________2
 62
     7
 10
76.76100000000001
 20
51.324300000000001
 30
0.0
 11
78.947999999999993
 21
51.324300000000001
 31
0.0
  0
LINE
  5
1E0
  8
_________2
 62
     7
 10
76.2684
 20
51.324300000000001
 30
0.0
 11
76.520499999999998
 21
51.324300000000001
 31
0.0
  0
LINE
  5
1E1
  8
_________2
 62
     7
 10
76.2684
 20
50.832399999999993
 30
0.0
 11
76.2684
 21
48.645699999999998
 31
0.0
  0
LINE
  5
1E2
  8
_________2
 62
     7
 10
76.2684
 20
51.324300000000001
 30
0.0
 11
76.2684
 21
51.072800000000001
 31
0.0
  0
LINE
  5
1E3
  8
_________2
 62
     7
 10
79.979399999999984
 20
50.104799999999997
 30
0.0
 11
85.157399999999996
 21
49.240000000000002
 31
0.0
  0
LINE
  5
1E4
  8
_________2
 62
     7
 10
79.979399999999984
 20
52.544199999999989
 30
0.0
 11
85.157399999999996
 21
53.409700000000001
 31
0.0
  0
LINE
  5
1E5
  8
_________2
 62
     7
 10
85.157399999999996
 20
49.240000000000002
 30
0.0
 11
85.157399999999996
 21
53.409700000000001
 31
0.0
  0
LINE
  5
1E6
  8
_________2
 62
     7
 10
79.979399999999984
 20
50.104799999999997
 30
0.0
 11
79.979399999999984
 21
52.544199999999989
 31
0.0
  0
ARC
  5
1E7
  8
_________2
 62
     7
 10
76.221766000000002
 20
51.277380999999998
 30
0.0
 40
1.267714
 50
2.1220840000000001
 51
87.894083999999992
  0
ARC
  5
1E8
  8
_________2
 62
     7
 10
76.315297000000001
 20
51.277734999999993
 30
0.0
 40
1.267374999999999
 50
92.122849999999985
 51
177.893304
  0
ARC
  5
1E9
  8
_________2
 62
     7
 10
76.315273000000005
 20
51.371245999999992
 30
0.0
 40
1.267363
 50
182.121815
 51
267.87821400000001
  0
ARC
  5
1EA
  8
_________2
 62
     7
 10
76.221461000000005
 20
51.371928999999987
 30
0.0
 40
1.2680439999999991
 50
272.11916400000001
 51
357.84848499999998
  0
ARC
  5
1EB
  8
_________2
 62
     7
 10
76.187981999999991
 20
51.244312999999998
 30
0.0
 40
2.1668310000000002
 50
2.1161439999999989
 51
87.874379000000005
  0
ARC
  5
1EC
  8
_________2
 62
     7
 10
76.348411999999996
 20
51.245334999999997
 30
0.0
 40
2.1657980000000001
 50
92.118487999999999
 51
177.909886
  0
ARC
  5
1ED
  8
_________2
 62
     7
 10
76.348354
 20
51.404327000000002
 30
0.0
 40
2.1657779999999991
 50
182.11700400000001
 51
267.88302499999998
  0
ARC
  5
1EE
  8
_________2
 62
     7
 10
76.188378999999983
 20
51.405009999999997
 30
0.0
 40
2.1664590000000001
 50
272.11546800000002
 51
357.86560400000002
  0
TEXT
  5
1EF
  8
_________2
 62
     7
 10
109.544
 20
23.199100000000001
 30
0.0
 40
3.0923400000000001
  1
図番
 41
0.5
  0
LINE
  5
1F0
  8
_________2
 62
     7
 10
108.489
 20
27.4283
 30
0.0
 11
188.49000000000001
 21
27.4283
 31
0.0
  0
TEXT
  5
1F1
  8
_________2
 62
     7
 10
109.544
 20
33.198900000000002
 30
0.0
 40
3.0923400000000001
  1
品番
 41
0.5
  0
TEXT
  5
1F2
  8
_________2
 62
     7
 10
109.544
 20
53.338000000000001
 30
0.0
 40
3.0923400000000001
  1
名称
 41
0.5
  0
TEXT
  5
1F3
  8
_________2
 62
     7
 10
96.784058333333334
 20
48.341900000000003
 30
0.0
 40
3.6545800000000002
  1
mm
 41
0.5
 72
     1
 11
98.306799999999996
 21
48.341900000000003
 31
0.0
  0
TEXT
  5
1F4
  8
_________2
 62
     7
 10
90.582099999999997
 20
53.338000000000001
 30
0.0
 40
3.0923400000000001
  1
単位
 41
0.5
  0
TEXT
  5
1F5
  8
_________2
 62
     7
 10
90.582099999999997
 20
40.930399999999999
 30
0.0
 40
3.0923400000000001
  1
尺度
 41
0.5
  0
TEXT
  5
1F6
  8
_________2
 62
     7
 10
95.487658666666675
 20
34.7378
 30
0.0
 40
3.6545800000000002
  1
1 ： 5
 41
0.5
 72
     1
 11
98.898600000000002
 21
34.7378
 31
0.0
  0
TEXT
  5
1F7
  8
_________2
 62
     7
 10
143.56937500000001
 20
30.627800000000001
 30
0.0
 40
3.9357000000000002
  1
SB1513
 41
0.5
 72
     1
 11
148.489
 21
30.627800000000001
 31
0.0
  0
TEXT
  5
1F8
  8
_________2
 62
     7
 10
143.56937500000001
 20
20.626999999999999
 30
0.0
 40
3.9357000000000002
  1
SB1513
 41
0.5
 72
     1
 11
148.489
 21
20.626999999999999
 31
0.0
  0
TEXT
  5
1F9
  8
_________2
 62
     7
 10
114.11799999999999
 20
45.745600000000003
 30
0.0
 40
3.9357000000000002
  1
ハング手洗器
 41
0.5
  0
TEXT
  5
1FA
  8
_________2
 62
     7
 10
44.303290666666669
 20
35.123000000000012
 30
0.0
 40
3.6545800000000002
  1
篠崎
 41
0.5
 72
     1
 11
46.252400000000002
 21
35.123000000000012
 31
0.0
  0
TEXT
  5
1FB
  8
_________2
 62
     7
 10
25.729290666666671
 20
35.123000000000012
 30
0.0
 40
3.6545800000000002
  1
菅原
 41
0.5
 72
     1
 11
27.6784
 21
35.123000000000012
 31
0.0
  0
TEXT
  5
1FC
  8
_________2
 62
     7
 10
72.724699999999999
 20
34.7378
 30
0.0
 40
3.6545800000000002
  1
16.12.16
 41
0.5
  0
TEXT
  5
1FD
  8
_________2
 62
     7
 10
71.531999999999996
 20
40.930399999999999
 30
0.0
 40
3.0923400000000001
  1
日付
 41
0.5
  0
TEXT
  5
1FE
  8
_________2
 62
     7
 10
34.578299999999999
 20
40.930399999999999
 30
0.0
 40
3.0923400000000001
  1
検図
 41
0.5
  0
TEXT
  5
1FF
  8
_________2
 62
     7
 10
22.9602
 20
26.731000000000002
 30
0.0
 40
3.0923400000000001
  1
備考
 41
0.5
  0
TEXT
  5
200
  8
_________2
 62
     7
 10
22.9602
 20
40.930399999999999
 30
0.0
 40
3.0923400000000001
  1
製図
 41
0.5
  0
TEXT
  5
201
  8
_________2
 62
     7
 10
28.727365333333339
 20
49.456400000000002
 30
0.0
 40
4.4979399999999989
  1
セラトレーディング株式会社
 41
0.5
 72
     1
 11
46.119399999999992
 21
49.456400000000002
 31
0.0
  0
LINE
  5
202
  8
_________2
 62
     7
 10
188.49000000000001
 20
17.4285
 30
0.0
 11
21.988499999999998
 21
17.4285
 31
0.0
  0
LINE
  5
203
  8
_________2
 62
     7
 10
21.988499999999998
 20
17.4285
 30
0.0
 11
21.988499999999998
 21
280.43000000000001
 31
0.0
  0
LINE
  5
204
  8
_________2
 62
     7
 10
21.988499999999998
 20
280.43000000000001
 30
0.0
 11
188.49000000000001
 21
280.43000000000001
 31
0.0
  0
LINE
  5
205
  8
_________2
 62
     7
 10
188.49000000000001
 20
280.43000000000001
 30
0.0
 11
188.49000000000001
 21
17.4285
 31
0.0
  0
LINE
  5
206
  8
_________2
 62
     7
 10
70.488799999999998
 20
30.928899999999999
 30
0.0
 11
70.488799999999998
 21
57.428699999999992
 31
0.0
  0
LINE
  5
207
  8
_________2
 62
     7
 10
89.488600000000005
 20
30.928899999999999
 30
0.0
 11
89.488600000000005
 21
57.428699999999992
 31
0.0
  0
LINE
  5
208
  8
_________2
 62
     7
 10
108.489
 20
17.4285
 30
0.0
 11
108.489
 21
57.428699999999992
 31
0.0
  0
LINE
  5
209
  8
_________2
 62
     7
 10
33.488300000000002
 20
30.928899999999999
 30
0.0
 11
33.488300000000002
 21
44.928800000000003
 31
0.0
  0
LINE
  5
20A
  8
_________2
 62
     7
 10
21.988499999999998
 20
30.928899999999999
 30
0.0
 11
108.489
 21
30.928899999999999
 31
0.0
  0
LINE
  5
20B
  8
_________2
 62
     7
 10
21.988499999999998
 20
44.928800000000003
 30
0.0
 11
108.489
 21
44.928800000000003
 31
0.0
  0
LINE
  5
20C
  8
_________2
 62
     7
 10
108.489
 20
37.428100000000001
 30
0.0
 11
188.49000000000001
 21
37.428100000000001
 31
0.0
  0
LINE
  5
20D
  8
_________2
 62
     7
 10
21.988499999999998
 20
57.428699999999992
 30
0.0
 11
188.49000000000001
 21
57.428699999999992
 31
0.0
  0
LINE
  5
20E
  8
_________2
 62
     7
 10
210.24000000000001
 20
148.93100000000001
 30
0.0
 11
188.489
 21
148.93100000000001
 31
0.0
  0
LINE
  5
20F
  8
_________2
 62
     7
 10
105.239
 20
297.45100000000002
 30
0.0
 11
105.239
 21
280.43000000000001
 31
0.0
  0
LINE
  5
210
  8
_________2
 62
     7
 10
21.988499999999998
 20
148.93100000000001
 30
0.0
 11
0.238402
 21
148.93100000000001
 31
0.0
  0
ENDSEC
  0
EOF
