  0
SECTION
  2
HEADER
  9
$ACADVER
  1
AC1009
  9
$INSBASE
 10
0.0
 20
0.0
 30
0.0
  9
$EXTMIN
 10
0.238402
 20
0.4485540000000001
 30
0.0
  9
$EXTMAX
 10
210.24000000000001
 20
297.45100000000002
 30
0.0
  9
$LIMMIN
 10
0.0
 20
0.0
  9
$LIMMAX
 10
12.0
 20
9.0
  9
$ORTHOMODE
 70
     0
  9
$REGENMODE
 70
     1
  9
$FILLMODE
 70
     1
  9
$QTEXTMODE
 70
     0
  9
$MIRRTEXT
 70
     1
  9
$DRAGMODE
 70
     2
  9
$LTSCALE
 40
1.0
  9
$OSMODE
 70
    37
  9
$ATTMODE
 70
     1
  9
$TEXTSIZE
 40
0.0
  9
$TRACEWID
 40
0.05
  9
$TEXTSTYLE
  7
STANDARD
  9
$CLAYER
  8
0
  9
$CELTYPE
  6
CONTINUOUS
  9
$CECOLOR
 62
   256
  9
$DIMSCALE
 40
1.0
  9
$DIMASZ
 40
0.18
  9
$DIMEXO
 40
0.0625
  9
$DIMDLI
 40
0.38
  9
$DIMRND
 40
0.0
  9
$DIMDLE
 40
0.0
  9
$DIMEXE
 40
0.18
  9
$DIMTP
 40
0.0
  9
$DIMTM
 40
0.0
  9
$DIMTXT
 40
0.18
  9
$DIMCEN
 40
0.09
  9
$DIMTSZ
 40
0.0
  9
$DIMTOL
 70
     0
  9
$DIMLIM
 70
     0
  9
$DIMTIH
 70
     1
  9
$DIMTOH
 70
     1
  9
$DIMSE1
 70
     0
  9
$DIMSE2
 70
     0
  9
$DIMTAD
 70
     0
  9
$DIMZIN
 70
     0
  9
$DIMBLK
  1

  9
$DIMASO
 70
     1
  9
$DIMSHO
 70
     1
  9
$DIMPOST
  1

  9
$DIMAPOST
  1

  9
$DIMALT
 70
     0
  9
$DIMALTD
 70
     2
  9
$DIMALTF
 40
25.399999999999999
  9
$DIMLFAC
 40
1.0
  9
$DIMTOFL
 70
     0
  9
$DIMTVP
 40
0.0
  9
$DIMTIX
 70
     0
  9
$DIMSOXD
 70
     0
  9
$DIMSAH
 70
     0
  9
$DIMBLK1
  1

  9
$DIMBLK2
  1

  9
$DIMSTYLE
  2
STANDARD
  9
$DIMCLRD
 70
     0
  9
$DIMCLRE
 70
     0
  9
$DIMCLRT
 70
     0
  9
$DIMTFAC
 40
1.0
  9
$DIMGAP
 40
0.09
  9
$LUNITS
 70
     2
  9
$LUPREC
 70
     4
  9
$SKETCHINC
 40
0.1
  9
$FILLETRAD
 40
0.0
  9
$AUNITS
 70
     0
  9
$AUPREC
 70
     0
  9
$MENU
  1
.
  9
$ELEVATION
 40
0.0
  9
$PELEVATION
 40
0.0
  9
$THICKNESS
 40
0.0
  9
$LIMCHECK
 70
     0
  9
$BLIPMODE
 70
     0
  9
$CHAMFERA
 40
0.0
  9
$CHAMFERB
 40
0.0
  9
$SKPOLY
 70
     0
  9
$TDCREATE
 40
2444972.375
  9
$TDUPDATE
 40
2457829.25278022
  9
$TDINDWG
 40
0.0000345833
  9
$TDUSRTIMER
 40
0.0000345833
  9
$USRTIMER
 70
     1
  9
$ANGBASE
 50
0.0
  9
$ANGDIR
 70
     0
  9
$PDMODE
 70
     0
  9
$PDSIZE
 40
0.0
  9
$PLINEWID
 40
0.0
  9
$COORDS
 70
     1
  9
$SPLFRAME
 70
     0
  9
$SPLINETYPE
 70
     6
  9
$SPLINESEGS
 70
     8
  9
$ATTDIA
 70
     1
  9
$ATTREQ
 70
     1
  9
$HANDLING
 70
     1
  9
$HANDSEED
  5
5B4
  9
$SURFTAB1
 70
     6
  9
$SURFTAB2
 70
     6
  9
$SURFTYPE
 70
     6
  9
$SURFU
 70
     6
  9
$SURFV
 70
     6
  9
$UCSNAME
  2

  9
$UCSORG
 10
0.0
 20
0.0
 30
0.0
  9
$UCSXDIR
 10
1.0
 20
0.0
 30
0.0
  9
$UCSYDIR
 10
0.0
 20
1.0
 30
0.0
  9
$PUCSNAME
  2

  9
$PUCSORG
 10
0.0
 20
0.0
 30
0.0
  9
$PUCSXDIR
 10
1.0
 20
0.0
 30
0.0
  9
$PUCSYDIR
 10
0.0
 20
1.0
 30
0.0
  9
$USERI1
 70
     0
  9
$USERI2
 70
     0
  9
$USERI3
 70
     0
  9
$USERI4
 70
     0
  9
$USERI5
 70
     0
  9
$USERR1
 40
0.0
  9
$USERR2
 40
0.0
  9
$USERR3
 40
0.0
  9
$USERR4
 40
0.0
  9
$USERR5
 40
0.0
  9
$WORLDVIEW
 70
     1
  9
$SHADEDGE
 70
     3
  9
$SHADEDIF
 70
    70
  9
$TILEMODE
 70
     1
  9
$MAXACTVP
 70
    48
  9
$PLIMCHECK
 70
     0
  9
$PEXTMIN
 10
1.0000000000000000E+020
 20
1.0000000000000000E+020
 30
1.0000000000000000E+020
  9
$PEXTMAX
 10
-1.0000000000000000E+020
 20
-1.0000000000000000E+020
 30
-1.0000000000000000E+020
  9
$PLIMMIN
 10
0.0
 20
0.0
  9
$PLIMMAX
 10
12.0
 20
9.0
  9
$UNITMODE
 70
     0
  9
$VISRETAIN
 70
     1
  9
$PLINEGEN
 70
     0
  9
$PSLTSCALE
 70
     1
  0
ENDSEC
  0
SECTION
  2
TABLES
  0
TABLE
  2
VPORT
 70
     1
  0
VPORT
  2
*ACTIVE
 70
     0
 10
0.0
 20
0.0
 11
1.0
 21
1.0
 12
177.98860834140081
 22
148.72550000000001
 13
0.0
 23
0.0
 14
1.0
 24
1.0
 15
0.0
 25
0.0
 16
0.0
 26
0.0
 36
1.0
 17
0.0
 27
0.0
 37
0.0
 40
290.07916639246912
 41
2.1063583815028899
 42
50.0
 43
0.0
 44
0.0
 50
0.0
 51
0.0
 71
     0
 72
   100
 73
     1
 74
     1
 75
     0
 76
     0
 77
     0
 78
     0
  0
ENDTAB
  0
TABLE
  2
LTYPE
 70
     4
  0
LTYPE
  2
CONTINUOUS
 70
     0
  3
Solid line
 72
    65
 73
     0
 40
0.0
  0
LTYPE
  2
AIGENLINE001
 70
     0
  3
generate AI->DXF Converter
 72
    65
 73
     2
 40
1.5522299999999991
 49
0.776115
 49
-0.776115
  0
LTYPE
  2
AIGENLINE002
 70
     0
  3
generate AI->DXF Converter
 72
    65
 73
     2
 40
1.5522299999999991
 49
0.776115
 49
-0.776115
  0
LTYPE
  2
AIGENLINE003
 70
     0
  3
generate AI->DXF Converter
 72
    65
 73
     6
 40
7.4083750000000004
 49
3.5278
 49
-0.776115
 49
0.776115
 49
-0.776115
 49
0.776115
 49
-0.776115
  0
ENDTAB
  0
TABLE
  2
LAYER
 70
     2
  0
LAYER
  2
0
 70
     0
 62
     7
  6
CONTINUOUS
  0
LAYER
  2
_________2
 70
     0
 62
     7
  6
CONTINUOUS
  0
ENDTAB
  0
TABLE
  2
STYLE
 70
     1
  0
STYLE
  2
STANDARD
 70
     0
 40
0.0
 41
0.0
 50
0.0
 71
     0
 42
0.0
  3
TXT
  4
EXTFONT.SHX
  0
ENDTAB
  0
TABLE
  2
VIEW
 70
     0
  0
ENDTAB
  0
TABLE
  2
UCS
 70
     0
  0
ENDTAB
  0
TABLE
  2
APPID
 70
     3
  0
APPID
  2
ACAD
 70
     0
  0
APPID
  2
ACAD_NAV_VCDISPLAY
 70
     0
  0
APPID
  2
ACAD_MLEADERVER
 70
     0
  0
ENDTAB
  0
TABLE
  2
DIMSTYLE
 70
     1
  0
DIMSTYLE
  2
STANDARD
 70
     0
  3

  4

  5

  6

  7

 40
1.0
 41
0.18
 42
0.0625
 43
0.38
 44
0.18
 45
0.0
 46
0.0
 47
0.0
 48
0.0
140
0.18
141
0.09
142
0.0
143
25.399999999999999
144
1.0
145
0.0
146
1.0
147
0.09
 71
     0
 72
     0
 73
     1
 74
     1
 75
     0
 76
     0
 77
     0
 78
     0
170
     0
171
     2
172
     0
173
     0
174
     0
175
     0
176
     0
177
     0
178
     0
  0
ENDTAB
  0
ENDSEC
  0
SECTION
  2
BLOCKS
  0
BLOCK
  8
0
  2
$MODEL_SPACE
 70
     0
 10
0.0
 20
0.0
 30
0.0
  3
$MODEL_SPACE
  1

  0
ENDBLK
  5
1A
  8
0
  0
BLOCK
 67
     1
  8
0
  2
$PAPER_SPACE
 70
     0
 10
0.0
 20
0.0
 30
0.0
  3
$PAPER_SPACE
  1

  0
ENDBLK
  5
17
 67
     1
  8
0
  0
ENDSEC
  0
SECTION
  2
ENTITIES
  0
TEXT
  5
24
  8
0
 62
     7
 10
149.28075999999999
 20
191.416
 30
0.0
 40
3.0923400000000001
  1
カウンター切込寸法
 41
0.5
 72
     1
 11
157.52699999999999
 21
191.416
 31
0.0
  0
TEXT
  5
25
  8
0
 62
     7
 10
46.247899999999987
 20
116.494
 30
0.0
 40
3.0923400000000001
  1
陶器
 41
0.5
  0
TEXT
  5
26
  8
0
 62
     7
 10
66.233787500000005
 20
120.241
 30
0.0
 40
3.0923400000000001
  1
%%c90
 41
0.5
 72
     1
 11
68.166499999999999
 21
120.241
 31
0.0
  0
TEXT
  5
27
  8
0
 62
     7
 10
64.610309000000001
 20
73.839200000000005
 30
0.0
 40
3.0923400000000001
  1
G1 1/4
 41
0.5
 72
     1
 11
68.166499999999999
 21
73.839200000000005
 31
0.0
  0
TEXT
  5
28
  8
0
 62
     7
 10
87.650800000000004
 20
76.233599999999996
 30
0.0
 40
3.0923400000000001
  1
12.5
 50
90.0
 41
0.5
  0
TEXT
  5
29
  8
0
 62
     7
 10
87.650800000000004
 20
87.359925000000004
 30
0.0
 40
3.0923400000000001
  1
25
 50
90.0
 41
0.5
 72
     1
 11
87.650800000000004
 21
88.648399999999995
 31
0.0
  0
TEXT
  5
2A
  8
0
 62
     7
 10
87.650800000000004
 20
109.99222
 30
0.0
 40
3.0923400000000001
  1
16
 50
90.0
 41
0.5
 72
     1
 11
87.650800000000004
 21
111.023
 31
0.0
  0
TEXT
  5
2B
  8
0
 62
     7
 10
87.650800000000004
 20
106.874915
 30
0.0
 40
3.0923400000000001
  1
11
 50
90.0
 41
0.5
 72
     1
 11
87.650800000000004
 21
107.648
 31
0.0
  0
TEXT
  5
2C
  8
0
 62
     7
 10
97.295599999999993
 20
191.80000000000001
 30
0.0
 40
3.0923400000000001
  1
メーカーロゴ
 41
0.5
  0
TEXT
  5
2D
  8
0
 62
     7
 10
134.709
 20
219.258745
 30
0.0
 40
3.0923400000000001
  1
33.5
 50
90.0
 41
0.5
 72
     1
 11
134.709
 21
221.578
 31
0.0
  0
TEXT
  5
2E
  8
0
 62
     7
 10
134.709
 20
212.55774500000001
 30
0.0
 40
3.0923400000000001
  1
33.5
 50
90.0
 41
0.5
 72
     1
 11
134.709
 21
214.87700000000001
 31
0.0
  0
TEXT
  5
2F
  8
0
 62
     7
 10
151.30699999999999
 20
160.04852500000001
 30
0.0
 40
3.0923400000000001
  1
64
 50
90.0
 41
0.5
 72
     1
 11
151.30699999999999
 21
161.33699999999999
 31
0.0
  0
TEXT
  5
30
  8
0
 62
     7
 10
113.29300000000001
 20
160.10982999999999
 30
0.0
 40
3.0923400000000001
  1
100
 50
90.0
 41
0.5
 72
     1
 11
113.29300000000001
 21
161.65600000000001
 31
0.0
  0
TEXT
  5
31
  8
0
 62
     7
 10
122.90300000000001
 20
216.55298250000001
 30
0.0
 40
3.0923400000000001
  1
210
 50
90.0
 41
0.5
 72
     1
 11
122.90300000000001
 21
218.22800000000001
 31
0.0
  0
TEXT
  5
32
  8
0
 62
     7
 10
33.291699999999999
 20
158.49637250000001
 30
0.0
 40
3.0923400000000001
  1
80
 50
90.0
 41
0.5
 72
     1
 11
33.291699999999999
 21
159.65600000000001
 31
0.0
  0
TEXT
  5
33
  8
0
 62
     7
 10
39.355800000000002
 20
135.33600000000001
 30
0.0
 40
3.0923400000000001
  1
max.30
 50
90.0
 41
0.5
  0
TEXT
  5
34
  8
0
 62
     7
 10
114.977
 20
216.42413500000001
 30
0.0
 40
3.0923400000000001
  1
198
 50
90.0
 41
0.5
 72
     1
 11
114.977
 21
218.22800000000001
 31
0.0
  0
TEXT
  5
35
  8
0
 62
     7
 10
58.075686571428569
 20
65.590599999999995
 30
0.0
 40
3.0923400000000001
  1
排水目皿付（尺度1：4）
 41
0.5
 72
     1
 11
67.985900000000001
 21
65.590599999999995
 31
0.0
  0
TEXT
  5
36
  8
0
 62
     7
 10
155.72313500000001
 20
131.749
 30
0.0
 40
3.0923400000000001
  1
144
 41
0.5
 72
     1
 11
157.52699999999999
 21
131.749
 31
0.0
  0
TEXT
  5
37
  8
0
 62
     7
 10
166.35198249999999
 20
137.898
 30
0.0
 40
3.0923400000000001
  1
105
 41
0.5
 72
     1
 11
168.02699999999999
 21
137.898
 31
0.0
  0
TEXT
  5
38
  8
0
 62
     7
 10
80.469534999999979
 20
137.255
 30
0.0
 40
3.0923400000000001
  1
195
 41
0.5
 72
     1
 11
82.273399999999995
 21
137.255
 31
0.0
  0
TEXT
  5
39
  8
0
 62
     7
 10
95.991324999999989
 20
246.55199999999999
 30
0.0
 40
3.0923400000000001
  1
95
 41
0.5
 72
     1
 11
97.279799999999994
 21
246.55199999999999
 31
0.0
  0
TEXT
  5
3A
  8
0
 62
     7
 10
69.918340000000001
 20
252.61500000000001
 30
0.0
 40
3.0923400000000001
  1
336
 41
0.5
 72
     1
 11
71.979900000000001
 21
252.61500000000001
 31
0.0
  0
TEXT
  5
3B
  8
0
 62
     7
 10
69.918340000000001
 20
259.38099999999997
 30
0.0
 40
3.0923400000000001
  1
348
 41
0.5
 72
     1
 11
71.979900000000001
 21
259.38099999999997
 31
0.0
  0
TEXT
  5
3C
  8
0
 62
     7
 10
148.3153725
 20
205.05099999999999
 30
0.0
 40
3.0923400000000001
  1
80
 41
0.5
 72
     1
 11
149.47499999999999
 21
205.05099999999999
 31
0.0
  0
TEXT
  5
3D
  8
0
 62
     7
 10
164.3275138883541
 20
225.8335138883541
 30
0.0
 40
3.0923400000000001
  1
%%c85
 50
45.0
 41
0.5
 72
     2
 11
167.24299999999999
 21
228.749
 31
0.0
  0
TEXT
  5
3E
  8
0
 62
     7
 10
72.736900000000006
 20
227.86199999999999
 30
0.0
 40
3.0923400000000001
  1
%%c46
 41
0.5
  0
TEXT
  5
3F
  8
0
 62
     7
 10
139.88981000000001
 20
231.994
 30
0.0
 40
3.0923400000000001
  1
%%c12\U+00D72ケ所
 41
0.5
 72
     2
 11
150.71299999999999
 21
231.994
 31
0.0
  0
TEXT
  5
40
  8
0
 62
     7
 10
155.41800000000001
 20
198.64699999999999
 30
0.0
 40
3.0923400000000001
  1
排水口
 41
0.5
  0
ARC
  5
41
  8
0
 62
     7
 10
88.340650999999994
 20
109.033913
 30
0.0
 40
0.283804
 50
272.06828000000002
 51
357.89561500000002
  0
ARC
  5
42
  8
0
 62
     7
 10
88.361298000000005
 20
109.034075
 30
0.0
 40
0.283972
 50
182.13589300000001
 51
267.90025100000003
  0
ARC
  5
43
  8
0
 62
     7
 10
88.361136000000002
 20
109.013071
 30
0.0
 40
0.283804
 50
92.068242999999995
 51
177.895613
  0
ARC
  5
44
  8
0
 62
     7
 10
88.340489000000005
 20
109.012908
 30
0.0
 40
0.283972
 50
2.1358739999999998
 51
87.900231000000005
  0
LINE
  5
45
  8
0
 62
     7
 10
77.206500000000005
 20
118.949
 30
0.0
 11
79.416499999999999
 21
119.541
 31
0.0
  0
LINE
  5
46
  8
0
 62
     7
 10
79.416499999999999
 20
119.541
 30
0.0
 11
77.206500000000005
 21
120.133
 31
0.0
  0
LINE
  5
47
  8
0
 62
     7
 10
77.206500000000005
 20
120.133
 30
0.0
 11
77.206500000000005
 21
118.949
 31
0.0
  0
LINE
  5
48
  8
0
 62
     7
 10
59.127200000000002
 20
120.133
 30
0.0
 11
56.916400000000003
 21
119.541
 31
0.0
  0
LINE
  5
49
  8
0
 62
     7
 10
56.916400000000003
 20
119.541
 30
0.0
 11
59.127200000000002
 21
118.949
 31
0.0
  0
LINE
  5
4A
  8
0
 62
     7
 10
59.127200000000002
 20
118.949
 30
0.0
 11
59.127200000000002
 21
120.133
 31
0.0
  0
LINE
  5
4B
  8
0
 62
     7
 10
71.118899999999996
 20
72.547300000000007
 30
0.0
 11
73.328999999999994
 21
73.139200000000002
 31
0.0
  0
LINE
  5
4C
  8
0
 62
     7
 10
73.328999999999994
 20
73.139200000000002
 30
0.0
 11
71.118899999999996
 21
73.730999999999995
 31
0.0
  0
LINE
  5
4D
  8
0
 62
     7
 10
71.118899999999996
 20
73.730999999999995
 30
0.0
 11
71.118899999999996
 21
72.547300000000007
 31
0.0
  0
LINE
  5
4E
  8
0
 62
     7
 10
65.214699999999993
 20
73.730999999999995
 30
0.0
 11
63.003999999999991
 21
73.139200000000002
 31
0.0
  0
LINE
  5
4F
  8
0
 62
     7
 10
63.003999999999991
 20
73.139200000000002
 30
0.0
 11
65.214699999999993
 21
72.547300000000007
 31
0.0
  0
LINE
  5
50
  8
0
 62
     7
 10
65.214699999999993
 20
72.547300000000007
 30
0.0
 11
65.214699999999993
 21
73.730999999999995
 31
0.0
  0
LINE
  5
51
  8
0
 62
     7
 10
88.943100000000001
 20
80.187899999999999
 30
0.0
 11
88.350899999999996
 21
82.398199999999989
 31
0.0
  0
LINE
  5
52
  8
0
 62
     7
 10
88.350899999999996
 20
82.398199999999989
 30
0.0
 11
87.758499999999998
 21
80.187899999999999
 31
0.0
  0
LINE
  5
53
  8
0
 62
     7
 10
87.758499999999998
 20
80.187899999999999
 30
0.0
 11
88.943100000000001
 21
80.187899999999999
 31
0.0
  0
LINE
  5
54
  8
0
 62
     7
 10
87.758499999999998
 20
87.732999999999976
 30
0.0
 11
88.350899999999996
 21
85.523300000000006
 31
0.0
  0
LINE
  5
55
  8
0
 62
     7
 10
88.350899999999996
 20
85.523300000000006
 30
0.0
 11
88.943100000000001
 21
87.732999999999976
 31
0.0
  0
LINE
  5
56
  8
0
 62
     7
 10
88.943100000000001
 20
87.732999999999976
 30
0.0
 11
87.758499999999998
 21
87.732999999999976
 31
0.0
  0
LINE
  5
57
  8
0
 62
     7
 10
87.758499999999998
 20
115.233
 30
0.0
 11
88.350899999999996
 21
113.023
 31
0.0
  0
LINE
  5
58
  8
0
 62
     7
 10
88.350899999999996
 20
113.023
 30
0.0
 11
88.943100000000001
 21
115.233
 31
0.0
  0
LINE
  5
59
  8
0
 62
     7
 10
88.943100000000001
 20
115.233
 30
0.0
 11
87.758499999999998
 21
115.233
 31
0.0
  0
LINE
  5
5A
  8
0
 62
     7
 10
88.943100000000001
 20
89.563100000000006
 30
0.0
 11
88.350899999999996
 21
91.773399999999995
 31
0.0
  0
LINE
  5
5B
  8
0
 62
     7
 10
88.350899999999996
 20
91.773399999999995
 30
0.0
 11
87.758499999999998
 21
89.563100000000006
 31
0.0
  0
LINE
  5
5C
  8
0
 62
     7
 10
87.758499999999998
 20
89.563100000000006
 30
0.0
 11
88.943100000000001
 21
89.563100000000006
 31
0.0
  0
LINE
  5
5D
  8
0
 62
     7
 10
88.943100000000001
 20
104.063
 30
0.0
 11
88.350899999999996
 21
106.273
 31
0.0
  0
LINE
  5
5E
  8
0
 62
     7
 10
88.350899999999996
 20
106.273
 30
0.0
 11
87.758499999999998
 21
104.063
 31
0.0
  0
LINE
  5
5F
  8
0
 62
     7
 10
87.758499999999998
 20
104.063
 30
0.0
 11
88.943100000000001
 21
104.063
 31
0.0
  0
LINE
  5
60
  8
0
  6
AIGENLINE002
 62
     7
 10
68.166499999999999
 20
114.34399999999999
 30
0.0
 11
68.166499999999999
 21
78.7971
 31
0.0
  0
LINE
  5
61
  8
0
 62
     7
 10
73.328999999999994
 20
85.473399999999998
 30
0.0
 11
63.003999999999991
 21
85.473399999999998
 31
0.0
  0
LINE
  5
62
  8
0
 62
     7
 10
73.328999999999994
 20
85.473399999999998
 30
0.0
 11
73.378900000000002
 21
85.523300000000006
 31
0.0
  0
LINE
  5
63
  8
0
 62
     7
 10
63.003999999999991
 20
85.473399999999998
 30
0.0
 11
62.953999999999994
 21
85.523300000000006
 31
0.0
  0
LINE
  5
64
  8
0
 62
     7
 10
73.328999999999994
 20
85.473399999999998
 30
0.0
 11
63.003999999999991
 21
85.473399999999998
 31
0.0
  0
LINE
  5
65
  8
0
 62
     7
 10
73.0291
 20
82.398199999999989
 30
0.0
 11
73.328999999999994
 21
82.698300000000003
 31
0.0
  0
LINE
  5
66
  8
0
 62
     7
 10
63.304000000000002
 20
82.398199999999989
 30
0.0
 11
63.003999999999991
 21
82.698300000000003
 31
0.0
  0
LINE
  5
67
  8
0
 62
     7
 10
63.003999999999991
 20
82.698300000000003
 30
0.0
 11
73.328999999999994
 21
82.698300000000003
 31
0.0
  0
LINE
  5
68
  8
0
 62
     7
 10
73.0291
 20
82.398199999999989
 30
0.0
 11
63.304000000000002
 21
82.398199999999989
 31
0.0
  0
ARC
  5
69
  8
0
 62
     7
 10
61.709040000000002
 20
89.365917999999994
 30
0.0
 40
0.20761
 50
2.1140750000000001
 51
87.935287000000017
  0
ARC
  5
6A
  8
0
 62
     7
 10
74.624220999999991
 20
89.365765999999994
 30
0.0
 40
0.207768
 50
92.105097000000015
 51
177.84550200000001
  0
LINE
  5
6B
  8
0
 62
     7
 10
75.841499999999996
 20
89.573400000000007
 30
0.0
 11
75.916600000000003
 21
89.648499999999999
 31
0.0
  0
LINE
  5
6C
  8
0
 62
     7
 10
60.491399999999999
 20
89.573400000000007
 30
0.0
 11
60.4163
 21
89.648499999999999
 31
0.0
  0
LINE
  5
6D
  8
0
 62
     7
 10
60.4163
 20
89.648499999999999
 30
0.0
 11
75.916600000000003
 21
89.648499999999999
 31
0.0
  0
LINE
  5
6E
  8
0
 62
     7
 10
75.841499999999996
 20
89.573400000000007
 30
0.0
 11
60.491399999999999
 21
89.573400000000007
 31
0.0
  0
LINE
  5
6F
  8
0
 62
     7
 10
60.503799999999998
 20
91.023399999999995
 30
0.0
 11
60.4163
 21
90.935599999999994
 31
0.0
  0
LINE
  5
70
  8
0
 62
     7
 10
75.828900000000004
 20
91.023399999999995
 30
0.0
 11
75.916600000000003
 21
90.935599999999994
 31
0.0
  0
LINE
  5
71
  8
0
 62
     7
 10
74.2791
 20
85.523300000000006
 30
0.0
 11
74.416600000000003
 21
85.648399999999995
 31
0.0
  0
LINE
  5
72
  8
0
 62
     7
 10
62.054000000000002
 20
85.523300000000006
 30
0.0
 11
61.916499999999999
 21
85.648399999999995
 31
0.0
  0
LINE
  5
73
  8
0
 62
     7
 10
69.666499999999999
 20
81.897999999999996
 30
0.0
 11
69.666499999999999
 21
82.398199999999989
 31
0.0
  0
LINE
  5
74
  8
0
 62
     7
 10
66.666499999999999
 20
81.897999999999996
 30
0.0
 11
66.666499999999999
 21
82.398199999999989
 31
0.0
  0
LINE
  5
75
  8
0
 62
     7
 10
69.541399999999996
 20
81.773300000000006
 30
0.0
 11
69.666499999999999
 21
81.897999999999996
 31
0.0
  0
LINE
  5
76
  8
0
 62
     7
 10
66.791499999999985
 20
81.773300000000006
 30
0.0
 11
66.666499999999999
 21
81.897999999999996
 31
0.0
  0
LINE
  5
77
  8
0
 62
     7
 10
73.328999999999994
 20
82.698300000000003
 30
0.0
 11
73.328999999999994
 21
85.473399999999998
 31
0.0
  0
LINE
  5
78
  8
0
 62
     7
 10
63.003999999999991
 20
82.698300000000003
 30
0.0
 11
63.003999999999991
 21
85.473399999999998
 31
0.0
  0
LINE
  5
79
  8
0
 62
     7
 10
74.416600000000003
 20
85.648399999999995
 30
0.0
 11
74.416600000000003
 21
89.373599999999996
 31
0.0
  0
LINE
  5
7A
  8
0
 62
     7
 10
61.916499999999999
 20
85.648399999999995
 30
0.0
 11
61.916499999999999
 21
89.373599999999996
 31
0.0
  0
LINE
  5
7B
  8
0
 62
     7
 10
75.916600000000003
 20
89.648499999999999
 30
0.0
 11
75.916600000000003
 21
90.935599999999994
 31
0.0
  0
LINE
  5
7C
  8
0
 62
     7
 10
60.4163
 20
89.648499999999999
 30
0.0
 11
60.4163
 21
90.935599999999994
 31
0.0
  0
LINE
  5
7D
  8
0
 62
     7
 10
69.666499999999999
 20
81.897999999999996
 30
0.0
 11
66.666499999999999
 21
81.897999999999996
 31
0.0
  0
LINE
  5
7E
  8
0
 62
     7
 10
69.541399999999996
 20
81.773300000000006
 30
0.0
 11
66.791499999999985
 21
81.773300000000006
 31
0.0
  0
LINE
  5
7F
  8
0
 62
     7
 10
74.2791
 20
85.523300000000006
 30
0.0
 11
62.054000000000002
 21
85.523300000000006
 31
0.0
  0
LINE
  5
80
  8
0
 62
     7
 10
74.416600000000003
 20
85.648399999999995
 30
0.0
 11
61.916499999999999
 21
85.648399999999995
 31
0.0
  0
LINE
  5
81
  8
0
 62
     7
 10
75.916600000000003
 20
90.935599999999994
 30
0.0
 11
60.4163
 21
90.935599999999994
 31
0.0
  0
LINE
  5
82
  8
0
 62
     7
 10
75.828900000000004
 20
91.023399999999995
 30
0.0
 11
60.503799999999998
 21
91.023399999999995
 31
0.0
  0
LINE
  5
83
  8
0
 62
     7
 10
67.416499999999985
 20
98.876900000000006
 30
0.0
 11
68.916499999999999
 21
98.876900000000006
 31
0.0
  0
LINE
  5
84
  8
0
 62
     7
 10
67.416499999999985
 20
81.773300000000006
 30
0.0
 11
67.416499999999985
 21
80.273300000000006
 31
0.0
  0
LINE
  5
85
  8
0
 62
     7
 10
67.416499999999985
 20
99.151899999999998
 30
0.0
 11
67.416499999999985
 21
91.773399999999995
 31
0.0
  0
LINE
  5
86
  8
0
 62
     7
 10
68.916499999999999
 20
81.773300000000006
 30
0.0
 11
68.916499999999999
 21
80.273300000000006
 31
0.0
  0
LINE
  5
87
  8
0
 62
     7
 10
68.916499999999999
 20
99.151899999999998
 30
0.0
 11
68.916499999999999
 21
91.773399999999995
 31
0.0
  0
LINE
  5
88
  8
0
 62
     7
 10
68.666499999999985
 20
80.023200000000003
 30
0.0
 11
68.916499999999999
 21
80.273300000000006
 31
0.0
  0
LINE
  5
89
  8
0
 62
     7
 10
67.666600000000003
 20
80.023200000000003
 30
0.0
 11
67.416499999999985
 21
80.273300000000006
 31
0.0
  0
LINE
  5
8A
  8
0
 62
     7
 10
68.666499999999985
 20
80.023200000000003
 30
0.0
 11
67.666600000000003
 21
80.023200000000003
 31
0.0
  0
LINE
  5
8B
  8
0
 62
     7
 10
67.416499999999985
 20
80.273300000000006
 30
0.0
 11
68.916499999999999
 21
80.273300000000006
 31
0.0
  0
LINE
  5
8C
  8
0
 62
     7
 10
74.603999999999985
 20
91.773399999999995
 30
0.0
 11
61.728900000000003
 21
91.773399999999995
 31
0.0
  0
ARC
  5
8D
  8
0
 62
     7
 10
61.734268000000007
 20
90.25972800000001
 30
0.0
 40
1.513727
 50
90.202355000000026
 51
131.22333800000001
  0
ARC
  5
8E
  8
0
 62
     7
 10
74.599266
 20
90.261309999999995
 30
0.0
 40
1.512143
 50
48.754188000000013
 51
89.820080000000004
  0
LINE
  5
8F
  8
0
 62
     7
 10
75.604100000000003
 20
91.023399999999995
 30
0.0
 11
75.604100000000003
 21
91.398300000000006
 31
0.0
  0
LINE
  5
90
  8
0
 62
     7
 10
60.728999999999999
 20
91.023399999999995
 30
0.0
 11
60.728999999999999
 21
91.398300000000006
 31
0.0
  0
LINE
  5
91
  8
0
 62
     7
 10
75.604100000000003
 20
91.398300000000006
 30
0.0
 11
60.728999999999999
 21
91.398300000000006
 31
0.0
  0
LINE
  5
92
  8
0
 62
     7
 10
75.666700000000006
 20
102.777
 30
0.0
 11
75.666700000000006
 21
103.402
 31
0.0
  0
LINE
  5
93
  8
0
 62
     7
 10
60.666400000000003
 20
102.777
 30
0.0
 11
60.666400000000003
 21
103.402
 31
0.0
  0
LINE
  5
94
  8
0
 62
     7
 10
75.666700000000006
 20
102.777
 30
0.0
 11
60.666400000000003
 21
102.777
 31
0.0
  0
LINE
  5
95
  8
0
 62
     7
 10
75.666700000000006
 20
103.402
 30
0.0
 11
60.666400000000003
 21
103.402
 31
0.0
  0
LINE
  5
96
  8
0
 62
     7
 10
74.621799999999993
 20
105.611
 30
0.0
 11
75.680099999999996
 21
105.895
 31
0.0
  0
LINE
  5
97
  8
0
 62
     7
 10
61.711399999999998
 20
105.611
 30
0.0
 11
60.652999999999999
 21
105.895
 31
0.0
  0
LINE
  5
98
  8
0
 62
     7
 10
69.234499999999997
 20
99.151899999999998
 30
0.0
 11
70.103999999999999
 21
100.021
 31
0.0
  0
LINE
  5
99
  8
0
 62
     7
 10
67.098699999999994
 20
99.151899999999998
 30
0.0
 11
66.228899999999996
 21
100.021
 31
0.0
  0
LINE
  5
9A
  8
0
 62
     7
 10
66.228899999999996
 20
100.714
 30
0.0
 11
66.228899999999996
 21
100.021
 31
0.0
  0
LINE
  5
9B
  8
0
 62
     7
 10
70.103999999999999
 20
100.714
 30
0.0
 11
70.103999999999999
 21
100.021
 31
0.0
  0
LINE
  5
9C
  8
0
 62
     7
 10
70.103999999999999
 20
100.714
 30
0.0
 11
70.166399999999996
 21
100.777
 31
0.0
  0
LINE
  5
9D
  8
0
 62
     7
 10
66.228899999999996
 20
100.714
 30
0.0
 11
66.166399999999996
 21
100.777
 31
0.0
  0
LINE
  5
9E
  8
0
 62
     7
 10
73.116399999999999
 20
100.777
 30
0.0
 11
73.241500000000002
 21
100.902
 31
0.0
  0
LINE
  5
9F
  8
0
 62
     7
 10
63.216500000000003
 20
100.777
 30
0.0
 11
63.091500000000003
 21
100.902
 31
0.0
  0
LINE
  5
A0
  8
0
 62
     7
 10
63.091500000000003
 20
102.777
 30
0.0
 11
63.091500000000003
 21
100.902
 31
0.0
  0
LINE
  5
A1
  8
0
 62
     7
 10
63.091500000000003
 20
103.70999999999999
 30
0.0
 11
63.091500000000003
 21
103.402
 31
0.0
  0
LINE
  5
A2
  8
0
 62
     7
 10
73.241500000000002
 20
102.777
 30
0.0
 11
73.241500000000002
 21
100.902
 31
0.0
  0
LINE
  5
A3
  8
0
 62
     7
 10
73.241500000000002
 20
103.70999999999999
 30
0.0
 11
73.241500000000002
 21
103.402
 31
0.0
  0
ARC
  5
A4
  8
0
 62
     7
 10
75.297225999999995
 20
103.66941300000001
 30
0.0
 40
2.056150999999999
 50
109.17845
 51
178.87608599999999
  0
ARC
  5
A5
  8
0
 62
     7
 10
61.036095000000003
 20
103.669754
 30
0.0
 40
2.0557599999999989
 50
1.114608
 51
70.824016999999998
  0
LINE
  5
A6
  8
0
 62
     7
 10
67.098699999999994
 20
99.151899999999998
 30
0.0
 11
69.234499999999997
 21
99.151899999999998
 31
0.0
  0
LINE
  5
A7
  8
0
 62
     7
 10
66.228899999999996
 20
100.021
 30
0.0
 11
70.103999999999999
 21
100.021
 31
0.0
  0
LINE
  5
A8
  8
0
 62
     7
 10
63.216500000000003
 20
100.777
 30
0.0
 11
73.116399999999999
 21
100.777
 31
0.0
  0
LINE
  5
A9
  8
0
 62
     7
 10
75.680099999999996
 20
105.895
 30
0.0
 11
75.953999999999994
 21
106.053
 31
0.0
  0
LINE
  5
AA
  8
0
 62
     7
 10
60.652999999999999
 20
105.895
 30
0.0
 11
60.379100000000001
 21
106.053
 31
0.0
  0
ARC
  5
AB
  8
0
 62
     7
 10
60.448385999999999
 20
106.159679
 30
0.0
 40
0.130283
 50
122.29416000000001
 51
207.792686
  0
ARC
  5
AC
  8
0
 62
     7
 10
60.444619999999993
 20
106.164846
 30
0.0
 40
0.129515
 50
210.59255099999999
 51
239.62247199999999
  0
ARC
  5
AD
  8
0
 62
     7
 10
75.885351999999983
 20
106.162982
 30
0.0
 40
0.129545
 50
301.99154700000003
 51
28.095299000000001
  0
ARC
  5
AE
  8
0
 62
     7
 10
75.893265
 20
106.16367099999999
 30
0.0
 40
0.122279
 50
29.556796999999989
 51
60.227390000000007
  0
LINE
  5
AF
  8
0
 62
     7
 10
60.385699999999993
 20
106.274
 30
0.0
 11
60.378799999999998
 21
106.27
 31
0.0
  0
LINE
  5
B0
  8
0
 62
     7
 10
75.947599999999994
 20
106.274
 30
0.0
 11
75.953999999999994
 21
106.27
 31
0.0
  0
LINE
  5
B1
  8
0
 62
     7
 10
60.652999999999999
 20
105.895
 30
0.0
 11
75.680099999999996
 21
105.895
 31
0.0
  0
LINE
  5
B2
  8
0
 62
     7
 10
75.947599999999994
 20
106.274
 30
0.0
 11
60.385699999999993
 21
106.274
 31
0.0
  0
ARC
  5
B3
  8
0
 62
     7
 10
65.889833999999993
 20
108.87337100000001
 30
0.0
 40
0.401629
 50
359.98775699999999
 51
21.948967
  0
ARC
  5
B4
  8
0
 62
     7
 10
70.448344999999989
 20
108.871888
 30
0.0
 40
0.4070470000000001
 50
158.13326499999999
 51
179.80334300000001
  0
LINE
  5
B5
  8
0
 62
     7
 10
70.041300000000007
 20
106.274
 30
0.0
 11
70.041300000000007
 21
108.873
 31
0.0
  0
LINE
  5
B6
  8
0
 62
     7
 10
66.291499999999999
 20
106.274
 30
0.0
 11
66.291499999999999
 21
108.873
 31
0.0
  0
ARC
  5
B7
  8
0
 62
     7
 10
67.738243000000011
 20
87.047638000000006
 30
0.0
 40
26.006585000000001
 50
64.360768999999991
 51
83.889656999999985
  0
ARC
  5
B8
  8
0
 62
     7
 10
68.154032999999984
 20
89.345481000000007
 30
0.0
 40
23.678139999999999
 50
84.298209999999997
 51
89.969899999999996
  0
ARC
  5
B9
  8
0
 62
     7
 10
68.178157999999996
 20
88.861599999999996
 30
0.0
 40
24.162020999999999
 50
90.027709999999999
 51
109.68583
  0
ARC
  5
BA
  8
0
 62
     7
 10
68.767627000000005
 20
86.737750000000005
 30
0.0
 40
26.360797000000002
 50
109.337132
 51
115.68662999999999
  0
ARC
  5
BB
  8
0
 62
     7
 10
57.682901000000001
 20
109.807182
 30
0.0
 40
0.7665340000000001
 50
116.442364
 51
179.22191900000001
  0
ARC
  5
BC
  8
0
 62
     7
 10
78.649072000000004
 20
109.80657600000001
 30
0.0
 40
0.7675060000000001
 50
0.8223299999999998
 51
63.513346999999989
  0
LINE
  5
BD
  8
0
 62
     7
 10
79.416499999999999
 20
109.774
 30
0.0
 11
79.416499999999999
 21
109.818
 31
0.0
  0
LINE
  5
BE
  8
0
 62
     7
 10
56.916400000000003
 20
109.774
 30
0.0
 11
56.916400000000003
 21
109.818
 31
0.0
  0
ARC
  5
BF
  8
0
 62
     7
 10
57.695356000000011
 20
109.802397
 30
0.0
 40
0.779442
 50
182.099805
 51
267.87391200000002
  0
ARC
  5
C0
  8
0
 62
     7
 10
78.637491999999995
 20
109.802485
 30
0.0
 40
0.779533
 50
272.13232900000003
 51
357.89399400000002
  0
LINE
  5
C1
  8
0
 62
     7
 10
78.666499999999985
 20
109.023
 30
0.0
 11
57.666400000000003
 21
109.023
 31
0.0
  0
LINE
  5
C2
  8
0
 62
     7
 10
73.004300000000001
 20
82.398199999999989
 30
0.0
 11
73.004300000000001
 21
85.473399999999998
 31
0.0
  0
LINE
  5
C3
  8
0
 62
     7
 10
63.328800000000001
 20
85.473399999999998
 30
0.0
 11
63.328800000000001
 21
82.398199999999989
 31
0.0
  0
LINE
  5
C4
  8
0
 62
     7
 10
67.566299999999998
 20
81.773300000000006
 30
0.0
 11
67.566299999999998
 21
80.123400000000004
 31
0.0
  0
LINE
  5
C5
  8
0
 62
     7
 10
67.566299999999998
 20
98.876900000000006
 30
0.0
 11
67.566299999999998
 21
91.773399999999995
 31
0.0
  0
LINE
  5
C6
  8
0
 62
     7
 10
68.766800000000003
 20
91.773399999999995
 30
0.0
 11
68.766800000000003
 21
98.876900000000006
 31
0.0
  0
LINE
  5
C7
  8
0
 62
     7
 10
68.766800000000003
 20
80.123400000000004
 30
0.0
 11
68.766800000000003
 21
81.773300000000006
 31
0.0
  0
LINE
  5
C8
  8
0
 62
     7
 10
75.953999999999994
 20
106.053
 30
0.0
 11
60.379100000000001
 21
106.053
 31
0.0
  0
LINE
  5
C9
  8
0
 62
     7
 10
75.953999999999994
 20
106.27
 30
0.0
 11
60.378799999999998
 21
106.27
 31
0.0
  0
LINE
  5
CA
  8
0
 62
     7
 10
70.041300000000007
 20
108.873
 30
0.0
 11
66.291499999999999
 21
108.873
 31
0.0
  0
LINE
  5
CB
  8
0
 62
     7
 10
78.991399999999999
 20
110.494
 30
0.0
 11
57.3416
 21
110.494
 31
0.0
  0
LINE
  5
CC
  8
0
 62
     7
 10
79.416499999999999
 20
109.818
 30
0.0
 11
56.916400000000003
 21
109.818
 31
0.0
  0
LINE
  5
CD
  8
0
  6
AIGENLINE001
 62
     7
 10
105.875
 20
171.63800000000001
 30
0.0
 11
105.879
 21
171.63800000000001
 31
0.0
  0
LINE
  5
CE
  8
0
  6
AIGENLINE001
 62
     7
 10
105.869
 20
171.63800000000001
 30
0.0
 11
105.874
 21
171.63800000000001
 31
0.0
  0
LINE
  5
CF
  8
0
  6
AIGENLINE001
 62
     7
 10
105.875
 20
171.63800000000001
 30
0.0
 11
105.874
 21
171.63800000000001
 31
0.0
  0
LINE
  5
D0
  8
0
  6
AIGENLINE001
 62
     7
 10
105.755
 20
171.61600000000001
 30
0.0
 11
105.774
 21
171.62100000000001
 31
0.0
  0
LINE
  5
D1
  8
0
  6
AIGENLINE001
 62
     7
 10
105.8
 20
171.62700000000001
 30
0.0
 11
105.786
 21
171.62299999999999
 31
0.0
  0
LINE
  5
D2
  8
0
  6
AIGENLINE001
 62
     7
 10
105.774
 20
171.62100000000001
 30
0.0
 11
105.786
 21
171.62299999999999
 31
0.0
  0
ARC
  5
D3
  8
0
  6
AIGENLINE001
 62
     7
 10
81.399416999999985
 20
174.66350399999999
 30
0.0
 40
24.195150999999999
 50
312.611738
 51
351.726066
  0
ARC
  5
D4
  8
0
  6
AIGENLINE001
 62
     7
 10
105.836472
 20
171.07162
 30
0.0
 40
0.5058600000000001
 50
156.75694200000001
 51
167.43412699999999
  0
LINE
  5
D5
  8
0
  6
AIGENLINE001
 62
     7
 10
105.372
 20
171.27099999999999
 30
0.0
 11
105.374
 21
171.27500000000001
 31
0.0
  0
ARC
  5
D6
  8
0
  6
AIGENLINE001
 62
     7
 10
105.93303
 20
171.03150199999999
 30
0.0
 40
0.610155
 50
105.102408
 51
156.44037800000001
  0
LINE
  5
D7
  8
0
  6
AIGENLINE001
 62
     7
 10
105.786
 20
171.62299999999999
 30
0.0
 11
105.774
 21
171.62100000000001
 31
0.0
  0
ARC
  5
D8
  8
0
  6
AIGENLINE001
 62
     7
 10
105.932464
 20
171.01219900000001
 30
0.0
 40
0.6283400000000001
 50
95.341936000000004
 51
103.43633699999999
  0
LINE
  5
D9
  8
0
  6
AIGENLINE001
 62
     7
 10
105.874
 20
171.63800000000001
 30
0.0
 11
105.875
 21
171.63800000000001
 31
0.0
  0
LINE
  5
DA
  8
0
  6
AIGENLINE001
 62
     7
 10
105.871
 20
171.63800000000001
 30
0.0
 11
105.874
 21
171.63800000000001
 31
0.0
  0
LINE
  5
DB
  8
0
  6
AIGENLINE001
 62
     7
 10
105.879
 20
171.63800000000001
 30
0.0
 11
105.875
 21
171.63800000000001
 31
0.0
  0
ARC
  5
DC
  8
0
  6
AIGENLINE001
 62
     7
 10
78.405744999999996
 20
235.85877400000001
 30
0.0
 40
79.004368999999997
 50
265.74804
 51
269.54662500000001
  0
ARC
  5
DD
  8
0
  6
AIGENLINE001
 62
     7
 10
78.417463999999995
 20
237.917914
 30
0.0
 40
81.058833000000007
 50
262.12020699999999
 51
265.84769299999999
  0
ARC
  5
DE
  8
0
  6
AIGENLINE001
 62
     7
 10
78.457426999999996
 20
238.23191600000001
 30
0.0
 40
81.375349
 50
258.44778500000001
 51
262.12264499999998
  0
ARC
  5
DF
  8
0
  6
AIGENLINE001
 62
     7
 10
78.217937000000006
 20
236.977464
 30
0.0
 40
80.098349999999996
 50
254.702699
 51
258.435925
  0
ARC
  5
E0
  8
0
  6
AIGENLINE001
 62
     7
 10
77.691817
 20
234.92853400000001
 30
0.0
 40
77.98321700000001
 50
250.884548
 51
254.678391
  0
ARC
  5
E1
  8
0
  6
AIGENLINE001
 62
     7
 10
77.170614999999984
 20
233.352194
 30
0.0
 40
76.323118999999991
 50
246.990206
 51
250.86672200000001
  0
ARC
  5
E2
  8
0
  6
AIGENLINE001
 62
     7
 10
76.1554
 20
230.80888200000001
 30
0.0
 40
73.585346000000001
 50
243.00742500000001
 51
246.943714
  0
ARC
  5
E3
  8
0
  6
AIGENLINE001
 62
     7
 10
74.678589000000002
 20
227.72721799999999
 30
0.0
 40
70.169143000000005
 50
238.90133900000009
 51
242.939851
  0
LINE
  5
E4
  8
0
  6
AIGENLINE001
 62
     7
 10
38.435299999999998
 20
167.643
 30
0.0
 11
38.435299999999998
 21
167.64400000000001
 31
0.0
  0
ARC
  5
E5
  8
0
  6
AIGENLINE001
 62
     7
 10
38.08069600000001
 20
167.15173799999999
 30
0.0
 40
0.606299
 50
54.208962000000007
 51
91.132037999999994
  0
ARC
  5
E6
  8
0
  6
AIGENLINE001
 62
     7
 10
157.52204800000001
 20
260.15671400000002
 30
0.0
 40
92.500081999999992
 50
270.00582200000002
 51
272.69064800000001
  0
ARC
  5
E7
  8
0
  6
AIGENLINE001
 62
     7
 10
156.27850699999999
 20
292.16090500000001
 30
0.0
 40
124.5276379999999
 50
272.57092399999999
 51
276.71802300000002
  0
ARC
  5
E8
  8
0
  6
AIGENLINE001
 62
     7
 10
162.37445199999999
 20
232.83747500000001
 30
0.0
 40
64.904450999999995
 50
277.499955
 51
278.72816499999999
  0
ARC
  5
E9
  8
0
  6
AIGENLINE001
 62
     7
 10
160.565482
 20
243.70797200000001
 30
0.0
 40
75.923692000000003
 50
278.83265399999999
 51
279.39403199999998
  0
ARC
  5
EA
  8
0
  6
AIGENLINE001
 62
     7
 10
162.07082
 20
234.51025200000001
 30
0.0
 40
66.603618000000012
 50
279.40790699999991
 51
280.05319600000001
  0
ARC
  5
EB
  8
0
  6
AIGENLINE001
 62
     7
 10
165.09537599999999
 20
217.446269
 30
0.0
 40
49.273659000000002
 50
280.05390599999998
 51
280.81481700000001
  0
ARC
  5
EC
  8
0
  6
AIGENLINE001
 62
     7
 10
166.14729600000001
 20
211.077406
 30
0.0
 40
42.820843000000004
 50
281.031294
 51
281.78182900000002
  0
ARC
  5
ED
  8
0
  6
AIGENLINE001
 62
     7
 10
171.15279200000001
 20
187.06377000000001
 30
0.0
 40
18.291070999999999
 50
281.791832
 51
283.18899699999997
  0
ARC
  5
EE
  8
0
  6
AIGENLINE001
 62
     7
 10
171.73718700000001
 20
184.59665100000001
 30
0.0
 40
15.755691000000001
 50
283.16691200000002
 51
284.61755299999999
  0
ARC
  5
EF
  8
0
  6
AIGENLINE001
 62
     7
 10
173.452765
 20
178.00397599999999
 30
0.0
 40
8.9434570000000004
 50
284.64136500000001
 51
286.83826900000003
  0
ARC
  5
F0
  8
0
  6
AIGENLINE001
 62
     7
 10
174.30616800000001
 20
175.183672
 30
0.0
 40
5.9968639999999986
 50
286.83966700000002
 51
289.6961609999999
  0
ARC
  5
F1
  8
0
  6
AIGENLINE001
 62
     7
 10
174.777434
 20
173.84017700000001
 30
0.0
 40
4.57315
 50
289.81025199999999
 51
292.98153300000001
  0
ARC
  5
F2
  8
0
  6
AIGENLINE001
 62
     7
 10
175.44728499999999
 20
172.13932
 30
0.0
 40
2.7461639999999989
 50
293.970279
 51
298.31102700000002
  0
ARC
  5
F3
  8
0
  6
AIGENLINE001
 62
     7
 10
176.10672099999999
 20
170.902939
 30
0.0
 40
1.3449420000000001
 50
298.55833200000001
 51
306.28381000000002
  0
ARC
  5
F4
  8
0
  6
AIGENLINE001
 62
     7
 10
176.14526799999999
 20
170.86512099999999
 30
0.0
 40
1.291674999999999
 50
305.89822500000002
 51
309.92799600000001
  0
ARC
  5
F5
  8
0
  6
AIGENLINE001
 62
     7
 10
176.44026299999999
 20
170.49248900000001
 30
0.0
 40
0.8166879999999999
 50
310.83631300000002
 51
313.71107499999999
  0
ARC
  5
F6
  8
0
  6
AIGENLINE001
 62
     7
 10
176.92026300000001
 20
170.00028900000001
 30
0.0
 40
0.1294
 50
310.6813380000001
 51
319.31867099999999
  0
LINE
  5
F7
  8
0
  6
AIGENLINE001
 62
     7
 10
177.018
 20
169.916
 30
0.0
 11
177.03200000000001
 21
169.9429999999999
 31
0.0
  0
ARC
  5
F8
  8
0
  6
AIGENLINE001
 62
     7
 10
176.794578
 20
170.03992700000001
 30
0.0
 40
0.256677
 50
337.76813199999998
 51
350.89555100000001
  0
ARC
  5
F9
  8
0
  6
AIGENLINE001
 62
     7
 10
176.819301
 20
170.03247300000001
 30
0.0
 40
0.231112
 50
351.75036699999998
 51
30.393305999999999
  0
ARC
  5
FA
  8
0
  6
AIGENLINE001
 62
     7
 10
176.69822500000001
 20
169.969998
 30
0.0
 40
0.3672309999999999
 50
29.243773999999998
 51
51.504848000000003
  0
ARC
  5
FB
  8
0
  6
AIGENLINE001
 62
     7
 10
176.554056
 20
169.809743
 30
0.0
 40
0.582541
 50
50.217798000000002
 51
56.883839999999999
  0
ARC
  5
FC
  8
0
  6
AIGENLINE001
 62
     7
 10
176.59854999999999
 20
169.88585499999999
 30
0.0
 40
0.4945020000000001
 50
56.383708999999989
 51
62.685187999999989
  0
ARC
  5
FD
  8
0
  6
AIGENLINE001
 62
     7
 10
176.073384
 20
168.730717
 30
0.0
 40
1.7629699999999999
 50
64.748045000000005
 51
73.662431000000012
  0
ARC
  5
FE
  8
0
  6
AIGENLINE001
 62
     7
 10
175.51352499999999
 20
166.989554
 30
0.0
 40
3.591626999999999
 50
72.90513
 51
81.048693
  0
ARC
  5
FF
  8
0
  6
AIGENLINE001
 62
     7
 10
173.05230900000001
 20
153.28757300000001
 30
0.0
 40
17.512241
 50
80.069465000000037
 51
80.620563000000004
  0
ARC
  5
100
  8
0
  6
AIGENLINE001
 62
     7
 10
203.28848199999999
 20
354.42762199999999
 30
0.0
 40
185.889736
 50
261.46899000000002
 51
261.52933000000002
  0
ARC
  5
101
  8
0
  6
AIGENLINE001
 62
     7
 10
174.62367699999999
 20
163.61219199999999
 30
0.0
 40
7.0668499999999987
 50
81.135258999999991
 51
82.948556999999994
  0
ARC
  5
102
  8
0
  6
AIGENLINE001
 62
     7
 10
172.10851600000001
 20
144.60404800000001
 30
0.0
 40
26.240489
 50
82.593318999999994
 51
83.820983999999996
  0
ARC
  5
103
  8
0
  6
AIGENLINE001
 62
     7
 10
169.95008899999999
 20
124.668925
 30
0.0
 40
46.292121000000002
 50
83.820775999999995
 51
85.833887000000004
  0
ARC
  5
104
  8
0
  6
AIGENLINE001
 62
     7
 10
167.61361299999999
 20
94.372724000000005
 30
0.0
 40
76.678118000000012
 50
85.737241999999995
 51
88.073056999999977
  0
ARC
  5
105
  8
0
  6
AIGENLINE001
 62
     7
 10
166.38026300000001
 20
64.753500000000003
 30
0.0
 40
106.322328
 50
87.945498000000001
 51
88.808222999999998
  0
ARC
  5
106
  8
0
  6
AIGENLINE001
 62
     7
 10
158.63342
 20
-156.18144000000001
 30
0.0
 40
327.38575500000002
 50
88.256934000000001
 51
88.346447999999995
  0
ARC
  5
107
  8
0
  6
AIGENLINE001
 62
     7
 10
161.882542
 20
-71.280199999999994
 30
0.0
 40
242.427426
 50
88.535021
 51
88.968619000000004
  0
LINE
  5
108
  8
0
  6
AIGENLINE001
 62
     7
 10
166.24600000000001
 20
171.108
 30
0.0
 11
165.48400000000001
 21
171.12200000000001
 31
0.0
  0
LINE
  5
109
  8
0
  6
AIGENLINE001
 62
     7
 10
165.48400000000001
 20
171.12200000000001
 30
0.0
 11
161.70599999999999
 21
171.16499999999999
 31
0.0
  0
LINE
  5
10A
  8
0
  6
AIGENLINE001
 62
     7
 10
161.70599999999999
 20
171.16499999999999
 30
0.0
 11
158.12299999999999
 21
171.18199999999999
 31
0.0
  0
LINE
  5
10B
  8
0
  6
AIGENLINE001
 62
     7
 10
158.12299999999999
 20
171.18199999999999
 30
0.0
 11
157.535
 21
171.18199999999999
 31
0.0
  0
LINE
  5
10C
  8
0
  6
AIGENLINE001
 62
     7
 10
157.535
 20
171.18199999999999
 30
0.0
 11
157.52699999999999
 21
171.18199999999999
 31
0.0
  0
LINE
  5
10D
  8
0
  6
AIGENLINE001
 62
     7
 10
157.52699999999999
 20
171.18199999999999
 30
0.0
 11
156.94
 21
171.18199999999999
 31
0.0
  0
LINE
  5
10E
  8
0
  6
AIGENLINE001
 62
     7
 10
156.94
 20
171.18199999999999
 30
0.0
 11
153.35599999999999
 21
171.16499999999999
 31
0.0
  0
LINE
  5
10F
  8
0
  6
AIGENLINE001
 62
     7
 10
153.35599999999999
 20
171.16499999999999
 30
0.0
 11
149.578
 21
171.12200000000001
 31
0.0
  0
ARC
  5
110
  8
0
  6
AIGENLINE001
 62
     7
 10
152.97900999999999
 20
-38.030079999999998
 30
0.0
 40
209.17946000000001
 50
90.931583000000003
 51
91.140350999999995
  0
ARC
  5
111
  8
0
  6
AIGENLINE001
 62
     7
 10
153.178776
 20
-71.240856999999991
 30
0.0
 40
242.38807399999999
 50
91.031326000000007
 51
91.46499399999999
  0
LINE
  5
112
  8
0
  6
AIGENLINE001
 62
     7
 10
146.982
 20
171.06800000000001
 30
0.0
 11
146.471
 21
171.053
 31
0.0
  0
ARC
  5
113
  8
0
  6
AIGENLINE001
 62
     7
 10
148.62939499999999
 20
67.91585400000001
 30
0.0
 40
103.159567
 50
91.199126000000021
 51
92.955406999999994
  0
ARC
  5
114
  8
0
  6
AIGENLINE001
 62
     7
 10
146.815641
 20
104.33751100000001
 30
0.0
 40
66.692868999999988
 50
93.012554000000023
 51
95.439290999999983
  0
ARC
  5
115
  8
0
  6
AIGENLINE001
 62
     7
 10
143.23469299999999
 20
142.673259
 30
0.0
 40
28.190383000000001
 50
95.579668999999996
 51
97.921735999999996
  0
ARC
  5
116
  8
0
  6
AIGENLINE001
 62
     7
 10
125.65616900000001
 20
261.54724399999998
 30
0.0
 40
91.977633999999995
 50
278.439886
 51
278.56183499999997
  0
ARC
  5
117
  8
0
  6
AIGENLINE001
 62
     7
 10
140.94710000000001
 20
159.534561
 30
0.0
 40
11.175611999999999
 50
99.223177000000007
 51
100.086755
  0
ARC
  5
118
  8
0
  6
AIGENLINE001
 62
     7
 10
139.39560700000001
 20
167.89522500000001
 30
0.0
 40
2.673192999999999
 50
98.731360999999993
 51
101.52528100000001
  0
ARC
  5
119
  8
0
  6
AIGENLINE001
 62
     7
 10
139.56535400000001
 20
166.92355900000001
 30
0.0
 40
3.6592879999999992
 50
101.089754
 51
107.828594
  0
ARC
  5
11A
  8
0
  6
AIGENLINE001
 62
     7
 10
139.04188099999999
 20
168.58331000000001
 30
0.0
 40
1.918998
 50
108.122197
 51
114.80806699999999
  0
ARC
  5
11B
  8
0
  6
AIGENLINE001
 62
     7
 10
138.72318300000001
 20
169.45793
 30
0.0
 40
0.9944089999999999
 50
119.28869
 51
122.38694700000001
  0
ARC
  5
11C
  8
0
  6
AIGENLINE001
 62
     7
 10
138.48797500000001
 20
169.84128000000001
 30
0.0
 40
0.5447440000000001
 50
123.093056
 51
138.32725300000001
  0
ARC
  5
11D
  8
0
  6
AIGENLINE001
 62
     7
 10
138.29311100000001
 20
170.020916
 30
0.0
 40
0.279793
 50
139.27347
 51
184.42863600000001
  0
ARC
  5
11E
  8
0
  6
AIGENLINE001
 62
     7
 10
138.23592199999999
 20
170.03104200000001
 30
0.0
 40
0.224027
 50
188.14270400000001
 51
203.19365300000001
  0
LINE
  5
11F
  8
0
  6
AIGENLINE001
 62
     7
 10
138.03
 20
169.9429999999999
 30
0.0
 11
138.04400000000001
 21
169.916
 31
0.0
  0
ARC
  5
120
  8
0
  6
AIGENLINE001
 62
     7
 10
138.49168800000001
 20
170.350065
 30
0.0
 40
0.623767
 50
224.10492400000001
 51
225.895106
  0
ARC
  5
121
  8
0
  6
AIGENLINE001
 62
     7
 10
138.37357600000001
 20
170.21932000000001
 30
0.0
 40
0.447723
 50
225.103767
 51
230.348884
  0
ARC
  5
122
  8
0
  6
AIGENLINE001
 62
     7
 10
139.21464499999999
 20
171.247401
 30
0.0
 40
1.7760029999999991
 50
230.62164000000001
 51
233.552179
  0
ARC
  5
123
  8
0
  6
AIGENLINE001
 62
     7
 10
138.97460599999999
 20
170.93309199999999
 30
0.0
 40
1.380582999999999
 50
233.81607700000001
 51
241.34182000000001
  0
ARC
  5
124
  8
0
  6
AIGENLINE001
 62
     7
 10
139.30065300000001
 20
171.499032
 30
0.0
 40
2.033614
 50
240.92794599999999
 51
246.79078799999999
  0
ARC
  5
125
  8
0
  6
AIGENLINE001
 62
     7
 10
140.04028299999999
 20
173.216263
 30
0.0
 40
3.9033540000000002
 50
246.74631099999999
 51
250.46194399999999
  0
ARC
  5
126
  8
0
  6
AIGENLINE001
 62
     7
 10
140.75031200000001
 20
175.166417
 30
0.0
 40
5.9786989999999989
 50
250.29951800000001
 51
253.164693
  0
ARC
  5
127
  8
0
  6
AIGENLINE001
 62
     7
 10
141.762002
 20
178.54539500000001
 30
0.0
 40
9.5058710000000008
 50
253.22674799999999
 51
255.29365699999991
  0
ARC
  5
128
  8
0
  6
AIGENLINE001
 62
     7
 10
143.602135
 20
185.71720099999999
 30
0.0
 40
16.909921000000001
 50
255.43197799999999
 51
256.78359699999999
  0
ARC
  5
129
  8
0
  6
AIGENLINE001
 62
     7
 10
145.252466
 20
193.12683000000001
 30
0.0
 40
24.500765000000001
 50
256.98808400000001
 51
258.03112700000003
  0
ARC
  5
12A
  8
0
  6
AIGENLINE001
 62
     7
 10
146.61551600000001
 20
199.68056300000001
 30
0.0
 40
31.194701999999999
 50
258.078327
 51
259.10858999999999
  0
ARC
  5
12B
  8
0
  6
AIGENLINE001
 62
     7
 10
148.15090000000001
 20
207.58551499999999
 30
0.0
 40
39.247374000000001
 50
259.088008
 51
260.04330900000002
  0
ARC
  5
12C
  8
0
  6
AIGENLINE001
 62
     7
 10
159.90853100000001
 20
274.84791799999999
 30
0.0
 40
107.529669
 50
260.06962399999998
 51
260.469313
  0
ARC
  5
12D
  8
0
  6
AIGENLINE001
 62
     7
 10
155.26372900000001
 20
248.489611
 30
0.0
 40
80.766407000000001
 50
260.622818
 51
261.15053499999999
  0
ARC
  5
12E
  8
0
  6
AIGENLINE001
 62
     7
 10
152.800546
 20
233.62881899999999
 30
0.0
 40
65.703750999999997
 50
261.27932600000003
 51
262.492594
  0
ARC
  5
12F
  8
0
  6
AIGENLINE001
 62
     7
 10
149.51468299999999
 20
210.87248299999999
 30
0.0
 40
42.714117999999999
 50
262.87419
 51
263.55306899999999
  0
ARC
  5
130
  8
0
  6
AIGENLINE001
 62
     7
 10
158.504279
 20
289.2252410000001
 30
0.0
 40
121.580848
 50
263.48942100000011
 51
268.799755
  0
ARC
  5
131
  8
0
  6
AIGENLINE001
 62
     7
 10
157.557085
 20
256.25039299999997
 30
0.0
 40
88.593765000000005
 50
268.96548899999999
 51
269.98342000000002
  0
ARC
  5
132
  8
0
  6
AIGENLINE001
 62
     7
 10
175.47806800000001
 20
167.41683599999999
 30
0.0
 40
3.1752790000000002
 50
79.351888999999986
 51
80.564045999999976
  0
ARC
  5
133
  8
0
  6
AIGENLINE001
 62
     7
 10
165.858079
 20
174.429823
 30
0.0
 40
12.033880999999999
 50
337.11412799999999
 51
337.95548200000002
  0
ARC
  5
134
  8
0
  6
AIGENLINE001
 62
     7
 10
157.43744899999999
 20
177.72845599999999
 30
0.0
 40
21.075796
 50
337.22186799999997
 51
337.75514299999998
  0
ARC
  5
135
  8
0
  6
AIGENLINE001
 62
     7
 10
146.807187
 20
182.12710000000001
 30
0.0
 40
32.580064999999998
 50
335.533432
 51
337.32747999999998
  0
ARC
  5
136
  8
0
  6
AIGENLINE001
 62
     7
 10
145.50735599999999
 20
182.71932899999999
 30
0.0
 40
34.008454
 50
331.187029
 51
335.53224
  0
ARC
  5
137
  8
0
  6
AIGENLINE001
 62
     7
 10
146.59985699999999
 20
182.178967
 30
0.0
 40
32.790821999999999
 50
327.63487099999998
 51
331.09430099999997
  0
ARC
  5
138
  8
0
  6
AIGENLINE001
 62
     7
 10
147.73324700000001
 20
181.470429
 30
0.0
 40
31.454211000000001
 50
324.05005699999998
 51
327.619844
  0
ARC
  5
139
  8
0
  6
AIGENLINE001
 62
     7
 10
147.71220500000001
 20
181.45247800000001
 30
0.0
 40
31.460718
 50
320.63960300000002
 51
324.09902
  0
ARC
  5
13A
  8
0
  6
AIGENLINE001
 62
     7
 10
146.275475
 20
182.61946399999999
 30
0.0
 40
33.311657000000011
 50
317.31360699999999
 51
320.65489100000002
  0
ARC
  5
13B
  8
0
  6
AIGENLINE001
 62
     7
 10
140.76115100000001
 20
187.61055099999999
 30
0.0
 40
40.749045000000002
 50
314.43379399999998
 51
317.41175600000003
  0
ARC
  5
13C
  8
0
  6
AIGENLINE001
 62
     7
 10
127.889842
 20
200.45784
 30
0.0
 40
58.934111999999999
 50
313.47951699999999
 51
314.625024
  0
ARC
  5
13D
  8
0
  6
AIGENLINE001
 62
     7
 10
154.166213
 20
172.73405
 30
0.0
 40
20.736522000000001
 50
312.41316599999999
 51
313.50695999999999
  0
ARC
  5
13E
  8
0
  6
AIGENLINE001
 62
     7
 10
34.395502
 20
304.04813100000001
 30
0.0
 40
198.467805
 50
312.12887499999999
 51
312.37248899999997
  0
ARC
  5
13F
  8
0
  6
AIGENLINE001
 62
     7
 10
139.75051099999999
 20
166.393506
 30
0.0
 40
4.2131749999999988
 50
99.479178000000005
 51
100.401946
  0
ARC
  5
140
  8
0
  6
AIGENLINE001
 62
     7
 10
149.196517
 20
174.429823
 30
0.0
 40
12.033880999999999
 50
202.04453799999999
 51
202.88589200000001
  0
ARC
  5
141
  8
0
  6
AIGENLINE001
 62
     7
 10
157.61714699999999
 20
177.72845599999999
 30
0.0
 40
21.075796
 50
202.244877
 51
202.77815100000001
  0
ARC
  5
142
  8
0
  6
AIGENLINE001
 62
     7
 10
168.247409
 20
182.12710000000001
 30
0.0
 40
32.580064999999998
 50
202.67254
 51
204.466588
  0
ARC
  5
143
  8
0
  6
AIGENLINE001
 62
     7
 10
169.35589300000001
 20
182.632192
 30
0.0
 40
33.798200999999999
 50
204.467679
 51
208.84045800000001
  0
ARC
  5
144
  8
0
  6
AIGENLINE001
 62
     7
 10
167.615081
 20
181.670422
 30
0.0
 40
31.809377000000001
 50
208.835487
 51
212.40105600000001
  0
ARC
  5
145
  8
0
  6
AIGENLINE001
 62
     7
 10
167.321348
 20
181.470429
 30
0.0
 40
31.454211000000001
 50
212.38017600000001
 51
215.949963
  0
ARC
  5
146
  8
0
  6
AIGENLINE001
 62
     7
 10
167.34238999999999
 20
181.45247800000001
 30
0.0
 40
31.460718
 50
215.90099900000001
 51
219.36041700000001
  0
ARC
  5
147
  8
0
  6
AIGENLINE001
 62
     7
 10
168.779121
 20
182.61946399999999
 30
0.0
 40
33.311657000000011
 50
219.34512899999999
 51
222.68641299999999
  0
ARC
  5
148
  8
0
  6
AIGENLINE001
 62
     7
 10
174.29344499999999
 20
187.61055099999999
 30
0.0
 40
40.749045000000002
 50
222.58826400000001
 51
225.566226
  0
ARC
  5
149
  8
0
  6
AIGENLINE001
 62
     7
 10
190.86547400000001
 20
204.28305900000001
 30
0.0
 40
64.256239000000008
 50
225.422436
 51
226.473062
  0
ARC
  5
14A
  8
0
  6
AIGENLINE001
 62
     7
 10
160.80457000000001
 20
172.64571000000001
 30
0.0
 40
20.614749
 50
226.4929819999999
 51
227.59330299999999
  0
ARC
  5
14B
  8
0
  6
AIGENLINE001
 62
     7
 10
254.55192400000001
 20
275.43090100000001
 30
0.0
 40
159.73110600000001
 50
227.62786800000001
 51
227.930736
  0
ARC
  5
14C
  8
0
 62
     7
 10
99.340192999999999
 20
218.01042899999999
 30
0.0
 40
6.2431219999999996
 50
1.935684999999999
 51
3.832643
  0
ARC
  5
14D
  8
0
 62
     7
 10
84.410055000000014
 20
217.136503
 30
0.0
 40
21.198658999999999
 50
3.4921019999999992
 51
6.2814069999999989
  0
ARC
  5
14E
  8
0
 62
     7
 10
77.33471999999999
 20
216.42317199999999
 30
0.0
 40
28.309639000000001
 50
6.1497000000000002
 51
17.132560000000002
  0
ARC
  5
14F
  8
0
 62
     7
 10
83.453800000000001
 20
218.1919
 30
0.0
 40
21.941337999999998
 50
17.425909999999998
 51
24.34040400000001
  0
ARC
  5
150
  8
0
 62
     7
 10
88.485997999999995
 20
220.39584199999999
 30
0.0
 40
16.448201000000001
 50
24.570364000000001
 51
35.563799000000003
  0
ARC
  5
151
  8
0
 62
     7
 10
104.118661
 20
231.58265
 30
0.0
 40
2.774837999999999
 50
212.954857
 51
215.72928300000001
  0
LINE
  5
152
  8
0
 62
     7
 10
101.79000000000001
 20
230.07300000000001
 30
0.0
 11
101.768
 21
230.10300000000001
 31
0.0
  0
ARC
  5
153
  8
0
 62
     7
 10
54.835405000000002
 20
212.146636
 30
0.0
 40
18.746216
 50
125.660107
 51
127.122553
  0
ARC
  5
154
  8
0
 62
     7
 10
53.532136000000001
 20
213.66872599999991
 30
0.0
 40
16.746466000000002
 50
126.710133
 51
127.235364
  0
LINE
  5
155
  8
0
 62
     7
 10
43.932999999999993
 20
227.39699999999999
 30
0.0
 11
43.90679999999999
 21
227.37799999999999
 31
0.0
  0
ARC
  5
156
  8
0
 62
     7
 10
102.954686
 20
233.05736899999999
 30
0.0
 40
2.7474949999999998
 50
219.15892500000001
 51
220.260943
  0
ARC
  5
157
  8
0
 62
     7
 10
85.460748999999979
 20
218.47098099999999
 30
0.0
 40
20.031157
 50
37.930622
 51
38.608402000000012
  0
ARC
  5
158
  8
0
 62
     7
 10
86.796053999999984
 20
220.72718499999999
 30
0.0
 40
17.119243999999998
 50
76.052571
 51
78.037992000000003
  0
ARC
  5
159
  8
0
 62
     7
 10
86.361451999999986
 20
218.49015499999999
 30
0.0
 40
19.397811999999998
 50
78.151675999999995
 51
82.722285999999997
  0
ARC
  5
15A
  8
0
 62
     7
 10
88.151184999999998
 20
232.86190999999999
 30
0.0
 40
4.9153260000000003
 50
82.194469999999995
 51
83.772508000000002
  0
ARC
  5
15B
  8
0
 62
     7
 10
57.953384
 20
207.93692799999999
 30
0.0
 40
23.987109
 50
128.463144
 51
130.003659
  0
ARC
  5
15C
  8
0
 62
     7
 10
54.578890000000001
 20
212.05908299999999
 30
0.0
 40
18.660388999999999
 50
130.203236
 51
132.15691100000001
  0
ARC
  5
15D
  8
0
 62
     7
 10
52.15697999999999
 20
214.72283999999999
 30
0.0
 40
15.060226
 50
132.128118
 51
136.71346600000001
  0
ARC
  5
15E
  8
0
 62
     7
 10
50.023273000000003
 20
216.73941099999999
 30
0.0
 40
12.124373
 50
136.736908
 51
141.998921
  0
ARC
  5
15F
  8
0
 62
     7
 10
48.742227999999997
 20
217.79442700000001
 30
0.0
 40
10.465448
 50
142.232381
 51
147.95683299999999
  0
ARC
  5
160
  8
0
 62
     7
 10
34.485235000000003
 20
223.49623099999999
 30
0.0
 40
4.919702
 50
338.665548
 51
339.70432399999999
  0
ARC
  5
161
  8
0
 62
     7
 10
40.717619999999997
 20
219.95987199999999
 30
0.0
 40
2.0886969999999998
 50
166.32291799999999
 51
168.97392600000001
  0
ARC
  5
162
  8
0
 62
     7
 10
40.832852000000003
 20
220.81526199999999
 30
0.0
 40
1.9635899999999999
 50
159.06385399999999
 51
162.21812299999999
  0
ARC
  5
163
  8
0
 62
     7
 10
51.308349999999997
 20
217.148011
 30
0.0
 40
13.061769
 50
159.57466500000001
 51
160.45908600000001
  0
ARC
  5
164
  8
0
 62
     7
 10
42.763571999999989
 20
220.06200999999999
 30
0.0
 40
4.0341300000000002
 50
160.40502799999999
 51
163.22763
  0
ARC
  5
165
  8
0
 62
     7
 10
40.587702999999998
 20
220.62639899999999
 30
0.0
 40
1.7900999999999989
 50
160.425568
 51
163.487572
  0
ARC
  5
166
  8
0
 62
     7
 10
52.174942999999999
 20
217.266426
 30
0.0
 40
13.858158
 50
165.47345200000001
 51
166.01721000000001
  0
ARC
  5
167
  8
0
 62
     7
 10
49.653275000000001
 20
217.84625
 30
0.0
 40
11.272323
 50
163.035968
 51
164.371464
  0
ARC
  5
168
  8
0
 62
     7
 10
47.198511999999987
 20
218.80136999999999
 30
0.0
 40
8.6226529999999997
 50
149.182534
 51
153.34497400000001
  0
ARC
  5
169
  8
0
 62
     7
 10
53.780165000000011
 20
216.768227
 30
0.0
 40
15.537229999999999
 50
164.64292699999999
 51
165.17977500000001
  0
LINE
  5
16A
  8
0
 62
     7
 10
38.688200000000002
 20
220.45400000000001
 30
0.0
 11
38.727400000000003
 21
220.61500000000001
 31
0.0
  0
ARC
  5
16B
  8
0
 62
     7
 10
48.35249799999999
 20
218.214844
 30
0.0
 40
9.9196010000000001
 50
167.514725
 51
171.30506700000001
  0
ARC
  5
16C
  8
0
 62
     7
 10
42.212912999999993
 20
221.03635499999999
 30
0.0
 40
3.1610230000000001
 50
154.49461400000001
 51
155.80217999999999
  0
ARC
  5
16D
  8
0
 62
     7
 10
39.296253
 20
222.023663
 30
0.0
 40
0.094951
 50
150.17922999999999
 51
156.69063299999999
  0
ARC
  5
16E
  8
0
 62
     7
 10
139.584822
 20
204.60292000000001
 30
0.0
 40
102.161604
 50
171.50465299999999
 51
171.958474
  0
ARC
  5
16F
  8
0
 62
     7
 10
44.698338999999997
 20
218.11146299999999
 30
0.0
 40
6.3192479999999991
 50
172.88333499999999
 51
178.94775999999999
  0
ARC
  5
170
  8
0
 62
     7
 10
48.227500999999997
 20
218.26396700000001
 30
0.0
 40
9.7852779999999981
 50
157.16618600000001
 51
158.88037499999999
  0
ARC
  5
171
  8
0
 62
     7
 10
53.385477999999999
 20
215.78591
 30
0.0
 40
15.505751
 50
153.873918
 51
154.76101700000001
  0
ARC
  5
172
  8
0
 62
     7
 10
47.280821000000003
 20
218.65125699999999
 30
0.0
 40
8.7618170000000006
 50
155.159628
 51
157.02762200000001
  0
ARC
  5
173
  8
0
 62
     7
 10
94.294465000000002
 20
225.12904399999999
 30
0.0
 40
8.9701529999999998
 50
35.649504999999998
 51
37.147717
  0
ARC
  5
174
  8
0
 62
     7
 10
93.00410500000001
 20
223.931724
 30
0.0
 40
10.718802
 50
35.150553000000002
 51
36.830292
  0
ARC
  5
175
  8
0
 62
     7
 10
87.423796999999979
 20
219.962256
 30
0.0
 40
17.567751999999999
 50
40.289304999999999
 51
48.715766000000002
  0
ARC
  5
176
  8
0
 62
     7
 10
87.224348000000006
 20
219.73253800000001
 30
0.0
 40
17.871969
 50
48.721189000000003
 51
62.008043000000008
  0
ARC
  5
177
  8
0
 62
     7
 10
85.680731999999978
 20
217.017944
 30
0.0
 40
20.993672
 50
61.765293000000021
 51
73.03914300000001
  0
ARC
  5
178
  8
0
 62
     7
 10
86.452542000000008
 20
219.39820599999999
 30
0.0
 40
18.491842999999999
 50
73.175084999999996
 51
76.012109999999993
  0
ARC
  5
179
  8
0
 62
     7
 10
86.876471999999978
 20
219.54509100000001
 30
0.0
 40
18.254684999999998
 50
38.746701000000002
 51
40.011347000000001
  0
ARC
  5
17A
  8
0
 62
     7
 10
91.396069999999995
 20
239.30144799999999
 30
0.0
 40
2.0161880000000001
 50
254.61025000000001
 51
256.41024700000003
  0
ARC
  5
17B
  8
0
 62
     7
 10
86.989875999999995
 20
219.58183399999999
 30
0.0
 40
18.142313000000001
 50
37.181001999999999
 51
38.132026000000003
  0
ARC
  5
17C
  8
0
 62
     7
 10
85.437806999999992
 20
211.609452
 30
0.0
 40
26.339628000000001
 50
82.919813000000005
 51
85.449540999999996
  0
ARC
  5
17D
  8
0
 62
     7
 10
84.452969999999993
 20
201.27759599999999
 30
0.0
 40
36.717407999999999
 50
85.196690999999987
 51
87.102012999999985
  0
ARC
  5
17E
  8
0
 62
     7
 10
83.499568999999994
 20
185.10787500000001
 30
0.0
 40
52.914823999999989
 50
86.956185000000005
 51
88.362987999999987
  0
ARC
  5
17F
  8
0
 62
     7
 10
83.042679000000007
 20
166.53193300000001
 30
0.0
 40
71.496274999999997
 50
88.422257999999985
 51
89.709012999999985
  0
ARC
  5
180
  8
0
 62
     7
 10
83.253857999999994
 20
167.05000799999999
 30
0.0
 40
70.977440000000001
 50
89.877358999999998
 51
90.952551000000014
  0
ARC
  5
181
  8
0
 62
     7
 10
83.066968000000003
 20
175.154132
 30
0.0
 40
62.871350999999997
 50
90.905037000000007
 51
92.329133999999996
  0
ARC
  5
182
  8
0
 62
     7
 10
84.074341000000004
 20
148.805983
 30
0.0
 40
89.23869599999999
 50
92.287882999999994
 51
93.439106000000024
  0
ARC
  5
183
  8
0
 62
     7
 10
92.531604999999985
 20
13.009046
 30
0.0
 40
225.29860400000001
 50
93.514347999999984
 51
93.709060000000008
  0
ARC
  5
184
  8
0
 62
     7
 10
90.891035999999986
 20
46.482317000000002
 30
0.0
 40
191.79004499999999
 50
93.866873999999996
 51
94.172270000000026
  0
ARC
  5
185
  8
0
 62
     7
 10
84.740915999999984
 20
129.15352899999999
 30
0.0
 40
108.89053800000001
 50
94.109643999999989
 51
94.514671000000007
  0
ARC
  5
186
  8
0
 62
     7
 10
97.955895999999996
 20
-31.266010000000001
 30
0.0
 40
269.85309100000001
 50
94.630731999999981
 51
94.794550999999998
  0
ARC
  5
187
  8
0
 62
     7
 10
84.637131000000011
 20
131.82920200000001
 30
0.0
 40
106.21596700000001
 50
94.988672999999977
 51
95.962465000000009
  0
ARC
  5
188
  8
0
 62
     7
 10
82.354600000000005
 20
155.81200799999999
 30
0.0
 40
82.126098999999996
 50
96.116704000000013
 51
97.198866000000024
  0
ARC
  5
189
  8
0
 62
     7
 10
79.933346
 20
175.12212700000001
 30
0.0
 40
62.664783999999997
 50
97.215008999999995
 51
98.397771000000006
  0
ARC
  5
18A
  8
0
 62
     7
 10
81.286986999999996
 20
165.77712500000001
 30
0.0
 40
72.107286000000002
 50
98.377380999999986
 51
99.610181999999995
  0
ARC
  5
18B
  8
0
 62
     7
 10
80.277046999999996
 20
172.497379
 30
0.0
 40
65.312860000000001
 50
99.720839999999981
 51
101.080242
  0
ARC
  5
18C
  8
0
 62
     7
 10
80.083081000000007
 20
173.43725599999999
 30
0.0
 40
64.353227000000004
 50
101.071586
 51
102.22033999999999
  0
ARC
  5
18D
  8
0
 62
     7
 10
80.365738000000007
 20
172.331919
 30
0.0
 40
65.493362000000005
 50
102.25733099999999
 51
103.60933900000001
  0
ARC
  5
18E
  8
0
 62
     7
 10
82.512687999999997
 20
163.71281200000001
 30
0.0
 40
74.375668999999988
 50
103.654472
 51
106.235664
  0
ARC
  5
18F
  8
0
 62
     7
 10
87.488571999999991
 20
146.54144099999999
 30
0.0
 40
92.253446999999994
 50
106.22108
 51
108.309
  0
ARC
  5
190
  8
0
 62
     7
 10
103.543992
 20
98.144902000000016
 30
0.0
 40
143.24364700000001
 50
108.324702
 51
108.738331
  0
ARC
  5
191
  8
0
 62
     7
 10
101.053279
 20
105.903854
 30
0.0
 40
135.095888
 50
108.795096
 51
109.233692
  0
ARC
  5
192
  8
0
 62
     7
 10
87.587907999999985
 20
144.52620300000001
 30
0.0
 40
94.193541999999994
 50
109.239341
 51
110.338657
  0
ARC
  5
193
  8
0
 62
     7
 10
80.752054999999999
 20
162.81680900000001
 30
0.0
 40
74.667361999999983
 50
110.29842499999999
 51
112.876693
  0
ARC
  5
194
  8
0
 62
     7
 10
74.592725999999999
 20
177.711026
 30
0.0
 40
58.55034899999999
 50
112.989484
 51
115.779197
  0
ARC
  5
195
  8
0
 62
     7
 10
70.644047
 20
186.321968
 30
0.0
 40
49.079464000000002
 50
116.000122
 51
117.511743
  0
ARC
  5
196
  8
0
 62
     7
 10
68.733108000000001
 20
190.129097
 30
0.0
 40
44.820183999999998
 50
117.593284
 51
119.247846
  0
ARC
  5
197
  8
0
 62
     7
 10
63.263295999999997
 20
199.990397
 30
0.0
 40
33.543602
 50
119.325788
 51
123.305133
  0
ARC
  5
198
  8
0
 62
     7
 10
59.801118999999993
 20
205.328317
 30
0.0
 40
27.181343999999999
 50
123.384176
 51
125.717347
  0
LINE
  5
199
  8
0
 62
     7
 10
43.932999999999993
 20
227.39699999999999
 30
0.0
 11
43.90679999999999
 21
227.37799999999999
 31
0.0
  0
ARC
  5
19A
  8
0
 62
     7
 10
76.793203000000005
 20
183.29145500000001
 30
0.0
 40
55.006757999999991
 50
127.379566
 51
127.86161300000001
  0
LINE
  5
19B
  8
0
 62
     7
 10
39.871200000000002
 20
223.34700000000001
 30
0.0
 11
39.793300000000002
 21
223.21899999999999
 31
0.0
  0
LINE
  5
19C
  8
0
 62
     7
 10
39.492199999999997
 20
222.66999999999999
 30
0.0
 11
39.463999999999999
 21
222.614
 31
0.0
  0
ARC
  5
19D
  8
0
 62
     7
 10
99.340192999999999
 20
218.44389799999999
 30
0.0
 40
6.2431219999999996
 50
356.16735699999998
 51
358.06431500000002
  0
ARC
  5
19E
  8
0
 62
     7
 10
84.410055000000014
 20
219.317824
 30
0.0
 40
21.198658999999999
 50
353.718593
 51
356.50789800000001
  0
ARC
  5
19F
  8
0
 62
     7
 10
77.33471999999999
 20
220.03115500000001
 30
0.0
 40
28.309639000000001
 50
342.86743999999999
 51
353.8503
  0
ARC
  5
1A0
  8
0
 62
     7
 10
83.453800000000001
 20
218.262427
 30
0.0
 40
21.941337999999998
 50
335.65959600000002
 51
342.57409000000001
  0
ARC
  5
1A1
  8
0
 62
     7
 10
88.485997999999995
 20
216.05848499999999
 30
0.0
 40
16.448201000000001
 50
324.43620099999998
 51
335.42963600000002
  0
ARC
  5
1A2
  8
0
 62
     7
 10
105.515635
 20
203.93243000000001
 30
0.0
 40
4.4576779999999987
 50
144.95586700000001
 51
146.690123
  0
LINE
  5
1A3
  8
0
 62
     7
 10
101.79000000000001
 20
206.38
 30
0.0
 11
101.768
 21
206.351
 31
0.0
  0
LINE
  5
1A4
  8
0
 62
     7
 10
157.52699999999999
 20
203.65100000000001
 30
0.0
 11
157.52699999999999
 21
207.51499999999999
 31
0.0
  0
LINE
  5
1A5
  8
0
 62
     7
 10
141.52699999999999
 20
203.65100000000001
 30
0.0
 11
141.52699999999999
 21
208.73699999999999
 31
0.0
  0
LINE
  5
1A6
  8
0
 62
     7
 10
151.41499999999999
 20
157.06700000000001
 30
0.0
 11
152.00800000000001
 21
154.857
 31
0.0
  0
LINE
  5
1A7
  8
0
 62
     7
 10
152.00800000000001
 20
154.857
 30
0.0
 11
152.59999999999999
 21
157.06700000000001
 31
0.0
  0
LINE
  5
1A8
  8
0
 62
     7
 10
152.59999999999999
 20
157.06700000000001
 30
0.0
 11
151.41499999999999
 21
157.06700000000001
 31
0.0
  0
LINE
  5
1A9
  8
0
 62
     7
 10
152.59999999999999
 20
165.446
 30
0.0
 11
152.00800000000001
 21
167.65700000000001
 31
0.0
  0
LINE
  5
1AA
  8
0
 62
     7
 10
152.00800000000001
 20
167.65700000000001
 30
0.0
 11
151.41499999999999
 21
165.446
 31
0.0
  0
LINE
  5
1AB
  8
0
 62
     7
 10
151.41499999999999
 20
165.446
 30
0.0
 11
152.59999999999999
 21
165.446
 31
0.0
  0
LINE
  5
1AC
  8
0
 62
     7
 10
113.401
 20
153.86699999999999
 30
0.0
 11
113.99299999999999
 21
151.65600000000001
 31
0.0
  0
LINE
  5
1AD
  8
0
 62
     7
 10
113.99299999999999
 20
151.65600000000001
 30
0.0
 11
114.586
 21
153.86699999999999
 31
0.0
  0
LINE
  5
1AE
  8
0
 62
     7
 10
114.586
 20
153.86699999999999
 30
0.0
 11
113.401
 21
153.86699999999999
 31
0.0
  0
LINE
  5
1AF
  8
0
 62
     7
 10
114.586
 20
169.446
 30
0.0
 11
113.99299999999999
 21
171.65600000000001
 31
0.0
  0
LINE
  5
1B0
  8
0
 62
     7
 10
113.99299999999999
 20
171.65600000000001
 30
0.0
 11
113.401
 21
169.446
 31
0.0
  0
LINE
  5
1B1
  8
0
 62
     7
 10
113.401
 20
169.446
 30
0.0
 11
114.586
 21
169.446
 31
0.0
  0
LINE
  5
1B2
  8
0
 62
     7
 10
113.99299999999999
 20
151.65600000000001
 30
0.0
 11
113.99299999999999
 21
171.65600000000001
 31
0.0
  0
LINE
  5
1B3
  8
0
 62
     7
 10
114.693
 20
151.65600000000001
 30
0.0
 11
109.367
 21
151.65600000000001
 31
0.0
  0
LINE
  5
1B4
  8
0
 62
     7
 10
114.693
 20
171.65600000000001
 30
0.0
 11
107.41800000000001
 21
171.65600000000001
 31
0.0
  0
LINE
  5
1B5
  8
0
 62
     7
 10
33.3996
 20
153.86699999999999
 30
0.0
 11
33.991799999999998
 21
151.65600000000001
 31
0.0
  0
LINE
  5
1B6
  8
0
 62
     7
 10
33.991799999999998
 20
151.65600000000001
 30
0.0
 11
34.584200000000003
 21
153.86699999999999
 31
0.0
  0
LINE
  5
1B7
  8
0
 62
     7
 10
34.584200000000003
 20
153.86699999999999
 30
0.0
 11
33.3996
 21
153.86699999999999
 31
0.0
  0
LINE
  5
1B8
  8
0
 62
     7
 10
34.58400000000001
 20
165.446
 30
0.0
 11
33.991799999999998
 21
167.65700000000001
 31
0.0
  0
LINE
  5
1B9
  8
0
 62
     7
 10
33.991799999999998
 20
167.65700000000001
 30
0.0
 11
33.3994
 21
165.446
 31
0.0
  0
LINE
  5
1BA
  8
0
 62
     7
 10
33.3994
 20
165.446
 30
0.0
 11
34.58400000000001
 21
165.446
 31
0.0
  0
LINE
  5
1BB
  8
0
 62
     7
 10
33.991799999999998
 20
151.65600000000001
 30
0.0
 11
33.991799999999998
 21
167.65700000000001
 31
0.0
  0
LINE
  5
1BC
  8
0
 62
     7
 10
33.291699999999999
 20
167.65700000000001
 30
0.0
 11
36.508800000000001
 21
167.65700000000001
 31
0.0
  0
LINE
  5
1BD
  8
0
 62
     7
 10
38.380200000000002
 20
221.35300000000001
 30
0.0
 11
38.380200000000002
 21
252.61500000000001
 31
0.0
  0
LINE
  5
1BE
  8
0
 62
     7
 10
63.003999999999991
 20
81.446399999999997
 30
0.0
 11
63.003999999999991
 21
72.614099999999993
 31
0.0
  0
LINE
  5
1BF
  8
0
 62
     7
 10
73.328999999999994
 20
81.446399999999997
 30
0.0
 11
73.328999999999994
 21
72.614099999999993
 31
0.0
  0
LINE
  5
1C0
  8
0
 62
     7
 10
63.003999999999991
 20
73.139200000000002
 30
0.0
 11
73.328999999999994
 21
73.139200000000002
 31
0.0
  0
LINE
  5
1C1
  8
0
 62
     7
 10
56.916400000000003
 20
111.17100000000001
 30
0.0
 11
56.916400000000003
 21
120.241
 31
0.0
  0
LINE
  5
1C2
  8
0
 62
     7
 10
88.350899999999996
 20
76.233599999999996
 30
0.0
 11
88.350899999999996
 21
91.773399999999995
 31
0.0
  0
LINE
  5
1C3
  8
0
 62
     7
 10
88.350899999999996
 20
103.45999999999999
 30
0.0
 11
88.350899999999996
 21
116.476
 31
0.0
  0
LINE
  5
1C4
  8
0
 62
     7
 10
79.416499999999999
 20
111.17100000000001
 30
0.0
 11
79.416499999999999
 21
120.241
 31
0.0
  0
LINE
  5
1C5
  8
0
 62
     7
 10
46.247899999999987
 20
115.794
 30
0.0
 11
53.680799999999991
 21
115.794
 31
0.0
  0
LINE
  5
1C6
  8
0
 62
     7
 10
56.916400000000003
 20
119.541
 30
0.0
 11
79.416499999999999
 21
119.541
 31
0.0
  0
LINE
  5
1C7
  8
0
 62
     7
 10
37.179900000000004
 20
220.78
 30
0.0
 11
37.179900000000004
 21
259.38099999999997
 31
0.0
  0
LINE
  5
1C8
  8
0
 62
     7
 10
106.78
 20
223.06999999999999
 30
0.0
 11
106.78
 21
259.38099999999997
 31
0.0
  0
LINE
  5
1C9
  8
0
 62
     7
 10
105.58
 20
221.70400000000001
 30
0.0
 11
105.58
 21
252.61500000000001
 31
0.0
  0
LINE
  5
1CA
  8
0
 62
     7
 10
87.779700000000005
 20
230.702
 30
0.0
 11
87.779700000000005
 21
246.55199999999999
 31
0.0
  0
LINE
  5
1CB
  8
0
 62
     7
 10
123.011
 20
199.4379999999999
 30
0.0
 11
123.60299999999999
 21
197.22799999999989
 31
0.0
  0
LINE
  5
1CC
  8
0
 62
     7
 10
123.60299999999999
 20
197.22799999999989
 30
0.0
 11
124.19499999999999
 21
199.4379999999999
 31
0.0
  0
LINE
  5
1CD
  8
0
 62
     7
 10
124.19499999999999
 20
199.4379999999999
 30
0.0
 11
123.011
 21
199.4379999999999
 31
0.0
  0
LINE
  5
1CE
  8
0
 62
     7
 10
124.19499999999999
 20
237.017
 30
0.0
 11
123.60299999999999
 21
239.22800000000001
 31
0.0
  0
LINE
  5
1CF
  8
0
 62
     7
 10
123.60299999999999
 20
239.22800000000001
 30
0.0
 11
123.011
 21
237.017
 31
0.0
  0
LINE
  5
1D0
  8
0
 62
     7
 10
123.011
 20
237.017
 30
0.0
 11
124.19499999999999
 21
237.017
 31
0.0
  0
LINE
  5
1D1
  8
0
 62
     7
 10
123.60299999999999
 20
197.227
 30
0.0
 11
123.60299999999999
 21
239.22800000000001
 31
0.0
  0
LINE
  5
1D2
  8
0
 62
     7
 10
124.303
 20
197.227
 30
0.0
 11
88.304699999999997
 21
197.227
 31
0.0
  0
LINE
  5
1D3
  8
0
 62
     7
 10
57.67710000000001
 20
112.30800000000001
 30
0.0
 11
59.831400000000002
 21
111.53700000000001
 31
0.0
  0
LINE
  5
1D4
  8
0
 62
     7
 10
59.831400000000002
 20
111.53700000000001
 30
0.0
 11
58.350999999999999
 21
113.282
 31
0.0
  0
LINE
  5
1D5
  8
0
 62
     7
 10
58.350999999999999
 20
113.282
 30
0.0
 11
57.67710000000001
 21
112.30800000000001
 31
0.0
  0
LINE
  5
1D6
  8
0
 62
     7
 10
59.831400000000002
 20
111.53700000000001
 30
0.0
 11
53.680799999999991
 21
115.794
 31
0.0
  0
LINE
  5
1D7
  8
0
 62
     7
 10
89.050899999999984
 20
113.023
 30
0.0
 11
72.750900000000001
 21
113.023
 31
0.0
  0
LINE
  5
1D8
  8
0
 62
     7
 10
89.050899999999984
 20
109.023
 30
0.0
 11
79.9863
 21
109.023
 31
0.0
  0
LINE
  5
1D9
  8
0
 62
     7
 10
89.050899999999984
 20
106.273
 30
0.0
 11
76.898600000000002
 21
106.273
 31
0.0
  0
LINE
  5
1DA
  8
0
 62
     7
 10
89.050899999999984
 20
91.773399999999995
 30
0.0
 11
76.274199999999993
 21
91.773399999999995
 31
0.0
  0
LINE
  5
1DB
  8
0
 62
     7
 10
89.050899999999984
 20
85.523300000000006
 30
0.0
 11
75.361299999999986
 21
85.523300000000006
 31
0.0
  0
LINE
  5
1DC
  8
0
 62
     7
 10
89.050899999999984
 20
82.398199999999989
 30
0.0
 11
74.211399999999998
 21
82.398199999999989
 31
0.0
  0
LINE
  5
1DD
  8
0
 62
     7
 10
124.303
 20
239.22800000000001
 30
0.0
 11
88.304699999999997
 21
239.22800000000001
 31
0.0
  0
LINE
  5
1DE
  8
0
 62
     7
 10
115.084
 20
200.63800000000001
 30
0.0
 11
115.67700000000001
 21
198.42699999999999
 31
0.0
  0
LINE
  5
1DF
  8
0
 62
     7
 10
115.67700000000001
 20
198.42699999999999
 30
0.0
 11
116.26900000000001
 21
200.63800000000001
 31
0.0
  0
LINE
  5
1E0
  8
0
 62
     7
 10
116.26900000000001
 20
200.63800000000001
 30
0.0
 11
115.084
 21
200.63800000000001
 31
0.0
  0
LINE
  5
1E1
  8
0
 62
     7
 10
116.26900000000001
 20
235.81700000000001
 30
0.0
 11
115.67700000000001
 21
238.02699999999999
 31
0.0
  0
LINE
  5
1E2
  8
0
 62
     7
 10
115.67700000000001
 20
238.02699999999999
 30
0.0
 11
115.084
 21
235.81700000000001
 31
0.0
  0
LINE
  5
1E3
  8
0
 62
     7
 10
115.084
 20
235.81700000000001
 30
0.0
 11
116.26900000000001
 21
235.81700000000001
 31
0.0
  0
LINE
  5
1E4
  8
0
 62
     7
 10
115.67700000000001
 20
198.42699999999999
 30
0.0
 11
115.67700000000001
 21
238.02699999999999
 31
0.0
  0
LINE
  5
1E5
  8
0
 62
     7
 10
116.377
 20
198.42699999999999
 30
0.0
 11
88.946899999999999
 21
198.42699999999999
 31
0.0
  0
LINE
  5
1E6
  8
0
 62
     7
 10
116.377
 20
238.02699999999999
 30
0.0
 11
88.946899999999999
 21
238.02699999999999
 31
0.0
  0
LINE
  5
1E7
  8
0
 62
     7
 10
134.81700000000001
 20
220.43799999999999
 30
0.0
 11
135.40899999999999
 21
218.22800000000001
 31
0.0
  0
LINE
  5
1E8
  8
0
 62
     7
 10
135.40899999999999
 20
218.22800000000001
 30
0.0
 11
136.001
 21
220.43799999999999
 31
0.0
  0
LINE
  5
1E9
  8
0
 62
     7
 10
136.001
 20
220.43799999999999
 30
0.0
 11
134.81700000000001
 21
220.43799999999999
 31
0.0
  0
LINE
  5
1EA
  8
0
 62
     7
 10
134.81700000000001
 20
213.738
 30
0.0
 11
135.40899999999999
 21
211.52799999999999
 31
0.0
  0
LINE
  5
1EB
  8
0
 62
     7
 10
135.40899999999999
 20
211.52799999999999
 30
0.0
 11
136.001
 21
213.738
 31
0.0
  0
LINE
  5
1EC
  8
0
 62
     7
 10
136.001
 20
213.738
 30
0.0
 11
134.81700000000001
 21
213.738
 31
0.0
  0
LINE
  5
1ED
  8
0
 62
     7
 10
136.001
 20
216.017
 30
0.0
 11
135.40899999999999
 21
218.22800000000001
 31
0.0
  0
LINE
  5
1EE
  8
0
 62
     7
 10
135.40899999999999
 20
218.22800000000001
 30
0.0
 11
134.81700000000001
 21
216.017
 31
0.0
  0
LINE
  5
1EF
  8
0
 62
     7
 10
134.81700000000001
 20
216.017
 30
0.0
 11
136.001
 21
216.017
 31
0.0
  0
LINE
  5
1F0
  8
0
 62
     7
 10
136.001
 20
222.71700000000001
 30
0.0
 11
135.40899999999999
 21
224.928
 31
0.0
  0
LINE
  5
1F1
  8
0
 62
     7
 10
135.40899999999999
 20
224.928
 30
0.0
 11
134.81700000000001
 21
222.71700000000001
 31
0.0
  0
LINE
  5
1F2
  8
0
 62
     7
 10
134.81700000000001
 20
222.71700000000001
 30
0.0
 11
136.001
 21
222.71700000000001
 31
0.0
  0
LINE
  5
1F3
  8
0
 62
     7
 10
135.40899999999999
 20
211.52699999999999
 30
0.0
 11
135.40899999999999
 21
224.928
 31
0.0
  0
LINE
  5
1F4
  8
0
  6
AIGENLINE001
 62
     7
 10
153.02699999999999
 20
152.45699999999999
 30
0.0
 11
150.327
 21
154.857
 31
0.0
  0
LINE
  5
1F5
  8
0
  6
AIGENLINE001
 62
     7
 10
164.72800000000001
 20
154.857
 30
0.0
 11
162.02699999999999
 21
152.45699999999999
 31
0.0
  0
LINE
  5
1F6
  8
0
  6
AIGENLINE001
 62
     7
 10
167.52799999999999
 20
156.857
 30
0.0
 11
167.52799999999999
 21
154.857
 31
0.0
  0
LINE
  5
1F7
  8
0
  6
AIGENLINE001
 62
     7
 10
167.52799999999999
 20
154.857
 30
0.0
 11
147.52799999999999
 21
154.857
 31
0.0
  0
LINE
  5
1F8
  8
0
  6
AIGENLINE001
 62
     7
 10
147.52799999999999
 20
154.857
 30
0.0
 11
147.52799999999999
 21
156.857
 31
0.0
  0
LINE
  5
1F9
  8
0
  6
AIGENLINE001
 62
     7
 10
153.02699999999999
 20
151.65700000000001
 30
0.0
 11
153.02699999999999
 21
152.45699999999999
 31
0.0
  0
LINE
  5
1FA
  8
0
  6
AIGENLINE001
 62
     7
 10
153.02699999999999
 20
152.45699999999999
 30
0.0
 11
162.02699999999999
 21
152.45699999999999
 31
0.0
  0
LINE
  5
1FB
  8
0
  6
AIGENLINE001
 62
     7
 10
162.02699999999999
 20
152.45699999999999
 30
0.0
 11
162.02699999999999
 21
151.65700000000001
 31
0.0
  0
LINE
  5
1FC
  8
0
  6
AIGENLINE002
 62
     7
 10
141.52699999999999
 20
209.43700000000001
 30
0.0
 11
141.52699999999999
 21
213.583
 31
0.0
  0
LINE
  5
1FD
  8
0
  6
AIGENLINE002
 62
     7
 10
141.52699999999999
 20
222.917
 30
0.0
 11
141.52699999999999
 21
227.07599999999999
 31
0.0
  0
LINE
  5
1FE
  8
0
  6
AIGENLINE002
 62
     7
 10
157.52699999999999
 20
208.215
 30
0.0
 11
157.52699999999999
 21
228.393
 31
0.0
  0
LINE
  5
1FF
  8
0
 62
     7
 10
99.563400000000001
 20
135.96299999999999
 30
0.0
 11
101.774
 21
136.55500000000001
 31
0.0
  0
LINE
  5
200
  8
0
 62
     7
 10
101.774
 20
136.55500000000001
 30
0.0
 11
99.563400000000001
 21
137.14699999999999
 31
0.0
  0
LINE
  5
201
  8
0
 62
     7
 10
99.563400000000001
 20
137.14699999999999
 30
0.0
 11
99.563400000000001
 21
135.96299999999999
 31
0.0
  0
LINE
  5
202
  8
0
 62
     7
 10
64.983500000000006
 20
137.14699999999999
 30
0.0
 11
62.773099999999992
 21
136.55500000000001
 31
0.0
  0
LINE
  5
203
  8
0
 62
     7
 10
62.773099999999992
 20
136.55500000000001
 30
0.0
 11
64.983500000000006
 21
135.96299999999999
 31
0.0
  0
LINE
  5
204
  8
0
 62
     7
 10
64.983500000000006
 20
135.96299999999999
 30
0.0
 11
64.983500000000006
 21
137.14699999999999
 31
0.0
  0
LINE
  5
205
  8
0
 62
     7
 10
101.774
 20
136.55500000000001
 30
0.0
 11
62.773000000000003
 21
136.55500000000001
 31
0.0
  0
LINE
  5
206
  8
0
 62
     7
 10
39.4636
 20
153.86699999999999
 30
0.0
 11
40.055900000000001
 21
151.65600000000001
 31
0.0
  0
LINE
  5
207
  8
0
 62
     7
 10
40.055900000000001
 20
151.65600000000001
 30
0.0
 11
40.648200000000003
 21
153.86699999999999
 31
0.0
  0
LINE
  5
208
  8
0
 62
     7
 10
40.648200000000003
 20
153.86699999999999
 30
0.0
 11
39.4636
 21
153.86699999999999
 31
0.0
  0
LINE
  5
209
  8
0
 62
     7
 10
40.648099999999999
 20
143.44499999999999
 30
0.0
 11
40.055900000000001
 21
145.65600000000001
 31
0.0
  0
LINE
  5
20A
  8
0
 62
     7
 10
40.055900000000001
 20
145.65600000000001
 30
0.0
 11
39.46350000000001
 21
143.44499999999999
 31
0.0
  0
LINE
  5
20B
  8
0
 62
     7
 10
39.46350000000001
 20
143.44499999999999
 30
0.0
 11
40.648099999999999
 21
143.44499999999999
 31
0.0
  0
LINE
  5
20C
  8
0
 62
     7
 10
40.055900000000001
 20
135.33600000000001
 30
0.0
 11
40.055900000000001
 21
154.857
 31
0.0
  0
LINE
  5
20D
  8
0
 62
     7
 10
62.773000000000003
 20
135.85499999999999
 30
0.0
 11
62.773000000000003
 21
150.95599999999999
 31
0.0
  0
LINE
  5
20E
  8
0
 62
     7
 10
101.774
 20
135.85499999999999
 30
0.0
 11
101.774
 21
150.95599999999999
 31
0.0
  0
LINE
  5
20F
  8
0
 62
     7
 10
152.827
 20
167.65700000000001
 30
0.0
 11
151.30699999999999
 21
167.65700000000001
 31
0.0
  0
LINE
  5
210
  8
0
 62
     7
 10
176.31700000000001
 20
136.60599999999999
 30
0.0
 11
178.52799999999999
 21
137.19799999999989
 31
0.0
  0
LINE
  5
211
  8
0
 62
     7
 10
178.52799999999999
 20
137.19799999999989
 30
0.0
 11
176.31700000000001
 21
137.78999999999999
 31
0.0
  0
LINE
  5
212
  8
0
 62
     7
 10
176.31700000000001
 20
137.78999999999999
 30
0.0
 11
176.31700000000001
 21
136.60599999999999
 31
0.0
  0
LINE
  5
213
  8
0
 62
     7
 10
159.738
 20
137.78999999999999
 30
0.0
 11
157.52699999999999
 21
137.19799999999989
 31
0.0
  0
LINE
  5
214
  8
0
 62
     7
 10
157.52699999999999
 20
137.19799999999989
 30
0.0
 11
159.738
 21
136.60599999999999
 31
0.0
  0
LINE
  5
215
  8
0
 62
     7
 10
159.738
 20
136.60599999999999
 30
0.0
 11
159.738
 21
137.78999999999999
 31
0.0
  0
LINE
  5
216
  8
0
 62
     7
 10
178.52699999999999
 20
137.19799999999989
 30
0.0
 11
157.52699999999999
 21
137.19799999999989
 31
0.0
  0
LINE
  5
217
  8
0
 62
     7
 10
169.71600000000001
 20
130.45599999999999
 30
0.0
 11
171.928
 21
131.048
 31
0.0
  0
LINE
  5
218
  8
0
 62
     7
 10
171.928
 20
131.048
 30
0.0
 11
169.71600000000001
 21
131.64099999999999
 31
0.0
  0
LINE
  5
219
  8
0
 62
     7
 10
169.71600000000001
 20
131.64099999999999
 30
0.0
 11
169.71600000000001
 21
130.45599999999999
 31
0.0
  0
LINE
  5
21A
  8
0
 62
     7
 10
145.33799999999999
 20
131.64099999999999
 30
0.0
 11
143.12700000000001
 21
131.048
 31
0.0
  0
LINE
  5
21B
  8
0
 62
     7
 10
143.12700000000001
 20
131.048
 30
0.0
 11
145.33799999999999
 21
130.45599999999999
 31
0.0
  0
LINE
  5
21C
  8
0
 62
     7
 10
145.33799999999999
 20
130.45599999999999
 30
0.0
 11
145.33799999999999
 21
131.64099999999999
 31
0.0
  0
LINE
  5
21D
  8
0
 62
     7
 10
171.92699999999999
 20
131.048
 30
0.0
 11
143.12700000000001
 21
131.048
 31
0.0
  0
LINE
  5
21E
  8
0
 62
     7
 10
152.00800000000001
 20
154.857
 30
0.0
 11
152.00800000000001
 21
167.65700000000001
 31
0.0
  0
LINE
  5
21F
  8
0
 62
     7
 10
143.12700000000001
 20
130.34800000000001
 30
0.0
 11
143.12700000000001
 21
150.95599999999999
 31
0.0
  0
LINE
  5
220
  8
0
 62
     7
 10
178.52699999999999
 20
136.49799999999999
 30
0.0
 11
178.52699999999999
 21
166.38300000000001
 31
0.0
  0
LINE
  5
221
  8
0
 62
     7
 10
157.52699999999999
 20
136.49799999999999
 30
0.0
 11
157.52699999999999
 21
149.28999999999999
 31
0.0
  0
LINE
  5
222
  8
0
 62
     7
 10
171.92699999999999
 20
130.34800000000001
 30
0.0
 11
171.92699999999999
 21
150.95599999999999
 31
0.0
  0
LINE
  5
223
  8
0
  6
AIGENLINE002
 62
     7
 10
157.52699999999999
 20
149.99000000000001
 30
0.0
 11
157.52699999999999
 21
172.709
 31
0.0
  0
LINE
  5
224
  8
0
  6
AIGENLINE001
 62
     7
 10
83.280399999999986
 20
152.45699999999999
 30
0.0
 11
80.580100000000016
 21
154.857
 31
0.0
  0
LINE
  5
225
  8
0
  6
AIGENLINE001
 62
     7
 10
94.980000000000004
 20
154.857
 30
0.0
 11
92.2804
 21
152.45699999999999
 31
0.0
  0
LINE
  5
226
  8
0
  6
AIGENLINE001
 62
     7
 10
97.780199999999994
 20
156.857
 30
0.0
 11
97.780199999999994
 21
154.857
 31
0.0
  0
LINE
  5
227
  8
0
  6
AIGENLINE001
 62
     7
 10
97.780199999999994
 20
154.857
 30
0.0
 11
77.780600000000007
 21
154.857
 31
0.0
  0
LINE
  5
228
  8
0
  6
AIGENLINE001
 62
     7
 10
77.780600000000007
 20
154.857
 30
0.0
 11
77.780600000000007
 21
156.857
 31
0.0
  0
LINE
  5
229
  8
0
  6
AIGENLINE001
 62
     7
 10
83.280399999999986
 20
151.65700000000001
 30
0.0
 11
83.280399999999986
 21
152.45699999999999
 31
0.0
  0
LINE
  5
22A
  8
0
  6
AIGENLINE001
 62
     7
 10
83.280399999999986
 20
152.45699999999999
 30
0.0
 11
92.2804
 21
152.45699999999999
 31
0.0
  0
LINE
  5
22B
  8
0
  6
AIGENLINE001
 62
     7
 10
92.2804
 20
152.45699999999999
 30
0.0
 11
92.2804
 21
151.65700000000001
 31
0.0
  0
ARC
  5
22C
  8
0
 62
     7
 10
157.531431
 20
218.23302200000001
 30
0.0
 40
8.4997949999999989
 50
270.00002000000001
 51
359.99999000000003
  0
ARC
  5
22D
  8
0
 62
     7
 10
157.53108599999999
 20
218.233363
 30
0.0
 40
8.5001359999999995
 50
180.002332
 51
270.002342
  0
ARC
  5
22E
  8
0
 62
     7
 10
157.53108900000001
 20
218.232674
 30
0.0
 40
8.5001390000000008
 50
89.997677999999993
 51
179.997648
  0
ARC
  5
22F
  8
0
 62
     7
 10
157.531431
 20
218.23301900000001
 30
0.0
 40
8.4997949999999989
 50
0.00001
 51
89.999980000000008
  0
ARC
  5
230
  8
0
 62
     7
 10
141.53092899999999
 20
224.93308400000001
 30
0.0
 40
1.2002790000000001
 50
270.00002000000001
 51
359.99999000000003
  0
ARC
  5
231
  8
0
 62
     7
 10
141.577631
 20
224.97907000000001
 30
0.0
 40
1.2471389999999991
 50
182.11316299999999
 51
267.85396600000001
  0
ARC
  5
232
  8
0
 62
     7
 10
141.577505
 20
224.887224
 30
0.0
 40
1.247009
 50
92.140494000000004
 51
177.89237600000001
  0
ARC
  5
233
  8
0
 62
     7
 10
141.53092899999999
 20
224.93308400000001
 30
0.0
 40
1.2002790000000001
 50
0.00001
 51
89.999980000000008
  0
LINE
  5
234
  8
0
  6
AIGENLINE002
 62
     7
 10
139.33600000000001
 20
224.928
 30
0.0
 11
143.72499999999999
 21
224.928
 31
0.0
  0
ARC
  5
235
  8
0
 62
     7
 10
141.53092899999999
 20
211.53295600000001
 30
0.0
 40
1.2002790000000001
 50
270.00002000000001
 51
359.99999000000003
  0
ARC
  5
236
  8
0
 62
     7
 10
141.577631
 20
211.57894200000001
 30
0.0
 40
1.2471389999999991
 50
182.11316299999999
 51
267.85396600000001
  0
ARC
  5
237
  8
0
 62
     7
 10
141.577505
 20
211.48709600000001
 30
0.0
 40
1.247009
 50
92.140494000000004
 51
177.89237600000001
  0
ARC
  5
238
  8
0
 62
     7
 10
141.53092899999999
 20
211.53295600000001
 30
0.0
 40
1.2002790000000001
 50
0.00001
 51
89.999980000000008
  0
ARC
  5
239
  8
0
  6
AIGENLINE001
 62
     7
 10
157.35914099999999
 20
218.40531100000001
 30
0.0
 40
4.6754790000000002
 50
272.11183199999999
 51
357.88817799999998
  0
ARC
  5
23A
  8
0
  6
AIGENLINE001
 62
     7
 10
157.531431
 20
218.23301900000001
 30
0.0
 40
4.5000109999999989
 50
179.99996999999999
 51
270.00002000000001
  0
ARC
  5
23B
  8
0
  6
AIGENLINE001
 62
     7
 10
157.53143299999999
 20
218.23301900000001
 30
0.0
 40
4.500013
 50
90.0
 51
179.99996999999999
  0
ARC
  5
23C
  8
0
  6
AIGENLINE001
 62
     7
 10
157.35913099999999
 20
218.06071900000001
 30
0.0
 40
4.6754889999999989
 50
2.1119400000000002
 51
87.888050000000007
  0
LINE
  5
23D
  8
0
  6
AIGENLINE002
 62
     7
 10
139.33600000000001
 20
211.52699999999999
 30
0.0
 11
143.72499999999999
 21
211.52699999999999
 31
0.0
  0
LINE
  5
23E
  8
0
 62
     7
 10
138.70099999999999
 20
226.92599999999999
 30
0.0
 11
140.68199999999999
 21
225.78200000000001
 31
0.0
  0
LINE
  5
23F
  8
0
 62
     7
 10
140.68199999999999
 20
225.78200000000001
 30
0.0
 11
139.53800000000001
 21
227.76400000000001
 31
0.0
  0
LINE
  5
240
  8
0
 62
     7
 10
139.53800000000001
 20
227.76400000000001
 30
0.0
 11
138.70099999999999
 21
226.92599999999999
 31
0.0
  0
LINE
  5
241
  8
0
 62
     7
 10
144.36099999999999
 20
222.94
 30
0.0
 11
142.38
 21
224.084
 31
0.0
  0
LINE
  5
242
  8
0
 62
     7
 10
142.38
 20
224.084
 30
0.0
 11
143.524
 21
222.102
 31
0.0
  0
LINE
  5
243
  8
0
 62
     7
 10
143.524
 20
222.102
 30
0.0
 11
144.36099999999999
 21
222.94
 31
0.0
  0
LINE
  5
244
  8
0
 62
     7
 10
144.62100000000001
 20
221.84299999999999
 30
0.0
 11
135.17099999999999
 21
231.29300000000001
 31
0.0
  0
LINE
  5
245
  8
0
 62
     7
 10
107.995
 20
214.953
 30
0.0
 11
106.714
 21
216.84899999999999
 31
0.0
  0
LINE
  5
246
  8
0
 62
     7
 10
106.714
 20
216.84899999999999
 30
0.0
 11
106.875
 21
214.56700000000001
 31
0.0
  0
LINE
  5
247
  8
0
 62
     7
 10
106.875
 20
214.56700000000001
 30
0.0
 11
107.995
 21
214.953
 31
0.0
  0
LINE
  5
248
  8
0
 62
     7
 10
115.60599999999999
 20
191.09999999999999
 30
0.0
 11
106.714
 21
216.84899999999999
 31
0.0
  0
LINE
  5
249
  8
0
 62
     7
 10
82.545699999999997
 20
222.63
 30
0.0
 11
84.527499999999989
 21
221.48599999999999
 31
0.0
  0
LINE
  5
24A
  8
0
 62
     7
 10
84.527499999999989
 20
221.48599999999999
 30
0.0
 11
83.383399999999995
 21
223.46799999999999
 31
0.0
  0
LINE
  5
24B
  8
0
 62
     7
 10
83.383399999999995
 20
223.46799999999999
 30
0.0
 11
82.545699999999997
 21
222.63
 31
0.0
  0
LINE
  5
24C
  8
0
 62
     7
 10
93.014899999999983
 20
213.83600000000001
 30
0.0
 11
91.033100000000005
 21
214.97999999999999
 31
0.0
  0
LINE
  5
24D
  8
0
 62
     7
 10
91.033100000000005
 20
214.97999999999999
 30
0.0
 11
92.177199999999985
 21
212.99799999999999
 31
0.0
  0
LINE
  5
24E
  8
0
 62
     7
 10
92.177199999999985
 20
212.99799999999999
 30
0.0
 11
93.014899999999983
 21
213.83600000000001
 31
0.0
  0
LINE
  5
24F
  8
0
 62
     7
 10
93.949399999999997
 20
212.06399999999999
 30
0.0
 11
78.851299999999995
 21
227.16200000000001
 31
0.0
  0
LINE
  5
250
  8
0
 62
     7
 10
160.91200000000001
 20
212.405
 30
0.0
 11
159.43899999999999
 21
214.15700000000001
 31
0.0
  0
LINE
  5
251
  8
0
 62
     7
 10
159.43899999999999
 20
214.15700000000001
 30
0.0
 11
159.839
 21
211.904
 31
0.0
  0
LINE
  5
252
  8
0
 62
     7
 10
159.839
 20
211.904
 30
0.0
 11
160.91200000000001
 21
212.405
 31
0.0
  0
LINE
  5
253
  8
0
 62
     7
 10
167.01300000000001
 20
197.947
 30
0.0
 11
159.43899999999999
 21
214.15700000000001
 31
0.0
  0
LINE
  5
254
  8
0
 62
     7
 10
135.17099999999999
 20
231.29300000000001
 30
0.0
 11
150.71299999999999
 21
231.29300000000001
 31
0.0
  0
LINE
  5
255
  8
0
 62
     7
 10
78.851299999999995
 20
227.16200000000001
 30
0.0
 11
72.736900000000006
 21
227.16200000000001
 31
0.0
  0
LINE
  5
256
  8
0
 62
     7
 10
155.41800000000001
 20
197.947
 30
0.0
 11
167.01300000000001
 21
197.947
 31
0.0
  0
LINE
  5
257
  8
0
 62
     7
 10
152.66499999999999
 20
214.20400000000001
 30
0.0
 11
151.52000000000001
 21
212.22300000000001
 31
0.0
  0
LINE
  5
258
  8
0
 62
     7
 10
151.52000000000001
 20
212.22300000000001
 30
0.0
 11
153.50200000000001
 21
213.36699999999999
 31
0.0
  0
LINE
  5
259
  8
0
 62
     7
 10
153.50200000000001
 20
213.36699999999999
 30
0.0
 11
152.66499999999999
 21
214.20400000000001
 31
0.0
  0
LINE
  5
25A
  8
0
 62
     7
 10
162.39699999999999
 20
222.262
 30
0.0
 11
163.542
 21
224.24299999999999
 31
0.0
  0
LINE
  5
25B
  8
0
 62
     7
 10
163.542
 20
224.24299999999999
 30
0.0
 11
161.56
 21
223.09899999999999
 31
0.0
  0
LINE
  5
25C
  8
0
 62
     7
 10
161.56
 20
223.09899999999999
 30
0.0
 11
162.39699999999999
 21
222.262
 31
0.0
  0
LINE
  5
25D
  8
0
 62
     7
 10
151.52000000000001
 20
212.22300000000001
 30
0.0
 11
167.59399999999999
 21
228.29499999999999
 31
0.0
  0
LINE
  5
25E
  8
0
 62
     7
 10
97.295599999999993
 20
191.09999999999999
 30
0.0
 11
115.60599999999999
 21
191.09999999999999
 31
0.0
  0
LINE
  5
25F
  8
0
 62
     7
 10
143.738
 20
204.94300000000001
 30
0.0
 11
141.52699999999999
 21
204.351
 31
0.0
  0
LINE
  5
260
  8
0
 62
     7
 10
141.52699999999999
 20
204.351
 30
0.0
 11
143.738
 21
203.75899999999999
 31
0.0
  0
LINE
  5
261
  8
0
 62
     7
 10
143.738
 20
203.75899999999999
 30
0.0
 11
143.738
 21
204.94300000000001
 31
0.0
  0
LINE
  5
262
  8
0
 62
     7
 10
155.31700000000001
 20
203.75899999999999
 30
0.0
 11
157.52799999999999
 21
204.351
 31
0.0
  0
LINE
  5
263
  8
0
 62
     7
 10
157.52799999999999
 20
204.351
 30
0.0
 11
155.31700000000001
 21
204.94399999999999
 31
0.0
  0
LINE
  5
264
  8
0
 62
     7
 10
155.31700000000001
 20
204.94399999999999
 30
0.0
 11
155.31700000000001
 21
203.75899999999999
 31
0.0
  0
LINE
  5
265
  8
0
 62
     7
 10
141.52699999999999
 20
204.351
 30
0.0
 11
157.52699999999999
 21
204.351
 31
0.0
  0
LINE
  5
266
  8
0
 62
     7
 10
134.709
 20
211.52699999999999
 30
0.0
 11
138.636
 21
211.52699999999999
 31
0.0
  0
LINE
  5
267
  8
0
 62
     7
 10
40.590699999999998
 20
252.50700000000001
 30
0.0
 11
38.380299999999998
 21
251.91499999999999
 31
0.0
  0
LINE
  5
268
  8
0
 62
     7
 10
38.380299999999998
 20
251.91499999999999
 30
0.0
 11
40.590699999999998
 21
251.32300000000001
 31
0.0
  0
LINE
  5
269
  8
0
 62
     7
 10
40.590699999999998
 20
251.32300000000001
 30
0.0
 11
40.590699999999998
 21
252.50700000000001
 31
0.0
  0
LINE
  5
26A
  8
0
 62
     7
 10
103.369
 20
251.32300000000001
 30
0.0
 11
105.58
 21
251.91499999999999
 31
0.0
  0
LINE
  5
26B
  8
0
 62
     7
 10
105.58
 20
251.91499999999999
 30
0.0
 11
103.369
 21
252.50800000000001
 31
0.0
  0
LINE
  5
26C
  8
0
 62
     7
 10
103.369
 20
252.50800000000001
 30
0.0
 11
103.369
 21
251.32300000000001
 31
0.0
  0
LINE
  5
26D
  8
0
 62
     7
 10
38.380200000000002
 20
251.91499999999999
 30
0.0
 11
105.58
 21
251.91499999999999
 31
0.0
  0
LINE
  5
26E
  8
0
 62
     7
 10
39.3904
 20
259.27299999999991
 30
0.0
 11
37.180100000000003
 21
258.68099999999998
 31
0.0
  0
LINE
  5
26F
  8
0
 62
     7
 10
37.180100000000003
 20
258.68099999999998
 30
0.0
 11
39.3904
 21
258.08800000000002
 31
0.0
  0
LINE
  5
270
  8
0
 62
     7
 10
39.3904
 20
258.08800000000002
 30
0.0
 11
39.3904
 21
259.27299999999991
 31
0.0
  0
LINE
  5
271
  8
0
 62
     7
 10
104.569
 20
258.089
 30
0.0
 11
106.78
 21
258.68099999999998
 31
0.0
  0
LINE
  5
272
  8
0
 62
     7
 10
106.78
 20
258.68099999999998
 30
0.0
 11
104.569
 21
259.27299999999991
 31
0.0
  0
LINE
  5
273
  8
0
 62
     7
 10
104.569
 20
259.27299999999991
 30
0.0
 11
104.569
 21
258.089
 31
0.0
  0
LINE
  5
274
  8
0
 62
     7
 10
37.179900000000004
 20
258.68099999999998
 30
0.0
 11
106.78
 21
258.68099999999998
 31
0.0
  0
LINE
  5
275
  8
0
 62
     7
 10
89.990300000000005
 20
246.44399999999999
 30
0.0
 11
87.779899999999998
 21
245.852
 31
0.0
  0
LINE
  5
276
  8
0
 62
     7
 10
87.779899999999998
 20
245.852
 30
0.0
 11
89.990300000000005
 21
245.25899999999999
 31
0.0
  0
LINE
  5
277
  8
0
 62
     7
 10
89.990300000000005
 20
245.25899999999999
 30
0.0
 11
89.990300000000005
 21
246.44399999999999
 31
0.0
  0
LINE
  5
278
  8
0
 62
     7
 10
104.569
 20
245.25999999999999
 30
0.0
 11
106.78
 21
245.852
 31
0.0
  0
LINE
  5
279
  8
0
 62
     7
 10
106.78
 20
245.852
 30
0.0
 11
104.569
 21
246.44399999999999
 31
0.0
  0
LINE
  5
27A
  8
0
 62
     7
 10
104.569
 20
246.44399999999999
 30
0.0
 11
104.569
 21
245.25999999999999
 31
0.0
  0
LINE
  5
27B
  8
0
 62
     7
 10
87.779700000000005
 20
245.852
 30
0.0
 11
106.78
 21
245.852
 31
0.0
  0
LINE
  5
27C
  8
0
 62
     7
 10
134.709
 20
218.22800000000001
 30
0.0
 11
146.55000000000001
 21
218.22800000000001
 31
0.0
  0
LINE
  5
27D
  8
0
 62
     7
 10
134.709
 20
224.928
 30
0.0
 11
138.636
 21
224.928
 31
0.0
  0
LINE
  5
27E
  8
0
  6
AIGENLINE002
 62
     7
 10
147.25
 20
218.22800000000001
 30
0.0
 11
167.33500000000001
 21
218.22800000000001
 31
0.0
  0
ARC
  5
27F
  8
0
 62
     7
 10
87.780036999999993
 20
218.23336499999999
 30
0.0
 40
4.6004379999999987
 50
269.99572899999998
 51
359.995699
  0
ARC
  5
280
  8
0
 62
     7
 10
87.780036999999993
 20
218.232675
 30
0.0
 40
4.5997479999999991
 50
179.995679
 51
269.99572899999998
  0
ARC
  5
281
  8
0
 62
     7
 10
87.780038000000005
 20
218.23336399999999
 30
0.0
 40
4.5997490000000001
 50
90.004291000000009
 51
180.00430099999991
  0
ARC
  5
282
  8
0
 62
     7
 10
87.780036999999993
 20
218.232675
 30
0.0
 40
4.6004379999999987
 50
0.004301
 51
90.004271000000017
  0
ARC
  5
283
  8
0
 62
     7
 10
87.779691999999983
 20
218.23302100000001
 30
0.0
 40
7.2002959999999998
 50
270.00002000000001
 51
359.99999000000003
  0
ARC
  5
284
  8
0
 62
     7
 10
87.780035999999996
 20
218.232674
 30
0.0
 40
7.1999490000000002
 50
179.997229
 51
269.99727799999999
  0
ARC
  5
285
  8
0
 62
     7
 10
87.780038999999988
 20
218.233363
 30
0.0
 40
7.1999519999999997
 50
90.002741999999984
 51
180.00275099999999
  0
ARC
  5
286
  8
0
 62
     7
 10
87.779691999999983
 20
218.23301900000001
 30
0.0
 40
7.2002959999999998
 50
0.00001
 51
89.999980000000008
  0
ARC
  5
287
  8
0
 62
     7
 10
87.779690999999985
 20
218.23302200000001
 30
0.0
 40
10.000488000000001
 50
270.00002000000001
 51
359.99999000000003
  0
ARC
  5
288
  8
0
 62
     7
 10
87.780035999999996
 20
218.232674
 30
0.0
 40
10.00014
 50
179.997996
 51
269.99804599999999
  0
ARC
  5
289
  8
0
 62
     7
 10
87.780038999999988
 20
218.233363
 30
0.0
 40
10.000144000000001
 50
90.001974000000004
 51
180.00198399999999
  0
ARC
  5
28A
  8
0
 62
     7
 10
87.779690999999985
 20
218.23301799999999
 30
0.0
 40
10.000488000000001
 50
0.00001
 51
89.999980000000008
  0
LINE
  5
28B
  8
0
  6
AIGENLINE002
 62
     7
 10
87.779700000000005
 20
149.99000000000001
 30
0.0
 11
87.779700000000005
 21
158.95099999999999
 31
0.0
  0
LINE
  5
28C
  8
0
  6
AIGENLINE002
 62
     7
 10
87.779700000000005
 20
206.33500000000001
 30
0.0
 11
87.779700000000005
 21
230.00200000000001
 31
0.0
  0
LINE
  5
28D
  8
0
  6
AIGENLINE002
 62
     7
 10
34.720100000000002
 20
218.22800000000001
 30
0.0
 11
109.45099999999999
 21
218.22800000000001
 31
0.0
  0
LINE
  5
28E
  8
0
 62
     7
 10
106.68000000000001
 20
220.03299999999999
 30
0.0
 11
106.714
 21
219.61099999999999
 31
0.0
  0
LINE
  5
28F
  8
0
 62
     7
 10
106.68000000000001
 20
220.03299999999999
 30
0.0
 11
106.67700000000001
 21
220.072
 31
0.0
  0
LINE
  5
290
  8
0
 62
     7
 10
106.714
 20
219.61099999999999
 30
0.0
 11
106.726
 21
219.459
 31
0.0
  0
LINE
  5
291
  8
0
 62
     7
 10
106.714
 20
216.84899999999999
 30
0.0
 11
106.726
 21
217.00200000000001
 31
0.0
  0
LINE
  5
292
  8
0
 62
     7
 10
106.68000000000001
 20
216.42599999999999
 30
0.0
 11
106.714
 21
216.84899999999999
 31
0.0
  0
LINE
  5
293
  8
0
 62
     7
 10
106.68000000000001
 20
216.42599999999999
 30
0.0
 11
106.67700000000001
 21
216.38900000000001
 31
0.0
  0
ARC
  5
294
  8
0
 62
     7
 10
74.299573999999993
 20
250.81722400000001
 30
0.0
 40
51.633329000000003
 50
233.409897
 51
233.940393
  0
ARC
  5
295
  8
0
 62
     7
 10
36.166130000000003
 20
199.78875099999999
 30
0.0
 40
12.070964999999999
 50
52.457009999999997
 51
53.187655999999997
  0
ARC
  5
296
  8
0
 62
     7
 10
44.081353
 20
209.29450900000001
 30
0.0
 40
0.279202
 50
231.30776900000001
 51
237.90266700000001
  0
ARC
  5
297
  8
0
 62
     7
 10
101.395287
 20
204.69205299999999
 30
0.0
 40
0.720786
 50
138.189289
 51
142.39084199999999
  0
ARC
  5
298
  8
0
 62
     7
 10
61.197336999999997
 20
237.35991100000001
 30
0.0
 40
51.081724000000001
 50
321.39087999999998
 51
321.65545100000003
  0
ARC
  5
299
  8
0
 62
     7
 10
85.885326000000006
 20
219.794059
 30
0.0
 40
21.285990000000002
 50
282.091678
 51
283.68800900000002
  0
ARC
  5
29A
  8
0
 62
     7
 10
86.316562000000005
 20
218.17915099999999
 30
0.0
 40
19.616752999999999
 50
277.32822900000002
 51
281.84813500000001
  0
LINE
  5
29B
  8
0
 62
     7
 10
88.818700000000007
 20
198.72300000000001
 30
0.0
 11
88.684399999999997
 21
198.7059999999999
 31
0.0
  0
ARC
  5
29C
  8
0
 62
     7
 10
55.523746000000003
 20
225.568657
 30
0.0
 40
20.166532
 50
229.89846800000001
 51
231.72962100000001
  0
ARC
  5
29D
  8
0
 62
     7
 10
55.180014999999997
 20
225.10630699999999
 30
0.0
 40
19.591497
 50
227.936915
 51
229.796404
  0
ARC
  5
29E
  8
0
 62
     7
 10
52.626981999999991
 20
222.210399
 30
0.0
 40
15.731216
 50
223.38437400000001
 51
227.77404300000009
  0
ARC
  5
29F
  8
0
 62
     7
 10
50.299270999999997
 20
219.94477699999999
 30
0.0
 40
12.483383
 50
218.05250899999999
 51
223.165492
  0
ARC
  5
2A0
  8
0
 62
     7
 10
48.417166999999999
 20
218.42881199999999
 30
0.0
 40
10.066967999999999
 50
211.90655899999999
 51
217.86102299999999
  0
LINE
  5
2A1
  8
0
 62
     7
 10
39.067799999999998
 20
214.74799999999999
 30
0.0
 11
39.099499999999999
 21
214.66499999999999
 31
0.0
  0
ARC
  5
2A2
  8
0
 62
     7
 10
41.108018999999999
 20
216.57643200000001
 30
0.0
 40
2.4874419999999988
 50
191.14404499999989
 51
193.38553899999999
  0
ARC
  5
2A3
  8
0
 62
     7
 10
41.922462000000003
 20
216.02858699999999
 30
0.0
 40
3.1205539999999998
 50
198.49445800000001
 51
200.46717799999999
  0
ARC
  5
2A4
  8
0
 62
     7
 10
56.876218999999992
 20
221.330996
 30
0.0
 40
18.986215000000001
 50
199.67890199999999
 51
200.28734600000001
  0
ARC
  5
2A5
  8
0
 62
     7
 10
43.725670000000001
 20
216.69692499999999
 30
0.0
 40
5.0430190000000001
 50
196.92412899999999
 51
199.19685100000001
  0
ARC
  5
2A6
  8
0
 62
     7
 10
40.43962299999999
 20
215.783897
 30
0.0
 40
1.6356120000000001
 50
196.50797099999991
 51
199.83631700000001
  0
ARC
  5
2A7
  8
0
 62
     7
 10
47.746295000000003
 20
218.07556
 30
0.0
 40
9.2919669999999996
 50
193.92553000000001
 51
194.73238499999999
  0
ARC
  5
2A8
  8
0
 62
     7
 10
50.358759999999997
 20
218.82321200000001
 30
0.0
 40
12.009881999999999
 50
195.713392
 51
196.96371400000001
  0
ARC
  5
2A9
  8
0
 62
     7
 10
48.138885999999999
 20
218.162387
 30
0.0
 40
9.6916850000000014
 50
206.85261399999999
 51
210.559325
  0
ARC
  5
2AA
  8
0
 62
     7
 10
71.272239999999996
 20
224.317047
 30
0.0
 40
33.631757999999998
 50
194.82360499999999
 51
195.07388499999999
  0
LINE
  5
2AB
  8
0
 62
     7
 10
38.688200000000002
 20
216.001
 30
0.0
 11
38.727400000000003
 21
215.839
 31
0.0
  0
ARC
  5
2AC
  8
0
 62
     7
 10
48.285009000000002
 20
218.22914399999999
 30
0.0
 40
9.8513239999999982
 50
188.69483299999999
 51
192.50751399999999
  0
ARC
  5
2AD
  8
0
 62
     7
 10
40.560130999999998
 20
214.658805
 30
0.0
 40
1.342371999999999
 50
203.557264
 51
206.60995800000001
  0
LINE
  5
2AE
  8
0
 62
     7
 10
39.209099999999999
 20
214.39400000000001
 30
0.0
 11
39.213900000000002
 21
214.38300000000001
 31
0.0
  0
ARC
  5
2AF
  8
0
 62
     7
 10
137.32839100000001
 20
231.51380499999999
 30
0.0
 40
99.880159000000006
 50
188.03093799999999
 51
188.495418
  0
ARC
  5
2B0
  8
0
 62
     7
 10
44.711691000000002
 20
218.34349499999999
 30
0.0
 40
6.3325969999999989
 50
181.04949599999989
 51
187.10890800000001
  0
ARC
  5
2B1
  8
0
 62
     7
 10
48.776649999999997
 20
218.42219700000001
 30
0.0
 40
10.381092000000001
 50
201.22116
 51
202.83343199999999
  0
ARC
  5
2B2
  8
0
 62
     7
 10
53.385477999999999
 20
220.669106
 30
0.0
 40
15.505751
 50
205.23898299999999
 51
206.126082
  0
ARC
  5
2B3
  8
0
 62
     7
 10
47.774624000000003
 20
218.031586
 30
0.0
 40
9.3059320000000003
 50
203.08506299999999
 51
204.83994899999999
  0
ARC
  5
2B4
  8
0
 62
     7
 10
86.011833999999993
 20
217.431456
 30
0.0
 40
19.259900999999999
 50
323.25250599999998
 51
323.95027199999998
  0
ARC
  5
2B5
  8
0
 62
     7
 10
93.00410500000001
 20
212.522603
 30
0.0
 40
10.718802
 50
323.16970800000001
 51
324.849447
  0
ARC
  5
2B6
  8
0
 62
     7
 10
87.423796999999979
 20
216.49207100000001
 30
0.0
 40
17.567751999999999
 50
311.28423400000003
 51
319.7106950000001
  0
ARC
  5
2B7
  8
0
 62
     7
 10
87.239386999999994
 20
216.70463899999999
 30
0.0
 40
17.849157999999999
 50
297.97620599999999
 51
311.27885099999997
  0
ARC
  5
2B8
  8
0
 62
     7
 10
85.712328999999997
 20
219.352464
 30
0.0
 40
20.904187
 50
286.94511999999997
 51
298.26811800000002
  0
ARC
  5
2B9
  8
0
 62
     7
 10
86.452542000000008
 20
217.05612099999999
 30
0.0
 40
18.491842999999999
 50
283.98788999999999
 51
286.82491499999998
  0
ARC
  5
2BA
  8
0
 62
     7
 10
85.292083999999988
 20
218.18160499999999
 30
0.0
 40
20.286299
 50
320.11331000000001
 51
321.25280600000002
  0
ARC
  5
2BB
  8
0
 62
     7
 10
92.556353999999999
 20
192.37062599999999
 30
0.0
 40
6.9371830000000001
 50
103.62379199999999
 51
104.14552
  0
ARC
  5
2BC
  8
0
 62
     7
 10
91.736217000000011
 20
213.18812399999999
 30
0.0
 40
12.134351000000001
 50
321.711187
 51
323.13567899999998
  0
ARC
  5
2BD
  8
0
 62
     7
 10
85.117110999999994
 20
227.993694
 30
0.0
 40
29.504047
 50
274.68613900000003
 51
276.94450699999999
  0
ARC
  5
2BE
  8
0
 62
     7
 10
84.452969999999993
 20
235.17673099999999
 30
0.0
 40
36.717407999999999
 50
272.897987
 51
274.80330900000001
  0
ARC
  5
2BF
  8
0
 62
     7
 10
83.616545999999985
 20
249.14260899999999
 30
0.0
 40
50.707878000000001
 50
271.57605000000001
 51
273.04405300000002
  0
ARC
  5
2C0
  8
0
 62
     7
 10
83.198175000000006
 20
260.38871799999998
 30
0.0
 40
61.961335999999989
 50
270.19197500000001
 51
271.67675400000002
  0
ARC
  5
2C1
  8
0
 62
     7
 10
83.235516000000004
 20
278.27840200000003
 30
0.0
 40
79.850853000000001
 50
269.166473
 51
270.12217500000003
  0
ARC
  5
2C2
  8
0
 62
     7
 10
83.697267999999994
 20
282.315989
 30
0.0
 40
83.895697999999996
 50
267.82405200000011
 51
268.89127000000002
  0
ARC
  5
2C3
  8
0
 62
     7
 10
83.942075999999986
 20
284.34427499999998
 30
0.0
 40
85.931980999999993
 50
266.51674199999991
 51
267.712289
  0
ARC
  5
2C4
  8
0
 62
     7
 10
92.531604999999985
 20
423.44596999999999
 30
0.0
 40
225.29860400000001
 50
266.29093999999998
 51
266.48565200000002
  0
ARC
  5
2C5
  8
0
 62
     7
 10
84.994927000000004
 20
307.109013
 30
0.0
 40
108.717778
 50
265.74958900000001
 51
266.28831600000001
  0
ARC
  5
2C6
  8
0
 62
     7
 10
83.157593999999989
 20
285.27287200000001
 30
0.0
 40
86.805781999999994
 50
265.38265100000001
 51
265.89075800000001
  0
ARC
  5
2C7
  8
0
 62
     7
 10
84.616502999999994
 20
305.90839
 30
0.0
 40
107.49197100000001
 50
265.081729
 51
265.49298900000002
  0
ARC
  5
2C8
  8
0
 62
     7
 10
83.088075999999987
 20
288.46607499999999
 30
0.0
 40
89.982844000000014
 50
263.94969600000002
 51
265.09916600000003
  0
ARC
  5
2C9
  8
0
 62
     7
 10
81.142167000000001
 20
270.52945899999997
 30
0.0
 40
71.941051000000002
 50
262.74984000000001
 51
263.98515200000003
  0
ARC
  5
2CA
  8
0
 62
     7
 10
79.933346
 20
261.3322
 30
0.0
 40
62.664783999999997
 50
261.60222900000002
 51
262.78499099999999
  0
ARC
  5
2CB
  8
0
 62
     7
 10
80.872837999999987
 20
267.86654600000003
 30
0.0
 40
69.266281000000006
 50
260.339359
 51
261.622816
  0
ARC
  5
2CC
  8
0
 62
     7
 10
80.701926
 20
266.43646899999999
 30
0.0
 40
67.827841000000006
 50
258.97007400000001
 51
260.27896400000009
  0
ARC
  5
2CD
  8
0
 62
     7
 10
79.466819000000001
 20
259.86900100000003
 30
0.0
 40
61.145404999999997
 50
257.71949599999999
 51
258.92864800000001
  0
ARC
  5
2CE
  8
0
 62
     7
 10
80.365738000000007
 20
264.12309699999997
 30
0.0
 40
65.493362000000005
 50
256.39066100000002
 51
257.74266899999998
  0
ARC
  5
2CF
  8
0
 62
     7
 10
81.995326000000006
 20
270.85939500000001
 30
0.0
 40
72.423966000000007
 50
253.741006
 51
256.39162800000003
  0
ARC
  5
2D0
  8
0
 62
     7
 10
86.094806000000005
 20
285.371038
 30
0.0
 40
87.503093000000007
 50
251.62303800000001
 51
253.824454
  0
ARC
  5
2D1
  8
0
 62
     7
 10
87.702444000000014
 20
291.23685399999999
 30
0.0
 40
93.577163999999996
 50
251.18817200000001
 51
251.82120399999999
  0
ARC
  5
2D2
  8
0
 62
     7
 10
101.053279
 20
330.55047300000001
 30
0.0
 40
135.095888
 50
250.76630800000001
 51
251.204904
  0
ARC
  5
2D3
  8
0
 62
     7
 10
94.973521999999988
 20
312.57752299999999
 30
0.0
 40
116.12347200000001
 50
249.785763
 51
250.67735400000001
  0
ARC
  5
2D4
  8
0
 62
     7
 10
82.784694999999985
 20
278.77394700000002
 30
0.0
 40
80.190695999999988
 50
247.21211299999999
 51
249.61276899999999
  0
ARC
  5
2D5
  8
0
 62
     7
 10
74.187904000000003
 20
257.78892000000002
 30
0.0
 40
57.514294999999997
 50
244.170165
 51
247.01070899999999
  0
ARC
  5
2D6
  8
0
 62
     7
 10
70.644047
 20
250.133048
 30
0.0
 40
49.079464000000002
 50
242.488257
 51
243.999878
  0
ARC
  5
2D7
  8
0
 62
     7
 10
66.252560000000003
 20
241.742178
 30
0.0
 40
39.608908
 50
240.64330100000001
 51
242.51557
  0
ARC
  5
2D8
  8
0
 62
     7
 10
63.382113000000011
 20
236.675996
 30
0.0
 40
33.786084000000002
 50
236.723938
 51
240.674105
  0
ARC
  5
2D9
  8
0
 62
     7
 10
59.436225999999998
 20
230.57247699999999
 30
0.0
 40
26.518362
 50
234.223693
 51
236.616049
  0
ARC
  5
2DA
  8
0
 62
     7
 10
44.081353
 20
209.29450900000001
 30
0.0
 40
0.279202
 50
231.30776900000001
 51
237.90266700000001
  0
ARC
  5
2DB
  8
0
 62
     7
 10
58.926302999999997
 20
229.97948
 30
0.0
 40
25.737946000000001
 50
231.864293
 51
232.89452800000001
  0
LINE
  5
2DC
  8
0
 62
     7
 10
39.871200000000002
 20
213.107
 30
0.0
 11
39.793300000000002
 21
213.23599999999999
 31
0.0
  0
ARC
  5
2DD
  8
0
 62
     7
 10
41.598750999999993
 20
214.87325300000001
 30
0.0
 40
2.3711530000000001
 50
205.80185
 51
207.32828599999999
  0
ARC
  5
2DE
  8
0
 62
     7
 10
62.515351000000003
 20
216.290603
 30
0.0
 40
44.323085999999989
 50
4.2963370000000003
 51
4.8440739999999991
  0
ARC
  5
2DF
  8
0
 62
     7
 10
49.570784000000003
 20
218.15705800000001
 30
0.0
 40
12.391139000000001
 50
174.718898
 51
179.64873600000001
  0
ARC
  5
2E0
  8
0
 62
     7
 10
48.837789000000001
 20
218.20873700000001
 30
0.0
 40
11.656510000000001
 50
169.505889
 51
174.640219
  0
ARC
  5
2E1
  8
0
 62
     7
 10
48.246046999999997
 20
218.273169
 30
0.0
 40
11.063019000000001
 50
164.033117
 51
169.275825
  0
ARC
  5
2E2
  8
0
 62
     7
 10
47.480871999999991
 20
218.482133
 30
0.0
 40
10.269887000000001
 50
158.335623
 51
163.97964999999999
  0
ARC
  5
2E3
  8
0
 62
     7
 10
47.91491899999999
 20
218.30956
 30
0.0
 40
10.736983
 50
152.93217100000001
 51
158.33484300000001
  0
ARC
  5
2E4
  8
0
 62
     7
 10
48.123845000000003
 20
218.16725299999999
 30
0.0
 40
10.987826
 50
147.41833700000001
 51
152.76713799999999
  0
ARC
  5
2E5
  8
0
 62
     7
 10
48.759909999999991
 20
217.779258
 30
0.0
 40
11.732737
 50
142.302381
 51
147.49445399999999
  0
ARC
  5
2E6
  8
0
 62
     7
 10
50.003785000000001
 20
216.828821
 30
0.0
 40
13.29814
 50
137.62437600000001
 51
142.3393899999999
  0
ARC
  5
2E7
  8
0
 62
     7
 10
51.066146000000003
 20
215.865239
 30
0.0
 40
14.732395
 50
133.12969000000001
 51
137.64063200000001
  0
ARC
  5
2E8
  8
0
 62
     7
 10
52.82130699999999
 20
214.06261799999999
 30
0.0
 40
17.247949999999999
 50
129.20772500000001
 51
133.29101700000001
  0
ARC
  5
2E9
  8
0
 62
     7
 10
55.688768999999994
 20
210.675265
 30
0.0
 40
21.685441000000001
 50
125.935427
 51
129.42072899999999
  0
ARC
  5
2EA
  8
0
 62
     7
 10
58.890872999999992
 20
206.40212500000001
 30
0.0
 40
27.024674999999998
 50
124.621295
 51
126.115391
  0
ARC
  5
2EB
  8
0
 62
     7
 10
59.734152999999999
 20
205.285008
 30
0.0
 40
28.42315
 50
123.21984
 51
124.74076700000001
  0
ARC
  5
2EC
  8
0
 62
     7
 10
64.277231999999984
 20
198.44769099999999
 30
0.0
 40
36.632055999999999
 50
118.381049
 51
123.3055189999999
  0
ARC
  5
2ED
  8
0
 62
     7
 10
67.895968000000011
 20
191.97606999999999
 30
0.0
 40
44.046062999999997
 50
114.127973
 51
118.52102499999999
  0
ARC
  5
2EE
  8
0
 62
     7
 10
73.713356000000005
 20
179.33142100000001
 30
0.0
 40
57.964187000000003
 50
112.34365699999999
 51
114.266673
  0
ARC
  5
2EF
  8
0
 62
     7
 10
78.129953999999998
 20
168.77194399999999
 30
0.0
 40
69.409917000000007
 50
110.627758
 51
112.40201500000001
  0
ARC
  5
2F0
  8
0
 62
     7
 10
93.589141999999995
 20
127.927846
 30
0.0
 40
113.081681
 50
110.04550500000001
 51
110.66773499999999
  0
ARC
  5
2F1
  8
0
 62
     7
 10
96.543019000000001
 20
119.32100699999999
 30
0.0
 40
122.179739
 50
109.387535
 51
109.96334400000001
  0
ARC
  5
2F2
  8
0
 62
     7
 10
92.863024999999993
 20
129.74535800000001
 30
0.0
 40
111.124906
 50
108.74893899999999
 51
109.38191999999989
  0
ARC
  5
2F3
  8
0
 62
     7
 10
101.149513
 20
104.536548
 30
0.0
 40
137.65973500000001
 50
108.11027300000001
 51
108.642432
  0
ARC
  5
2F4
  8
0
 62
     7
 10
86.709160999999995
 20
148.179867
 30
0.0
 40
91.68990500000001
 50
105.263443
 51
108.011178
  0
ARC
  5
2F5
  8
0
 62
     7
 10
81.981546999999992
 20
164.97479100000001
 30
0.0
 40
74.242962000000006
 50
103.53773
 51
105.155821
  0
ARC
  5
2F6
  8
0
 62
     7
 10
80.609021999999996
 20
170.81632400000001
 30
0.0
 40
68.242450000000005
 50
101.848005
 51
103.565461
  0
ARC
  5
2F7
  8
0
 62
     7
 10
80.495400000000004
 20
170.93222
 30
0.0
 40
68.105750999999998
 50
100.182526
 51
101.774472
  0
ARC
  5
2F8
  8
0
 62
     7
 10
79.737583999999998
 20
174.81866099999999
 30
0.0
 40
64.14658
 50
98.393917000000002
 51
100.129991
  0
ARC
  5
2F9
  8
0
 62
     7
 10
81.583430000000007
 20
162.52631400000001
 30
0.0
 40
76.576708999999994
 50
95.35606199999998
 51
98.417603999999997
  0
ARC
  5
2FA
  8
0
 62
     7
 10
83.004184999999993
 20
148.972024
 30
0.0
 40
90.204561999999996
 50
93.956508999999969
 51
95.450911000000005
  0
ARC
  5
2FB
  8
0
 62
     7
 10
83.803562999999997
 20
139.29392899999999
 30
0.0
 40
99.914833000000002
 50
93.356193000000005
 51
94.030878999999999
  0
ARC
  5
2FC
  8
0
 62
     7
 10
86.245129000000006
 20
97.838265000000007
 30
0.0
 40
141.44233299999999
 50
92.883824000000004
 51
93.360416999999998
  0
ARC
  5
2FD
  8
0
 62
     7
 10
85.091549000000001
 20
118.65978699999999
 30
0.0
 40
120.589186
 50
92.251160999999996
 51
92.834140999999988
  0
ARC
  5
2FE
  8
0
 62
     7
 10
84.334490000000017
 20
140.941847
 30
0.0
 40
98.294657000000001
 50
91.605065000000025
 51
92.320391999999998
  0
ARC
  5
2FF
  8
0
 62
     7
 10
84.174150999999995
 20
147.768182
 30
0.0
 40
91.466515000000001
 50
90.952678000000006
 51
91.624441000000004
  0
ARC
  5
300
  8
0
 62
     7
 10
83.670581999999996
 20
176.65404099999989
 30
0.0
 40
62.576279999999997
 50
89.996410999999995
 51
90.931415999999999
  0
ARC
  5
301
  8
0
 62
     7
 10
83.679866000000004
 20
186.47451100000001
 30
0.0
 40
52.75580999999999
 50
88.506777000000014
 51
90.005827999999994
  0
ARC
  5
302
  8
0
 62
     7
 10
83.720000999999996
 20
193.998323
 30
0.0
 40
45.233775999999992
 50
86.658968999999985
 51
88.309256000000019
  0
ARC
  5
303
  8
0
 62
     7
 10
83.992568999999989
 20
200.709506
 30
0.0
 40
38.518298000000001
 50
84.619085999999996
 51
86.481934999999993
  0
ARC
  5
304
  8
0
 62
     7
 10
84.347284000000002
 20
205.68033800000001
 30
0.0
 40
33.536298000000002
 50
82.394831000000011
 51
84.426035999999996
  0
ARC
  5
305
  8
0
 62
     7
 10
84.868104000000017
 20
210.29436999999999
 30
0.0
 40
28.894078000000011
 50
79.951750000000004
 51
82.207622000000015
  0
ARC
  5
306
  8
0
 62
     7
 10
85.724634999999992
 20
215.20428000000001
 30
0.0
 40
23.910039999999999
 50
77.317581000000004
 51
79.919939999999997
  0
ARC
  5
307
  8
0
 62
     7
 10
86.10542199999999
 20
216.97479899999999
 30
0.0
 40
22.099124
 50
71.803064000000006
 51
77.272948999999997
  0
ARC
  5
308
  8
0
 62
     7
 10
86.628581000000011
 20
218.76973599999999
 30
0.0
 40
20.23068
 50
65.610006999999996
 51
71.623125000000002
  0
ARC
  5
309
  8
0
 62
     7
 10
86.577145000000002
 20
218.619666
 30
0.0
 40
20.388603
 50
59.686470999999997
 51
65.652509999999992
  0
ARC
  5
30A
  8
0
 62
     7
 10
86.469387999999995
 20
218.40154200000001
 30
0.0
 40
20.6313
 50
53.834867000000003
 51
59.733876999999993
  0
ARC
  5
30B
  8
0
 62
     7
 10
86.852644999999995
 20
218.957548
 30
0.0
 40
19.956267
 50
47.718953000000013
 51
53.781189000000012
  0
ARC
  5
30C
  8
0
 62
     7
 10
87.370852999999997
 20
219.51466099999999
 30
0.0
 40
19.195454000000002
 50
41.555031999999997
 51
47.744594999999997
  0
ARC
  5
30D
  8
0
 62
     7
 10
87.776593000000005
 20
219.89522500000001
 30
0.0
 40
18.639395
 50
35.210371000000002
 51
41.506953000000003
  0
ARC
  5
30E
  8
0
 62
     7
 10
87.741093000000006
 20
219.921513
 30
0.0
 40
18.653289999999998
 50
32.013548999999998
 51
35.081526000000011
  0
ARC
  5
30F
  8
0
 62
     7
 10
87.447463999999997
 20
219.79361399999999
 30
0.0
 40
18.970124999999999
 50
28.774992999999998
 51
31.87095999999999
  0
ARC
  5
310
  8
0
 62
     7
 10
86.86439399999999
 20
219.469776
 30
0.0
 40
19.637081999999999
 50
22.688635000000001
 51
28.784261000000001
  0
ARC
  5
311
  8
0
 62
     7
 10
85.079387999999994
 20
218.69954899999999
 30
0.0
 40
21.581060000000001
 50
16.930137999999999
 51
22.747320999999999
  0
ARC
  5
312
  8
0
 62
     7
 10
83.466957999999991
 20
218.18910500000001
 30
0.0
 40
23.272261
 50
11.454891
 51
16.976357
  0
ARC
  5
313
  8
0
 62
     7
 10
81.848022
 20
217.83260300000001
 30
0.0
 40
24.929765
 50
6.245524999999998
 51
11.518980000000001
  0
ARC
  5
314
  8
0
 62
     7
 10
80.297267000000005
 20
217.69592299999999
 30
0.0
 40
26.486205000000002
 50
5.0631740000000001
 51
6.174494000000001
  0
ARC
  5
315
  8
0
 62
     7
 10
79.354126000000008
 20
217.60843399999999
 30
0.0
 40
27.432953999999999
 50
1.2988500000000001
 51
4.1863720000000004
  0
ARC
  5
316
  8
0
 62
     7
 10
79.256706999999992
 20
218.870272
 30
0.0
 40
27.532095000000002
 50
353.83979499999998
 51
354.9074700000001
  0
ARC
  5
317
  8
0
 62
     7
 10
81.049645999999996
 20
218.75269399999999
 30
0.0
 40
25.737003000000001
 50
348.5637759999999
 51
353.671719
  0
ARC
  5
318
  8
0
 62
     7
 10
82.765256000000008
 20
218.449185
 30
0.0
 40
23.995314
 50
343.10689400000001
 51
348.46185800000001
  0
ARC
  5
319
  8
0
 62
     7
 10
84.356472999999994
 20
218.01891900000001
 30
0.0
 40
22.347788000000001
 50
337.35783400000003
 51
342.97693800000002
  0
ARC
  5
31A
  8
0
 62
     7
 10
86.352128000000008
 20
217.240557
 30
0.0
 40
20.206354999999999
 50
331.294352
 51
337.21632799999998
  0
ARC
  5
31B
  8
0
 62
     7
 10
88.298889999999986
 20
216.16892200000001
 30
0.0
 40
17.984135999999999
 50
328.044149
 51
331.30989799999998
  0
ARC
  5
31C
  8
0
 62
     7
 10
88.428240000000002
 20
216.083382
 30
0.0
 40
17.829115999999999
 50
324.84754500000003
 51
328.05737999999991
  0
ARC
  5
31D
  8
0
 62
     7
 10
87.989665999999986
 20
216.39667299999999
 30
0.0
 40
18.368082999999999
 50
318.44649600000002
 51
324.83618000000001
  0
ARC
  5
31E
  8
0
 62
     7
 10
87.364908
 20
216.951741
 30
0.0
 40
19.203799
 50
312.25675100000001
 51
318.443622
  0
ARC
  5
31F
  8
0
 62
     7
 10
87.041989999999998
 20
217.271233
 30
0.0
 40
19.657429999999991
 50
306.172687
 51
312.32717100000002
  0
ARC
  5
320
  8
0
 62
     7
 10
86.462828999999999
 20
218.06197599999999
 30
0.0
 40
20.637584
 50
300.24159100000008
 51
306.174936
  0
ARC
  5
321
  8
0
 62
     7
 10
86.438070999999994
 20
218.11847
 30
0.0
 40
20.69886
 50
294.38141400000001
 51
300.222036
  0
ARC
  5
322
  8
0
 62
     7
 10
86.635838000000007
 20
217.67225999999999
 30
0.0
 40
20.210804
 50
288.37391600000001
 51
294.39295199999998
  0
ARC
  5
323
  8
0
 62
     7
 10
86.305044999999978
 20
218.738552
 30
0.0
 40
21.327019
 50
282.64575200000002
 51
288.31431600000008
  0
ARC
  5
324
  8
0
 62
     7
 10
85.539443999999975
 20
222.17555899999999
 30
0.0
 40
24.84826
 50
280.12919799999997
 51
282.63328200000001
  0
ARC
  5
325
  8
0
 62
     7
 10
85.490820999999997
 20
222.29478599999999
 30
0.0
 40
24.974195000000002
 50
277.58114599999999
 51
280.19090699999998
  0
ARC
  5
326
  8
0
 62
     7
 10
84.784120999999985
 20
226.99868000000001
 30
0.0
 40
29.730315000000001
 50
275.44393400000001
 51
277.73519900000002
  0
ARC
  5
327
  8
0
 62
     7
 10
84.193608999999995
 20
233.16745499999999
 30
0.0
 40
35.927287999999997
 50
273.45088600000003
 51
275.44809299999997
  0
ARC
  5
328
  8
0
 62
     7
 10
83.860028999999983
 20
239.27531200000001
 30
0.0
 40
42.044164000000002
 50
271.62814100000003
 51
273.40363400000001
  0
ARC
  5
329
  8
0
 62
     7
 10
83.680994999999996
 20
249.89902599999999
 30
0.0
 40
52.668818999999992
 50
269.99293399999999
 51
271.494461
  0
ARC
  5
32A
  8
0
 62
     7
 10
83.670516000000006
 20
259.79834799999998
 30
0.0
 40
62.56814
 50
269.06852300000003
 51
270.00364999999999
  0
ARC
  5
32B
  8
0
 62
     7
 10
83.923535999999984
 20
279.91212000000002
 30
0.0
 40
82.683401000000003
 50
268.376689
 51
269.119801
  0
ARC
  5
32C
  8
0
 62
     7
 10
88.307109999999994
 20
411.44033799999988
 30
0.0
 40
214.28401600000001
 50
267.87320799999998
 51
268.20133499999997
  0
ARC
  5
32D
  8
0
 62
     7
 10
83.802974000000006
 20
287.63984299999998
 30
0.0
 40
90.401696000000001
 50
267.03636899999998
 51
267.81404399999991
  0
ARC
  5
32E
  8
0
 62
     7
 10
84.647626000000002
 20
308.45579099999998
 30
0.0
 40
111.233718
 50
264.732328
 51
267.15623499999998
  0
ARC
  5
32F
  8
0
 62
     7
 10
82.098174
 20
278.196033
 30
0.0
 40
80.868048999999999
 50
261.66364600000003
 51
264.56268799999998
  0
ARC
  5
330
  8
0
 62
     7
 10
80.792798000000005
 20
268.11260600000003
 30
0.0
 40
70.702111000000002
 50
259.95049899999998
 51
261.52559300000001
  0
ARC
  5
331
  8
0
 62
     7
 10
79.753062999999983
 20
261.70165100000003
 30
0.0
 40
64.208155000000005
 50
258.17720700000001
 51
259.86579499999999
  0
ARC
  5
332
  8
0
 62
     7
 10
80.397377000000006
 20
264.80588299999999
 30
0.0
 40
67.378543999999991
 50
256.44242100000002
 51
258.18176999999997
  0
ARC
  5
333
  8
0
 62
     7
 10
81.375305000000026
 20
269.0229819999999
 30
0.0
 40
71.707391000000001
 50
254.79726099999999
 51
256.47270800000001
  0
ARC
  5
334
  8
0
 62
     7
 10
84.575677999999996
 20
281.14102700000001
 30
0.0
 40
84.240650000000002
 50
251.86730700000001
 51
254.85807199999999
  0
ARC
  5
335
  8
0
 62
     7
 10
89.254819999999995
 20
296.19621599999999
 30
0.0
 40
100.004695
 50
250.56815499999999
 51
252.00406100000001
  0
ARC
  5
336
  8
0
 62
     7
 10
85.897079000000005
 20
287.36637500000001
 30
0.0
 40
90.561037999999996
 50
249.93613500000001
 51
250.712985
  0
ARC
  5
337
  8
0
 62
     7
 10
85.846929999999986
 20
287.71805699999999
 30
0.0
 40
90.874326999999994
 50
249.26720900000001
 51
250.04190500000001
  0
ARC
  5
338
  8
0
 62
     7
 10
80.984302000000014
 20
274.86869799999999
 30
0.0
 40
77.135653000000005
 50
248.468591
 51
249.26641100000001
  0
ARC
  5
339
  8
0
 62
     7
 10
80.036855000000017
 20
272.58520199999998
 30
0.0
 40
74.663795999999991
 50
247.677121
 51
248.50179
  0
ARC
  5
33A
  8
0
 62
     7
 10
75.069652000000005
 20
260.27760799999999
 30
0.0
 40
61.391936999999992
 50
245.78701699999999
 51
247.602654
  0
ARC
  5
33B
  8
0
 62
     7
 10
69.894400000000005
 20
248.523627
 30
0.0
 40
48.549566999999989
 50
241.68281300000001
 51
245.66818900000001
  0
ARC
  5
33C
  8
0
 62
     7
 10
65.183109999999999
 20
239.529854
 30
0.0
 40
38.397404999999999
 50
236.80774900000009
 51
241.505683
  0
ARC
  5
33D
  8
0
 62
     7
 10
60.359946999999991
 20
232.10398499999999
 30
0.0
 40
29.542725999999998
 50
235.28805399999999
 51
236.751339
  0
ARC
  5
33E
  8
0
 62
     7
 10
65.761489999999995
 20
239.79093599999999
 30
0.0
 40
38.937559999999998
 50
234.159176
 51
235.19555399999999
  0
ARC
  5
33F
  8
0
 62
     7
 10
56.777356999999988
 20
227.19415599999999
 30
0.0
 40
23.465675999999998
 50
230.71151499999999
 51
233.93233000000001
  0
ARC
  5
340
  8
0
 62
     7
 10
53.908722999999988
 20
223.62548799999999
 30
0.0
 40
18.887191999999999
 50
226.861413
 51
230.59155899999999
  0
ARC
  5
341
  8
0
 62
     7
 10
51.40770100000001
 20
220.93228199999999
 30
0.0
 40
15.211850999999999
 50
222.43049300000001
 51
226.79918499999999
  0
ARC
  5
342
  8
0
 62
     7
 10
50.192405999999991
 20
219.79008099999999
 30
0.0
 40
13.544228
 50
217.70346799999999
 51
222.33276699999999
  0
ARC
  5
343
  8
0
 62
     7
 10
49.249434000000001
 20
219.02533299999999
 30
0.0
 40
12.330494
 50
212.63147599999999
 51
217.57168799999999
  0
ARC
  5
344
  8
0
 62
     7
 10
48.368398999999997
 20
218.433941
 30
0.0
 40
11.269648999999999
 50
207.29978800000001
 51
212.514737
  0
ARC
  5
345
  8
0
 62
     7
 10
47.689015000000012
 20
218.05154200000001
 30
0.0
 40
10.490588000000001
 50
201.61948000000001
 51
207.145712
  0
ARC
  5
346
  8
0
 62
     7
 10
47.731043999999997
 20
218.06097800000001
 30
0.0
 40
10.533139
 50
196.076559
 51
201.58296799999999
  0
ARC
  5
347
  8
0
 62
     7
 10
47.724532000000004
 20
218.06363999999999
 30
0.0
 40
10.527620000000001
 50
190.59076099999999
 51
196.10029599999999
  0
ARC
  5
348
  8
0
 62
     7
 10
48.382814000000003
 20
218.18912399999999
 30
0.0
 40
11.197751
 50
185.26149699999999
 51
190.60282900000001
  0
ARC
  5
349
  8
0
 62
     7
 10
49.42340999999999
 20
218.29548700000001
 30
0.0
 40
12.243721000000001
 50
180.31813600000001
 51
185.31059200000001
  0
ARC
  5
34A
  8
0
 62
     7
 10
87.659850999999989
 20
218.157183
 30
0.0
 40
19.098856999999999
 50
354.80059399999999
 51
356.07381800000002
  0
ARC
  5
34B
  8
0
 62
     7
 10
81.338014999999999
 20
218.757058
 30
0.0
 40
25.447469999999999
 50
355.70095400000002
 51
358.81382300000001
  0
LINE
  5
34C
  8
0
 62
     7
 10
37.179900000000004
 20
218.22800000000001
 30
0.0
 11
37.179900000000004
 21
218.233
 31
0.0
  0
ARC
  5
34D
  8
0
 62
     7
 10
106.176018
 20
171.04600500000001
 30
0.0
 40
0.608421
 50
38.021599000000002
 51
92.880645000000015
  0
ARC
  5
34E
  8
0
 62
     7
 10
37.804259000000002
 20
167.11954499999999
 30
0.0
 40
0.6231640000000001
 50
95.340843000000007
 51
181.29948200000001
  0
ARC
  5
34F
  8
0
 62
     7
 10
37.783625999999998
 20
167.13970599999999
 30
0.0
 40
0.6033460000000001
 50
183.25840299999999
 51
211.67234400000001
  0
LINE
  5
350
  8
0
 62
     7
 10
37.746299999999998
 20
167.74000000000001
 30
0.0
 11
38.057000000000002
 21
167.75800000000001
 31
0.0
  0
LINE
  5
351
  8
0
 62
     7
 10
38.060400000000001
 20
167.75800000000001
 30
0.0
 11
105.65600000000001
 21
171.626
 31
0.0
  0
LINE
  5
352
  8
0
 62
     7
 10
105.667
 20
171.626
 30
0.0
 11
105.809
 21
171.63399999999999
 31
0.0
  0
LINE
  5
353
  8
0
 62
     7
 10
105.81699999999999
 20
171.63499999999999
 30
0.0
 11
105.88
 21
171.63800000000001
 31
0.0
  0
LINE
  5
354
  8
0
 62
     7
 10
105.89
 20
171.63900000000001
 30
0.0
 11
106.145
 21
171.654
 31
0.0
  0
ARC
  5
355
  8
0
 62
     7
 10
106.17934099999999
 20
171.05431399999989
 30
0.0
 40
0.6007020000000001
 50
359.66110400000002
 51
37.592465000000011
  0
ARC
  5
356
  8
0
 62
     7
 10
8.193702
 20
171.54961800000001
 30
0.0
 40
98.587592000000015
 50
358.77256399999999
 51
359.71008
  0
ARC
  5
357
  8
0
 62
     7
 10
22.772838
 20
171.27005500000001
 30
0.0
 40
84.005818999999974
 50
357.76189599999998
 51
358.75019099999997
  0
ARC
  5
358
  8
0
 62
     7
 10
29.540697999999999
 20
171.21286599999999
 30
0.0
 40
77.241166000000007
 50
356.60569299999997
 51
357.60823299999998
  0
ARC
  5
359
  8
0
 62
     7
 10
50.46058699999999
 20
170.16961900000001
 30
0.0
 40
56.296554
 50
355.13153399999999
 51
356.40500100000003
  0
ARC
  5
35A
  8
0
 62
     7
 10
68.921899999999994
 20
168.64786799999999
 30
0.0
 40
37.772731
 50
353.31195300000002
 51
355.05489599999999
  0
ARC
  5
35B
  8
0
 62
     7
 10
74.910896999999991
 20
167.95117999999999
 30
0.0
 40
31.743352000000002
 50
351.40454799999998
 51
353.30193000000003
  0
ARC
  5
35C
  8
0
 62
     7
 10
83.265776999999986
 20
166.731222
 30
0.0
 40
23.300018999999999
 50
346.62588700000009
 51
351.30019199999998
  0
ARC
  5
35D
  8
0
 62
     7
 10
87.32787900000001
 20
165.980999
 30
0.0
 40
19.175694
 50
343.90563900000001
 51
345.99924099999998
  0
ARC
  5
35E
  8
0
 62
     7
 10
93.033699999999996
 20
164.344596
 30
0.0
 40
13.239863
 50
340.83523600000001
 51
343.86452000000003
  0
ARC
  5
35F
  8
0
 62
     7
 10
92.890368000000009
 20
164.34350900000001
 30
0.0
 40
13.374981
 50
338.04491400000001
 51
341.04120399999999
  0
ARC
  5
360
  8
0
 62
     7
 10
91.663388999999995
 20
164.89156399999999
 30
0.0
 40
14.717967
 50
335.12841600000002
 51
337.85195700000003
  0
ARC
  5
361
  8
0
 62
     7
 10
96.240094999999997
 20
162.68929900000001
 30
0.0
 40
9.6397729999999981
 50
333.78228300000001
 51
335.56297899999998
  0
ARC
  5
362
  8
0
 62
     7
 10
78.730914999999996
 20
171.24100999999999
 30
0.0
 40
29.125713000000001
 50
333.31525099999999
 51
333.906879
  0
ARC
  5
363
  8
0
 62
     7
 10
88.654983999999985
 20
166.209416
 30
0.0
 40
17.999093999999999
 50
332.32298100000003
 51
333.43930599999999
  0
ARC
  5
364
  8
0
 62
     7
 10
89.147878000000006
 20
165.92757399999999
 30
0.0
 40
17.431698000000001
 50
331.89647600000001
 51
332.39085899999998
  0
ARC
  5
365
  8
0
 62
     7
 10
85.700715000000002
 20
167.563897
 30
0.0
 40
21.244015999999998
 50
331.84280699999999
 51
332.38314500000001
  0
ARC
  5
366
  8
0
 62
     7
 10
61.112985999999999
 20
180.74180200000001
 30
0.0
 40
49.140492999999999
 50
331.00851399999999
 51
331.824591
  0
ARC
  5
367
  8
0
 62
     7
 10
-46.940241999999998
 20
240.34046499999999
 30
0.0
 40
172.540187
 50
330.87338099999999
 51
331.08846
  0
ARC
  5
368
  8
0
 62
     7
 10
393.12513899999999
 20
-5.1812629999999986
 30
0.0
 40
331.38292100000001
 50
150.82554500000001
 51
151.05954700000001
  0
ARC
  5
369
  8
0
 62
     7
 10
139.60958299999999
 20
135.29131899999999
 30
0.0
 40
41.551648999999991
 50
151.41063600000001
 51
152.444357
  0
LINE
  5
36A
  8
0
 62
     7
 10
102.69
 20
154.358
 30
0.0
 11
102.74299999999999
 21
154.458
 31
0.0
  0
ARC
  5
36B
  8
0
 62
     7
 10
104.302665
 20
153.67447200000001
 30
0.0
 40
1.746011999999999
 50
151.27897400000001
 51
153.322047
  0
LINE
  5
36C
  8
0
 62
     7
 10
101.774
 20
151.67400000000001
 30
0.0
 11
101.773
 21
151.65600000000001
 31
0.0
  0
LINE
  5
36D
  8
0
 62
     7
 10
62.773000000000003
 20
151.65600000000001
 30
0.0
 11
62.772300000000001
 21
151.67099999999999
 31
0.0
  0
ARC
  5
36E
  8
0
 62
     7
 10
59.261647000000004
 20
145.34555800000001
 30
0.0
 40
7.5788589999999987
 50
69.349765000000005
 51
72.316989000000007
  0
ARC
  5
36F
  8
0
 62
     7
 10
57.562555000000003
 20
140.22576799999999
 30
0.0
 40
12.973004
 50
72.035768000000004
 51
74.116162000000017
  0
ARC
  5
370
  8
0
 62
     7
 10
57.128985
 20
138.720033
 30
0.0
 40
14.539911999999999
 50
74.096799000000004
 51
75.845506
  0
ARC
  5
371
  8
0
 62
     7
 10
56.466485999999989
 20
136.196585
 30
0.0
 40
17.148772000000001
 50
75.760943999999995
 51
77.219431000000014
  0
ARC
  5
372
  8
0
 62
     7
 10
52.466166000000001
 20
118.832802
 30
0.0
 40
34.96735000000001
 50
77.121060999999983
 51
78.712125000000015
  0
ARC
  5
373
  8
0
 62
     7
 10
-144.60770099999999
 20
-861.09196699999995
 30
0.0
 40
1034.5129999999999
 50
78.631666999999993
 51
78.661131999999995
  0
ARC
  5
374
  8
0
 62
     7
 10
-136.541245
 20
-838.04764499999987
 30
0.0
 40
1010.338
 50
78.852710000000016
 51
78.925502000000009
  0
ARC
  5
375
  8
0
 62
     7
 10
77.925009000000003
 20
255.56361899999999
 30
0.0
 40
104.10519499999999
 50
258.287508
 51
258.701975
  0
ARC
  5
376
  8
0
 62
     7
 10
65.520617999999999
 20
195.603645
 30
0.0
 40
42.875578999999988
 50
256.43727799999999
 51
258.25300299999998
  0
ARC
  5
377
  8
0
 62
     7
 10
62.559668000000002
 20
183.08977400000001
 30
0.0
 40
30.016354
 50
254.02645100000001
 51
256.32991500000003
  0
ARC
  5
378
  8
0
 62
     7
 10
61.890441000000003
 20
180.86781300000001
 30
0.0
 40
27.696037
 50
251.74819299999999
 51
254.092479
  0
ARC
  5
379
  8
0
 62
     7
 10
61.912038000000003
 20
180.82289399999999
 30
0.0
 40
27.660164000000002
 50
248.55417700000001
 51
251.67656500000001
  0
ARC
  5
37A
  8
0
 62
     7
 10
61.466029000000013
 20
179.71125000000001
 30
0.0
 40
26.462416999999999
 50
245.141064
 51
248.57299
  0
ARC
  5
37B
  8
0
 62
     7
 10
62.980745999999989
 20
183.09141199999999
 30
0.0
 40
30.166193
 50
242.21976600000011
 51
245.22957299999999
  0
ARC
  5
37C
  8
0
 62
     7
 10
65.486411000000004
 20
187.920119
 30
0.0
 40
35.606211999999999
 50
239.60755800000001
 51
242.27400299999999
  0
ARC
  5
37D
  8
0
 62
     7
 10
69.551877000000005
 20
194.93163200000001
 30
0.0
 40
43.711024000000002
 50
238.27135999999999
 51
239.66061300000001
  0
ARC
  5
37E
  8
0
 62
     7
 10
66.758806000000007
 20
190.48202599999999
 30
0.0
 40
38.457568999999999
 50
236.86286899999999
 51
238.324409
  0
ARC
  5
37F
  8
0
 62
     7
 10
63.463827000000002
 20
185.54732300000001
 30
0.0
 40
32.524298999999999
 50
235.381619
 51
236.97132999999999
  0
ARC
  5
380
  8
0
 62
     7
 10
63.383814999999998
 20
185.426841
 30
0.0
 40
32.379691999999999
 50
233.770005
 51
235.37701799999999
  0
ARC
  5
381
  8
0
 62
     7
 10
61.933774999999997
 20
183.41321600000001
 30
0.0
 40
29.898392000000001
 50
230.40739500000001
 51
233.73084600000001
  0
ARC
  5
382
  8
0
 62
     7
 10
60.617435
 20
181.72049999999999
 30
0.0
 40
27.755132
 50
228.564436
 51
230.274362
  0
ARC
  5
383
  8
0
 62
     7
 10
61.438698000000002
 20
182.58774299999999
 30
0.0
 40
28.948827000000001
 50
226.684325
 51
228.4817450000001
  0
ARC
  5
384
  8
0
 62
     7
 10
58.242247999999989
 20
179.21902800000001
 30
0.0
 40
24.304985000000009
 50
224.75699299999999
 51
226.71895900000001
  0
ARC
  5
385
  8
0
 62
     7
 10
60.938364
 20
181.83235300000001
 30
0.0
 40
28.059574000000001
 50
222.97531000000001
 51
224.66997000000001
  0
ARC
  5
386
  8
0
 62
     7
 10
58.625629000000004
 20
179.68677299999999
 30
0.0
 40
24.904862000000001
 50
221.082697
 51
222.990825
  0
ARC
  5
387
  8
0
 62
     7
 10
58.764549999999993
 20
179.86306099999999
 30
0.0
 40
25.125457000000001
 50
219.115725
 51
221.17753200000001
  0
ARC
  5
388
  8
0
 62
     7
 10
60.105567000000008
 20
180.95355599999999
 30
0.0
 40
26.853898000000001
 50
211.74938499999999
 51
219.11584099999999
  0
LINE
  5
389
  8
0
 62
     7
 10
101.773
 20
151.65600000000001
 30
0.0
 11
62.773000000000003
 21
151.65600000000001
 31
0.0
  0
LINE
  5
38A
  8
0
 62
     7
 10
38.057000000000002
 20
167.75800000000001
 30
0.0
 11
38.060400000000001
 21
167.75800000000001
 31
0.0
  0
LINE
  5
38B
  8
0
 62
     7
 10
105.65600000000001
 20
171.626
 30
0.0
 11
105.667
 21
171.626
 31
0.0
  0
LINE
  5
38C
  8
0
 62
     7
 10
105.809
 20
171.63399999999999
 30
0.0
 11
105.81699999999999
 21
171.63499999999999
 31
0.0
  0
LINE
  5
38D
  8
0
 62
     7
 10
105.88
 20
171.63800000000001
 30
0.0
 11
105.89
 21
171.63900000000001
 31
0.0
  0
LINE
  5
38E
  8
0
 62
     7
 10
102.803
 20
154.57599999999999
 30
0.0
 11
102.79900000000001
 21
154.56899999999999
 31
0.0
  0
ARC
  5
38F
  8
0
 62
     7
 10
62.512756000000003
 20
151.66179199999999
 30
0.0
 40
0.260382
 50
2.0900219999999998
 51
11.909378999999999
  0
ARC
  5
390
  8
0
 62
     7
 10
61.619627000000001
 20
151.4694979999999
 30
0.0
 40
1.1739749999999991
 50
12.097009999999999
 51
15.623427
  0
ARC
  5
391
  8
0
 62
     7
 10
62.194107999999993
 20
151.64169000000001
 30
0.0
 40
0.5744540000000001
 50
14.514773
 51
26.036380000000001
  0
ARC
  5
392
  8
0
 62
     7
 10
62.164645999999998
 20
151.62138999999999
 30
0.0
 40
0.6098600000000002
 50
26.535119000000002
 51
37.958273000000013
  0
ARC
  5
393
  8
0
 62
     7
 10
62.044753999999998
 20
151.52849399999999
 30
0.0
 40
0.761529
 50
37.92064400000001
 51
47.837153999999998
  0
ARC
  5
394
  8
0
 62
     7
 10
61.849895999999987
 20
151.32896299999999
 30
0.0
 40
1.040279
 50
47.258672999999987
 51
55.337564999999998
  0
ARC
  5
395
  8
0
 62
     7
 10
61.553893000000002
 20
150.90465499999999
 30
0.0
 40
1.557629999999999
 50
55.258591000000003
 51
61.338537000000002
  0
ARC
  5
396
  8
0
 62
     7
 10
61.396666000000003
 20
150.671221
 30
0.0
 40
1.8380559999999999
 50
60.528078999999998
 51
66.34180400000001
  0
ARC
  5
397
  8
0
 62
     7
 10
60.620723999999989
 20
148.97992099999999
 30
0.0
 40
3.6987199999999989
 50
65.845403000000005
 51
69.195713999999995
  0
ARC
  5
398
  8
0
 62
     7
 10
104.84437699999999
 20
153.511505
 30
0.0
 40
2.3023849999999988
 50
152.66808900000001
 51
154.201775
  0
ARC
  5
399
  8
0
 62
     7
 10
132.654157
 20
139.03816900000001
 30
0.0
 40
33.652064000000003
 50
152.621714
 51
153.43650400000001
  0
ARC
  5
39A
  8
0
 62
     7
 10
118.188697
 20
146.415244
 30
0.0
 40
17.415120000000002
 50
153.86273199999999
 51
155.467974
  0
ARC
  5
39B
  8
0
 62
     7
 10
111.723837
 20
149.38903400000001
 30
0.0
 40
10.299147
 50
155.58549300000001
 51
160.21207200000001
  0
ARC
  5
39C
  8
0
 62
     7
 10
107.440057
 20
150.943037
 30
0.0
 40
5.7422349999999991
 50
160.331953
 51
164.01568800000001
  0
ARC
  5
39D
  8
0
 62
     7
 10
106.610652
 20
151.17362299999999
 30
0.0
 40
4.8814049999999991
 50
163.936747
 51
167.625013
  0
ARC
  5
39E
  8
0
 62
     7
 10
105.013887
 20
151.5625189999999
 30
0.0
 40
3.2386149999999998
 50
168.29128299999999
 51
173.331007
  0
ARC
  5
39F
  8
0
 62
     7
 10
106.030554
 20
151.43047000000001
 30
0.0
 40
4.263757
 50
173.15513999999999
 51
176.72508300000001
  0
LINE
  5
3A0
  8
0
 62
     7
 10
38.067300000000003
 20
167.75800000000001
 30
0.0
 11
38.060400000000001
 21
167.75800000000001
 31
0.0
  0
LINE
  5
3A1
  8
0
 62
     7
 10
157.52699999999999
 20
151.65600000000001
 30
0.0
 11
157.52199999999999
 21
151.65600000000001
 31
0.0
  0
LINE
  5
3A2
  8
0
  6
AIGENLINE003
 62
     7
 10
133.65799999999999
 20
145.65600000000001
 30
0.0
 11
181.3959999999999
 21
145.65600000000001
 31
0.0
  0
LINE
  5
3A3
  8
0
  6
AIGENLINE003
 62
     7
 10
133.65799999999999
 20
151.65600000000001
 30
0.0
 11
181.3959999999999
 21
151.65600000000001
 31
0.0
  0
LINE
  5
3A4
  8
0
  6
AIGENLINE003
 62
     7
 10
32.981000000000002
 20
145.65600000000001
 30
0.0
 11
108.667
 21
145.65600000000001
 31
0.0
  0
LINE
  5
3A5
  8
0
  6
AIGENLINE003
 62
     7
 10
32.981000000000002
 20
151.65600000000001
 30
0.0
 11
108.667
 21
151.65600000000001
 31
0.0
  0
LINE
  5
3A6
  8
0
 62
     7
 10
143.125
 20
151.65600000000001
 30
0.0
 11
171.92400000000001
 21
151.65600000000001
 31
0.0
  0
ARC
  5
3A7
  8
0
 62
     7
 10
156.85943399999999
 20
-282.77395899999999
 30
0.0
 40
454.43018000000001
 50
89.568283999999991
 51
89.915262999999996
  0
ARC
  5
3A8
  8
0
 62
     7
 10
157.472195
 20
-215.300442
 30
0.0
 40
386.95397500000001
 50
89.192149999999984
 51
89.583735999999988
  0
ARC
  5
3A9
  8
0
 62
     7
 10
157.570604
 20
-202.21331799999999
 30
0.0
 40
373.86677400000002
 50
88.796429999999987
 51
89.178951999999995
  0
ARC
  5
3AA
  8
0
 62
     7
 10
159.609949
 20
-97.232635000000016
 30
0.0
 40
268.866468
 50
88.273077000000001
 51
88.76101700000001
  0
ARC
  5
3AB
  8
0
 62
     7
 10
162.107573
 20
-12.77248
 30
0.0
 40
184.36941200000001
 50
87.049644999999998
 51
88.257918000000004
  0
ARC
  5
3AC
  8
0
 62
     7
 10
164.42458199999999
 20
40.859619000000002
 30
0.0
 40
130.68990600000001
 50
86.106037000000001
 51
86.853880000000004
  0
ARC
  5
3AD
  8
0
 62
     7
 10
167.85062500000001
 20
94.371390000000005
 30
0.0
 40
77.069310000000002
 50
84.859174999999993
 51
85.945567000000011
  0
ARC
  5
3AE
  8
0
 62
     7
 10
170.66290100000001
 20
126.634213
 30
0.0
 40
44.684365
 50
83.377719999999997
 51
84.743891000000005
  0
ARC
  5
3AF
  8
0
 62
     7
 10
172.96749399999999
 20
146.90210500000001
 30
0.0
 40
24.285974
 50
82.185831000000007
 51
83.264140999999995
  0
ARC
  5
3B0
  8
0
 62
     7
 10
174.09414100000001
 20
154.999021
 30
0.0
 40
16.111072
 50
80.825715000000002
 51
82.240331999999995
  0
ARC
  5
3B1
  8
0
 62
     7
 10
173.91151600000001
 20
154.32064399999999
 30
0.0
 40
16.810043
 50
79.404155000000003
 51
80.579868000000005
  0
ARC
  5
3B2
  8
0
 62
     7
 10
175.22668200000001
 20
161.789537
 30
0.0
 40
9.2270240000000001
 50
77.035372999999993
 51
78.903417000000005
  0
ARC
  5
3B3
  8
0
 62
     7
 10
175.81976499999999
 20
164.60047900000001
 30
0.0
 40
6.3548970000000002
 50
74.197727999999998
 51
76.560507000000001
  0
ARC
  5
3B4
  8
0
 62
     7
 10
176.47729699999999
 20
167.14473799999999
 30
0.0
 40
3.728219999999999
 50
69.857037000000005
 51
73.273049999999984
  0
ARC
  5
3B5
  8
0
 62
     7
 10
177.05778100000001
 20
168.72608199999999
 30
0.0
 40
2.0436990000000002
 50
64.30925400000001
 51
69.868856999999991
  0
ARC
  5
3B6
  8
0
 62
     7
 10
177.209934
 20
169.061418
 30
0.0
 40
1.6755720000000001
 50
57.906863000000001
 51
64.026785000000004
  0
ARC
  5
3B7
  8
0
 62
     7
 10
177.47700900000001
 20
169.51146399999999
 30
0.0
 40
1.152474999999999
 50
49.088014999999999
 51
57.268231000000007
  0
ARC
  5
3B8
  8
0
 62
     7
 10
177.652263
 20
169.70709299999999
 30
0.0
 40
0.8898719999999999
 50
39.535195999999999
 51
49.366506000000001
  0
ARC
  5
3B9
  8
0
 62
     7
 10
177.73748399999999
 20
169.76802599999999
 30
0.0
 40
0.785393
 50
29.060628000000001
 51
40.064413999999992
  0
ARC
  5
3BA
  8
0
 62
     7
 10
177.67512600000001
 20
169.73358400000001
 30
0.0
 40
0.8566299999999998
 50
19.092352000000002
 51
29.048321999999999
  0
ARC
  5
3BB
  8
0
 62
     7
 10
177.69213999999999
 20
169.754865
 30
0.0
 40
0.833718
 50
8.0178009999999986
 51
18.092690999999999
  0
ARC
  5
3BC
  8
0
 62
     7
 10
177.71467699999999
 20
169.76750799999999
 30
0.0
 40
0.809693
 50
356.947519
 51
7.3543669999999999
  0
ARC
  5
3BD
  8
0
 62
     7
 10
158.18955700000001
 20
-282.94376399999999
 30
0.0
 40
454.59998499999989
 50
90.084673999999978
 51
90.431610000000006
  0
ARC
  5
3BE
  8
0
 62
     7
 10
157.58245299999999
 20
-215.752624
 30
0.0
 40
387.40619099999998
 50
90.416682999999992
 51
90.807710999999969
  0
ARC
  5
3BF
  8
0
 62
     7
 10
157.47205199999999
 20
-201.97216299999999
 30
0.0
 40
373.62555200000003
 50
90.820572999999996
 51
91.203447000000025
  0
ARC
  5
3C0
  8
0
 62
     7
 10
155.12286800000001
 20
-84.961817000000011
 30
0.0
 40
256.5917
 50
91.227758000000009
 51
91.743965999999986
  0
ARC
  5
3C1
  8
0
 62
     7
 10
152.763351
 20
-8.3139269999999996
 30
0.0
 40
179.90750700000001
 50
91.735759999999985
 51
92.978843000000012
  0
ARC
  5
3C2
  8
0
 62
     7
 10
150.18951999999999
 20
47.733843
 30
0.0
 40
123.802188
 50
93.137261000000024
 51
93.905624999999986
  0
ARC
  5
3C3
  8
0
 62
     7
 10
146.97575800000001
 20
97.199071000000004
 30
0.0
 40
74.233117000000007
 50
94.031393999999977
 51
95.165698000000006
  0
ARC
  5
3C4
  8
0
 62
     7
 10
144.45353700000001
 20
126.012776
 30
0.0
 40
45.309422999999988
 50
95.269783000000004
 51
96.616239000000022
  0
ARC
  5
3C5
  8
0
 62
     7
 10
142.14537899999999
 20
146.36235400000001
 30
0.0
 40
24.829481999999999
 50
96.735931000000008
 51
97.792214000000016
  0
ARC
  5
3C6
  8
0
 62
     7
 10
140.99685700000001
 20
154.743549
 30
0.0
 40
16.369959000000001
 50
97.786666000000011
 51
99.176524000000015
  0
ARC
  5
3C7
  8
0
 62
     7
 10
141.240196
 20
153.70236800000001
 30
0.0
 40
17.436779000000001
 50
99.420276999999999
 51
100.555959
  0
ARC
  5
3C8
  8
0
 62
     7
 10
139.87193400000001
 20
161.57717700000001
 30
0.0
 40
9.4450839999999996
 50
101.147588
 51
102.968412
  0
ARC
  5
3C9
  8
0
 62
     7
 10
139.05867900000001
 20
165.25459900000001
 30
0.0
 40
5.6790469999999988
 50
103.298855
 51
105.94287
  0
ARC
  5
3CA
  8
0
 62
     7
 10
138.60969700000001
 20
167.018044
 30
0.0
 40
3.860463999999999
 50
106.72459499999999
 51
110.0332639999999
  0
ARC
  5
3CB
  8
0
 62
     7
 10
138.04347100000001
 20
168.60101800000001
 30
0.0
 40
2.1793249999999991
 50
110.304241
 51
115.517608
  0
ARC
  5
3CC
  8
0
 62
     7
 10
137.87816599999999
 20
168.997264
 30
0.0
 40
1.7506520000000001
 50
116.221874
 51
122.05936699999999
  0
ARC
  5
3CD
  8
0
 62
     7
 10
137.55501899999999
 20
169.534244
 30
0.0
 40
1.1240920000000001
 50
122.628294
 51
131.01542000000001
  0
ARC
  5
3CE
  8
0
 62
     7
 10
137.38322400000001
 20
169.72043099999999
 30
0.0
 40
0.8708959999999999
 50
130.52609799999999
 51
140.57216
  0
ARC
  5
3CF
  8
0
 62
     7
 10
137.308773
 20
169.76997299999999
 30
0.0
 40
0.7819760000000001
 50
139.91145299999999
 51
150.96346600000001
  0
ARC
  5
3D0
  8
0
 62
     7
 10
137.28612799999999
 20
169.772818
 30
0.0
 40
0.760845
 50
150.32306600000001
 51
161.53621999999999
  0
ARC
  5
3D1
  8
0
 62
     7
 10
137.356944
 20
169.754865
 30
0.0
 40
0.833718
 50
161.90728899999999
 51
171.982179
  0
ARC
  5
3D2
  8
0
 62
     7
 10
137.268755
 20
169.76648399999999
 30
0.0
 40
0.7447720000000001
 50
171.920987
 51
183.23999499999999
  0
ARC
  5
3D3
  8
0
 62
     7
 10
177.06431000000001
 20
151.65148600000001
 30
0.0
 40
5.139869
 50
174.80218500000001
 51
179.94822400000001
  0
ARC
  5
3D4
  8
0
 62
     7
 10
187.32868400000001
 20
150.79924800000001
 30
0.0
 40
15.439456
 50
173.543757
 51
175.1033699999999
  0
ARC
  5
3D5
  8
0
 62
     7
 10
178.96704299999999
 20
151.77451400000001
 30
0.0
 40
7.0212399999999988
 50
166.95437100000001
 51
173.77930000000001
  0
ARC
  5
3D6
  8
0
 62
     7
 10
178.31611000000001
 20
151.896658
 30
0.0
 40
6.3595980000000001
 50
159.43008699999999
 51
166.70263700000001
  0
ARC
  5
3D7
  8
0
 62
     7
 10
178.17622399999999
 20
151.92590000000001
 30
0.0
 40
6.2183939999999991
 50
155.50073
 51
159.22948400000001
  0
ARC
  5
3D8
  8
0
 62
     7
 10
178.50601399999999
 20
151.77003400000001
 30
0.0
 40
6.5831299999999997
 50
151.93734599999999
 51
155.45656099999999
  0
ARC
  5
3D9
  8
0
 62
     7
 10
178.808369
 20
151.586714
 30
0.0
 40
6.9362050000000002
 50
146.215923
 51
151.77603099999999
  0
ARC
  5
3DA
  8
0
 62
     7
 10
180.17543599999999
 20
150.68694600000001
 30
0.0
 40
8.5727659999999997
 50
141.439145
 51
146.29842600000001
  0
ARC
  5
3DB
  8
0
 62
     7
 10
183.38564299999999
 20
148.192081
 30
0.0
 40
12.638239
 50
138.46438499999999
 51
141.66680500000001
  0
ARC
  5
3DC
  8
0
 62
     7
 10
193.53996000000001
 20
139.33712700000001
 30
0.0
 40
26.110990000000001
 50
137.89452700000001
 51
138.69447299999999
  0
ARC
  5
3DD
  8
0
 62
     7
 10
349.77115199999997
 20
-1.6950970000000001
 30
0.0
 40
236.582538
 50
137.68709899999999
 51
137.92337000000001
  0
ARC
  5
3DE
  8
0
 62
     7
 10
155.64832100000001
 20
174.58714699999999
 30
0.0
 40
25.638860000000001
 50
318.40725200000003
 51
319.68761899999998
  0
ARC
  5
3DF
  8
0
 62
     7
 10
164.61868999999999
 20
166.89401699999999
 30
0.0
 40
13.821735
 50
319.94798600000001
 51
322.42253199999999
  0
ARC
  5
3E0
  8
0
 62
     7
 10
166.89977200000001
 20
165.09232299999999
 30
0.0
 40
10.915239
 50
322.61577999999997
 51
325.57651199999998
  0
ARC
  5
3E1
  8
0
 62
     7
 10
167.57746700000001
 20
164.62469100000001
 30
0.0
 40
10.091866
 50
325.59147999999999
 51
333.15255999999999
  0
ARC
  5
3E2
  8
0
 62
     7
 10
166.53027299999999
 20
165.153909
 30
0.0
 40
11.265188999999999
 50
333.15640200000001
 51
340.29111899999998
  0
ARC
  5
3E3
  8
0
 62
     7
 10
164.078183
 20
166.12961200000001
 30
0.0
 40
13.902979999999999
 50
339.91362600000002
 51
343.30745000000002
  0
ARC
  5
3E4
  8
0
 62
     7
 10
160.145151
 20
167.31759099999999
 30
0.0
 40
18.011506000000001
 50
343.28133600000001
 51
346.04077000000001
  0
ARC
  5
3E5
  8
0
 62
     7
 10
157.26486
 20
168.05874299999999
 30
0.0
 40
20.985537999999998
 50
345.97402299999999
 51
348.55094400000002
  0
ARC
  5
3E6
  8
0
 62
     7
 10
153.52569399999999
 20
168.88761
 30
0.0
 40
24.814927000000001
 50
348.38894599999998
 51
350.71377999999999
  0
ARC
  5
3E7
  8
0
 62
     7
 10
145.714305
 20
170.250516
 30
0.0
 40
32.743980000000001
 50
350.56583699999999
 51
352.47972199999998
  0
ARC
  5
3E8
  8
0
 62
     7
 10
137.86423300000001
 20
171.30300399999999
 30
0.0
 40
40.664281000000003
 50
352.45712200000003
 51
354.09946200000002
  0
ARC
  5
3E9
  8
0
 62
     7
 10
128.78794300000001
 20
172.340756
 30
0.0
 40
49.799265000000013
 50
353.98533500000002
 51
355.43911299999991
  0
ARC
  5
3EA
  8
0
 62
     7
 10
114.24591599999999
 20
173.55784199999999
 30
0.0
 40
64.392049999999998
 50
355.388509
 51
356.57900899999999
  0
ARC
  5
3EB
  8
0
 62
     7
 10
138.05377300000001
 20
151.65164799999999
 30
0.0
 40
5.0708699999999993
 50
0.050636
 51
5.2089869999999996
  0
ARC
  5
3EC
  8
0
 62
     7
 10
127.319575
 20
150.75737799999999
 30
0.0
 40
15.84215
 50
4.9052980000000002
 51
6.4563480000000002
  0
ARC
  5
3ED
  8
0
 62
     7
 10
136.174869
 20
151.7881919999999
 30
0.0
 40
6.9271649999999987
 50
6.2203600000000003
 51
13.139044999999999
  0
ARC
  5
3EE
  8
0
 62
     7
 10
136.91600299999999
 20
151.95430200000001
 30
0.0
 40
6.1676769999999994
 50
13.201366999999999
 51
20.694400999999999
  0
ARC
  5
3EF
  8
0
 62
     7
 10
136.590093
 20
151.81337400000001
 30
0.0
 40
6.5223820000000003
 50
20.840789999999998
 51
24.368683999999998
  0
ARC
  5
3F0
  8
0
 62
     7
 10
136.82425000000001
 20
151.89851200000001
 30
0.0
 40
6.273985999999999
 50
24.542763000000001
 51
28.238236000000001
  0
ARC
  5
3F1
  8
0
 62
     7
 10
136.35279700000001
 20
151.661238
 30
0.0
 40
6.801609
 50
28.120069000000001
 51
33.787302000000011
  0
ARC
  5
3F2
  8
0
 62
     7
 10
134.695773
 20
150.55708899999999
 30
0.0
 40
8.7928049999999995
 50
33.762391000000001
 51
38.499999000000003
  0
ARC
  5
3F3
  8
0
 62
     7
 10
131.889715
 20
148.371073
 30
0.0
 40
12.349729
 50
38.332889999999999
 51
41.607692999999998
  0
ARC
  5
3F4
  8
0
 62
     7
 10
124.430442
 20
141.97737599999999
 30
0.0
 40
22.173349999999999
 50
41.161865999999989
 51
42.105203000000003
  0
ARC
  5
3F5
  8
0
 62
     7
 10
-34.722068999999998
 20
-1.6950970000000001
 30
0.0
 40
236.582538
 50
42.076609999999988
 51
42.31288099999999
  0
ARC
  5
3F6
  8
0
 62
     7
 10
159.40076300000001
 20
174.58714699999999
 30
0.0
 40
25.638860000000001
 50
220.31240099999991
 51
221.59276800000001
  0
ARC
  5
3F7
  8
0
 62
     7
 10
150.901645
 20
167.29003900000001
 30
0.0
 40
14.437291999999999
 50
217.68088700000001
 51
220.051627
  0
ARC
  5
3F8
  8
0
 62
     7
 10
149.728475
 20
166.236107
 30
0.0
 40
12.865114999999999
 50
214.64791600000001
 51
217.15983199999999
  0
ARC
  5
3F9
  8
0
 62
     7
 10
147.558538
 20
164.67471599999999
 30
0.0
 40
10.192418
 50
211.19238300000001
 51
214.36224300000001
  0
ARC
  5
3FA
  8
0
 62
     7
 10
147.43678499999999
 20
164.60103000000001
 30
0.0
 40
10.050105
 50
206.81678500000001
 51
211.19251700000001
  0
ARC
  5
3FB
  8
0
 62
     7
 10
147.73567700000001
 20
164.76388399999999
 30
0.0
 40
10.390326999999999
 50
204.94417300000001
 51
206.874673
  0
ARC
  5
3FC
  8
0
 62
     7
 10
147.747646
 20
164.793701
 30
0.0
 40
10.413777
 50
203.13394700000001
 51
205.06515200000001
  0
ARC
  5
3FD
  8
0
 62
     7
 10
149.34907899999999
 20
165.50600700000001
 30
0.0
 40
12.166316999999999
 50
199.95020299999999
 51
203.255709
  0
ARC
  5
3FE
  8
0
 62
     7
 10
165.42884900000001
 20
171.15443500000001
 30
0.0
 40
29.208931
 50
199.014386
 51
199.60299499999999
  0
ARC
  5
3FF
  8
0
 62
     7
 10
150.355816
 20
165.93733700000001
 30
0.0
 40
13.258589000000001
 50
196.660168
 51
198.92120199999999
  0
ARC
  5
400
  8
0
 62
     7
 10
155.47885500000001
 20
167.49016499999999
 30
0.0
 40
18.61177
 50
194.047359
 51
196.71834199999989
  0
ARC
  5
401
  8
0
 62
     7
 10
157.783535
 20
168.05874299999999
 30
0.0
 40
20.985537999999998
 50
191.44907599999991
 51
194.0259969999999
  0
ARC
  5
402
  8
0
 62
     7
 10
165.27354099999999
 20
169.57930999999999
 30
0.0
 40
28.628333000000001
 50
189.44109499999999
 51
191.45621800000001
  0
ARC
  5
403
  8
0
 62
     7
 10
170.593175
 20
170.416697
 30
0.0
 40
34.013303000000001
 50
187.52039300000001
 51
189.36267900000001
  0
ARC
  5
404
  8
0
 62
     7
 10
178.923472
 20
171.53302400000001
 30
0.0
 40
42.418052000000003
 50
185.96809200000001
 51
187.54263499999999
  0
ARC
  5
405
  8
0
 62
     7
 10
184.210083
 20
172.12492800000001
 30
0.0
 40
47.737568000000003
 50
184.498437
 51
186.014929
  0
ARC
  5
406
  8
0
 62
     7
 10
200.803168
 20
173.55784199999999
 30
0.0
 40
64.392049999999998
 50
183.42101
 51
184.61151100000001
  0
LINE
  5
407
  8
0
 62
     7
 10
71.299599999999998
 20
151.65600000000001
 30
0.0
 11
71.299599999999998
 21
145.65600000000001
 31
0.0
  0
LINE
  5
408
  8
0
 62
     7
 10
71.299599999999998
 20
144.45699999999999
 30
0.0
 11
71.299599999999998
 21
142.73699999999999
 31
0.0
  0
LINE
  5
409
  8
0
 62
     7
 10
72.260099999999994
 20
142.73699999999999
 30
0.0
 11
72.260099999999994
 21
144.45699999999999
 31
0.0
  0
LINE
  5
40A
  8
0
 62
     7
 10
72.260099999999994
 20
145.65600000000001
 30
0.0
 11
72.260099999999994
 21
151.65600000000001
 31
0.0
  0
LINE
  5
40B
  8
0
 62
     7
 10
71.179699999999997
 20
151.65600000000001
 30
0.0
 11
71.179699999999997
 21
145.65600000000001
 31
0.0
  0
LINE
  5
40C
  8
0
 62
     7
 10
71.179699999999997
 20
144.45699999999999
 30
0.0
 11
71.179699999999997
 21
142.857
 31
0.0
  0
LINE
  5
40D
  8
0
 62
     7
 10
72.379999999999995
 20
151.65600000000001
 30
0.0
 11
72.379999999999995
 21
145.65600000000001
 31
0.0
  0
LINE
  5
40E
  8
0
 62
     7
 10
72.379999999999995
 20
144.45699999999999
 30
0.0
 11
72.379999999999995
 21
142.857
 31
0.0
  0
LINE
  5
40F
  8
0
 62
     7
 10
72.180199999999999
 20
142.65600000000001
 30
0.0
 11
72.379999999999995
 21
142.857
 31
0.0
  0
LINE
  5
410
  8
0
 62
     7
 10
71.379599999999996
 20
142.65600000000001
 30
0.0
 11
71.179699999999997
 21
142.857
 31
0.0
  0
LINE
  5
411
  8
0
 62
     7
 10
72.180199999999999
 20
142.65600000000001
 30
0.0
 11
71.379599999999996
 21
142.65600000000001
 31
0.0
  0
LINE
  5
412
  8
0
 62
     7
 10
71.179699999999997
 20
142.857
 30
0.0
 11
72.379999999999995
 21
142.857
 31
0.0
  0
LINE
  5
413
  8
0
  6
AIGENLINE002
 62
     7
 10
71.780600000000007
 20
152.506
 30
0.0
 11
71.780600000000007
 21
142.05699999999999
 31
0.0
  0
LINE
  5
414
  8
0
 62
     7
 10
73.780100000000004
 20
145.45599999999999
 30
0.0
 11
69.779600000000002
 21
145.45599999999999
 31
0.0
  0
LINE
  5
415
  8
0
 62
     7
 10
69.779600000000002
 20
145.45599999999999
 30
0.0
 11
69.779600000000002
 21
145.65600000000001
 31
0.0
  0
LINE
  5
416
  8
0
 62
     7
 10
69.779600000000002
 20
145.65600000000001
 30
0.0
 11
73.780100000000004
 21
145.65600000000001
 31
0.0
  0
LINE
  5
417
  8
0
 62
     7
 10
73.780100000000004
 20
145.65600000000001
 30
0.0
 11
73.780100000000004
 21
145.45599999999999
 31
0.0
  0
ARC
  5
418
  8
0
 62
     7
 10
72.629246999999992
 20
145.180577
 30
0.0
 40
0.27503
 50
89.958655000000022
 51
99.563044999999988
  0
ARC
  5
419
  8
0
 62
     7
 10
72.660410999999996
 20
144.98279600000001
 30
0.0
 40
0.475245
 50
99.30660300000001
 51
108.63815
  0
ARC
  5
41A
  8
0
 62
     7
 10
72.747793000000001
 20
144.71740399999999
 30
0.0
 40
0.754648
 50
108.484977
 51
119.166231
  0
ARC
  5
41B
  8
0
 62
     7
 10
71.772975000000002
 20
142.325389
 30
0.0
 40
3.130916
 50
83.525358999999995
 51
89.861034000000004
  0
ARC
  5
41C
  8
0
 62
     7
 10
71.946825000000004
 20
143.98043799999999
 30
0.0
 40
1.4668849999999991
 50
77.255891000000005
 51
82.982911000000001
  0
ARC
  5
41D
  8
0
 62
     7
 10
72.146585999999985
 20
144.83145300000001
 30
0.0
 40
0.5928110000000001
 50
66.810502
 51
77.942903000000001
  0
ARC
  5
41E
  8
0
 62
     7
 10
72.627274
 20
145.164288
 30
0.0
 40
0.291327
 50
80.415172999999996
 51
89.572950000000006
  0
ARC
  5
41F
  8
0
 62
     7
 10
72.595923999999997
 20
144.97410600000001
 30
0.0
 40
0.4840740000000001
 50
71.294138000000004
 51
80.504405000000006
  0
ARC
  5
420
  8
0
 62
     7
 10
72.512174999999999
 20
144.72039000000001
 30
0.0
 40
0.751251
 50
60.723024000000002
 51
71.450091999999998
  0
ARC
  5
421
  8
0
 62
     7
 10
70.928179999999998
 20
145.17294200000001
 30
0.0
 40
0.283362
 50
80.242531999999997
 51
89.568597999999994
  0
ARC
  5
422
  8
0
 62
     7
 10
70.89592900000001
 20
144.97993199999999
 30
0.0
 40
0.479047
 50
71.083365999999998
 51
80.353302999999997
  0
ARC
  5
423
  8
0
 62
     7
 10
70.806655000000006
 20
144.71328800000001
 30
0.0
 40
0.760234
 50
60.610123000000002
 51
71.233502999999999
  0
ARC
  5
424
  8
0
 62
     7
 10
71.784890000000004
 20
142.317621
 30
0.0
 40
3.1386780000000001
 50
90.078868999999997
 51
96.308356999999987
  0
ARC
  5
425
  8
0
 62
     7
 10
71.615845999999991
 20
143.977262
 30
0.0
 40
1.4705820000000001
 50
96.867082999999994
 51
102.680986
  0
ARC
  5
426
  8
0
 62
     7
 10
71.417881999999992
 20
144.82730000000001
 30
0.0
 40
0.597857
 50
102.054907
 51
113.473529
  0
ARC
  5
427
  8
0
 62
     7
 10
70.930094999999994
 20
145.17890700000001
 30
0.0
 40
0.277389
 50
89.954878000000008
 51
99.562461000000013
  0
ARC
  5
428
  8
0
 62
     7
 10
70.958682999999994
 20
144.99518
 30
0.0
 40
0.4633180000000001
 50
99.274235000000004
 51
108.54038300000001
  0
ARC
  5
429
  8
0
 62
     7
 10
71.041326999999995
 20
144.74228400000001
 30
0.0
 40
0.729371
 50
108.378606
 51
119.61563599999999
  0
ARC
  5
42A
  8
0
 62
     7
 10
72.629232000000002
 20
144.732224
 30
0.0
 40
0.275012
 50
260.39620600000001
 51
270.04441500000001
  0
ARC
  5
42B
  8
0
 62
     7
 10
72.658406999999997
 20
144.91905499999999
 30
0.0
 40
0.464098
 50
251.454723
 51
260.69297299999999
  0
ARC
  5
42C
  8
0
 62
     7
 10
72.743292000000011
 20
145.17881800000001
 30
0.0
 40
0.737374
 50
240.484556
 51
251.62112799999991
  0
ARC
  5
42D
  8
0
 62
     7
 10
71.781968999999989
 20
147.54199700000001
 30
0.0
 40
3.0847859999999998
 50
269.96120000000002
 51
276.28485699999999
  0
ARC
  5
42E
  8
0
 62
     7
 10
71.998327000000003
 20
145.57315700000001
 30
0.0
 40
1.1040939999999999
 50
276.30947300000003
 51
290.22492899999997
  0
ARC
  5
42F
  8
0
 62
     7
 10
72.629661999999996
 20
144.73507499999999
 30
0.0
 40
0.277863
 50
269.95536299999998
 51
279.5543120000001
  0
ARC
  5
430
  8
0
 62
     7
 10
72.600743000000008
 20
144.921064
 30
0.0
 40
0.466078
 50
279.26505299999991
 51
288.49425100000002
  0
ARC
  5
431
  8
0
 62
     7
 10
72.517026999999999
 20
145.17792700000001
 30
0.0
 40
0.7362340000000001
 50
288.331864
 51
299.49957999999998
  0
ARC
  5
432
  8
0
 62
     7
 10
70.927453999999997
 20
144.746015
 30
0.0
 40
0.288811
 50
270.43054599999999
 51
279.626665
  0
ARC
  5
433
  8
0
 62
     7
 10
70.895480000000006
 20
144.93955800000001
 30
0.0
 40
0.4849770000000001
 50
279.52717200000001
 51
288.70912799999991
  0
ARC
  5
434
  8
0
 62
     7
 10
70.809252000000001
 20
145.20073099999999
 30
0.0
 40
0.760011
 50
288.55064700000003
 51
299.17496
  0
ARC
  5
435
  8
0
 62
     7
 10
71.777789999999996
 20
147.54199700000001
 30
0.0
 40
3.0847859999999998
 50
263.7151629999999
 51
270.03881999999999
  0
ARC
  5
436
  8
0
 62
     7
 10
71.561431999999996
 20
145.57315700000001
 30
0.0
 40
1.1040939999999999
 50
249.775091
 51
263.69054699999998
  0
ARC
  5
437
  8
0
 62
     7
 10
70.929417999999998
 20
144.737506
 30
0.0
 40
0.280294
 50
260.52737000000002
 51
270.04232400000001
  0
ARC
  5
438
  8
0
 62
     7
 10
70.959645999999992
 20
144.93095400000001
 30
0.0
 40
0.476084
 50
251.41319999999999
 51
260.770533
  0
ARC
  5
439
  8
0
 62
     7
 10
71.043374999999983
 20
145.1860749999999
 30
0.0
 40
0.7445880000000001
 50
240.74606
 51
251.5636779999999
  0
LINE
  5
43A
  8
0
 62
     7
 10
70.679500000000004
 20
144.536
 30
0.0
 11
70.680899999999994
 21
145.376
 31
0.0
  0
LINE
  5
43B
  8
0
 62
     7
 10
71.179699999999997
 20
144.53700000000001
 30
0.0
 11
71.179699999999997
 21
145.376
 31
0.0
  0
LINE
  5
43C
  8
0
 62
     7
 10
72.879599999999996
 20
144.53700000000001
 30
0.0
 11
72.879599999999996
 21
145.376
 31
0.0
  0
LINE
  5
43D
  8
0
 62
     7
 10
72.379999999999995
 20
144.536
 30
0.0
 11
72.380700000000004
 21
145.376
 31
0.0
  0
LINE
  5
43E
  8
0
 62
     7
 10
72.699700000000007
 20
145.45599999999999
 30
0.0
 11
71.780600000000007
 21
145.45599999999999
 31
0.0
  0
LINE
  5
43F
  8
0
 62
     7
 10
71.780600000000007
 20
145.45599999999999
 30
0.0
 11
70.859999999999999
 21
145.45599999999999
 31
0.0
  0
LINE
  5
440
  8
0
 62
     7
 10
72.879599999999996
 20
145.376
 30
0.0
 11
72.699700000000007
 21
145.45599999999999
 31
0.0
  0
LINE
  5
441
  8
0
 62
     7
 10
72.700400000000002
 20
144.45699999999999
 30
0.0
 11
70.859999999999999
 21
144.45699999999999
 31
0.0
  0
LINE
  5
442
  8
0
 62
     7
 10
70.859999999999999
 20
144.45699999999999
 30
0.0
 11
70.679500000000004
 21
144.536
 31
0.0
  0
LINE
  5
443
  8
0
 62
     7
 10
72.700400000000002
 20
144.45699999999999
 30
0.0
 11
72.879599999999996
 21
144.53700000000001
 31
0.0
  0
LINE
  5
444
  8
0
 62
     7
 10
72.879599999999996
 20
145.376
 30
0.0
 11
72.699700000000007
 21
145.45599999999999
 31
0.0
  0
LINE
  5
445
  8
0
 62
     7
 10
70.680899999999994
 20
145.376
 30
0.0
 11
70.859999999999999
 21
145.45599999999999
 31
0.0
  0
LINE
  5
446
  8
0
 62
     7
 10
150.34700000000001
 20
151.65600000000001
 30
0.0
 11
150.34700000000001
 21
145.65600000000001
 31
0.0
  0
LINE
  5
447
  8
0
 62
     7
 10
150.34700000000001
 20
144.45699999999999
 30
0.0
 11
150.34700000000001
 21
142.73699999999999
 31
0.0
  0
LINE
  5
448
  8
0
 62
     7
 10
151.30699999999999
 20
142.73699999999999
 30
0.0
 11
151.30699999999999
 21
144.45699999999999
 31
0.0
  0
LINE
  5
449
  8
0
 62
     7
 10
151.30699999999999
 20
145.65600000000001
 30
0.0
 11
151.30699999999999
 21
151.65600000000001
 31
0.0
  0
LINE
  5
44A
  8
0
 62
     7
 10
150.227
 20
151.65600000000001
 30
0.0
 11
150.227
 21
145.65600000000001
 31
0.0
  0
LINE
  5
44B
  8
0
 62
     7
 10
150.227
 20
144.45699999999999
 30
0.0
 11
150.227
 21
142.857
 31
0.0
  0
LINE
  5
44C
  8
0
 62
     7
 10
151.42699999999999
 20
151.65600000000001
 30
0.0
 11
151.42699999999999
 21
145.65600000000001
 31
0.0
  0
LINE
  5
44D
  8
0
 62
     7
 10
151.42699999999999
 20
144.45699999999999
 30
0.0
 11
151.42699999999999
 21
142.857
 31
0.0
  0
LINE
  5
44E
  8
0
 62
     7
 10
151.22800000000001
 20
142.65600000000001
 30
0.0
 11
151.42699999999999
 21
142.857
 31
0.0
  0
LINE
  5
44F
  8
0
 62
     7
 10
150.428
 20
142.65600000000001
 30
0.0
 11
150.227
 21
142.857
 31
0.0
  0
LINE
  5
450
  8
0
 62
     7
 10
151.22800000000001
 20
142.65600000000001
 30
0.0
 11
150.428
 21
142.65600000000001
 31
0.0
  0
LINE
  5
451
  8
0
 62
     7
 10
150.227
 20
142.857
 30
0.0
 11
151.42699999999999
 21
142.857
 31
0.0
  0
LINE
  5
452
  8
0
  6
AIGENLINE002
 62
     7
 10
150.827
 20
152.506
 30
0.0
 11
150.827
 21
142.05699999999999
 31
0.0
  0
LINE
  5
453
  8
0
 62
     7
 10
152.827
 20
145.45599999999999
 30
0.0
 11
148.828
 21
145.45599999999999
 31
0.0
  0
LINE
  5
454
  8
0
 62
     7
 10
148.828
 20
145.45599999999999
 30
0.0
 11
148.828
 21
145.65600000000001
 31
0.0
  0
LINE
  5
455
  8
0
 62
     7
 10
148.828
 20
145.65600000000001
 30
0.0
 11
152.827
 21
145.65600000000001
 31
0.0
  0
LINE
  5
456
  8
0
 62
     7
 10
152.827
 20
145.65600000000001
 30
0.0
 11
152.827
 21
145.45599999999999
 31
0.0
  0
ARC
  5
457
  8
0
 62
     7
 10
151.67659800000001
 20
145.1777129999999
 30
0.0
 40
0.277894
 50
89.958392000000003
 51
99.513538999999994
  0
ARC
  5
458
  8
0
 62
     7
 10
151.70746
 20
144.98094599999999
 30
0.0
 40
0.47706
 50
99.263206000000025
 51
108.58938000000001
  0
ARC
  5
459
  8
0
 62
     7
 10
151.793384
 20
144.71904599999999
 30
0.0
 40
0.75269
 50
108.433455
 51
119.155748
  0
ARC
  5
45A
  8
0
 62
     7
 10
150.819647
 20
142.320166
 30
0.0
 40
3.136139
 50
83.530764000000005
 51
89.861381999999992
  0
ARC
  5
45B
  8
0
 62
     7
 10
150.99461500000001
 20
143.986062
 30
0.0
 40
1.461203
 50
77.241404000000003
 51
82.988005000000001
  0
ARC
  5
45C
  8
0
 62
     7
 10
151.19441499999999
 20
144.83593200000001
 30
0.0
 40
0.5882360000000001
 50
66.742884000000004
 51
77.940556999999998
  0
ARC
  5
45D
  8
0
 62
     7
 10
151.67461700000001
 20
145.16415900000001
 30
0.0
 40
0.291456
 50
80.417199999999994
 51
89.570924000000005
  0
ARC
  5
45E
  8
0
 62
     7
 10
151.64323099999999
 20
144.97387599999999
 30
0.0
 40
0.4843090000000001
 50
71.297032000000002
 51
80.503443999999973
  0
ARC
  5
45F
  8
0
 62
     7
 10
151.559403
 20
144.72012599999999
 30
0.0
 40
0.7515430000000001
 50
60.724415
 51
71.446919999999992
  0
ARC
  5
460
  8
0
 62
     7
 10
149.974839
 20
145.17001999999999
 30
0.0
 40
0.286284
 50
80.292621999999994
 51
89.571727999999993
  0
ARC
  5
461
  8
0
 62
     7
 10
149.94290799999999
 20
144.97811100000001
 30
0.0
 40
0.48083
 50
71.132648000000003
 51
80.398059000000003
  0
ARC
  5
462
  8
0
 62
     7
 10
149.85513
 20
144.71499600000001
 30
0.0
 40
0.758196
 50
60.620528999999998
 51
71.285597999999993
  0
ARC
  5
463
  8
0
 62
     7
 10
150.83155099999999
 20
142.326176
 30
0.0
 40
3.1301229999999989
 50
90.079022999999992
 51
96.316981000000013
  0
ARC
  5
464
  8
0
 62
     7
 10
150.66280599999999
 20
143.980118
 30
0.0
 40
1.4677249999999991
 50
96.873706999999982
 51
102.693336
  0
ARC
  5
465
  8
0
 62
     7
 10
150.46542199999999
 20
144.82697899999999
 30
0.0
 40
0.598224
 50
102.072963
 51
113.477637
  0
ARC
  5
466
  8
0
 62
     7
 10
149.976766
 20
145.181217
 30
0.0
 40
0.27508
 50
89.955651999999986
 51
99.602615999999998
  0
ARC
  5
467
  8
0
 62
     7
 10
150.00593499999999
 20
144.99445299999999
 30
0.0
 40
0.464098
 50
99.307026999999991
 51
108.545277
  0
ARC
  5
468
  8
0
 62
     7
 10
150.090945
 20
144.734444
 30
0.0
 40
0.7376470000000001
 50
108.382006
 51
119.514059
  0
ARC
  5
469
  8
0
 62
     7
 10
151.67658700000001
 20
144.732291
 30
0.0
 40
0.27508
 50
260.39738399999999
 51
270.04434800000001
  0
ARC
  5
46A
  8
0
 62
     7
 10
151.70575600000001
 20
144.91905499999999
 30
0.0
 40
0.464098
 50
251.454723
 51
260.69297299999999
  0
ARC
  5
46B
  8
0
 62
     7
 10
151.79076599999999
 20
145.17906400000001
 30
0.0
 40
0.7376470000000001
 50
240.485941
 51
251.61799400000001
  0
ARC
  5
46C
  8
0
 62
     7
 10
150.829319
 20
147.54207700000001
 30
0.0
 40
3.084865999999999
 50
269.96128199999998
 51
276.28477500000002
  0
ARC
  5
46D
  8
0
 62
     7
 10
150.993064
 20
145.933761
 30
0.0
 40
1.468351
 50
276.80379599999998
 51
282.45830699999999
  0
ARC
  5
46E
  8
0
 62
     7
 10
151.18471199999999
 20
145.100337
 30
0.0
 40
0.613251
 50
281.77238299999999
 51
293.30940800000002
  0
ARC
  5
46F
  8
0
 62
     7
 10
151.67701099999999
 20
144.73513700000001
 30
0.0
 40
0.277925
 50
269.95643999999999
 51
279.55323500000009
  0
ARC
  5
470
  8
0
 62
     7
 10
151.648054
 20
144.92128299999999
 30
0.0
 40
0.466301
 50
279.26595400000002
 51
288.491377
  0
ARC
  5
471
  8
0
 62
     7
 10
151.56426300000001
 20
145.17817099999999
 30
0.0
 40
0.736505
 50
288.33498700000001
 51
299.49820299999999
  0
ARC
  5
472
  8
0
 62
     7
 10
149.974808
 20
144.74608900000001
 30
0.0
 40
0.288885
 50
270.43061299999999
 51
279.62542999999999
  0
ARC
  5
473
  8
0
 62
     7
 10
149.94279
 20
144.93971300000001
 30
0.0
 40
0.485138
 50
279.52997599999998
 51
288.70826199999999
  0
ARC
  5
474
  8
0
 62
     7
 10
149.85682
 20
145.20024699999999
 30
0.0
 40
0.7594840000000001
 50
288.54695299999997
 51
299.17865399999999
  0
ARC
  5
475
  8
0
 62
     7
 10
150.82514900000001
 20
147.54207700000001
 30
0.0
 40
3.084865999999999
 50
263.71524499999998
 51
270.03873700000003
  0
ARC
  5
476
  8
0
 62
     7
 10
150.66140300000001
 20
145.933761
 30
0.0
 40
1.468351
 50
257.54171300000002
 51
263.19622399999997
  0
ARC
  5
477
  8
0
 62
     7
 10
150.46975499999999
 20
145.100337
 30
0.0
 40
0.613251
 50
246.69061199999999
 51
258.22763700000002
  0
ARC
  5
478
  8
0
 62
     7
 10
149.976777
 20
144.73756900000001
 30
0.0
 40
0.280357
 50
260.52844199999998
 51
270.04125199999999
  0
ARC
  5
479
  8
0
 62
     7
 10
150.00704500000001
 20
144.93117599999999
 30
0.0
 40
0.47631
 50
251.416065
 51
260.76957700000003
  0
ARC
  5
47A
  8
0
 62
     7
 10
150.09085400000001
 20
145.18633299999999
 30
0.0
 40
0.7448739999999999
 50
240.747445
 51
251.560517
  0
LINE
  5
47B
  8
0
 62
     7
 10
149.727
 20
144.536
 30
0.0
 11
149.72800000000001
 21
145.376
 31
0.0
  0
LINE
  5
47C
  8
0
 62
     7
 10
150.227
 20
144.53700000000001
 30
0.0
 11
150.227
 21
145.376
 31
0.0
  0
LINE
  5
47D
  8
0
 62
     7
 10
151.92699999999999
 20
144.53700000000001
 30
0.0
 11
151.92699999999999
 21
145.376
 31
0.0
  0
LINE
  5
47E
  8
0
 62
     7
 10
151.42699999999999
 20
144.536
 30
0.0
 11
151.428
 21
145.376
 31
0.0
  0
LINE
  5
47F
  8
0
 62
     7
 10
151.74700000000001
 20
145.45599999999999
 30
0.0
 11
150.827
 21
145.45599999999999
 31
0.0
  0
LINE
  5
480
  8
0
 62
     7
 10
150.827
 20
145.45599999999999
 30
0.0
 11
149.90700000000001
 21
145.45599999999999
 31
0.0
  0
LINE
  5
481
  8
0
 62
     7
 10
151.92699999999999
 20
145.376
 30
0.0
 11
151.74700000000001
 21
145.45599999999999
 31
0.0
  0
LINE
  5
482
  8
0
 62
     7
 10
151.74799999999999
 20
144.45699999999999
 30
0.0
 11
149.90700000000001
 21
144.45699999999999
 31
0.0
  0
LINE
  5
483
  8
0
 62
     7
 10
149.90700000000001
 20
144.45699999999999
 30
0.0
 11
149.727
 21
144.536
 31
0.0
  0
LINE
  5
484
  8
0
 62
     7
 10
151.74799999999999
 20
144.45699999999999
 30
0.0
 11
151.92699999999999
 21
144.53700000000001
 31
0.0
  0
LINE
  5
485
  8
0
 62
     7
 10
151.92699999999999
 20
145.376
 30
0.0
 11
151.74700000000001
 21
145.45599999999999
 31
0.0
  0
LINE
  5
486
  8
0
 62
     7
 10
149.72800000000001
 20
145.376
 30
0.0
 11
149.90700000000001
 21
145.45599999999999
 31
0.0
  0
LINE
  5
487
  8
0
 62
     7
 10
163.74700000000001
 20
151.65600000000001
 30
0.0
 11
163.74700000000001
 21
145.65600000000001
 31
0.0
  0
LINE
  5
488
  8
0
 62
     7
 10
163.74700000000001
 20
144.45699999999999
 30
0.0
 11
163.74700000000001
 21
142.73699999999999
 31
0.0
  0
LINE
  5
489
  8
0
 62
     7
 10
164.708
 20
142.73699999999999
 30
0.0
 11
164.708
 21
144.45699999999999
 31
0.0
  0
LINE
  5
48A
  8
0
 62
     7
 10
164.708
 20
145.65600000000001
 30
0.0
 11
164.708
 21
151.65600000000001
 31
0.0
  0
LINE
  5
48B
  8
0
 62
     7
 10
163.62700000000001
 20
151.65600000000001
 30
0.0
 11
163.62700000000001
 21
145.65600000000001
 31
0.0
  0
LINE
  5
48C
  8
0
 62
     7
 10
163.62700000000001
 20
144.45699999999999
 30
0.0
 11
163.62700000000001
 21
142.857
 31
0.0
  0
LINE
  5
48D
  8
0
 62
     7
 10
164.828
 20
151.65600000000001
 30
0.0
 11
164.828
 21
145.65600000000001
 31
0.0
  0
LINE
  5
48E
  8
0
 62
     7
 10
164.828
 20
144.45699999999999
 30
0.0
 11
164.828
 21
142.857
 31
0.0
  0
LINE
  5
48F
  8
0
 62
     7
 10
164.62799999999999
 20
142.65600000000001
 30
0.0
 11
164.828
 21
142.857
 31
0.0
  0
LINE
  5
490
  8
0
 62
     7
 10
163.828
 20
142.65600000000001
 30
0.0
 11
163.62700000000001
 21
142.857
 31
0.0
  0
LINE
  5
491
  8
0
 62
     7
 10
164.62799999999999
 20
142.65600000000001
 30
0.0
 11
163.828
 21
142.65600000000001
 31
0.0
  0
LINE
  5
492
  8
0
 62
     7
 10
163.62700000000001
 20
142.857
 30
0.0
 11
164.828
 21
142.857
 31
0.0
  0
LINE
  5
493
  8
0
  6
AIGENLINE002
 62
     7
 10
164.227
 20
152.506
 30
0.0
 11
164.227
 21
142.05699999999999
 31
0.0
  0
LINE
  5
494
  8
0
 62
     7
 10
166.22799999999989
 20
145.45599999999999
 30
0.0
 11
162.227
 21
145.45599999999999
 31
0.0
  0
LINE
  5
495
  8
0
 62
     7
 10
162.227
 20
145.45599999999999
 30
0.0
 11
162.227
 21
145.65600000000001
 31
0.0
  0
LINE
  5
496
  8
0
 62
     7
 10
162.227
 20
145.65600000000001
 30
0.0
 11
166.22799999999989
 21
145.65600000000001
 31
0.0
  0
LINE
  5
497
  8
0
 62
     7
 10
166.22799999999989
 20
145.65600000000001
 30
0.0
 11
166.22799999999989
 21
145.45599999999999
 31
0.0
  0
ARC
  5
498
  8
0
 62
     7
 10
165.07672600000001
 20
145.1777129999999
 30
0.0
 40
0.277894
 50
89.958392000000003
 51
99.513538999999994
  0
ARC
  5
499
  8
0
 62
     7
 10
165.10758799999999
 20
144.98094599999999
 30
0.0
 40
0.47706
 50
99.263206000000025
 51
108.58938000000001
  0
ARC
  5
49A
  8
0
 62
     7
 10
165.193512
 20
144.71904599999999
 30
0.0
 40
0.75269
 50
108.433455
 51
119.155748
  0
ARC
  5
49B
  8
0
 62
     7
 10
164.219775
 20
142.320166
 30
0.0
 40
3.136139
 50
83.530764000000005
 51
89.861381999999992
  0
ARC
  5
49C
  8
0
 62
     7
 10
164.39474300000001
 20
143.986062
 30
0.0
 40
1.461203
 50
77.241404000000003
 51
82.988005000000001
  0
ARC
  5
49D
  8
0
 62
     7
 10
164.59454299999999
 20
144.83593200000001
 30
0.0
 40
0.5882360000000001
 50
66.742884000000004
 51
77.940556999999998
  0
ARC
  5
49E
  8
0
 62
     7
 10
165.07474500000001
 20
145.16415900000001
 30
0.0
 40
0.291456
 50
80.417199999999994
 51
89.570924000000005
  0
ARC
  5
49F
  8
0
 62
     7
 10
165.04335900000001
 20
144.97387599999999
 30
0.0
 40
0.4843090000000001
 50
71.297032000000002
 51
80.503443999999973
  0
ARC
  5
4A0
  8
0
 62
     7
 10
164.959531
 20
144.72012599999999
 30
0.0
 40
0.7515430000000001
 50
60.724415
 51
71.446919999999992
  0
ARC
  5
4A1
  8
0
 62
     7
 10
163.374967
 20
145.17001999999999
 30
0.0
 40
0.286284
 50
80.292621999999994
 51
89.571727999999993
  0
ARC
  5
4A2
  8
0
 62
     7
 10
163.34303600000001
 20
144.97811100000001
 30
0.0
 40
0.48083
 50
71.132648000000003
 51
80.398059000000003
  0
ARC
  5
4A3
  8
0
 62
     7
 10
163.255258
 20
144.71499600000001
 30
0.0
 40
0.758196
 50
60.620528999999998
 51
71.285597999999993
  0
ARC
  5
4A4
  8
0
 62
     7
 10
164.23168000000001
 20
142.326176
 30
0.0
 40
3.1301229999999989
 50
90.079022999999992
 51
96.316981000000013
  0
ARC
  5
4A5
  8
0
 62
     7
 10
164.06293500000001
 20
143.980118
 30
0.0
 40
1.4677249999999991
 50
96.873706999999982
 51
102.693336
  0
ARC
  5
4A6
  8
0
 62
     7
 10
163.86555000000001
 20
144.82697899999999
 30
0.0
 40
0.598224
 50
102.072963
 51
113.477637
  0
ARC
  5
4A7
  8
0
 62
     7
 10
163.37689399999999
 20
145.181217
 30
0.0
 40
0.27508
 50
89.955651999999986
 51
99.602615999999998
  0
ARC
  5
4A8
  8
0
 62
     7
 10
163.40606299999999
 20
144.99445299999999
 30
0.0
 40
0.464098
 50
99.307026999999991
 51
108.545277
  0
ARC
  5
4A9
  8
0
 62
     7
 10
163.491073
 20
144.734444
 30
0.0
 40
0.7376470000000001
 50
108.382006
 51
119.514059
  0
ARC
  5
4AA
  8
0
 62
     7
 10
165.076717
 20
144.732696
 30
0.0
 40
0.275484
 50
260.404447
 51
270.04394600000001
  0
ARC
  5
4AB
  8
0
 62
     7
 10
165.10631900000001
 20
144.922178
 30
0.0
 40
0.4672560000000001
 50
251.50475900000001
 51
260.69843900000001
  0
ARC
  5
4AC
  8
0
 62
     7
 10
165.1923919999999
 20
145.18603200000001
 30
0.0
 40
0.7447890000000002
 50
240.60358500000001
 51
251.66430099999999
  0
ARC
  5
4AD
  8
0
 62
     7
 10
164.22944699999999
 20
147.54207700000001
 30
0.0
 40
3.084865999999999
 50
269.96128199999998
 51
276.28477500000002
  0
ARC
  5
4AE
  8
0
 62
     7
 10
164.393192
 20
145.933761
 30
0.0
 40
1.468351
 50
276.80379599999998
 51
282.45830699999999
  0
ARC
  5
4AF
  8
0
 62
     7
 10
164.58484000000001
 20
145.100337
 30
0.0
 40
0.613251
 50
281.77238299999999
 51
293.30940800000002
  0
ARC
  5
4B0
  8
0
 62
     7
 10
165.07713899999999
 20
144.73513700000001
 30
0.0
 40
0.277925
 50
269.95643999999999
 51
279.55323500000009
  0
ARC
  5
4B1
  8
0
 62
     7
 10
165.048182
 20
144.92128299999999
 30
0.0
 40
0.466301
 50
279.26595400000002
 51
288.491377
  0
ARC
  5
4B2
  8
0
 62
     7
 10
164.96439099999989
 20
145.17817099999999
 30
0.0
 40
0.736505
 50
288.33498700000001
 51
299.49820299999999
  0
ARC
  5
4B3
  8
0
 62
     7
 10
163.37493599999999
 20
144.74608900000001
 30
0.0
 40
0.288885
 50
270.43061299999999
 51
279.62542999999999
  0
ARC
  5
4B4
  8
0
 62
     7
 10
163.342918
 20
144.93971300000001
 30
0.0
 40
0.485138
 50
279.52997599999998
 51
288.70826199999999
  0
ARC
  5
4B5
  8
0
 62
     7
 10
163.25694799999999
 20
145.20024699999999
 30
0.0
 40
0.7594840000000001
 50
288.54695299999997
 51
299.17865399999999
  0
ARC
  5
4B6
  8
0
 62
     7
 10
164.22527700000001
 20
147.54207700000001
 30
0.0
 40
3.084865999999999
 50
263.71524499999998
 51
270.03873700000003
  0
ARC
  5
4B7
  8
0
 62
     7
 10
164.061531
 20
145.933761
 30
0.0
 40
1.468351
 50
257.54171300000002
 51
263.19622399999997
  0
ARC
  5
4B8
  8
0
 62
     7
 10
163.86988400000001
 20
145.100337
 30
0.0
 40
0.613251
 50
246.69061199999999
 51
258.22763700000002
  0
ARC
  5
4B9
  8
0
 62
     7
 10
163.37690499999999
 20
144.73756900000001
 30
0.0
 40
0.280357
 50
260.52844199999998
 51
270.04125199999999
  0
ARC
  5
4BA
  8
0
 62
     7
 10
163.407173
 20
144.93117599999999
 30
0.0
 40
0.47631
 50
251.416065
 51
260.76957700000003
  0
ARC
  5
4BB
  8
0
 62
     7
 10
163.490982
 20
145.18633299999999
 30
0.0
 40
0.7448739999999999
 50
240.747445
 51
251.560517
  0
LINE
  5
4BC
  8
0
 62
     7
 10
163.12700000000001
 20
144.536
 30
0.0
 11
163.12799999999999
 21
145.376
 31
0.0
  0
LINE
  5
4BD
  8
0
 62
     7
 10
163.62700000000001
 20
144.53700000000001
 30
0.0
 11
163.62700000000001
 21
145.376
 31
0.0
  0
LINE
  5
4BE
  8
0
 62
     7
 10
165.327
 20
144.53700000000001
 30
0.0
 11
165.327
 21
145.376
 31
0.0
  0
LINE
  5
4BF
  8
0
 62
     7
 10
164.827
 20
144.536
 30
0.0
 11
164.828
 21
145.376
 31
0.0
  0
LINE
  5
4C0
  8
0
 62
     7
 10
165.14699999999999
 20
145.45599999999999
 30
0.0
 11
164.227
 21
145.45599999999999
 31
0.0
  0
LINE
  5
4C1
  8
0
 62
     7
 10
164.227
 20
145.45599999999999
 30
0.0
 11
163.30799999999999
 21
145.45599999999999
 31
0.0
  0
LINE
  5
4C2
  8
0
 62
     7
 10
165.327
 20
145.376
 30
0.0
 11
165.14699999999999
 21
145.45599999999999
 31
0.0
  0
LINE
  5
4C3
  8
0
 62
     7
 10
165.148
 20
144.45699999999999
 30
0.0
 11
163.30799999999999
 21
144.45699999999999
 31
0.0
  0
LINE
  5
4C4
  8
0
 62
     7
 10
163.30799999999999
 20
144.45699999999999
 30
0.0
 11
163.12700000000001
 21
144.536
 31
0.0
  0
LINE
  5
4C5
  8
0
 62
     7
 10
165.148
 20
144.45699999999999
 30
0.0
 11
165.327
 21
144.53700000000001
 31
0.0
  0
LINE
  5
4C6
  8
0
 62
     7
 10
165.327
 20
145.376
 30
0.0
 11
165.14699999999999
 21
145.45599999999999
 31
0.0
  0
LINE
  5
4C7
  8
0
 62
     7
 10
163.12799999999999
 20
145.376
 30
0.0
 11
163.30799999999999
 21
145.45599999999999
 31
0.0
  0
TEXT
  5
4C8
  8
_________2
 62
     7
 10
29.525700000000001
 20
22.2272
 30
0.0
 40
3.9357000000000002
  1
重量：2.9kg、オーバーフローなし、排水目皿付
 41
0.5
  0
LINE
  5
4C9
  8
_________2
 62
     7
 10
105.239
 20
17.4285
 30
0.0
 11
105.239
 21
0.4485540000000001
 31
0.0
  0
LINE
  5
4CA
  8
_________2
 62
     7
 10
81.679900000000004
 20
51.324300000000001
 30
0.0
 11
79.493700000000004
 21
51.324300000000001
 31
0.0
  0
LINE
  5
4CB
  8
_________2
 62
     7
 10
82.172600000000017
 20
51.324300000000001
 30
0.0
 11
81.920400000000001
 21
51.324300000000001
 31
0.0
  0
LINE
  5
4CC
  8
_________2
 62
     7
 10
82.665199999999984
 20
51.324300000000001
 30
0.0
 11
85.590100000000007
 21
51.324300000000001
 31
0.0
  0
LINE
  5
4CD
  8
_________2
 62
     7
 10
82.172600000000017
 20
51.324300000000001
 30
0.0
 11
82.424800000000005
 21
51.324300000000001
 31
0.0
  0
LINE
  5
4CE
  8
_________2
 62
     7
 10
75.776399999999995
 20
51.324300000000001
 30
0.0
 11
73.589399999999998
 21
51.324300000000001
 31
0.0
  0
LINE
  5
4CF
  8
_________2
 62
     7
 10
76.2684
 20
51.324300000000001
 30
0.0
 11
76.016900000000007
 21
51.324300000000001
 31
0.0
  0
LINE
  5
4D0
  8
_________2
 62
     7
 10
76.2684
 20
51.817
 30
0.0
 11
76.2684
 21
54.003900000000002
 31
0.0
  0
LINE
  5
4D1
  8
_________2
 62
     7
 10
76.2684
 20
51.324300000000001
 30
0.0
 11
76.2684
 21
51.576900000000002
 31
0.0
  0
LINE
  5
4D2
  8
_________2
 62
     7
 10
76.76100000000001
 20
51.324300000000001
 30
0.0
 11
78.947999999999993
 21
51.324300000000001
 31
0.0
  0
LINE
  5
4D3
  8
_________2
 62
     7
 10
76.2684
 20
51.324300000000001
 30
0.0
 11
76.520499999999998
 21
51.324300000000001
 31
0.0
  0
LINE
  5
4D4
  8
_________2
 62
     7
 10
76.2684
 20
50.832399999999993
 30
0.0
 11
76.2684
 21
48.645699999999998
 31
0.0
  0
LINE
  5
4D5
  8
_________2
 62
     7
 10
76.2684
 20
51.324300000000001
 30
0.0
 11
76.2684
 21
51.072800000000001
 31
0.0
  0
LINE
  5
4D6
  8
_________2
 62
     7
 10
79.979399999999984
 20
50.104799999999997
 30
0.0
 11
85.157399999999996
 21
49.240000000000002
 31
0.0
  0
LINE
  5
4D7
  8
_________2
 62
     7
 10
79.979399999999984
 20
52.544199999999989
 30
0.0
 11
85.157399999999996
 21
53.409700000000001
 31
0.0
  0
LINE
  5
4D8
  8
_________2
 62
     7
 10
85.157399999999996
 20
49.240000000000002
 30
0.0
 11
85.157399999999996
 21
53.409700000000001
 31
0.0
  0
LINE
  5
4D9
  8
_________2
 62
     7
 10
79.979399999999984
 20
50.104799999999997
 30
0.0
 11
79.979399999999984
 21
52.544199999999989
 31
0.0
  0
ARC
  5
4DA
  8
_________2
 62
     7
 10
76.221766000000002
 20
51.277380999999998
 30
0.0
 40
1.267714
 50
2.1220840000000001
 51
87.894083999999992
  0
ARC
  5
4DB
  8
_________2
 62
     7
 10
76.315297000000001
 20
51.277734999999993
 30
0.0
 40
1.267374999999999
 50
92.122849999999985
 51
177.893304
  0
ARC
  5
4DC
  8
_________2
 62
     7
 10
76.315273000000005
 20
51.371245999999992
 30
0.0
 40
1.267363
 50
182.121815
 51
267.87821400000001
  0
ARC
  5
4DD
  8
_________2
 62
     7
 10
76.221461000000005
 20
51.371928999999987
 30
0.0
 40
1.2680439999999991
 50
272.11916400000001
 51
357.84848499999998
  0
ARC
  5
4DE
  8
_________2
 62
     7
 10
76.187981999999991
 20
51.244312999999998
 30
0.0
 40
2.1668310000000002
 50
2.1161439999999989
 51
87.874379000000005
  0
ARC
  5
4DF
  8
_________2
 62
     7
 10
76.348411999999996
 20
51.245334999999997
 30
0.0
 40
2.1657980000000001
 50
92.118487999999999
 51
177.909886
  0
ARC
  5
4E0
  8
_________2
 62
     7
 10
76.348354
 20
51.404327000000002
 30
0.0
 40
2.1657779999999991
 50
182.11700400000001
 51
267.88302499999998
  0
ARC
  5
4E1
  8
_________2
 62
     7
 10
76.188378999999983
 20
51.405009999999997
 30
0.0
 40
2.1664590000000001
 50
272.11546800000002
 51
357.86560400000002
  0
TEXT
  5
4E2
  8
_________2
 62
     7
 10
109.544
 20
23.199100000000001
 30
0.0
 40
3.0923400000000001
  1
図番
 41
0.5
  0
LINE
  5
4E3
  8
_________2
 62
     7
 10
108.489
 20
27.4283
 30
0.0
 11
188.49000000000001
 21
27.4283
 31
0.0
  0
TEXT
  5
4E4
  8
_________2
 62
     7
 10
109.544
 20
33.198900000000002
 30
0.0
 40
3.0923400000000001
  1
品番
 41
0.5
  0
TEXT
  5
4E5
  8
_________2
 62
     7
 10
109.544
 20
53.338000000000001
 30
0.0
 40
3.0923400000000001
  1
名称
 41
0.5
  0
TEXT
  5
4E6
  8
_________2
 62
     7
 10
96.784058333333334
 20
48.341900000000003
 30
0.0
 40
3.6545800000000002
  1
mm
 41
0.5
 72
     1
 11
98.306799999999996
 21
48.341900000000003
 31
0.0
  0
TEXT
  5
4E7
  8
_________2
 62
     7
 10
90.582099999999997
 20
53.338000000000001
 30
0.0
 40
3.0923400000000001
  1
単位
 41
0.5
  0
TEXT
  5
4E8
  8
_________2
 62
     7
 10
90.582099999999997
 20
40.930399999999999
 30
0.0
 40
3.0923400000000001
  1
尺度
 41
0.5
  0
TEXT
  5
4E9
  8
_________2
 62
     7
 10
95.487658666666675
 20
34.7378
 30
0.0
 40
3.6545800000000002
  1
1 ： 5
 41
0.5
 72
     1
 11
98.898600000000002
 21
34.7378
 31
0.0
  0
TEXT
  5
4EA
  8
_________2
 62
     7
 10
145.20925
 20
30.627800000000001
 30
0.0
 40
3.9357000000000002
  1
SB21
 41
0.5
 72
     1
 11
148.489
 21
30.627800000000001
 31
0.0
  0
TEXT
  5
4EB
  8
_________2
 62
     7
 10
145.20925
 20
20.626999999999999
 30
0.0
 40
3.9357000000000002
  1
SB21
 41
0.5
 72
     1
 11
148.489
 21
20.626999999999999
 31
0.0
  0
TEXT
  5
4EC
  8
_________2
 62
     7
 10
114.11799999999999
 20
45.745600000000003
 30
0.0
 40
3.9357000000000002
  1
C30　手洗器
 41
0.5
  0
TEXT
  5
4ED
  8
_________2
 62
     7
 10
44.303290666666669
 20
35.123000000000012
 30
0.0
 40
3.6545800000000002
  1
篠崎
 41
0.5
 72
     1
 11
46.252400000000002
 21
35.123000000000012
 31
0.0
  0
TEXT
  5
4EE
  8
_________2
 62
     7
 10
25.729290666666671
 20
35.123000000000012
 30
0.0
 40
3.6545800000000002
  1
菅原
 41
0.5
 72
     1
 11
27.6784
 21
35.123000000000012
 31
0.0
  0
TEXT
  5
4EF
  8
_________2
 62
     7
 10
72.724699999999999
 20
34.7378
 30
0.0
 40
3.6545800000000002
  1
16.12.19
 41
0.5
  0
TEXT
  5
4F0
  8
_________2
 62
     7
 10
71.531999999999996
 20
40.930399999999999
 30
0.0
 40
3.0923400000000001
  1
日付
 41
0.5
  0
TEXT
  5
4F1
  8
_________2
 62
     7
 10
34.578299999999999
 20
40.930399999999999
 30
0.0
 40
3.0923400000000001
  1
検図
 41
0.5
  0
TEXT
  5
4F2
  8
_________2
 62
     7
 10
22.9602
 20
26.731000000000002
 30
0.0
 40
3.0923400000000001
  1
備考
 41
0.5
  0
TEXT
  5
4F3
  8
_________2
 62
     7
 10
22.9602
 20
40.930399999999999
 30
0.0
 40
3.0923400000000001
  1
製図
 41
0.5
  0
TEXT
  5
4F4
  8
_________2
 62
     7
 10
28.727365333333339
 20
49.456400000000002
 30
0.0
 40
4.4979399999999989
  1
セラトレーディング株式会社
 41
0.5
 72
     1
 11
46.119399999999992
 21
49.456400000000002
 31
0.0
  0
LINE
  5
4F5
  8
_________2
 62
     7
 10
188.49000000000001
 20
17.4285
 30
0.0
 11
21.988499999999998
 21
17.4285
 31
0.0
  0
LINE
  5
4F6
  8
_________2
 62
     7
 10
21.988499999999998
 20
17.4285
 30
0.0
 11
21.988499999999998
 21
280.43000000000001
 31
0.0
  0
LINE
  5
4F7
  8
_________2
 62
     7
 10
21.988499999999998
 20
280.43000000000001
 30
0.0
 11
188.49000000000001
 21
280.43000000000001
 31
0.0
  0
LINE
  5
4F8
  8
_________2
 62
     7
 10
188.49000000000001
 20
280.43000000000001
 30
0.0
 11
188.49000000000001
 21
17.4285
 31
0.0
  0
LINE
  5
4F9
  8
_________2
 62
     7
 10
70.488799999999998
 20
30.928899999999999
 30
0.0
 11
70.488799999999998
 21
57.428699999999992
 31
0.0
  0
LINE
  5
4FA
  8
_________2
 62
     7
 10
89.488600000000005
 20
30.928899999999999
 30
0.0
 11
89.488600000000005
 21
57.428699999999992
 31
0.0
  0
LINE
  5
4FB
  8
_________2
 62
     7
 10
108.489
 20
17.4285
 30
0.0
 11
108.489
 21
57.428699999999992
 31
0.0
  0
LINE
  5
4FC
  8
_________2
 62
     7
 10
33.488300000000002
 20
30.928899999999999
 30
0.0
 11
33.488300000000002
 21
44.928800000000003
 31
0.0
  0
LINE
  5
4FD
  8
_________2
 62
     7
 10
21.988499999999998
 20
30.928899999999999
 30
0.0
 11
108.489
 21
30.928899999999999
 31
0.0
  0
LINE
  5
4FE
  8
_________2
 62
     7
 10
21.988499999999998
 20
44.928800000000003
 30
0.0
 11
108.489
 21
44.928800000000003
 31
0.0
  0
LINE
  5
4FF
  8
_________2
 62
     7
 10
108.489
 20
37.428100000000001
 30
0.0
 11
188.49000000000001
 21
37.428100000000001
 31
0.0
  0
LINE
  5
500
  8
_________2
 62
     7
 10
21.988499999999998
 20
57.428699999999992
 30
0.0
 11
188.49000000000001
 21
57.428699999999992
 31
0.0
  0
LINE
  5
501
  8
_________2
 62
     7
 10
210.24000000000001
 20
148.93100000000001
 30
0.0
 11
188.489
 21
148.93100000000001
 31
0.0
  0
LINE
  5
502
  8
_________2
 62
     7
 10
105.239
 20
297.45100000000002
 30
0.0
 11
105.239
 21
280.43000000000001
 31
0.0
  0
LINE
  5
503
  8
_________2
 62
     7
 10
21.988499999999998
 20
148.93100000000001
 30
0.0
 11
0.238402
 21
148.93100000000001
 31
0.0
  0
ENDSEC
  0
EOF
