  0
SECTION
  2
HEADER
  9
$ACADVER
  1
AC1009
  9
$INSBASE
 10
0.0
 20
0.0
 30
0.0
  9
$EXTMIN
 10
-4.7010300000000003
 20
-21.071000000000002
 30
0.0
  9
$EXTMAX
 10
205.30099999999999
 20
275.93099999999998
 30
0.0
  9
$LIMMIN
 10
0.0
 20
0.0
  9
$LIMMAX
 10
12.0
 20
9.0
  9
$ORTHOMODE
 70
     0
  9
$REGENMODE
 70
     1
  9
$FILLMODE
 70
     1
  9
$QTEXTMODE
 70
     0
  9
$MIRRTEXT
 70
     1
  9
$DRAGMODE
 70
     2
  9
$LTSCALE
 40
1.0
  9
$OSMODE
 70
    37
  9
$ATTMODE
 70
     1
  9
$TEXTSIZE
 40
0.0
  9
$TRACEWID
 40
0.05
  9
$TEXTSTYLE
  7
STANDARD
  9
$CLAYER
  8
0
  9
$CELTYPE
  6
CONTINUOUS
  9
$CECOLOR
 62
   256
  9
$DIMSCALE
 40
1.0
  9
$DIMASZ
 40
0.18
  9
$DIMEXO
 40
0.0625
  9
$DIMDLI
 40
0.38
  9
$DIMRND
 40
0.0
  9
$DIMDLE
 40
0.0
  9
$DIMEXE
 40
0.18
  9
$DIMTP
 40
0.0
  9
$DIMTM
 40
0.0
  9
$DIMTXT
 40
0.18
  9
$DIMCEN
 40
0.09
  9
$DIMTSZ
 40
0.0
  9
$DIMTOL
 70
     0
  9
$DIMLIM
 70
     0
  9
$DIMTIH
 70
     1
  9
$DIMTOH
 70
     1
  9
$DIMSE1
 70
     0
  9
$DIMSE2
 70
     0
  9
$DIMTAD
 70
     0
  9
$DIMZIN
 70
     0
  9
$DIMBLK
  1

  9
$DIMASO
 70
     1
  9
$DIMSHO
 70
     1
  9
$DIMPOST
  1

  9
$DIMAPOST
  1

  9
$DIMALT
 70
     0
  9
$DIMALTD
 70
     2
  9
$DIMALTF
 40
25.399999999999999
  9
$DIMLFAC
 40
1.0
  9
$DIMTOFL
 70
     0
  9
$DIMTVP
 40
0.0
  9
$DIMTIX
 70
     0
  9
$DIMSOXD
 70
     0
  9
$DIMSAH
 70
     0
  9
$DIMBLK1
  1

  9
$DIMBLK2
  1

  9
$DIMSTYLE
  2
STANDARD
  9
$DIMCLRD
 70
     0
  9
$DIMCLRE
 70
     0
  9
$DIMCLRT
 70
     0
  9
$DIMTFAC
 40
1.0
  9
$DIMGAP
 40
0.09
  9
$LUNITS
 70
     2
  9
$LUPREC
 70
     4
  9
$SKETCHINC
 40
0.1
  9
$FILLETRAD
 40
0.0
  9
$AUNITS
 70
     0
  9
$AUPREC
 70
     0
  9
$MENU
  1
.
  9
$ELEVATION
 40
0.0
  9
$PELEVATION
 40
0.0
  9
$THICKNESS
 40
0.0
  9
$LIMCHECK
 70
     0
  9
$BLIPMODE
 70
     0
  9
$CHAMFERA
 40
0.0
  9
$CHAMFERB
 40
0.0
  9
$SKPOLY
 70
     0
  9
$TDCREATE
 40
2444972.375
  9
$TDUPDATE
 40
2457936.251570452
  9
$TDINDWG
 40
0.0000296065
  9
$TDUSRTIMER
 40
0.0000296065
  9
$USRTIMER
 70
     1
  9
$ANGBASE
 50
0.0
  9
$ANGDIR
 70
     0
  9
$PDMODE
 70
     0
  9
$PDSIZE
 40
0.0
  9
$PLINEWID
 40
0.0
  9
$COORDS
 70
     1
  9
$SPLFRAME
 70
     0
  9
$SPLINETYPE
 70
     6
  9
$SPLINESEGS
 70
     8
  9
$ATTDIA
 70
     1
  9
$ATTREQ
 70
     1
  9
$HANDLING
 70
     1
  9
$HANDSEED
  5
4E7
  9
$SURFTAB1
 70
     6
  9
$SURFTAB2
 70
     6
  9
$SURFTYPE
 70
     6
  9
$SURFU
 70
     6
  9
$SURFV
 70
     6
  9
$UCSNAME
  2

  9
$UCSORG
 10
0.0
 20
0.0
 30
0.0
  9
$UCSXDIR
 10
1.0
 20
0.0
 30
0.0
  9
$UCSYDIR
 10
0.0
 20
1.0
 30
0.0
  9
$PUCSNAME
  2

  9
$PUCSORG
 10
0.0
 20
0.0
 30
0.0
  9
$PUCSXDIR
 10
1.0
 20
0.0
 30
0.0
  9
$PUCSYDIR
 10
0.0
 20
1.0
 30
0.0
  9
$USERI1
 70
     0
  9
$USERI2
 70
     0
  9
$USERI3
 70
     0
  9
$USERI4
 70
     0
  9
$USERI5
 70
     0
  9
$USERR1
 40
0.0
  9
$USERR2
 40
0.0
  9
$USERR3
 40
0.0
  9
$USERR4
 40
0.0
  9
$USERR5
 40
0.0
  9
$WORLDVIEW
 70
     1
  9
$SHADEDGE
 70
     3
  9
$SHADEDIF
 70
    70
  9
$TILEMODE
 70
     1
  9
$MAXACTVP
 70
    48
  9
$PLIMCHECK
 70
     0
  9
$PEXTMIN
 10
1.0000000000000000E+020
 20
1.0000000000000000E+020
 30
1.0000000000000000E+020
  9
$PEXTMAX
 10
-1.0000000000000000E+020
 20
-1.0000000000000000E+020
 30
-1.0000000000000000E+020
  9
$PLIMMIN
 10
0.0
 20
0.0
  9
$PLIMMAX
 10
12.0
 20
9.0
  9
$UNITMODE
 70
     0
  9
$VISRETAIN
 70
     1
  9
$PLINEGEN
 70
     0
  9
$PSLTSCALE
 70
     1
  0
ENDSEC
  0
SECTION
  2
TABLES
  0
TABLE
  2
VPORT
 70
     1
  0
VPORT
  2
*ACTIVE
 70
     0
 10
0.0
 20
0.0
 11
1.0
 21
1.0
 12
165.7277138025147
 22
127.42999999999989
 13
0.0
 23
0.0
 14
1.0
 24
1.0
 15
0.0
 25
0.0
 16
0.0
 26
0.0
 36
1.0
 17
0.0
 27
0.0
 37
0.0
 40
283.528435666853
 41
2.1001926782273599
 42
50.0
 43
0.0
 44
0.0
 50
0.0
 51
0.0
 71
     0
 72
   100
 73
     1
 74
     1
 75
     0
 76
     0
 77
     0
 78
     0
  0
ENDTAB
  0
TABLE
  2
LTYPE
 70
     4
  0
LTYPE
  2
CONTINUOUS
 70
     0
  3
Solid line
 72
    65
 73
     0
 40
0.0
  0
LTYPE
  2
AIGENLINE001
 70
     0
  3
generate AI->DXF Converter
 72
    65
 73
     4
 40
5.8561449999999988
 49
3.5278
 49
-0.776115
 49
0.776115
 49
-0.776115
  0
LTYPE
  2
AIGENLINE002
 70
     0
  3
generate AI->DXF Converter
 72
    65
 73
     2
 40
1.5522299999999991
 49
0.776115
 49
-0.776115
  0
LTYPE
  2
AIGENLINE003
 70
     0
  3
generate AI->DXF Converter
 72
    65
 73
     6
 40
7.4083750000000004
 49
3.5278
 49
-0.776115
 49
0.776115
 49
-0.776115
 49
0.776115
 49
-0.776115
  0
ENDTAB
  0
TABLE
  2
LAYER
 70
     4
  0
LAYER
  2
0
 70
     0
 62
     7
  6
CONTINUOUS
  0
LAYER
  2
____
 70
     0
 62
     7
  6
CONTINUOUS
  0
LAYER
  2
_________1
 70
     0
 62
     7
  6
CONTINUOUS
  0
LAYER
  2
_________2
 70
     0
 62
     7
  6
CONTINUOUS
  0
ENDTAB
  0
TABLE
  2
STYLE
 70
     1
  0
STYLE
  2
STANDARD
 70
     0
 40
0.0
 41
0.0
 50
0.0
 71
     0
 42
0.0
  3
TXT
  4
EXTFONT.SHX
  0
ENDTAB
  0
TABLE
  2
VIEW
 70
     0
  0
ENDTAB
  0
TABLE
  2
UCS
 70
     0
  0
ENDTAB
  0
TABLE
  2
APPID
 70
     3
  0
APPID
  2
ACAD
 70
     0
  0
APPID
  2
ACAD_NAV_VCDISPLAY
 70
     0
  0
APPID
  2
ACAD_MLEADERVER
 70
     0
  0
ENDTAB
  0
TABLE
  2
DIMSTYLE
 70
     1
  0
DIMSTYLE
  2
STANDARD
 70
     0
  3

  4

  5

  6

  7

 40
1.0
 41
0.18
 42
0.0625
 43
0.38
 44
0.18
 45
0.0
 46
0.0
 47
0.0
 48
0.0
140
0.18
141
0.09
142
0.0
143
25.399999999999999
144
1.0
145
0.0
146
1.0
147
0.09
 71
     0
 72
     0
 73
     1
 74
     1
 75
     0
 76
     0
 77
     0
 78
     0
170
     0
171
     2
172
     0
173
     0
174
     0
175
     0
176
     0
177
     0
178
     0
  0
ENDTAB
  0
ENDSEC
  0
SECTION
  2
BLOCKS
  0
BLOCK
  8
0
  2
$MODEL_SPACE
 70
     0
 10
0.0
 20
0.0
 30
0.0
  3
$MODEL_SPACE
  1

  0
ENDBLK
  5
1A
  8
0
  0
BLOCK
 67
     1
  8
0
  2
$PAPER_SPACE
 70
     0
 10
0.0
 20
0.0
 30
0.0
  3
$PAPER_SPACE
  1

  0
ENDBLK
  5
17
 67
     1
  8
0
  0
BLOCK
  8
____
  2
AIGNBL01020003
 70
     0
 10
0.0
 20
0.0
 30
0.0
  3
AIGNBL01020003
  1

  0
TEXT
  5
28
  8
____
 62
     7
 10
93.217334999999977
 20
152.351
 30
0.0
 40
3.0923400000000001
  1
10
 41
0.5
 72
     2
 11
95.021199999999993
 21
152.351
 31
0.0
  0
ENDBLK
  5
29
  8
____
  0
BLOCK
  8
____
  2
AIGNBL01020005
 70
     0
 10
0.0
 20
0.0
 30
0.0
  3
AIGNBL01020005
  1

  0
TEXT
  5
2C
  8
____
 62
     7
 10
21.7959
 20
152.351
 30
0.0
 40
3.0923400000000001
  1
10
 41
0.5
  0
ENDBLK
  5
2D
  8
____
  0
BLOCK
  8
____
  2
AIGNBL01020007
 70
     0
 10
0.0
 20
0.0
 30
0.0
  3
AIGNBL01020007
  1

  0
TEXT
  5
30
  8
____
 62
     7
 10
99.507400000000004
 20
155.154
 30
0.0
 40
3.0923400000000001
  1
10
 50
90.0
 41
0.5
  0
ENDBLK
  5
31
  8
____
  0
BLOCK
  8
____
  2
AIGNBL01010002
 70
     0
 10
0.0
 20
0.0
 30
0.0
  3
AIGNBL01010002
  1

  0
INSERT
  5
34
  8
____
 62
     7
  2
AIGNBL01020003
 10
0.0
 20
0.0
 30
0.0
  0
ENDBLK
  5
35
  8
____
  0
BLOCK
  8
____
  2
AIGNBL01010004
 70
     0
 10
0.0
 20
0.0
 30
0.0
  3
AIGNBL01010004
  1

  0
INSERT
  5
38
  8
____
 62
     7
  2
AIGNBL01020005
 10
0.0
 20
0.0
 30
0.0
  0
ENDBLK
  5
39
  8
____
  0
BLOCK
  8
____
  2
AIGNBL01010006
 70
     0
 10
0.0
 20
0.0
 30
0.0
  3
AIGNBL01010006
  1

  0
INSERT
  5
3C
  8
____
 62
     7
  2
AIGNBL01020007
 10
0.0
 20
0.0
 30
0.0
  0
ENDBLK
  5
3D
  8
____
  0
BLOCK
  8
_________1
  2
AIGNBL02010002
 70
     0
 10
0.0
 20
0.0
 30
0.0
  3
AIGNBL02010002
  1

  0
LINE
  5
40
  8
_________1
  6
AIGENLINE001
 62
     7
 10
148.53
 20
100.557
 30
0.0
 11
153.505
 21
100.557
 31
0.0
  0
ENDBLK
  5
41
  8
_________1
  0
BLOCK
  8
_________1
  2
AIGNBL02010003
 70
     0
 10
0.0
 20
0.0
 30
0.0
  3
AIGNBL02010003
  1

  0
LINE
  5
44
  8
_________1
  6
AIGENLINE001
 62
     7
 10
158.07900000000001
 20
105.91200000000001
 30
0.0
 11
158.07900000000001
 21
101.31699999999999
 31
0.0
  0
ENDBLK
  5
45
  8
_________1
  0
BLOCK
  8
_________1
  2
AIGNBL02010004
 70
     0
 10
0.0
 20
0.0
 30
0.0
  3
AIGNBL02010004
  1

  0
LINE
  5
48
  8
_________1
  6
AIGENLINE002
 62
     7
 10
163.07900000000001
 20
103.557
 30
0.0
 11
151.733
 21
103.557
 31
0.0
  0
ENDBLK
  5
49
  8
_________1
  0
BLOCK
  8
_________1
  2
AIGNBL02010005
 70
     0
 10
0.0
 20
0.0
 30
0.0
  3
AIGNBL02010005
  1

  0
ARC
  5
4C
  8
_________1
  6
AIGENLINE002
 62
     7
 10
151.65924000000001
 20
102.581943
 30
0.0
 40
0.9045260000000001
 50
132.90919299999999
 51
152.9839649999999
  0
ARC
  5
4D
  8
_________1
  6
AIGENLINE002
 62
     7
 10
151.863111
 20
102.400131
 30
0.0
 40
1.176771
 50
104.129886
 51
134.152669
  0
ARC
  5
4E
  8
_________1
  6
AIGENLINE002
 62
     7
 10
151.73066
 20
102.82921399999999
 30
0.0
 40
0.728722
 50
87.950101000000004
 51
102.2665319999999
  0
ENDBLK
  5
4F
  8
_________1
  0
BLOCK
  8
_________1
  2
AIGNBL02010006
 70
     0
 10
0.0
 20
0.0
 30
0.0
  3
AIGNBL02010006
  1

  0
ARC
  5
52
  8
_________1
  6
AIGENLINE002
 62
     7
 10
149.37177399999999
 20
94.624712000000017
 30
0.0
 40
1.067984
 50
271.25143600000001
 51
353.77291200000002
  0
ENDBLK
  5
53
  8
_________1
  0
BLOCK
  8
_________1
  2
AIGNBL02010007
 70
     0
 10
0.0
 20
0.0
 30
0.0
  3
AIGNBL02010007
  1

  0
LINE
  5
56
  8
_________1
  6
AIGENLINE002
 62
     7
 10
145.922
 20
93.557000000000002
 30
0.0
 11
149.39500000000001
 21
93.557000000000002
 31
0.0
  0
ENDBLK
  5
57
  8
_________1
  0
BLOCK
  8
_________1
  2
AIGNBL02010008
 70
     0
 10
0.0
 20
0.0
 30
0.0
  3
AIGNBL02010008
  1

  0
LINE
  5
5A
  8
_________1
  6
AIGENLINE002
 62
     7
 10
150.833
 20
102.54000000000001
 30
0.0
 11
150.52000000000001
 21
95.502399999999994
 31
0.0
  0
ENDBLK
  5
5B
  8
_________1
  0
BLOCK
  8
_________1
  2
AIGNBL02010009
 70
     0
 10
0.0
 20
0.0
 30
0.0
  3
AIGNBL02010009
  1

  0
LINE
  5
5E
  8
_________1
 62
     7
 10
130.99199999999999
 20
90.944599999999994
 30
0.0
 11
130.113
 21
94.902999999999992
 31
0.0
  0
ENDBLK
  5
5F
  8
_________1
  0
BLOCK
  8
_________1
  2
AIGNBL0201000A
 70
     0
 10
0.0
 20
0.0
 30
0.0
  3
AIGNBL0201000A
  1

  0
ARC
  5
62
  8
_________1
 62
     7
 10
131.507541
 20
91.093980999999985
 30
0.0
 40
0.536457
 50
196.173776
 51
268.69286199999999
  0
ENDBLK
  5
63
  8
_________1
  0
BLOCK
  8
_________1
  2
AIGNBL0201000B
 70
     0
 10
0.0
 20
0.0
 30
0.0
  3
AIGNBL0201000B
  1

  0
LINE
  5
66
  8
_________1
  6
AIGENLINE001
 62
     7
 10
142.57900000000001
 20
85.349999999999994
 30
0.0
 11
142.57900000000001
 21
106.23399999999999
 31
0.0
  0
ENDBLK
  5
67
  8
_________1
  0
BLOCK
  8
_________1
  2
AIGNBL0201000C
 70
     0
 10
0.0
 20
0.0
 30
0.0
  3
AIGNBL0201000C
  1

  0
LINE
  5
6A
  8
_________1
 62
     7
 10
162.57900000000001
 20
97.557500000000005
 30
0.0
 11
162.57900000000001
 21
99.057100000000005
 31
0.0
  0
ENDBLK
  5
6B
  8
_________1
  0
BLOCK
  8
_________1
  2
AIGNBL0201000D
 70
     0
 10
0.0
 20
0.0
 30
0.0
  3
AIGNBL0201000D
  1

  0
LINE
  5
6E
  8
_________1
 62
     7
 10
164.05799999999999
 20
104.557
 30
0.0
 11
164.09599999999989
 21
104.557
 31
0.0
  0
ENDBLK
  5
6F
  8
_________1
  0
BLOCK
  8
_________1
  2
AIGNBL0201000E
 70
     0
 10
0.0
 20
0.0
 30
0.0
  3
AIGNBL0201000E
  1

  0
ARC
  5
72
  8
_________1
 62
     7
 10
164.03745599999999
 20
104.01596000000001
 30
0.0
 40
0.5416530000000001
 50
2.0468669999999989
 51
87.877436000000003
  0
ENDBLK
  5
73
  8
_________1
  0
BLOCK
  8
_________1
  2
AIGNBL0201000F
 70
     0
 10
0.0
 20
0.0
 30
0.0
  3
AIGNBL0201000F
  1

  0
LINE
  5
76
  8
_________1
  6
AIGENLINE001
 62
     7
 10
161.114
 20
97.557500000000005
 30
0.0
 11
166.114
 21
97.557500000000005
 31
0.0
  0
ENDBLK
  5
77
  8
_________1
  0
BLOCK
  8
_________1
  2
AIGNBL02010010
 70
     0
 10
0.0
 20
0.0
 30
0.0
  3
AIGNBL02010010
  1

  0
LINE
  5
7A
  8
_________1
 62
     7
 10
164.57900000000001
 20
98.599599999999995
 30
0.0
 11
164.57900000000001
 21
104.035
 31
0.0
  0
ENDBLK
  5
7B
  8
_________1
  0
BLOCK
  8
_________1
  2
AIGNBL02010011
 70
     0
 10
0.0
 20
0.0
 30
0.0
  3
AIGNBL02010011
  1

  0
ARC
  5
7E
  8
_________1
 62
     7
 10
123.94013
 20
125.971136
 30
0.0
 40
46.245913000000002
 50
309.33616499999999
 51
310.02496300000001
  0
ARC
  5
7F
  8
_________1
 62
     7
 10
142.78233900000001
 20
102.998334
 30
0.0
 40
16.534331000000002
 50
306.00924900000001
 51
309.29605299999997
  0
ARC
  5
80
  8
_________1
 62
     7
 10
147.181928
 20
97.001109
 30
0.0
 40
9.0965150000000001
 50
299.50085300000012
 51
305.80100599999997
  0
ARC
  5
81
  8
_________1
 62
     7
 10
148.99273400000001
 20
93.871950999999996
 30
0.0
 40
5.4814629999999989
 50
288.163116
 51
299.13373899999999
  0
ARC
  5
82
  8
_________1
 62
     7
 10
149.65285700000001
 20
92.005662999999998
 30
0.0
 40
3.502685
 50
270.18493100000001
 51
287.41937999999999
  0
ENDBLK
  5
83
  8
_________1
  0
BLOCK
  8
_________1
  2
AIGNBL02010012
 70
     0
 10
0.0
 20
0.0
 30
0.0
  3
AIGNBL02010012
  1

  0
LINE
  5
86
  8
_________1
 62
     7
 10
147.083
 20
88.502999999999986
 30
0.0
 11
149.66399999999999
 21
88.502999999999986
 31
0.0
  0
ENDBLK
  5
87
  8
_________1
  0
BLOCK
  8
_________1
  2
AIGNBL02010013
 70
     0
 10
0.0
 20
0.0
 30
0.0
  3
AIGNBL02010013
  1

  0
ARC
  5
8A
  8
_________1
 62
     7
 10
147.00312
 20
87.509833999999998
 30
0.0
 40
0.951745
 50
133.51634300000001
 51
166.11801500000001
  0
ARC
  5
8B
  8
_________1
 62
     7
 10
147.09106700000001
 20
87.439878000000007
 30
0.0
 40
1.063146999999999
 50
90.430397999999997
 51
134.35752400000001
  0
ENDBLK
  5
8C
  8
_________1
  0
BLOCK
  8
_________1
  2
AIGNBL02010014
 70
     0
 10
0.0
 20
0.0
 30
0.0
  3
AIGNBL02010014
  1

  0
ARC
  5
8F
  8
_________1
 62
     7
 10
145.60162
 20
87.860697999999985
 30
0.0
 40
0.493019
 50
300.07297
 51
345.61082499999998
  0
ARC
  5
90
  8
_________1
 62
     7
 10
145.57839899999999
 20
87.870572999999979
 30
0.0
 40
0.5134240000000001
 50
269.90682900000002
 51
301.76358599999998
  0
ENDBLK
  5
91
  8
_________1
  0
BLOCK
  8
_________1
  2
AIGNBL02010015
 70
     0
 10
0.0
 20
0.0
 30
0.0
  3
AIGNBL02010015
  1

  0
ARC
  5
94
  8
_________1
  6
AIGENLINE002
 62
     7
 10
145.96105900000001
 20
92.474446999999998
 30
0.0
 40
1.08325
 50
92.080601000000001
 51
177.88151300000001
  0
ENDBLK
  5
95
  8
_________1
  0
BLOCK
  8
_________1
  2
AIGNBL02010016
 70
     0
 10
0.0
 20
0.0
 30
0.0
  3
AIGNBL02010016
  1

  0
LINE
  5
98
  8
_________1
  6
AIGENLINE002
 62
     7
 10
144.87899999999999
 20
87.357100000000003
 30
0.0
 11
144.87899999999999
 21
92.514499999999998
 31
0.0
  0
ENDBLK
  5
99
  8
_________1
  0
BLOCK
  8
_________1
  2
AIGNBL02010017
 70
     0
 10
0.0
 20
0.0
 30
0.0
  3
AIGNBL02010017
  1

  0
LINE
  5
9C
  8
_________1
 62
     7
 10
145.578
 20
87.357100000000003
 30
0.0
 11
145.05500000000001
 21
87.357100000000003
 31
0.0
  0
ENDBLK
  5
9D
  8
_________1
  0
BLOCK
  8
_________1
  2
AIGNBL02010018
 70
     0
 10
0.0
 20
0.0
 30
0.0
  3
AIGNBL02010018
  1

  0
LINE
  5
A0
  8
_________1
 62
     7
 10
139.07900000000001
 20
90.557699999999997
 30
0.0
 11
139.07900000000001
 21
87.879099999999994
 31
0.0
  0
ENDBLK
  5
A1
  8
_________1
  0
BLOCK
  8
_________1
  2
AIGNBL02010019
 70
     0
 10
0.0
 20
0.0
 30
0.0
  3
AIGNBL02010019
  1

  0
ARC
  5
A4
  8
_________1
 62
     7
 10
139.620633
 20
87.899086999999994
 30
0.0
 40
0.542307
 50
182.11382699999999
 51
267.88620200000003
  0
ENDBLK
  5
A5
  8
_________1
  0
BLOCK
  8
_________1
  2
AIGNBL0201001A
 70
     0
 10
0.0
 20
0.0
 30
0.0
  3
AIGNBL0201001A
  1

  0
LINE
  5
A8
  8
_________1
 62
     7
 10
140.12100000000001
 20
87.357100000000003
 30
0.0
 11
139.601
 21
87.357100000000003
 31
0.0
  0
ENDBLK
  5
A9
  8
_________1
  0
BLOCK
  8
_________1
  2
AIGNBL0201001B
 70
     0
 10
0.0
 20
0.0
 30
0.0
  3
AIGNBL0201001B
  1

  0
LINE
  5
AC
  8
_________1
  6
AIGENLINE002
 62
     7
 10
140.279
 20
92.514499999999998
 30
0.0
 11
140.279
 21
87.357100000000003
 31
0.0
  0
ENDBLK
  5
AD
  8
_________1
  0
BLOCK
  8
_________1
  2
AIGNBL0201001C
 70
     0
 10
0.0
 20
0.0
 30
0.0
  3
AIGNBL0201001C
  1

  0
LINE
  5
B0
  8
_________1
 62
     7
 10
131.495
 20
90.557699999999997
 30
0.0
 11
133.672
 21
90.557699999999997
 31
0.0
  0
ENDBLK
  5
B1
  8
_________1
  0
BLOCK
  8
_________1
  2
AIGNBL0201001D
 70
     0
 10
0.0
 20
0.0
 30
0.0
  3
AIGNBL0201001D
  1

  0
ARC
  5
B4
  8
_________1
  6
AIGENLINE002
 62
     7
 10
139.19615200000001
 20
92.474505000000008
 30
0.0
 40
1.083215
 50
2.1154419999999989
 51
87.884547999999995
  0
ENDBLK
  5
B5
  8
_________1
  0
BLOCK
  8
_________1
  2
AIGNBL0201001E
 70
     0
 10
0.0
 20
0.0
 30
0.0
  3
AIGNBL0201001E
  1

  0
LINE
  5
B8
  8
_________1
  6
AIGENLINE002
 62
     7
 10
133.529
 20
93.557000000000002
 30
0.0
 11
139.23599999999999
 21
93.557000000000002
 31
0.0
  0
ENDBLK
  5
B9
  8
_________1
  0
BLOCK
  8
_________1
  2
AIGNBL0201001F
 70
     0
 10
0.0
 20
0.0
 30
0.0
  3
AIGNBL0201001F
  1

  0
ARC
  5
BC
  8
_________1
  6
AIGENLINE002
 62
     7
 10
133.49117699999999
 20
94.213422999999992
 30
0.0
 40
0.6575470000000001
 50
258.792528
 51
273.32375500000001
  0
ARC
  5
BD
  8
_________1
  6
AIGENLINE002
 62
     7
 10
133.56087400000001
 20
94.675035999999977
 30
0.0
 40
1.124106
 50
235.23475999999999
 51
259.88094699999999
  0
ARC
  5
BE
  8
_________1
  6
AIGENLINE002
 62
     7
 10
133.28329500000001
 20
94.251607999999976
 30
0.0
 40
0.618128
 50
226.769012
 51
233.99112
  0
ENDBLK
  5
BF
  8
_________1
  0
BLOCK
  8
_________1
  2
AIGNBL02010020
 70
     0
 10
0.0
 20
0.0
 30
0.0
  3
AIGNBL02010020
  1

  0
LINE
  5
C2
  8
_________1
  6
AIGENLINE002
 62
     7
 10
132.86000000000001
 20
93.801199999999994
 30
0.0
 11
118.664
 21
103.515
 31
0.0
  0
ENDBLK
  5
C3
  8
_________1
  0
BLOCK
  8
_________1
  2
AIGNBL02010021
 70
     0
 10
0.0
 20
0.0
 30
0.0
  3
AIGNBL02010021
  1

  0
LINE
  5
C6
  8
_________1
 62
     7
 10
123.33499999999999
 20
99.057100000000005
 30
0.0
 11
117.878
 21
99.057100000000005
 31
0.0
  0
ENDBLK
  5
C7
  8
_________1
  0
BLOCK
  8
_________1
  2
AIGNBL02010022
 70
     0
 10
0.0
 20
0.0
 30
0.0
  3
AIGNBL02010022
  1

  0
LINE
  5
CA
  8
_________1
  6
AIGENLINE002
 62
     7
 10
118.57899999999999
 20
104.035
 30
0.0
 11
118.57899999999999
 21
103.515
 31
0.0
  0
ENDBLK
  5
CB
  8
_________1
  0
BLOCK
  8
_________1
  2
AIGNBL02010023
 70
     0
 10
0.0
 20
0.0
 30
0.0
  3
AIGNBL02010023
  1

  0
ARC
  5
CE
  8
_________1
 62
     7
 10
118.120333
 20
104.015343
 30
0.0
 40
0.5422940000000001
 50
92.185452999999995
 51
177.89020500000001
  0
ENDBLK
  5
CF
  8
_________1
  0
BLOCK
  8
_________1
  2
AIGNBL02010024
 70
     0
 10
0.0
 20
0.0
 30
0.0
  3
AIGNBL02010024
  1

  0
ARC
  5
D2
  8
_________1
  6
AIGENLINE002
 62
     7
 10
118.03756300000001
 20
104.016319
 30
0.0
 40
0.541295
 50
2.0102809999999991
 51
87.876140000000007
  0
ENDBLK
  5
D3
  8
_________1
  0
BLOCK
  8
_________1
  2
AIGNBL02010025
 70
     0
 10
0.0
 20
0.0
 30
0.0
  3
AIGNBL02010025
  1

  0
LINE
  5
D6
  8
_________1
 62
     7
 10
118.05800000000001
 20
104.557
 30
0.0
 11
118.09999999999999
 21
104.557
 31
0.0
  0
ENDBLK
  5
D7
  8
_________1
  0
BLOCK
  8
_________1
  2
AIGNBL02010026
 70
     0
 10
0.0
 20
0.0
 30
0.0
  3
AIGNBL02010026
  1

  0
ARC
  5
DA
  8
_________1
 62
     7
 10
164.03646800000001
 20
91.099230000000006
 30
0.0
 40
0.5426640000000002
 50
272.22303600000009
 51
357.890468
  0
ENDBLK
  5
DB
  8
_________1
  0
BLOCK
  8
_________1
  2
AIGNBL02010027
 70
     0
 10
0.0
 20
0.0
 30
0.0
  3
AIGNBL02010027
  1

  0
LINE
  5
DE
  8
_________1
 62
     7
 10
145.05500000000001
 20
87.357100000000003
 30
0.0
 11
140.131
 21
87.357100000000003
 31
0.0
  0
ENDBLK
  5
DF
  8
_________1
  0
BLOCK
  8
_________1
  2
AIGNBL02010028
 70
     0
 10
0.0
 20
0.0
 30
0.0
  3
AIGNBL02010028
  1

  0
LINE
  5
E2
  8
_________1
 62
     7
 10
123.235
 20
99.057100000000005
 30
0.0
 11
164.57900000000001
 21
99.057100000000005
 31
0.0
  0
ENDBLK
  5
E3
  8
_________1
  0
BLOCK
  8
_________1
  2
AIGNBL02010029
 70
     0
 10
0.0
 20
0.0
 30
0.0
  3
AIGNBL02010029
  1

  0
LINE
  5
E6
  8
_________1
 62
     7
 10
162.57900000000001
 20
90.561800000000005
 30
0.0
 11
162.57900000000001
 21
97.557500000000005
 31
0.0
  0
ENDBLK
  5
E7
  8
_________1
  0
BLOCK
  8
_________1
  2
AIGNBL0201002A
 70
     0
 10
0.0
 20
0.0
 30
0.0
  3
AIGNBL0201002A
  1

  0
LINE
  5
EA
  8
_________1
 62
     7
 10
164.05799999999999
 20
104.557
 30
0.0
 11
118.05800000000001
 21
104.557
 31
0.0
  0
ENDBLK
  5
EB
  8
_________1
  0
BLOCK
  8
_________1
  2
AIGNBL0201002B
 70
     0
 10
0.0
 20
0.0
 30
0.0
  3
AIGNBL0201002B
  1

  0
LINE
  5
EE
  8
_________1
 62
     7
 10
164.57900000000001
 20
91.079300000000003
 30
0.0
 11
164.57900000000001
 21
98.599599999999995
 31
0.0
  0
ENDBLK
  5
EF
  8
_________1
  0
BLOCK
  8
_________1
  2
AIGNBL0201002C
 70
     0
 10
0.0
 20
0.0
 30
0.0
  3
AIGNBL0201002C
  1

  0
LINE
  5
F2
  8
_________1
 62
     7
 10
163.62200000000001
 20
90.556999999999988
 30
0.0
 11
164.05799999999999
 21
90.556999999999988
 31
0.0
  0
ENDBLK
  5
F3
  8
_________1
  0
BLOCK
  8
_________1
  2
AIGNBL0201002D
 70
     0
 10
0.0
 20
0.0
 30
0.0
  3
AIGNBL0201002D
  1

  0
LINE
  5
F6
  8
_________1
 62
     7
 10
163.09999999999999
 20
90.556999999999988
 30
0.0
 11
163.62200000000001
 21
90.556999999999988
 31
0.0
  0
ENDBLK
  5
F7
  8
_________1
  0
BLOCK
  8
_________1
  2
AIGNBL0201002E
 70
     0
 10
0.0
 20
0.0
 30
0.0
  3
AIGNBL0201002E
  1

  0
LINE
  5
FA
  8
_________1
 62
     7
 10
131.547
 20
93.056799999999996
 30
0.0
 11
162.578
 21
93.056799999999996
 31
0.0
  0
ENDBLK
  5
FB
  8
_________1
  0
BLOCK
  8
_________1
  2
AIGNBL0201002F
 70
     0
 10
0.0
 20
0.0
 30
0.0
  3
AIGNBL0201002F
  1

  0
LINE
  5
FE
  8
_________1
 62
     7
 10
153.68199999999999
 20
90.556999999999988
 30
0.0
 11
163.09999999999999
 21
90.556999999999988
 31
0.0
  0
ENDBLK
  5
FF
  8
_________1
  0
BLOCK
  8
_________1
  2
AIGNBL02010030
 70
     0
 10
0.0
 20
0.0
 30
0.0
  3
AIGNBL02010030
  1

  0
LINE
  5
102
  8
_________1
 62
     7
 10
133.672
 20
90.557699999999997
 30
0.0
 11
139.07900000000001
 21
90.557699999999997
 31
0.0
  0
ENDBLK
  5
103
  8
_________1
  0
BLOCK
  8
_________1
  2
AIGNBL02010031
 70
     0
 10
0.0
 20
0.0
 30
0.0
  3
AIGNBL02010031
  1

  0
LINE
  5
106
  8
_________1
  6
AIGENLINE002
 62
     7
 10
145.922
 20
93.557000000000002
 30
0.0
 11
139.24600000000001
 21
93.557000000000002
 31
0.0
  0
ENDBLK
  5
107
  8
_________1
  0
BLOCK
  8
_________1
  2
AIGNBL02010032
 70
     0
 10
0.0
 20
0.0
 30
0.0
  3
AIGNBL02010032
  1

  0
LINE
  5
10A
  8
_________1
  6
AIGENLINE002
 62
     7
 10
140.28800000000001
 20
92.514499999999998
 30
0.0
 11
144.87899999999999
 21
92.514499999999998
 31
0.0
  0
ENDBLK
  5
10B
  8
_________1
  0
BLOCK
  8
_________1
  2
AIGNBL02010033
 70
     0
 10
0.0
 20
0.0
 30
0.0
  3
AIGNBL02010033
  1

  0
LINE
  5
10E
  8
_________1
 62
     7
 10
144.78899999999999
 20
79.413399999999996
 30
0.0
 11
142.577
 21
80.006
 31
0.0
  0
LINE
  5
10F
  8
_________1
 62
     7
 10
142.577
 20
80.006
 30
0.0
 11
144.78899999999999
 21
80.598500000000001
 31
0.0
  0
LINE
  5
110
  8
_________1
 62
     7
 10
144.78899999999999
 20
80.598500000000001
 30
0.0
 11
144.78899999999999
 21
79.413399999999996
 31
0.0
  0
LINE
  5
111
  8
_________1
 62
     7
 10
162.36799999999999
 20
80.584000000000003
 30
0.0
 11
164.57900000000001
 21
79.991500000000002
 31
0.0
  0
LINE
  5
112
  8
_________1
 62
     7
 10
164.57900000000001
 20
79.991500000000002
 30
0.0
 11
162.36799999999999
 21
79.398899999999998
 31
0.0
  0
LINE
  5
113
  8
_________1
 62
     7
 10
162.36799999999999
 20
79.398899999999998
 30
0.0
 11
162.36799999999999
 21
80.584000000000003
 31
0.0
  0
LINE
  5
114
  8
_________1
 62
     7
 10
142.578
 20
79.998699999999999
 30
0.0
 11
164.578
 21
79.998699999999999
 31
0.0
  0
ENDBLK
  5
115
  8
_________1
  0
BLOCK
  8
_________1
  2
AIGNBL02010034
 70
     0
 10
0.0
 20
0.0
 30
0.0
  3
AIGNBL02010034
  1

  0
LINE
  5
118
  8
_________1
 62
     7
 10
23.835899999999999
 20
206.239
 30
0.0
 11
23.243300000000001
 21
208.44999999999999
 31
0.0
  0
LINE
  5
119
  8
_________1
 62
     7
 10
23.243300000000001
 20
208.44999999999999
 30
0.0
 11
22.6508
 21
206.239
 31
0.0
  0
LINE
  5
11A
  8
_________1
 62
     7
 10
22.6508
 20
206.239
 30
0.0
 11
23.835899999999999
 21
206.239
 31
0.0
  0
LINE
  5
11B
  8
_________1
 62
     7
 10
22.665299999999998
 20
188.749
 30
0.0
 11
23.2578
 21
186.53800000000001
 31
0.0
  0
LINE
  5
11C
  8
_________1
 62
     7
 10
23.2578
 20
186.53800000000001
 30
0.0
 11
23.8504
 21
188.749
 31
0.0
  0
LINE
  5
11D
  8
_________1
 62
     7
 10
23.8504
 20
188.749
 30
0.0
 11
22.665299999999998
 21
188.749
 31
0.0
  0
LINE
  5
11E
  8
_________1
 62
     7
 10
23.250599999999999
 20
208.44999999999999
 30
0.0
 11
23.250599999999999
 21
186.53800000000001
 31
0.0
  0
ENDBLK
  5
11F
  8
_________1
  0
BLOCK
  8
_________1
  2
AIGNBL02010035
 70
     0
 10
0.0
 20
0.0
 30
0.0
  3
AIGNBL02010035
  1

  0
LINE
  5
122
  8
_________1
 62
     7
 10
86.879699999999985
 20
143.541
 30
0.0
 11
89.091399999999979
 21
144.1329999999999
 31
0.0
  0
LINE
  5
123
  8
_________1
 62
     7
 10
89.091399999999979
 20
144.1329999999999
 30
0.0
 11
86.879699999999985
 21
144.726
 31
0.0
  0
LINE
  5
124
  8
_________1
 62
     7
 10
86.879699999999985
 20
144.726
 30
0.0
 11
86.879699999999985
 21
143.541
 31
0.0
  0
LINE
  5
125
  8
_________1
 62
     7
 10
30.425899999999999
 20
144.71100000000001
 30
0.0
 11
28.214099999999998
 21
144.119
 31
0.0
  0
LINE
  5
126
  8
_________1
 62
     7
 10
28.214099999999998
 20
144.119
 30
0.0
 11
30.425899999999999
 21
143.52600000000001
 31
0.0
  0
LINE
  5
127
  8
_________1
 62
     7
 10
30.425899999999999
 20
143.52600000000001
 30
0.0
 11
30.425899999999999
 21
144.71100000000001
 31
0.0
  0
LINE
  5
128
  8
_________1
 62
     7
 10
89.091399999999979
 20
144.126
 30
0.0
 11
28.090800000000002
 21
144.126
 31
0.0
  0
ENDBLK
  5
129
  8
_________1
  0
BLOCK
  8
_________1
  2
AIGNBL02010036
 70
     0
 10
0.0
 20
0.0
 30
0.0
  3
AIGNBL02010036
  1

  0
LINE
  5
12C
  8
_________1
 62
     7
 10
158.114
 20
206.238
 30
0.0
 11
157.52099999999999
 21
208.44999999999999
 31
0.0
  0
LINE
  5
12D
  8
_________1
 62
     7
 10
157.52099999999999
 20
208.44999999999999
 30
0.0
 11
156.929
 21
206.238
 31
0.0
  0
LINE
  5
12E
  8
_________1
 62
     7
 10
156.929
 20
206.238
 30
0.0
 11
158.114
 21
206.238
 31
0.0
  0
LINE
  5
12F
  8
_________1
 62
     7
 10
156.94300000000001
 20
188.66
 30
0.0
 11
157.536
 21
186.44800000000001
 31
0.0
  0
LINE
  5
130
  8
_________1
 62
     7
 10
157.536
 20
186.44800000000001
 30
0.0
 11
158.12799999999999
 21
188.66
 31
0.0
  0
LINE
  5
131
  8
_________1
 62
     7
 10
158.12799999999999
 20
188.66
 30
0.0
 11
156.94300000000001
 21
188.66
 31
0.0
  0
LINE
  5
132
  8
_________1
 62
     7
 10
157.52799999999999
 20
208.44900000000001
 30
0.0
 11
157.52799999999999
 21
186.44900000000001
 31
0.0
  0
ENDBLK
  5
133
  8
_________1
  0
BLOCK
  8
_________1
  2
AIGNBL02010037
 70
     0
 10
0.0
 20
0.0
 30
0.0
  3
AIGNBL02010037
  1

  0
LINE
  5
136
  8
_________1
 62
     7
 10
179.691
 20
206.238
 30
0.0
 11
179.09800000000001
 21
208.44999999999999
 31
0.0
  0
LINE
  5
137
  8
_________1
 62
     7
 10
179.09800000000001
 20
208.44999999999999
 30
0.0
 11
178.50599999999989
 21
206.238
 31
0.0
  0
LINE
  5
138
  8
_________1
 62
     7
 10
178.50599999999989
 20
206.238
 30
0.0
 11
179.691
 21
206.238
 31
0.0
  0
LINE
  5
139
  8
_________1
 62
     7
 10
178.52000000000001
 20
166.16
 30
0.0
 11
179.113
 21
163.94800000000001
 31
0.0
  0
LINE
  5
13A
  8
_________1
 62
     7
 10
179.113
 20
163.94800000000001
 30
0.0
 11
179.70500000000001
 21
166.16
 31
0.0
  0
LINE
  5
13B
  8
_________1
 62
     7
 10
179.70500000000001
 20
166.16
 30
0.0
 11
178.52000000000001
 21
166.16
 31
0.0
  0
LINE
  5
13C
  8
_________1
 62
     7
 10
179.10499999999999
 20
208.44900000000001
 30
0.0
 11
179.10499999999999
 21
163.94900000000001
 31
0.0
  0
ENDBLK
  5
13D
  8
_________1
  0
BLOCK
  8
_________1
  2
AIGNBL02010038
 70
     0
 10
0.0
 20
0.0
 30
0.0
  3
AIGNBL02010038
  1

  0
LINE
  5
140
  8
_________1
 62
     7
 10
116.288
 20
154.66900000000001
 30
0.0
 11
114.07599999999999
 21
154.077
 31
0.0
  0
LINE
  5
141
  8
_________1
 62
     7
 10
114.07599999999999
 20
154.077
 30
0.0
 11
116.288
 21
153.48400000000001
 31
0.0
  0
LINE
  5
142
  8
_________1
 62
     7
 10
116.288
 20
153.48400000000001
 30
0.0
 11
116.288
 21
154.66900000000001
 31
0.0
  0
LINE
  5
143
  8
_________1
 62
     7
 10
168.86699999999999
 20
153.499
 30
0.0
 11
171.07900000000001
 21
154.09100000000001
 31
0.0
  0
LINE
  5
144
  8
_________1
 62
     7
 10
171.07900000000001
 20
154.09100000000001
 30
0.0
 11
168.86699999999999
 21
154.684
 31
0.0
  0
LINE
  5
145
  8
_________1
 62
     7
 10
168.86699999999999
 20
154.684
 30
0.0
 11
168.86699999999999
 21
153.499
 31
0.0
  0
LINE
  5
146
  8
_________1
 62
     7
 10
114.077
 20
154.084
 30
0.0
 11
171.078
 21
154.084
 31
0.0
  0
ENDBLK
  5
147
  8
_________1
  0
BLOCK
  8
_________1
  2
AIGNBL02010039
 70
     0
 10
0.0
 20
0.0
 30
0.0
  3
AIGNBL02010039
  1

  0
LINE
  5
14A
  8
_________1
 62
     7
 10
148.34299999999999
 20
102.345
 30
0.0
 11
147.751
 21
104.557
 31
0.0
  0
LINE
  5
14B
  8
_________1
 62
     7
 10
147.751
 20
104.557
 30
0.0
 11
147.15799999999999
 21
102.345
 31
0.0
  0
LINE
  5
14C
  8
_________1
 62
     7
 10
147.15799999999999
 20
102.345
 30
0.0
 11
148.34299999999999
 21
102.345
 31
0.0
  0
LINE
  5
14D
  8
_________1
 62
     7
 10
147.173
 20
95.768100000000004
 30
0.0
 11
147.76499999999999
 21
93.557000000000002
 31
0.0
  0
LINE
  5
14E
  8
_________1
 62
     7
 10
147.76499999999999
 20
93.557000000000002
 30
0.0
 11
148.358
 21
95.768100000000004
 31
0.0
  0
LINE
  5
14F
  8
_________1
 62
     7
 10
148.358
 20
95.768100000000004
 30
0.0
 11
147.173
 21
95.768100000000004
 31
0.0
  0
LINE
  5
150
  8
_________1
 62
     7
 10
147.75800000000001
 20
104.556
 30
0.0
 11
147.75800000000001
 21
93.557699999999997
 31
0.0
  0
ENDBLK
  5
151
  8
_________1
  0
BLOCK
  8
_________1
  2
AIGNBL0201003A
 70
     0
 10
0.0
 20
0.0
 30
0.0
  3
AIGNBL0201003A
  1

  0
LINE
  5
154
  8
_________1
 62
     7
 10
106.371
 20
102.34699999999999
 30
0.0
 11
105.779
 21
104.55800000000001
 31
0.0
  0
LINE
  5
155
  8
_________1
 62
     7
 10
105.779
 20
104.55800000000001
 30
0.0
 11
105.18600000000001
 21
102.34699999999999
 31
0.0
  0
LINE
  5
156
  8
_________1
 62
     7
 10
105.18600000000001
 20
102.34699999999999
 30
0.0
 11
106.371
 21
102.34699999999999
 31
0.0
  0
LINE
  5
157
  8
_________1
 62
     7
 10
105.20099999999999
 20
89.567499999999995
 30
0.0
 11
105.79300000000001
 21
87.356499999999997
 31
0.0
  0
LINE
  5
158
  8
_________1
 62
     7
 10
105.79300000000001
 20
87.356499999999997
 30
0.0
 11
106.386
 21
89.567499999999995
 31
0.0
  0
LINE
  5
159
  8
_________1
 62
     7
 10
106.386
 20
89.567499999999995
 30
0.0
 11
105.20099999999999
 21
89.567499999999995
 31
0.0
  0
LINE
  5
15A
  8
_________1
 62
     7
 10
105.786
 20
104.557
 30
0.0
 11
105.786
 21
87.357100000000003
 31
0.0
  0
ENDBLK
  5
15B
  8
_________1
  0
BLOCK
  8
_________1
  2
AIGNBL0201003B
 70
     0
 10
0.0
 20
0.0
 30
0.0
  3
AIGNBL0201003B
  1

  0
LINE
  5
15E
  8
_________1
 62
     7
 10
100.70699999999999
 20
102.34699999999999
 30
0.0
 11
100.11499999999999
 21
104.55800000000001
 31
0.0
  0
LINE
  5
15F
  8
_________1
 62
     7
 10
100.11499999999999
 20
104.55800000000001
 30
0.0
 11
99.522199999999998
 21
102.34699999999999
 31
0.0
  0
LINE
  5
160
  8
_________1
 62
     7
 10
99.522199999999998
 20
102.34699999999999
 30
0.0
 11
100.70699999999999
 21
102.34699999999999
 31
0.0
  0
LINE
  5
161
  8
_________1
 62
     7
 10
99.536699999999996
 20
92.767700000000005
 30
0.0
 11
100.129
 21
90.556600000000003
 31
0.0
  0
LINE
  5
162
  8
_________1
 62
     7
 10
100.129
 20
90.556600000000003
 30
0.0
 11
100.72199999999999
 21
92.767700000000005
 31
0.0
  0
LINE
  5
163
  8
_________1
 62
     7
 10
100.72199999999999
 20
92.767700000000005
 30
0.0
 11
99.536699999999996
 21
92.767700000000005
 31
0.0
  0
LINE
  5
164
  8
_________1
 62
     7
 10
100.122
 20
104.557
 30
0.0
 11
100.122
 21
90.557299999999998
 31
0.0
  0
ENDBLK
  5
165
  8
_________1
  0
BLOCK
  8
_________1
  2
AIGNBL0201003C
 70
     0
 10
0.0
 20
0.0
 30
0.0
  3
AIGNBL0201003C
  1

  0
LINE
  5
168
  8
_________1
 62
     7
 10
25.412600000000001
 20
102.34699999999999
 30
0.0
 11
24.82
 21
104.55800000000001
 31
0.0
  0
LINE
  5
169
  8
_________1
 62
     7
 10
24.82
 20
104.55800000000001
 30
0.0
 11
24.227399999999999
 21
102.34699999999999
 31
0.0
  0
LINE
  5
16A
  8
_________1
 62
     7
 10
24.227399999999999
 20
102.34699999999999
 30
0.0
 11
25.412600000000001
 21
102.34699999999999
 31
0.0
  0
LINE
  5
16B
  8
_________1
 62
     7
 10
24.241900000000001
 20
99.811599999999999
 30
0.0
 11
24.834499999999998
 21
97.600499999999997
 31
0.0
  0
LINE
  5
16C
  8
_________1
 62
     7
 10
24.834499999999998
 20
97.600499999999997
 30
0.0
 11
25.427
 21
99.811599999999999
 31
0.0
  0
LINE
  5
16D
  8
_________1
 62
     7
 10
25.427
 20
99.811599999999999
 30
0.0
 11
24.241900000000001
 21
99.811599999999999
 31
0.0
  0
LINE
  5
16E
  8
_________1
 62
     7
 10
24.827200000000001
 20
104.557
 30
0.0
 11
24.827200000000001
 21
97.601200000000006
 31
0.0
  0
ENDBLK
  5
16F
  8
_________1
  0
BLOCK
  8
_________1
  2
AIGNBL0201003D
 70
     0
 10
0.0
 20
0.0
 30
0.0
  3
AIGNBL0201003D
  1

  0
LINE
  5
172
  8
_________1
 62
     7
 10
43.052900000000001
 20
80.584400000000002
 30
0.0
 11
40.841500000000003
 21
79.991500000000002
 31
0.0
  0
LINE
  5
173
  8
_________1
 62
     7
 10
40.841500000000003
 20
79.991500000000002
 30
0.0
 11
43.052900000000001
 21
79.398899999999998
 31
0.0
  0
LINE
  5
174
  8
_________1
 62
     7
 10
43.052900000000001
 20
79.398899999999998
 30
0.0
 11
43.052900000000001
 21
80.584400000000002
 31
0.0
  0
LINE
  5
175
  8
_________1
 62
     7
 10
74.132000000000005
 20
79.413399999999996
 30
0.0
 11
76.343800000000002
 21
80.006
 31
0.0
  0
LINE
  5
176
  8
_________1
 62
     7
 10
76.343800000000002
 20
80.006
 30
0.0
 11
74.132000000000005
 21
80.598900000000015
 31
0.0
  0
LINE
  5
177
  8
_________1
 62
     7
 10
74.132000000000005
 20
80.598900000000015
 30
0.0
 11
74.132000000000005
 21
79.413399999999996
 31
0.0
  0
LINE
  5
178
  8
_________1
 62
     7
 10
40.84259999999999
 20
79.998699999999999
 30
0.0
 11
76.342799999999997
 21
79.998699999999999
 31
0.0
  0
ENDBLK
  5
179
  8
_________1
  0
BLOCK
  8
_________1
  2
AIGNBL0201003E
 70
     0
 10
0.0
 20
0.0
 30
0.0
  3
AIGNBL0201003E
  1

  0
LINE
  5
17C
  8
_________1
 62
     7
 10
50.302300000000002
 20
111.197
 30
0.0
 11
48.090600000000002
 21
110.604
 31
0.0
  0
LINE
  5
17D
  8
_________1
 62
     7
 10
48.090600000000002
 20
110.604
 30
0.0
 11
50.302300000000002
 21
110.012
 31
0.0
  0
LINE
  5
17E
  8
_________1
 62
     7
 10
50.302300000000002
 20
110.012
 30
0.0
 11
50.302300000000002
 21
111.197
 31
0.0
  0
LINE
  5
17F
  8
_________1
 62
     7
 10
66.880600000000001
 20
110.026
 30
0.0
 11
69.092299999999994
 21
110.619
 31
0.0
  0
LINE
  5
180
  8
_________1
 62
     7
 10
69.092299999999994
 20
110.619
 30
0.0
 11
66.880600000000001
 21
111.211
 31
0.0
  0
LINE
  5
181
  8
_________1
 62
     7
 10
66.880600000000001
 20
111.211
 30
0.0
 11
66.880600000000001
 21
110.026
 31
0.0
  0
LINE
  5
182
  8
_________1
 62
     7
 10
48.09129999999999
 20
110.611
 30
0.0
 11
69.091700000000003
 21
110.611
 31
0.0
  0
ENDBLK
  5
183
  8
_________1
  0
BLOCK
  8
_________1
  2
AIGNBL0201003F
 70
     0
 10
0.0
 20
0.0
 30
0.0
  3
AIGNBL0201003F
  1

  0
ARC
  5
186
  8
_________1
 62
     7
 10
72.028283999999999
 20
161.27040199999999
 30
0.0
 40
12.984408
 50
71.370214000000004
 51
83.426672999999994
  0
ARC
  5
187
  8
_________1
 62
     7
 10
71.093645999999993
 20
158.125788
 30
0.0
 40
16.263259999999999
 50
60.635961999999992
 51
71.789059999999992
  0
ARC
  5
188
  8
_________1
 62
     7
 10
69.870890000000003
 20
155.81070800000001
 30
0.0
 40
18.880617000000001
 50
33.080478999999997
 51
60.847042000000002
  0
ARC
  5
189
  8
_________1
 62
     7
 10
72.088125000000005
 20
157.406013
 30
0.0
 40
16.152536999999999
 50
21.739277000000001
 51
32.631723000000001
  0
ENDBLK
  5
18A
  8
_________1
  0
BLOCK
  8
_________1
  2
AIGNBL02010040
 70
     0
 10
0.0
 20
0.0
 30
0.0
  3
AIGNBL02010040
  1

  0
ARC
  5
18D
  8
_________1
 62
     7
 10
87.053269000000014
 20
163.48753099999999
 30
0.0
 40
1.0390829999999991
 50
272.12927300000001
 51
357.89047799999997
  0
ENDBLK
  5
18E
  8
_________1
  0
BLOCK
  8
_________1
  2
AIGNBL02010041
 70
     0
 10
0.0
 20
0.0
 30
0.0
  3
AIGNBL02010041
  1

  0
ARC
  5
191
  8
_________1
 62
     7
 10
30.129638
 20
163.48752999999999
 30
0.0
 40
1.0390829999999991
 50
182.10952499999991
 51
267.87076400000001
  0
ENDBLK
  5
192
  8
_________1
  0
BLOCK
  8
_________1
  2
AIGNBL02010042
 70
     0
 10
0.0
 20
0.0
 30
0.0
  3
AIGNBL02010042
  1

  0
ARC
  5
195
  8
_________1
 62
     7
 10
87.053269000000014
 20
206.41092
 30
0.0
 40
1.0390829999999991
 50
2.1095220000000001
 51
87.870727000000016
  0
ENDBLK
  5
196
  8
_________1
  0
BLOCK
  8
_________1
  2
AIGNBL02010043
 70
     0
 10
0.0
 20
0.0
 30
0.0
  3
AIGNBL02010043
  1

  0
ARC
  5
199
  8
_________1
 62
     7
 10
30.129683
 20
206.41086300000001
 30
0.0
 40
1.039142
 50
92.131572000000006
 51
177.86839900000001
  0
ENDBLK
  5
19A
  8
_________1
  0
BLOCK
  8
_________1
  2
AIGNBL02010044
 70
     0
 10
0.0
 20
0.0
 30
0.0
  3
AIGNBL02010044
  1

  0
ARC
  5
19D
  8
_________1
 62
     7
 10
61.57911099999999
 20
87.885897000000014
 30
0.0
 40
0.5291360000000001
 50
272.19593099999997
 51
357.881663
  0
ENDBLK
  5
19E
  8
_________1
  0
BLOCK
  8
_________1
  2
AIGNBL02010045
 70
     0
 10
0.0
 20
0.0
 30
0.0
  3
AIGNBL02010045
  1

  0
LINE
  5
1A1
  8
_________1
 62
     7
 10
62.107900000000001
 20
90.557299999999998
 30
0.0
 11
62.107900000000001
 21
87.866299999999995
 31
0.0
  0
ENDBLK
  5
1A2
  8
_________1
  0
BLOCK
  8
_________1
  2
AIGNBL02010046
 70
     0
 10
0.0
 20
0.0
 30
0.0
  3
AIGNBL02010046
  1

  0
LINE
  5
1A5
  8
_________1
 62
     7
 10
58.591799999999999
 20
87.357100000000003
 30
0.0
 11
61.599400000000003
 21
87.357100000000003
 31
0.0
  0
ENDBLK
  5
1A6
  8
_________1
  0
BLOCK
  8
_________1
  2
AIGNBL02010047
 70
     0
 10
0.0
 20
0.0
 30
0.0
  3
AIGNBL02010047
  1

  0
ARC
  5
1A9
  8
_________1
 62
     7
 10
77.467373999999992
 20
104.395314
 30
0.0
 40
9.4092539999999971
 50
316.88598300000001
 51
325.43793699999998
  0
ARC
  5
1AA
  8
_________1
 62
     7
 10
75.006613999999999
 20
106.59621300000001
 30
0.0
 40
12.710029
 50
307.63475699999998
 51
317.22483399999999
  0
ARC
  5
1AB
  8
_________1
 62
     7
 10
73.043669999999992
 20
108.98435000000001
 30
0.0
 40
15.800158
 50
290.40491200000002
 51
307.98373599999991
  0
ARC
  5
1AC
  8
_________1
 62
     7
 10
74.378315000000001
 20
105.587103
 30
0.0
 40
12.150936
 50
282.31587400000001
 51
290.09161699999999
  0
ENDBLK
  5
1AD
  8
_________1
  0
BLOCK
  8
_________1
  2
AIGNBL02010048
 70
     0
 10
0.0
 20
0.0
 30
0.0
  3
AIGNBL02010048
  1

  0
ARC
  5
1B0
  8
_________1
 62
     7
 10
88.56439300000001
 20
99.585187000000005
 30
0.0
 40
0.5280800000000001
 50
272.08556900000002
 51
357.875609
  0
ENDBLK
  5
1B1
  8
_________1
  0
BLOCK
  8
_________1
  2
AIGNBL02010049
 70
     0
 10
0.0
 20
0.0
 30
0.0
  3
AIGNBL02010049
  1

  0
ARC
  5
1B4
  8
_________1
 62
     7
 10
75.814660000000003
 20
91.084429
 30
0.0
 40
0.527437
 50
272.01791800000012
 51
357.86551900000001
  0
ENDBLK
  5
1B5
  8
_________1
  0
BLOCK
  8
_________1
  2
AIGNBL0201004A
 70
     0
 10
0.0
 20
0.0
 30
0.0
  3
AIGNBL0201004A
  1

  0
LINE
  5
1B8
  8
_________1
 62
     7
 10
76.341700000000003
 20
91.064800000000005
 30
0.0
 11
76.341700000000003
 21
92.934399999999997
 31
0.0
  0
ENDBLK
  5
1B9
  8
_________1
  0
BLOCK
  8
_________1
  2
AIGNBL0201004B
 70
     0
 10
0.0
 20
0.0
 30
0.0
  3
AIGNBL0201004B
  1

  0
LINE
  5
1BC
  8
_________1
 62
     7
 10
89.092099999999988
 20
99.565600000000003
 30
0.0
 11
89.092099999999988
 21
104.04900000000001
 31
0.0
  0
ENDBLK
  5
1BD
  8
_________1
  0
BLOCK
  8
_________1
  2
AIGNBL0201004C
 70
     0
 10
0.0
 20
0.0
 30
0.0
  3
AIGNBL0201004C
  1

  0
LINE
  5
1C0
  8
_________1
 62
     7
 10
58.591799999999999
 20
95.557199999999995
 30
0.0
 11
75.874600000000001
 21
95.557199999999995
 31
0.0
  0
ENDBLK
  5
1C1
  8
_________1
  0
BLOCK
  8
_________1
  2
AIGNBL0201004D
 70
     0
 10
0.0
 20
0.0
 30
0.0
  3
AIGNBL0201004D
  1

  0
ARC
  5
1C4
  8
_________1
 62
     7
 10
88.564058000000003
 20
104.029162
 30
0.0
 40
0.528442
 50
2.198243999999999
 51
87.879435999999998
  0
ENDBLK
  5
1C5
  8
_________1
  0
BLOCK
  8
_________1
  2
AIGNBL0201004E
 70
     0
 10
0.0
 20
0.0
 30
0.0
  3
AIGNBL0201004E
  1

  0
ARC
  5
1C8
  8
_________1
 62
     7
 10
55.603797
 20
87.885897000000014
 30
0.0
 40
0.5291360000000001
 50
182.118357
 51
267.80408900000009
  0
ENDBLK
  5
1C9
  8
_________1
  0
BLOCK
  8
_________1
  2
AIGNBL0201004F
 70
     0
 10
0.0
 20
0.0
 30
0.0
  3
AIGNBL0201004F
  1

  0
LINE
  5
1CC
  8
_________1
 62
     7
 10
55.075000000000003
 20
90.557299999999998
 30
0.0
 11
55.075000000000003
 21
87.866299999999995
 31
0.0
  0
ENDBLK
  5
1CD
  8
_________1
  0
BLOCK
  8
_________1
  2
AIGNBL02010050
 70
     0
 10
0.0
 20
0.0
 30
0.0
  3
AIGNBL02010050
  1

  0
LINE
  5
1D0
  8
_________1
 62
     7
 10
58.591799999999999
 20
87.357100000000003
 30
0.0
 11
55.583500000000001
 21
87.357100000000003
 31
0.0
  0
ENDBLK
  5
1D1
  8
_________1
  0
BLOCK
  8
_________1
  2
AIGNBL02010051
 70
     0
 10
0.0
 20
0.0
 30
0.0
  3
AIGNBL02010051
  1

  0
ARC
  5
1D4
  8
_________1
 62
     7
 10
39.713382000000003
 20
104.39205
 30
0.0
 40
9.4052050000000005
 50
214.55492899999999
 51
223.10989000000001
  0
ARC
  5
1D5
  8
_________1
 62
     7
 10
42.174872999999998
 20
106.593676
 30
0.0
 40
12.707013999999999
 50
222.772177
 51
232.364158
  0
ARC
  5
1D6
  8
_________1
 62
     7
 10
44.139218999999997
 20
108.98368499999999
 30
0.0
 40
15.799483
 50
232.01549900000009
 51
249.59477000000001
  0
ARC
  5
1D7
  8
_________1
 62
     7
 10
42.804568999999987
 20
105.58585100000001
 30
0.0
 40
12.149706999999999
 50
249.907048
 51
257.68299300000001
  0
ENDBLK
  5
1D8
  8
_________1
  0
BLOCK
  8
_________1
  2
AIGNBL02010052
 70
     0
 10
0.0
 20
0.0
 30
0.0
  3
AIGNBL02010052
  1

  0
ARC
  5
1DB
  8
_________1
 62
     7
 10
28.619202999999999
 20
99.585187000000005
 30
0.0
 40
0.5280800000000001
 50
182.12441100000001
 51
267.91445099999999
  0
ENDBLK
  5
1DC
  8
_________1
  0
BLOCK
  8
_________1
  2
AIGNBL02010053
 70
     0
 10
0.0
 20
0.0
 30
0.0
  3
AIGNBL02010053
  1

  0
ARC
  5
1DF
  8
_________1
 62
     7
 10
41.368580000000001
 20
91.084405000000004
 30
0.0
 40
0.5274250000000001
 50
182.131902
 51
267.94586900000002
  0
ENDBLK
  5
1E0
  8
_________1
  0
BLOCK
  8
_________1
  2
AIGNBL02010054
 70
     0
 10
0.0
 20
0.0
 30
0.0
  3
AIGNBL02010054
  1

  0
LINE
  5
1E3
  8
_________1
 62
     7
 10
40.841500000000003
 20
91.064800000000005
 30
0.0
 11
40.841500000000003
 21
92.934399999999997
 31
0.0
  0
ENDBLK
  5
1E4
  8
_________1
  0
BLOCK
  8
_________1
  2
AIGNBL02010055
 70
     0
 10
0.0
 20
0.0
 30
0.0
  3
AIGNBL02010055
  1

  0
LINE
  5
1E7
  8
_________1
 62
     7
 10
28.0915
 20
99.565600000000003
 30
0.0
 11
28.0915
 21
104.04900000000001
 31
0.0
  0
ENDBLK
  5
1E8
  8
_________1
  0
BLOCK
  8
_________1
  2
AIGNBL02010056
 70
     0
 10
0.0
 20
0.0
 30
0.0
  3
AIGNBL02010056
  1

  0
LINE
  5
1EB
  8
_________1
 62
     7
 10
58.591799999999999
 20
95.557199999999995
 30
0.0
 11
41.308300000000003
 21
95.557199999999995
 31
0.0
  0
ENDBLK
  5
1EC
  8
_________1
  0
BLOCK
  8
_________1
  2
AIGNBL02010057
 70
     0
 10
0.0
 20
0.0
 30
0.0
  3
AIGNBL02010057
  1

  0
LINE
  5
1EF
  8
_________1
 62
     7
 10
75.833200000000005
 20
90.557299999999998
 30
0.0
 11
41.349699999999999
 21
90.557299999999998
 31
0.0
  0
ENDBLK
  5
1F0
  8
_________1
  0
BLOCK
  8
_________1
  2
AIGNBL02010058
 70
     0
 10
0.0
 20
0.0
 30
0.0
  3
AIGNBL02010058
  1

  0
LINE
  5
1F3
  8
_________1
 62
     7
 10
88.583600000000004
 20
99.057500000000005
 30
0.0
 11
28.600000000000001
 21
99.057500000000005
 31
0.0
  0
ENDBLK
  5
1F4
  8
_________1
  0
BLOCK
  8
_________1
  2
AIGNBL02010059
 70
     0
 10
0.0
 20
0.0
 30
0.0
  3
AIGNBL02010059
  1

  0
ARC
  5
1F7
  8
_________1
 62
     7
 10
28.619534000000002
 20
104.029167
 30
0.0
 40
0.5284360000000001
 50
92.120011000000005
 51
177.80226999999999
  0
ENDBLK
  5
1F8
  8
_________1
  0
BLOCK
  8
_________1
  2
AIGNBL0201005A
 70
     0
 10
0.0
 20
0.0
 30
0.0
  3
AIGNBL0201005A
  1

  0
LINE
  5
1FB
  8
_________1
 62
     7
 10
28.600000000000001
 20
104.557
 30
0.0
 11
88.583600000000004
 21
104.557
 31
0.0
  0
ENDBLK
  5
1FC
  8
_________1
  0
BLOCK
  8
_________1
  2
AIGNBL0201005B
 70
     0
 10
0.0
 20
0.0
 30
0.0
  3
AIGNBL0201005B
  1

  0
LINE
  5
1FF
  8
_________1
  6
AIGENLINE001
 62
     7
 10
61.791600000000003
 20
201.94999999999999
 30
0.0
 11
55.391300000000001
 21
201.94999999999999
 31
0.0
  0
ENDBLK
  5
200
  8
_________1
  0
BLOCK
  8
_________1
  2
AIGNBL0201005C
 70
     0
 10
0.0
 20
0.0
 30
0.0
  3
AIGNBL0201005C
  1

  0
LINE
  5
203
  8
_________1
  6
AIGENLINE001
 62
     7
 10
58.591099999999997
 20
106.16
 30
0.0
 11
58.591099999999997
 21
85.725200000000001
 31
0.0
  0
ENDBLK
  5
204
  8
_________1
  0
BLOCK
  8
_________1
  2
AIGNBL0201005D
 70
     0
 10
0.0
 20
0.0
 30
0.0
  3
AIGNBL0201005D
  1

  0
LINE
  5
207
  8
_________1
  6
AIGENLINE001
 62
     7
 10
58.591099999999997
 20
210.22399999999999
 30
0.0
 11
58.591099999999997
 21
158.01499999999999
 31
0.0
  0
ENDBLK
  5
208
  8
_________1
  0
BLOCK
  8
_________1
  2
AIGNBL0201005E
 70
     0
 10
0.0
 20
0.0
 30
0.0
  3
AIGNBL0201005E
  1

  0
LINE
  5
20B
  8
_________1
  6
AIGENLINE001
 62
     7
 10
63.091799999999999
 20
186.44900000000001
 30
0.0
 11
54.091799999999999
 21
186.44900000000001
 31
0.0
  0
ENDBLK
  5
20C
  8
_________1
  0
BLOCK
  8
_________1
  2
AIGNBL0201005F
 70
     0
 10
0.0
 20
0.0
 30
0.0
  3
AIGNBL0201005F
  1

  0
ARC
  5
20F
  8
_________1
 62
     7
 10
86.342988000000005
 20
192.94700700000001
 30
0.0
 40
1.803359999999999
 50
79.253387000000004
 51
87.944319999999976
  0
ARC
  5
210
  8
_________1
 62
     7
 10
86.191440999999983
 20
192.042753
 30
0.0
 40
2.7200839999999991
 50
56.266314000000001
 51
79.668854999999994
  0
ARC
  5
211
  8
_________1
 62
     7
 10
86.881637999999995
 20
193.13995299999999
 30
0.0
 40
1.4247709999999989
 50
43.966644999999993
 51
54.845616000000007
  0
ARC
  5
212
  8
_________1
 62
     7
 10
87.302204999999987
 20
193.55520899999999
 30
0.0
 40
0.8338120000000001
 50
28.965004
 51
43.492176000000001
  0
ARC
  5
213
  8
_________1
 62
     7
 10
87.582946999999976
 20
193.71663100000001
 30
0.0
 40
0.510041
 50
4.1529089999999993
 51
28.37257
  0
ENDBLK
  5
214
  8
_________1
  0
BLOCK
  8
_________1
  2
AIGNBL02010060
 70
     0
 10
0.0
 20
0.0
 30
0.0
  3
AIGNBL02010060
  1

  0
LINE
  5
217
  8
_________1
 62
     7
 10
73.514700000000005
 20
194.03399999999999
 30
0.0
 11
58.591099999999997
 21
194.03399999999999
 31
0.0
  0
ENDBLK
  5
218
  8
_________1
  0
BLOCK
  8
_________1
  2
AIGNBL02010061
 70
     0
 10
0.0
 20
0.0
 30
0.0
  3
AIGNBL02010061
  1

  0
ARC
  5
21B
  8
_________1
 62
     7
 10
83.471974000000003
 20
214.65955
 30
0.0
 40
20.125609000000001
 50
277.17462499999999
 51
278.38761
  0
ARC
  5
21C
  8
_________1
 62
     7
 10
81.846857999999997
 20
227.50286800000001
 30
0.0
 40
33.071333000000003
 50
276.09685500000012
 51
277.18907799999999
  0
ARC
  5
21D
  8
_________1
 62
     7
 10
79.100509000000002
 20
253.35865899999999
 30
0.0
 40
59.072569000000001
 50
274.35308599999991
 51
276.08200399999998
  0
ARC
  5
21E
  8
_________1
 62
     7
 10
74.796749000000005
 20
306.71784200000002
 30
0.0
 40
112.604748
 50
273.231919
 51
274.475841
  0
ARC
  5
21F
  8
_________1
 62
     7
 10
71.870559999999998
 20
355.72231399999998
 30
0.0
 40
161.69632899999999
 50
270.58259600000002
 51
273.28818200000012
  0
ENDBLK
  5
220
  8
_________1
  0
BLOCK
  8
_________1
  2
AIGNBL02010062
 70
     0
 10
0.0
 20
0.0
 30
0.0
  3
AIGNBL02010062
  1

  0
LINE
  5
223
  8
_________1
 62
     7
 10
73.514700000000005
 20
174.16900000000001
 30
0.0
 11
73.514700000000005
 21
194.03399999999999
 31
0.0
  0
ENDBLK
  5
224
  8
_________1
  0
BLOCK
  8
_________1
  2
AIGNBL02010063
 70
     0
 10
0.0
 20
0.0
 30
0.0
  3
AIGNBL02010063
  1

  0
LINE
  5
227
  8
_________1
 62
     7
 10
58.591099999999997
 20
174.16900000000001
 30
0.0
 11
73.514700000000005
 21
174.16900000000001
 31
0.0
  0
ENDBLK
  5
228
  8
_________1
  0
BLOCK
  8
_________1
  2
AIGNBL02010064
 70
     0
 10
0.0
 20
0.0
 30
0.0
  3
AIGNBL02010064
  1

  0
LINE
  5
22B
  8
_________1
 62
     7
 10
58.591099999999997
 20
207.44900000000001
 30
0.0
 11
87.091899999999995
 21
207.44900000000001
 31
0.0
  0
ENDBLK
  5
22C
  8
_________1
  0
BLOCK
  8
_________1
  2
AIGNBL02010065
 70
     0
 10
0.0
 20
0.0
 30
0.0
  3
AIGNBL02010065
  1

  0
LINE
  5
22F
  8
_________1
 62
     7
 10
87.091899999999995
 20
162.4489999999999
 30
0.0
 11
58.591099999999997
 21
162.4489999999999
 31
0.0
  0
ENDBLK
  5
230
  8
_________1
  0
BLOCK
  8
_________1
  2
AIGNBL02010066
 70
     0
 10
0.0
 20
0.0
 30
0.0
  3
AIGNBL02010066
  1

  0
LINE
  5
233
  8
_________1
 62
     7
 10
88.0916
 20
163.4489999999999
 30
0.0
 11
88.0916
 21
206.44900000000001
 31
0.0
  0
ENDBLK
  5
234
  8
_________1
  0
BLOCK
  8
_________1
  2
AIGNBL02010067
 70
     0
 10
0.0
 20
0.0
 30
0.0
  3
AIGNBL02010067
  1

  0
LINE
  5
237
  8
_________1
 62
     7
 10
58.591099999999997
 20
194.749
 30
0.0
 11
86.407700000000006
 21
194.749
 31
0.0
  0
ENDBLK
  5
238
  8
_________1
  0
BLOCK
  8
_________1
  2
AIGNBL02010068
 70
     0
 10
0.0
 20
0.0
 30
0.0
  3
AIGNBL02010068
  1

  0
LINE
  5
23B
  8
_________1
 62
     7
 10
58.591099999999997
 20
161.44900000000001
 30
0.0
 11
88.0916
 21
161.44900000000001
 31
0.0
  0
ENDBLK
  5
23C
  8
_________1
  0
BLOCK
  8
_________1
  2
AIGNBL02010069
 70
     0
 10
0.0
 20
0.0
 30
0.0
  3
AIGNBL02010069
  1

  0
ARC
  5
23F
  8
_________1
 62
     7
 10
88.053061999999997
 20
162.487393
 30
0.0
 40
1.039062999999999
 50
272.12821300000002
 51
357.89153700000003
  0
ENDBLK
  5
240
  8
_________1
  0
BLOCK
  8
_________1
  2
AIGNBL0201006A
 70
     0
 10
0.0
 20
0.0
 30
0.0
  3
AIGNBL0201006A
  1

  0
LINE
  5
243
  8
_________1
 62
     7
 10
89.091399999999979
 20
162.4489999999999
 30
0.0
 11
89.091399999999979
 21
207.44999999999999
 31
0.0
  0
ENDBLK
  5
244
  8
_________1
  0
BLOCK
  8
_________1
  2
AIGNBL0201006B
 70
     0
 10
0.0
 20
0.0
 30
0.0
  3
AIGNBL0201006B
  1

  0
ARC
  5
247
  8
_________1
 62
     7
 10
88.052998000000002
 20
207.41098
 30
0.0
 40
1.039142
 50
2.1315810000000002
 51
87.868408999999986
  0
ENDBLK
  5
248
  8
_________1
  0
BLOCK
  8
_________1
  2
AIGNBL0201006C
 70
     0
 10
0.0
 20
0.0
 30
0.0
  3
AIGNBL0201006C
  1

  0
LINE
  5
24B
  8
_________1
 62
     7
 10
88.0916
 20
208.44900000000001
 30
0.0
 11
58.591099999999997
 21
208.44900000000001
 31
0.0
  0
ENDBLK
  5
24C
  8
_________1
  0
BLOCK
  8
_________1
  2
AIGNBL0201006D
 70
     0
 10
0.0
 20
0.0
 30
0.0
  3
AIGNBL0201006D
  1

  0
ARC
  5
24F
  8
_________1
 62
     7
 10
30.839220000000001
 20
192.94942399999999
 30
0.0
 40
1.800943999999999
 50
92.058057999999974
 51
100.75401599999999
  0
ARC
  5
250
  8
_________1
 62
     7
 10
30.991285000000001
 20
192.042528
 30
0.0
 40
2.7203580000000001
 50
100.33644200000001
 51
123.73380299999999
  0
ARC
  5
251
  8
_________1
 62
     7
 10
30.300387000000001
 20
193.140807
 30
0.0
 40
1.4237599999999999
 50
125.156268
 51
136.04183399999999
  0
ARC
  5
252
  8
_________1
 62
     7
 10
29.879733999999999
 20
193.55611400000001
 30
0.0
 40
0.8327049999999999
 50
136.52132700000001
 51
151.06394399999999
  0
ARC
  5
253
  8
_________1
 62
     7
 10
29.599053000000001
 20
193.717342
 30
0.0
 40
0.509084
 50
151.660189
 51
175.91947200000001
  0
ENDBLK
  5
254
  8
_________1
  0
BLOCK
  8
_________1
  2
AIGNBL0201006E
 70
     0
 10
0.0
 20
0.0
 30
0.0
  3
AIGNBL0201006E
  1

  0
LINE
  5
257
  8
_________1
 62
     7
 10
43.668199999999992
 20
194.03399999999999
 30
0.0
 11
58.591099999999997
 21
194.03399999999999
 31
0.0
  0
ENDBLK
  5
258
  8
_________1
  0
BLOCK
  8
_________1
  2
AIGNBL0201006F
 70
     0
 10
0.0
 20
0.0
 30
0.0
  3
AIGNBL0201006F
  1

  0
ARC
  5
25B
  8
_________1
 62
     7
 10
33.711734
 20
214.67537400000001
 30
0.0
 40
20.141480000000001
 50
261.61478599999998
 51
262.827134
  0
ARC
  5
25C
  8
_________1
 62
     7
 10
35.337907000000001
 20
227.52920800000001
 30
0.0
 40
33.097771000000002
 50
262.81246900000002
 51
263.90401400000002
  0
ARC
  5
25D
  8
_________1
 62
     7
 10
37.313493999999999
 20
245.92269300000001
 30
0.0
 40
51.597045000000001
 50
263.89165700000001
 51
264.77897000000002
  0
ARC
  5
25E
  8
_________1
 62
     7
 10
40.426310999999998
 20
280.33133400000003
 30
0.0
 40
86.146193000000011
 50
264.79973799999999
 51
266.30593500000009
  0
ARC
  5
25F
  8
_________1
 62
     7
 10
45.081246
 20
349.07447999999999
 30
0.0
 40
155.04657399999999
 50
266.22603900000001
 51
269.47784100000001
  0
ENDBLK
  5
260
  8
_________1
  0
BLOCK
  8
_________1
  2
AIGNBL02010070
 70
     0
 10
0.0
 20
0.0
 30
0.0
  3
AIGNBL02010070
  1

  0
LINE
  5
263
  8
_________1
 62
     7
 10
43.668199999999992
 20
174.16900000000001
 30
0.0
 11
43.668199999999992
 21
194.03399999999999
 31
0.0
  0
ENDBLK
  5
264
  8
_________1
  0
BLOCK
  8
_________1
  2
AIGNBL02010071
 70
     0
 10
0.0
 20
0.0
 30
0.0
  3
AIGNBL02010071
  1

  0
LINE
  5
267
  8
_________1
 62
     7
 10
58.591099999999997
 20
174.16900000000001
 30
0.0
 11
43.668199999999992
 21
174.16900000000001
 31
0.0
  0
ENDBLK
  5
268
  8
_________1
  0
BLOCK
  8
_________1
  2
AIGNBL02010072
 70
     0
 10
0.0
 20
0.0
 30
0.0
  3
AIGNBL02010072
  1

  0
ARC
  5
26B
  8
_________1
 62
     7
 10
45.154681999999987
 20
161.268191
 30
0.0
 40
12.986611999999999
 50
96.572445000000016
 51
108.628063
  0
ARC
  5
26C
  8
_________1
 62
     7
 10
46.088740000000001
 20
158.125191
 30
0.0
 40
16.263750999999999
 50
108.20945399999999
 51
119.362808
  0
ARC
  5
26D
  8
_________1
 62
     7
 10
47.309350000000002
 20
155.813524
 30
0.0
 40
18.877084
 50
119.151258
 51
146.92271500000001
  0
ARC
  5
26E
  8
_________1
 62
     7
 10
45.096288000000001
 20
157.40666300000001
 30
0.0
 40
16.153694000000002
 50
147.37362300000001
 51
158.26482200000001
  0
ENDBLK
  5
26F
  8
_________1
  0
BLOCK
  8
_________1
  2
AIGNBL02010073
 70
     0
 10
0.0
 20
0.0
 30
0.0
  3
AIGNBL02010073
  1

  0
LINE
  5
272
  8
_________1
 62
     7
 10
58.591099999999997
 20
207.44900000000001
 30
0.0
 11
30.091000000000001
 21
207.44900000000001
 31
0.0
  0
ENDBLK
  5
273
  8
_________1
  0
BLOCK
  8
_________1
  2
AIGNBL02010074
 70
     0
 10
0.0
 20
0.0
 30
0.0
  3
AIGNBL02010074
  1

  0
LINE
  5
276
  8
_________1
 62
     7
 10
30.091000000000001
 20
162.4489999999999
 30
0.0
 11
58.591099999999997
 21
162.4489999999999
 31
0.0
  0
ENDBLK
  5
277
  8
_________1
  0
BLOCK
  8
_________1
  2
AIGNBL02010075
 70
     0
 10
0.0
 20
0.0
 30
0.0
  3
AIGNBL02010075
  1

  0
LINE
  5
27A
  8
_________1
 62
     7
 10
29.0913
 20
163.4489999999999
 30
0.0
 11
29.0913
 21
206.44999999999999
 31
0.0
  0
ENDBLK
  5
27B
  8
_________1
  0
BLOCK
  8
_________1
  2
AIGNBL02010076
 70
     0
 10
0.0
 20
0.0
 30
0.0
  3
AIGNBL02010076
  1

  0
LINE
  5
27E
  8
_________1
 62
     7
 10
58.591099999999997
 20
194.749
 30
0.0
 11
30.7745
 21
194.749
 31
0.0
  0
ENDBLK
  5
27F
  8
_________1
  0
BLOCK
  8
_________1
  2
AIGNBL02010077
 70
     0
 10
0.0
 20
0.0
 30
0.0
  3
AIGNBL02010077
  1

  0
LINE
  5
282
  8
_________1
 62
     7
 10
58.591099999999997
 20
161.44900000000001
 30
0.0
 11
29.0913
 21
161.44900000000001
 31
0.0
  0
ENDBLK
  5
283
  8
_________1
  0
BLOCK
  8
_________1
  2
AIGNBL02010078
 70
     0
 10
0.0
 20
0.0
 30
0.0
  3
AIGNBL02010078
  1

  0
ARC
  5
286
  8
_________1
 62
     7
 10
29.129570999999999
 20
162.48783399999999
 30
0.0
 40
1.039493
 50
182.131936
 51
267.88782700000002
  0
ENDBLK
  5
287
  8
_________1
  0
BLOCK
  8
_________1
  2
AIGNBL02010079
 70
     0
 10
0.0
 20
0.0
 30
0.0
  3
AIGNBL02010079
  1

  0
LINE
  5
28A
  8
_________1
 62
     7
 10
28.090800000000002
 20
162.4489999999999
 30
0.0
 11
28.090800000000002
 21
207.44999999999999
 31
0.0
  0
ENDBLK
  5
28B
  8
_________1
  0
BLOCK
  8
_________1
  2
AIGNBL0201007A
 70
     0
 10
0.0
 20
0.0
 30
0.0
  3
AIGNBL0201007A
  1

  0
ARC
  5
28E
  8
_________1
 62
     7
 10
29.129892000000002
 20
207.410282
 30
0.0
 40
1.0398389999999991
 50
92.129159000000001
 51
177.83133799999999
  0
ENDBLK
  5
28F
  8
_________1
  0
BLOCK
  8
_________1
  2
AIGNBL0201007B
 70
     0
 10
0.0
 20
0.0
 30
0.0
  3
AIGNBL0201007B
  1

  0
LINE
  5
292
  8
_________1
 62
     7
 10
29.0913
 20
208.44900000000001
 30
0.0
 11
58.591099999999997
 21
208.44900000000001
 31
0.0
  0
ENDBLK
  5
293
  8
_________1
  0
BLOCK
  8
_________1
  2
AIGNBL0201007C
 70
     0
 10
0.0
 20
0.0
 30
0.0
  3
AIGNBL0201007C
  1

  0
LINE
  5
296
  8
_________1
  6
AIGENLINE001
 62
     7
 10
147.82900000000001
 20
186.44900000000001
 30
0.0
 11
137.328
 21
186.44900000000001
 31
0.0
  0
ENDBLK
  5
297
  8
_________1
  0
BLOCK
  8
_________1
  2
AIGNBL0201007D
 70
     0
 10
0.0
 20
0.0
 30
0.0
  3
AIGNBL0201007D
  1

  0
LINE
  5
29A
  8
_________1
  6
AIGENLINE001
 62
     7
 10
142.57900000000001
 20
211.00399999999999
 30
0.0
 11
142.57900000000001
 21
161.58500000000001
 31
0.0
  0
ENDBLK
  5
29B
  8
_________1
  0
BLOCK
  8
_________1
  2
AIGNBL0201007E
 70
     0
 10
0.0
 20
0.0
 30
0.0
  3
AIGNBL0201007E
  1

  0
ARC
  5
29E
  8
_________1
  6
AIGENLINE002
 62
     7
 10
142.57858899999999
 20
186.449229
 30
0.0
 40
2.2999610000000001
 50
0.00001
 51
89.999980000000008
  0
ARC
  5
29F
  8
_________1
  6
AIGENLINE002
 62
     7
 10
142.57858999999999
 20
186.449229
 30
0.0
 40
2.2999610000000001
 50
90.0
 51
179.99996999999999
  0
ARC
  5
2A0
  8
_________1
  6
AIGENLINE002
 62
     7
 10
142.578675
 20
186.44914299999999
 30
0.0
 40
2.300046
 50
179.99782500000001
 51
269.99787400000002
  0
ARC
  5
2A1
  8
_________1
  6
AIGENLINE002
 62
     7
 10
142.57850300000001
 20
186.44914399999999
 30
0.0
 40
2.3000470000000002
 50
270.00216499999999
 51
0.002136
  0
ENDBLK
  5
2A2
  8
_________1
  0
BLOCK
  8
_________1
  2
AIGNBL0201007F
 70
     0
 10
0.0
 20
0.0
 30
0.0
  3
AIGNBL0201007F
  1

  0
ARC
  5
2A5
  8
_________1
  6
AIGENLINE002
 62
     7
 10
142.57858899999999
 20
186.449229
 30
0.0
 40
3.7500110000000002
 50
0.00001
 51
89.999980000000008
  0
ARC
  5
2A6
  8
_________1
  6
AIGENLINE002
 62
     7
 10
142.57858999999999
 20
186.449229
 30
0.0
 40
3.7500110000000002
 50
90.0
 51
179.99996999999999
  0
ARC
  5
2A7
  8
_________1
  6
AIGENLINE002
 62
     7
 10
142.57858899999999
 20
186.449229
 30
0.0
 40
3.750008999999999
 50
179.99996999999999
 51
270.00002000000001
  0
ARC
  5
2A8
  8
_________1
  6
AIGENLINE002
 62
     7
 10
142.57858899999999
 20
186.44923
 30
0.0
 40
3.7500110000000002
 50
270.00002000000001
 51
359.99999000000003
  0
ENDBLK
  5
2A9
  8
_________1
  0
BLOCK
  8
_________2
  2
AIGNBL03010002
 70
     0
 10
0.0
 20
0.0
 30
0.0
  3
AIGNBL03010002
  1

  0
LINE
  5
2AC
  8
_________2
 62
     7
 10
76.740799999999993
 20
29.8047
 30
0.0
 11
74.554599999999994
 21
29.8047
 31
0.0
  0
LINE
  5
2AD
  8
_________2
 62
     7
 10
77.233500000000006
 20
29.8047
 30
0.0
 11
76.981300000000005
 21
29.8047
 31
0.0
  0
LINE
  5
2AE
  8
_________2
 62
     7
 10
77.726200000000006
 20
29.8047
 30
0.0
 11
80.6511
 21
29.8047
 31
0.0
  0
LINE
  5
2AF
  8
_________2
 62
     7
 10
77.233500000000006
 20
29.8047
 30
0.0
 11
77.485699999999994
 21
29.8047
 31
0.0
  0
LINE
  5
2B0
  8
_________2
 62
     7
 10
70.837299999999999
 20
29.8047
 30
0.0
 11
68.650300000000001
 21
29.8047
 31
0.0
  0
LINE
  5
2B1
  8
_________2
 62
     7
 10
71.329300000000003
 20
29.8047
 30
0.0
 11
71.077799999999996
 21
29.8047
 31
0.0
  0
LINE
  5
2B2
  8
_________2
 62
     7
 10
71.329300000000003
 20
30.2974
 30
0.0
 11
71.329300000000003
 21
32.484400000000001
 31
0.0
  0
LINE
  5
2B3
  8
_________2
 62
     7
 10
71.329300000000003
 20
29.8047
 30
0.0
 11
71.329300000000003
 21
30.057300000000001
 31
0.0
  0
LINE
  5
2B4
  8
_________2
 62
     7
 10
71.821899999999999
 20
29.8047
 30
0.0
 11
74.008899999999997
 21
29.8047
 31
0.0
  0
LINE
  5
2B5
  8
_________2
 62
     7
 10
71.329300000000003
 20
29.8047
 30
0.0
 11
71.581400000000002
 21
29.8047
 31
0.0
  0
LINE
  5
2B6
  8
_________2
 62
     7
 10
71.329300000000003
 20
29.312799999999999
 30
0.0
 11
71.329300000000003
 21
27.126200000000001
 31
0.0
  0
LINE
  5
2B7
  8
_________2
 62
     7
 10
71.329300000000003
 20
29.8047
 30
0.0
 11
71.329300000000003
 21
29.5532
 31
0.0
  0
LINE
  5
2B8
  8
_________2
 62
     7
 10
75.040300000000002
 20
28.5852
 30
0.0
 11
80.218299999999985
 21
27.720400000000001
 31
0.0
  0
LINE
  5
2B9
  8
_________2
 62
     7
 10
75.040300000000002
 20
31.024699999999999
 30
0.0
 11
80.218299999999985
 21
31.8901
 31
0.0
  0
LINE
  5
2BA
  8
_________2
 62
     7
 10
80.218299999999985
 20
27.720400000000001
 30
0.0
 11
80.218299999999985
 21
31.8901
 31
0.0
  0
LINE
  5
2BB
  8
_________2
 62
     7
 10
75.040300000000002
 20
28.5852
 30
0.0
 11
75.040300000000002
 21
31.024699999999999
 31
0.0
  0
ARC
  5
2BC
  8
_________2
 62
     7
 10
71.282674
 20
29.757801000000001
 30
0.0
 40
1.267714
 50
2.1220840000000001
 51
87.894083999999992
  0
ARC
  5
2BD
  8
_________2
 62
     7
 10
71.375812999999994
 20
29.758545999999999
 30
0.0
 40
1.2669680000000001
 50
92.105782999999988
 51
177.91037
  0
ARC
  5
2BE
  8
_________2
 62
     7
 10
71.376186000000004
 20
29.851671
 30
0.0
 40
1.2673680000000001
 50
182.12203600000001
 51
267.877993
  0
ARC
  5
2BF
  8
_________2
 62
     7
 10
71.282368999999989
 20
29.852347999999999
 30
0.0
 40
1.2680439999999991
 50
272.11916400000001
 51
357.84848499999998
  0
ARC
  5
2C0
  8
_________2
 62
     7
 10
71.248890000000003
 20
29.724731999999999
 30
0.0
 40
2.1668310000000002
 50
2.1161439999999989
 51
87.874379000000005
  0
ARC
  5
2C1
  8
_________2
 62
     7
 10
71.408928000000003
 20
29.726146
 30
0.0
 40
2.165392999999999
 50
92.108508999999998
 51
177.91986499999999
  0
ARC
  5
2C2
  8
_________2
 62
     7
 10
71.409267
 20
29.884751999999999
 30
0.0
 40
2.1657829999999998
 50
182.117133
 51
267.88289700000001
  0
ARC
  5
2C3
  8
_________2
 62
     7
 10
71.249286999999995
 20
29.885429999999999
 30
0.0
 40
2.1664590000000001
 50
272.11546800000002
 51
357.86560400000002
  0
ENDBLK
  5
2C4
  8
_________2
  0
ENDSEC
  0
SECTION
  2
ENTITIES
  0
TEXT
  5
2C5
  8
____
 62
     7
 10
152.3962875
 20
80.706000000000003
 30
0.0
 40
3.0923400000000001
  1
220
 41
0.5
 72
     1
 11
154.32900000000001
 21
80.706000000000003
 31
0.0
  0
TEXT
  5
2C6
  8
____
 62
     7
 10
160.37100000000001
 20
108.337135
 30
0.0
 40
3.0923400000000001
  1
10
 50
90.0
 41
0.5
 72
     2
 11
160.37100000000001
 21
110.14100000000001
 31
0.0
  0
TEXT
  5
2C7
  8
____
 62
     7
 10
156.83600000000001
 20
195.5162875
 30
0.0
 40
3.0923400000000001
  1
220
 50
90.0
 41
0.5
 72
     1
 11
156.83600000000001
 21
197.44900000000001
 31
0.0
  0
TEXT
  5
2C8
  8
____
 62
     7
 10
178.398
 20
184.13744
 30
0.0
 40
3.0923400000000001
  1
445
 50
90.0
 41
0.5
 72
     1
 11
178.398
 21
186.19900000000001
 31
0.0
  0
TEXT
  5
2C9
  8
____
 62
     7
 10
160.37200000000001
 20
169.49000000000001
 30
0.0
 40
3.0923400000000001
  1
R10
 41
0.5
  0
TEXT
  5
2CA
  8
____
 62
     7
 10
121.43496500000001
 20
169.49000000000001
 30
0.0
 40
3.0923400000000001
  1
R10
 41
0.5
 72
     2
 11
124.785
 21
169.49000000000001
 31
0.0
  0
TEXT
  5
2CB
  8
____
 62
     7
 10
140.6462875
 20
154.804
 30
0.0
 40
3.0923400000000001
  1
570
 41
0.5
 72
     1
 11
142.57900000000001
 21
154.804
 31
0.0
  0
TEXT
  5
2CC
  8
____
 62
     7
 10
147.05799999999999
 20
99.945830000000001
 30
0.0
 40
3.0923400000000001
  1
115
 50
90.0
 41
0.5
 72
     1
 11
147.05799999999999
 21
101.492
 31
0.0
  0
TEXT
  5
2CD
  8
____
 62
     7
 10
105.086
 20
94.175335000000004
 30
0.0
 40
3.0923400000000001
  1
172
 50
90.0
 41
0.5
 72
     1
 11
105.086
 21
95.979200000000006
 31
0.0
  0
TEXT
  5
2CE
  8
____
 62
     7
 10
99.422000000000011
 20
95.904182500000005
 30
0.0
 40
3.0923400000000001
  1
140
 50
90.0
 41
0.5
 72
     1
 11
99.422000000000011
 21
97.5792
 31
0.0
  0
TEXT
  5
2CF
  8
____
 62
     7
 10
93.849100000000007
 20
100.81252499999999
 30
0.0
 40
3.0923400000000001
  1
55
 50
90.0
 41
0.5
 72
     1
 11
93.849100000000007
 21
102.101
 31
0.0
  0
TEXT
  5
2D0
  8
____
 62
     7
 10
24.120000000000001
 20
99.941372500000014
 30
0.0
 40
3.0923400000000001
  1
70
 50
90.0
 41
0.5
 72
     1
 11
24.120000000000001
 21
101.101
 31
0.0
  0
TEXT
  5
2D1
  8
____
 62
     7
 10
56.529940000000003
 20
80.706400000000002
 30
0.0
 40
3.0923400000000001
  1
355
 41
0.5
 72
     1
 11
58.591500000000003
 21
80.706400000000002
 31
0.0
  0
TEXT
  5
2D2
  8
____
 62
     7
 10
56.916782499999989
 20
111.40600000000001
 30
0.0
 40
3.0923400000000001
  1
210
 41
0.5
 72
     1
 11
58.591799999999999
 21
111.40600000000001
 31
0.0
  0
TEXT
  5
2D3
  8
____
 62
     7
 10
65.852680000000007
 20
198.422
 30
0.0
 40
3.0923400000000001
  1
%%c35
 41
0.5
 72
     2
 11
69.975800000000007
 21
198.422
 31
0.0
  0
TEXT
  5
2D4
  8
____
 62
     7
 10
65.759680000000003
 20
183.19799999999989
 30
0.0
 40
3.0923400000000001
  1
%%c45
 41
0.5
 72
     2
 11
69.882800000000003
 21
183.19799999999989
 31
0.0
  0
TEXT
  5
2D5
  8
____
 62
     7
 10
22.5505
 20
195.5162875
 30
0.0
 40
3.0923400000000001
  1
220
 50
90.0
 41
0.5
 72
     1
 11
22.5505
 21
197.44900000000001
 31
0.0
  0
INSERT
  5
2D6
  8
____
 62
     7
  2
AIGNBL01010002
 10
0.0
 20
0.0
 30
0.0
  0
INSERT
  5
2D7
  8
____
 62
     7
  2
AIGNBL01010004
 10
0.0
 20
0.0
 30
0.0
  0
TEXT
  5
2D8
  8
____
 62
     7
 10
56.916082499999987
 20
144.82599999999999
 30
0.0
 40
3.0923400000000001
  1
610
 41
0.5
 72
     1
 11
58.591099999999997
 21
144.82599999999999
 31
0.0
  0
TEXT
  5
2D9
  8
____
 62
     7
 10
56.659087499999991
 20
152.351
 30
0.0
 40
3.0923400000000001
  1
590
 41
0.5
 72
     1
 11
58.591799999999999
 21
152.351
 31
0.0
  0
INSERT
  5
2DA
  8
____
 62
     7
  2
AIGNBL01010006
 10
0.0
 20
0.0
 30
0.0
  0
TEXT
  5
2DB
  8
____
 62
     7
 10
99.507400000000004
 20
176.53744
 30
0.0
 40
3.0923400000000001
  1
323
 50
90.0
 41
0.5
 72
     1
 11
99.507400000000004
 21
178.59899999999999
 31
0.0
  0
TEXT
  5
2DC
  8
____
 62
     7
 10
99.507400000000004
 20
199.79513499999999
 30
0.0
 40
3.0923400000000001
  1
137
 50
90.0
 41
0.5
 72
     1
 11
99.507400000000004
 21
201.59899999999999
 31
0.0
  0
TEXT
  5
2DD
  8
____
 62
     7
 10
93.841899999999995
 20
203.91052500000001
 30
0.0
 40
3.0923400000000001
  1
65
 50
90.0
 41
0.5
 72
     1
 11
93.841899999999995
 21
205.19900000000001
 31
0.0
  0
TEXT
  5
2DE
  8
____
 62
     7
 10
93.841899999999995
 20
197.06052500000001
 30
0.0
 40
3.0923400000000001
  1
72
 50
90.0
 41
0.5
 72
     1
 11
93.841899999999995
 21
198.34899999999999
 31
0.0
  0
TEXT
  5
2DF
  8
____
 62
     7
 10
105.086
 20
183.0162875
 30
0.0
 40
3.0923400000000001
  1
470
 50
90.0
 41
0.5
 72
     1
 11
105.086
 21
184.94900000000001
 31
0.0
  0
TEXT
  5
2E0
  8
____
 62
     7
 10
22.287500000000001
 20
39.127200000000002
 30
0.0
 40
3.9357000000000002
  1
※壁取付部には厚さ30mm以上の補強木を入れてください。
 41
0.5
  0
TEXT
  5
2E1
  8
____
 62
     7
 10
134.33276000000001
 20
146.41800000000001
 30
0.0
 40
3.0923400000000001
  1
カウンター切込寸法
 41
0.5
 72
     1
 11
142.57900000000001
 21
146.41800000000001
 31
0.0
  0
TEXT
  5
2E2
  8
____
 62
     7
 10
155.99564599999999
 20
212.327
 30
0.0
 40
3.0923400000000001
  1
洗面器後端
 41
0.5
 72
     1
 11
160.428
 21
212.327
 31
0.0
  0
INSERT
  5
2E3
  8
_________1
 62
     7
  2
AIGNBL02010002
 10
0.0
 20
0.0
 30
0.0
  0
INSERT
  5
2E4
  8
_________1
 62
     7
  2
AIGNBL02010003
 10
0.0
 20
0.0
 30
0.0
  0
INSERT
  5
2E5
  8
_________1
 62
     7
  2
AIGNBL02010004
 10
0.0
 20
0.0
 30
0.0
  0
INSERT
  5
2E6
  8
_________1
 62
     7
  2
AIGNBL02010005
 10
0.0
 20
0.0
 30
0.0
  0
INSERT
  5
2E7
  8
_________1
 62
     7
  2
AIGNBL02010006
 10
0.0
 20
0.0
 30
0.0
  0
INSERT
  5
2E8
  8
_________1
 62
     7
  2
AIGNBL02010007
 10
0.0
 20
0.0
 30
0.0
  0
INSERT
  5
2E9
  8
_________1
 62
     7
  2
AIGNBL02010008
 10
0.0
 20
0.0
 30
0.0
  0
INSERT
  5
2EA
  8
_________1
 62
     7
  2
AIGNBL02010009
 10
0.0
 20
0.0
 30
0.0
  0
ARC
  5
2EB
  8
_________1
 62
     7
 10
129.61857499999999
 20
94.786800999999997
 30
0.0
 40
0.5076760000000001
 50
13.230225000000001
 51
49.065741000000003
  0
INSERT
  5
2EC
  8
_________1
 62
     7
  2
AIGNBL0201000A
 10
0.0
 20
0.0
 30
0.0
  0
ARC
  5
2ED
  8
_________1
 62
     7
 10
122.433083
 20
98.550464000000005
 30
0.0
 40
0.5066530000000001
 50
49.221381999999998
 51
89.745514000000014
  0
ARC
  5
2EE
  8
_________1
 62
     7
 10
117.890097
 20
99.368789000000007
 30
0.0
 40
0.311893
 50
182.0694419999999
 51
267.86484400000001
  0
LINE
  5
2EF
  8
_________1
 62
     7
 10
117.578
 20
104.035
 30
0.0
 11
117.578
 21
99.357500000000002
 31
0.0
  0
LINE
  5
2F0
  8
_________1
 62
     7
 10
129.95099999999999
 20
95.170299999999997
 30
0.0
 11
122.764
 21
98.934100000000015
 31
0.0
  0
ARC
  5
2F1
  8
_________1
  6
AIGENLINE002
 62
     7
 10
163.05946900000001
 20
104.07665900000001
 30
0.0
 40
0.519549
 50
272.127861
 51
357.83264800000001
  0
ARC
  5
2F2
  8
_________1
  6
AIGENLINE002
 62
     7
 10
164.097872
 20
104.03803000000001
 30
0.0
 40
0.5195720000000001
 50
92.133097000000006
 51
177.90634700000001
  0
INSERT
  5
2F3
  8
_________1
 62
     7
  2
AIGNBL0201000B
 10
0.0
 20
0.0
 30
0.0
  0
INSERT
  5
2F4
  8
_________1
 62
     7
  2
AIGNBL0201000C
 10
0.0
 20
0.0
 30
0.0
  0
INSERT
  5
2F5
  8
_________1
 62
     7
  2
AIGNBL0201000D
 10
0.0
 20
0.0
 30
0.0
  0
INSERT
  5
2F6
  8
_________1
 62
     7
  2
AIGNBL0201000E
 10
0.0
 20
0.0
 30
0.0
  0
INSERT
  5
2F7
  8
_________1
 62
     7
  2
AIGNBL0201000F
 10
0.0
 20
0.0
 30
0.0
  0
INSERT
  5
2F8
  8
_________1
 62
     7
  2
AIGNBL02010010
 10
0.0
 20
0.0
 30
0.0
  0
INSERT
  5
2F9
  8
_________1
 62
     7
  2
AIGNBL02010011
 10
0.0
 20
0.0
 30
0.0
  0
INSERT
  5
2FA
  8
_________1
 62
     7
  2
AIGNBL02010012
 10
0.0
 20
0.0
 30
0.0
  0
INSERT
  5
2FB
  8
_________1
 62
     7
  2
AIGNBL02010013
 10
0.0
 20
0.0
 30
0.0
  0
INSERT
  5
2FC
  8
_________1
 62
     7
  2
AIGNBL02010014
 10
0.0
 20
0.0
 30
0.0
  0
INSERT
  5
2FD
  8
_________1
 62
     7
  2
AIGNBL02010015
 10
0.0
 20
0.0
 30
0.0
  0
INSERT
  5
2FE
  8
_________1
 62
     7
  2
AIGNBL02010016
 10
0.0
 20
0.0
 30
0.0
  0
INSERT
  5
2FF
  8
_________1
 62
     7
  2
AIGNBL02010017
 10
0.0
 20
0.0
 30
0.0
  0
INSERT
  5
300
  8
_________1
 62
     7
  2
AIGNBL02010018
 10
0.0
 20
0.0
 30
0.0
  0
INSERT
  5
301
  8
_________1
 62
     7
  2
AIGNBL02010019
 10
0.0
 20
0.0
 30
0.0
  0
INSERT
  5
302
  8
_________1
 62
     7
  2
AIGNBL0201001A
 10
0.0
 20
0.0
 30
0.0
  0
INSERT
  5
303
  8
_________1
 62
     7
  2
AIGNBL0201001B
 10
0.0
 20
0.0
 30
0.0
  0
INSERT
  5
304
  8
_________1
 62
     7
  2
AIGNBL0201001C
 10
0.0
 20
0.0
 30
0.0
  0
INSERT
  5
305
  8
_________1
 62
     7
  2
AIGNBL0201001D
 10
0.0
 20
0.0
 30
0.0
  0
INSERT
  5
306
  8
_________1
 62
     7
  2
AIGNBL0201001E
 10
0.0
 20
0.0
 30
0.0
  0
INSERT
  5
307
  8
_________1
 62
     7
  2
AIGNBL0201001F
 10
0.0
 20
0.0
 30
0.0
  0
INSERT
  5
308
  8
_________1
 62
     7
  2
AIGNBL02010020
 10
0.0
 20
0.0
 30
0.0
  0
INSERT
  5
309
  8
_________1
 62
     7
  2
AIGNBL02010021
 10
0.0
 20
0.0
 30
0.0
  0
INSERT
  5
30A
  8
_________1
 62
     7
  2
AIGNBL02010022
 10
0.0
 20
0.0
 30
0.0
  0
INSERT
  5
30B
  8
_________1
 62
     7
  2
AIGNBL02010023
 10
0.0
 20
0.0
 30
0.0
  0
INSERT
  5
30C
  8
_________1
 62
     7
  2
AIGNBL02010024
 10
0.0
 20
0.0
 30
0.0
  0
INSERT
  5
30D
  8
_________1
 62
     7
  2
AIGNBL02010025
 10
0.0
 20
0.0
 30
0.0
  0
INSERT
  5
30E
  8
_________1
 62
     7
  2
AIGNBL02010026
 10
0.0
 20
0.0
 30
0.0
  0
INSERT
  5
30F
  8
_________1
 62
     7
  2
AIGNBL02010027
 10
0.0
 20
0.0
 30
0.0
  0
INSERT
  5
310
  8
_________1
 62
     7
  2
AIGNBL02010028
 10
0.0
 20
0.0
 30
0.0
  0
INSERT
  5
311
  8
_________1
 62
     7
  2
AIGNBL02010029
 10
0.0
 20
0.0
 30
0.0
  0
INSERT
  5
312
  8
_________1
 62
     7
  2
AIGNBL0201002A
 10
0.0
 20
0.0
 30
0.0
  0
INSERT
  5
313
  8
_________1
 62
     7
  2
AIGNBL0201002B
 10
0.0
 20
0.0
 30
0.0
  0
INSERT
  5
314
  8
_________1
 62
     7
  2
AIGNBL0201002C
 10
0.0
 20
0.0
 30
0.0
  0
INSERT
  5
315
  8
_________1
 62
     7
  2
AIGNBL0201002D
 10
0.0
 20
0.0
 30
0.0
  0
INSERT
  5
316
  8
_________1
 62
     7
  2
AIGNBL0201002E
 10
0.0
 20
0.0
 30
0.0
  0
INSERT
  5
317
  8
_________1
 62
     7
  2
AIGNBL0201002F
 10
0.0
 20
0.0
 30
0.0
  0
INSERT
  5
318
  8
_________1
 62
     7
  2
AIGNBL02010030
 10
0.0
 20
0.0
 30
0.0
  0
INSERT
  5
319
  8
_________1
 62
     7
  2
AIGNBL02010031
 10
0.0
 20
0.0
 30
0.0
  0
INSERT
  5
31A
  8
_________1
 62
     7
  2
AIGNBL02010032
 10
0.0
 20
0.0
 30
0.0
  0
INSERT
  5
31B
  8
_________1
 62
     7
  2
AIGNBL02010033
 10
0.0
 20
0.0
 30
0.0
  0
LINE
  5
31C
  8
_________1
 62
     7
 10
161.071
 20
100.29600000000001
 30
0.0
 11
161.071
 21
110.14100000000001
 31
0.0
  0
LINE
  5
31D
  8
_________1
 62
     7
 10
161.66399999999999
 20
106.76900000000001
 30
0.0
 11
161.071
 21
104.557
 31
0.0
  0
LINE
  5
31E
  8
_________1
 62
     7
 10
161.071
 20
104.557
 30
0.0
 11
160.47900000000001
 21
106.76900000000001
 31
0.0
  0
LINE
  5
31F
  8
_________1
 62
     7
 10
160.47900000000001
 20
106.76900000000001
 30
0.0
 11
161.66399999999999
 21
106.76900000000001
 31
0.0
  0
LINE
  5
320
  8
_________1
 62
     7
 10
160.47900000000001
 20
101.345
 30
0.0
 11
161.071
 21
103.557
 31
0.0
  0
LINE
  5
321
  8
_________1
 62
     7
 10
161.071
 20
103.557
 30
0.0
 11
161.66399999999999
 21
101.345
 31
0.0
  0
LINE
  5
322
  8
_________1
 62
     7
 10
161.66399999999999
 20
101.345
 30
0.0
 11
160.47900000000001
 21
101.345
 31
0.0
  0
LINE
  5
323
  8
_________1
 62
     7
 10
55.183900000000001
 20
205.374
 30
0.0
 11
63.296500000000002
 21
197.261
 31
0.0
  0
LINE
  5
324
  8
_________1
 62
     7
 10
63.296500000000002
 20
197.261
 30
0.0
 11
69.925899999999984
 21
197.261
 31
0.0
  0
LINE
  5
325
  8
_________1
 62
     7
 10
55.3797
 20
204.34
 30
0.0
 11
57.3628
 21
203.19499999999999
 31
0.0
  0
LINE
  5
326
  8
_________1
 62
     7
 10
57.3628
 20
203.19499999999999
 30
0.0
 11
56.2179
 21
205.178
 31
0.0
  0
LINE
  5
327
  8
_________1
 62
     7
 10
56.2179
 20
205.178
 30
0.0
 11
55.3797
 21
204.34
 31
0.0
  0
LINE
  5
328
  8
_________1
 62
     7
 10
61.819499999999998
 20
199.57599999999999
 30
0.0
 11
59.8369
 21
200.721
 31
0.0
  0
LINE
  5
329
  8
_________1
 62
     7
 10
59.8369
 20
200.721
 30
0.0
 11
60.981699999999989
 21
198.738
 31
0.0
  0
LINE
  5
32A
  8
_________1
 62
     7
 10
60.981699999999989
 20
198.738
 30
0.0
 11
61.819499999999998
 21
199.57599999999999
 31
0.0
  0
LINE
  5
32B
  8
_________1
 62
     7
 10
55.017800000000001
 20
189.185
 30
0.0
 11
57.000799999999991
 21
188.03999999999999
 31
0.0
  0
LINE
  5
32C
  8
_________1
 62
     7
 10
57.000799999999991
 20
188.03999999999999
 30
0.0
 11
55.856000000000002
 21
190.023
 31
0.0
  0
LINE
  5
32D
  8
_________1
 62
     7
 10
55.856000000000002
 20
190.023
 30
0.0
 11
55.017800000000001
 21
189.185
 31
0.0
  0
LINE
  5
32E
  8
_________1
 62
     7
 10
62.164900000000003
 20
183.714
 30
0.0
 11
60.182200000000002
 21
184.85900000000001
 31
0.0
  0
LINE
  5
32F
  8
_________1
 62
     7
 10
60.182200000000002
 20
184.85900000000001
 30
0.0
 11
61.326999999999991
 21
182.87599999999989
 31
0.0
  0
LINE
  5
330
  8
_________1
 62
     7
 10
61.326999999999991
 20
182.87599999999989
 30
0.0
 11
62.164900000000003
 21
183.714
 31
0.0
  0
LINE
  5
331
  8
_________1
 62
     7
 10
54.091799999999999
 20
190.94900000000001
 30
0.0
 11
63.091799999999999
 21
181.94900000000001
 31
0.0
  0
LINE
  5
332
  8
_________1
 62
     7
 10
63.091799999999999
 20
181.94900000000001
 30
0.0
 11
69.833200000000005
 21
181.94900000000001
 31
0.0
  0
INSERT
  5
333
  8
_________1
 62
     7
  2
AIGNBL02010034
 10
0.0
 20
0.0
 30
0.0
  0
LINE
  5
334
  8
_________1
 62
     7
 10
22.5578
 20
186.44900000000001
 30
0.0
 11
53.500900000000001
 21
186.44900000000001
 31
0.0
  0
LINE
  5
335
  8
_________1
 62
     7
 10
22.5578
 20
208.44900000000001
 30
0.0
 11
27.3005
 21
208.44900000000001
 31
0.0
  0
LINE
  5
336
  8
_________1
 62
     7
 10
88.092999999999975
 20
160.74600000000001
 30
0.0
 11
88.092999999999975
 21
150.95099999999999
 31
0.0
  0
LINE
  5
337
  8
_________1
 62
     7
 10
29.090900000000001
 20
151.65100000000001
 30
0.0
 11
22.212700000000002
 21
151.65100000000001
 31
0.0
  0
LINE
  5
338
  8
_________1
 62
     7
 10
25.8794
 20
151.065
 30
0.0
 11
28.090800000000002
 21
151.65799999999999
 31
0.0
  0
LINE
  5
339
  8
_________1
 62
     7
 10
28.090800000000002
 20
151.65799999999999
 30
0.0
 11
25.8794
 21
152.251
 31
0.0
  0
LINE
  5
33A
  8
_________1
 62
     7
 10
25.8794
 20
152.251
 30
0.0
 11
25.8794
 21
151.065
 31
0.0
  0
LINE
  5
33B
  8
_________1
 62
     7
 10
85.775199999999984
 20
151.065
 30
0.0
 11
87.986900000000006
 21
151.65799999999999
 31
0.0
  0
LINE
  5
33C
  8
_________1
 62
     7
 10
87.986900000000006
 20
151.65799999999999
 30
0.0
 11
85.775199999999984
 21
152.251
 31
0.0
  0
LINE
  5
33D
  8
_________1
 62
     7
 10
85.775199999999984
 20
152.251
 30
0.0
 11
85.775199999999984
 21
151.065
 31
0.0
  0
LINE
  5
33E
  8
_________1
 62
     7
 10
91.303200000000004
 20
152.23599999999999
 30
0.0
 11
89.091399999999979
 21
151.64400000000001
 31
0.0
  0
LINE
  5
33F
  8
_________1
 62
     7
 10
89.091399999999979
 20
151.64400000000001
 30
0.0
 11
91.303200000000004
 21
151.05099999999999
 31
0.0
  0
LINE
  5
340
  8
_________1
 62
     7
 10
91.303200000000004
 20
151.05099999999999
 30
0.0
 11
91.303200000000004
 21
152.23599999999999
 31
0.0
  0
LINE
  5
341
  8
_________1
 62
     7
 10
31.301600000000001
 20
152.23599999999999
 30
0.0
 11
29.0899
 21
151.64400000000001
 31
0.0
  0
LINE
  5
342
  8
_________1
 62
     7
 10
29.0899
 20
151.64400000000001
 30
0.0
 11
31.301600000000001
 21
151.05099999999999
 31
0.0
  0
LINE
  5
343
  8
_________1
 62
     7
 10
31.301600000000001
 20
151.05099999999999
 30
0.0
 11
31.301600000000001
 21
152.23599999999999
 31
0.0
  0
INSERT
  5
344
  8
_________1
 62
     7
  2
AIGNBL02010035
 10
0.0
 20
0.0
 30
0.0
  0
LINE
  5
345
  8
_________1
 62
     7
 10
94.9709
 20
151.65100000000001
 30
0.0
 11
29.090900000000001
 21
151.65100000000001
 31
0.0
  0
LINE
  5
346
  8
_________1
 62
     7
 10
29.090900000000001
 20
160.74600000000001
 30
0.0
 11
29.090900000000001
 21
150.95099999999999
 31
0.0
  0
LINE
  5
347
  8
_________1
 62
     7
 10
28.090800000000002
 20
160.74600000000001
 30
0.0
 11
28.090800000000002
 21
144.126
 31
0.0
  0
LINE
  5
348
  8
_________1
 62
     7
 10
89.091399999999979
 20
160.74600000000001
 30
0.0
 11
89.091399999999979
 21
144.126
 31
0.0
  0
LINE
  5
349
  8
_________1
 62
     7
 10
95.134500000000003
 20
199.738
 30
0.0
 11
94.541899999999998
 21
201.94900000000001
 31
0.0
  0
LINE
  5
34A
  8
_________1
 62
     7
 10
94.541899999999998
 20
201.94900000000001
 30
0.0
 11
93.949399999999997
 21
199.738
 31
0.0
  0
LINE
  5
34B
  8
_________1
 62
     7
 10
93.949399999999997
 20
199.738
 30
0.0
 11
95.134500000000003
 21
199.738
 31
0.0
  0
LINE
  5
34C
  8
_________1
 62
     7
 10
93.963899999999995
 20
196.959
 30
0.0
 11
94.556399999999996
 21
194.74700000000001
 31
0.0
  0
LINE
  5
34D
  8
_________1
 62
     7
 10
94.556399999999996
 20
194.74700000000001
 30
0.0
 11
95.149000000000001
 21
196.959
 31
0.0
  0
LINE
  5
34E
  8
_________1
 62
     7
 10
95.149000000000001
 20
196.959
 30
0.0
 11
93.963899999999995
 21
196.959
 31
0.0
  0
LINE
  5
34F
  8
_________1
 62
     7
 10
94.549199999999985
 20
201.94800000000001
 30
0.0
 11
94.549199999999985
 21
194.74799999999999
 31
0.0
  0
LINE
  5
350
  8
_________1
 62
     7
 10
95.134500000000003
 20
206.239
 30
0.0
 11
94.541899999999998
 21
208.44999999999999
 31
0.0
  0
LINE
  5
351
  8
_________1
 62
     7
 10
94.541899999999998
 20
208.44999999999999
 30
0.0
 11
93.949399999999997
 21
206.239
 31
0.0
  0
LINE
  5
352
  8
_________1
 62
     7
 10
93.949399999999997
 20
206.239
 30
0.0
 11
95.134500000000003
 21
206.239
 31
0.0
  0
LINE
  5
353
  8
_________1
 62
     7
 10
93.963899999999995
 20
204.16
 30
0.0
 11
94.556399999999996
 21
201.94800000000001
 31
0.0
  0
LINE
  5
354
  8
_________1
 62
     7
 10
94.556399999999996
 20
201.94800000000001
 30
0.0
 11
95.149000000000001
 21
204.16
 31
0.0
  0
LINE
  5
355
  8
_________1
 62
     7
 10
95.149000000000001
 20
204.16
 30
0.0
 11
93.963899999999995
 21
204.16
 31
0.0
  0
LINE
  5
356
  8
_________1
 62
     7
 10
94.549199999999985
 20
208.44900000000001
 30
0.0
 11
94.549199999999985
 21
201.94900000000001
 31
0.0
  0
LINE
  5
357
  8
_________1
 62
     7
 10
100.20699999999999
 20
162.4489999999999
 30
0.0
 11
100.20699999999999
 21
155.571
 31
0.0
  0
LINE
  5
358
  8
_________1
 62
     7
 10
100.79300000000001
 20
159.23699999999999
 30
0.0
 11
100.2
 21
161.44900000000001
 31
0.0
  0
LINE
  5
359
  8
_________1
 62
     7
 10
100.2
 20
161.44900000000001
 30
0.0
 11
99.607600000000005
 21
159.23699999999999
 31
0.0
  0
LINE
  5
35A
  8
_________1
 62
     7
 10
99.607600000000005
 20
159.23699999999999
 30
0.0
 11
100.79300000000001
 21
159.23699999999999
 31
0.0
  0
LINE
  5
35B
  8
_________1
 62
     7
 10
100.79300000000001
 20
192.53800000000001
 30
0.0
 11
100.2
 21
194.75
 31
0.0
  0
LINE
  5
35C
  8
_________1
 62
     7
 10
100.2
 20
194.75
 30
0.0
 11
99.607600000000005
 21
192.53800000000001
 31
0.0
  0
LINE
  5
35D
  8
_________1
 62
     7
 10
99.607600000000005
 20
192.53800000000001
 30
0.0
 11
100.79300000000001
 21
192.53800000000001
 31
0.0
  0
LINE
  5
35E
  8
_________1
 62
     7
 10
99.622100000000003
 20
164.66
 30
0.0
 11
100.215
 21
162.44800000000001
 31
0.0
  0
LINE
  5
35F
  8
_________1
 62
     7
 10
100.215
 20
162.44800000000001
 30
0.0
 11
100.807
 21
164.66
 31
0.0
  0
LINE
  5
360
  8
_________1
 62
     7
 10
100.807
 20
164.66
 30
0.0
 11
99.622100000000003
 21
164.66
 31
0.0
  0
LINE
  5
361
  8
_________1
 62
     7
 10
100.20699999999999
 20
194.749
 30
0.0
 11
100.20699999999999
 21
162.4489999999999
 31
0.0
  0
LINE
  5
362
  8
_________1
 62
     7
 10
169.64099999999999
 20
166.22499999999999
 30
0.0
 11
170.78599999999989
 21
164.24199999999999
 31
0.0
  0
LINE
  5
363
  8
_________1
 62
     7
 10
170.78599999999989
 20
164.24199999999999
 30
0.0
 11
168.803
 21
165.387
 31
0.0
  0
LINE
  5
364
  8
_________1
 62
     7
 10
168.803
 20
165.387
 30
0.0
 11
169.64099999999999
 21
166.22499999999999
 31
0.0
  0
LINE
  5
365
  8
_________1
 62
     7
 10
170.78599999999989
 20
164.24199999999999
 30
0.0
 11
166.23699999999999
 21
168.78999999999999
 31
0.0
  0
LINE
  5
366
  8
_________1
 62
     7
 10
166.23699999999999
 20
168.78999999999999
 30
0.0
 11
160.37200000000001
 21
168.78999999999999
 31
0.0
  0
LINE
  5
367
  8
_________1
 62
     7
 10
115.51600000000001
 20
166.22499999999999
 30
0.0
 11
114.371
 21
164.24199999999999
 31
0.0
  0
LINE
  5
368
  8
_________1
 62
     7
 10
114.371
 20
164.24199999999999
 30
0.0
 11
116.354
 21
165.387
 31
0.0
  0
LINE
  5
369
  8
_________1
 62
     7
 10
116.354
 20
165.387
 30
0.0
 11
115.51600000000001
 21
166.22499999999999
 31
0.0
  0
LINE
  5
36A
  8
_________1
 62
     7
 10
114.371
 20
164.24199999999999
 30
0.0
 11
118.92
 21
168.78999999999999
 31
0.0
  0
LINE
  5
36B
  8
_________1
 62
     7
 10
100.79300000000001
 20
206.239
 30
0.0
 11
100.2
 21
208.44999999999999
 31
0.0
  0
LINE
  5
36C
  8
_________1
 62
     7
 10
100.2
 20
208.44999999999999
 30
0.0
 11
99.607600000000005
 21
206.239
 31
0.0
  0
LINE
  5
36D
  8
_________1
 62
     7
 10
99.607600000000005
 20
206.239
 30
0.0
 11
100.79300000000001
 21
206.239
 31
0.0
  0
LINE
  5
36E
  8
_________1
 62
     7
 10
99.622100000000003
 20
196.96000000000001
 30
0.0
 11
100.215
 21
194.749
 31
0.0
  0
LINE
  5
36F
  8
_________1
 62
     7
 10
100.215
 20
194.749
 30
0.0
 11
100.807
 21
196.96000000000001
 31
0.0
  0
LINE
  5
370
  8
_________1
 62
     7
 10
100.807
 20
196.96000000000001
 30
0.0
 11
99.622100000000003
 21
196.96000000000001
 31
0.0
  0
LINE
  5
371
  8
_________1
 62
     7
 10
100.20699999999999
 20
208.44900000000001
 30
0.0
 11
100.20699999999999
 21
194.749
 31
0.0
  0
LINE
  5
372
  8
_________1
 62
     7
 10
106.371
 20
206.239
 30
0.0
 11
105.779
 21
208.44999999999999
 31
0.0
  0
LINE
  5
373
  8
_________1
 62
     7
 10
105.779
 20
208.44999999999999
 30
0.0
 11
105.18600000000001
 21
206.239
 31
0.0
  0
LINE
  5
374
  8
_________1
 62
     7
 10
105.18600000000001
 20
206.239
 30
0.0
 11
106.371
 21
206.239
 31
0.0
  0
LINE
  5
375
  8
_________1
 62
     7
 10
105.2
 20
163.66
 30
0.0
 11
105.79300000000001
 21
161.44800000000001
 31
0.0
  0
LINE
  5
376
  8
_________1
 62
     7
 10
105.79300000000001
 20
161.44800000000001
 30
0.0
 11
106.386
 21
163.66
 31
0.0
  0
LINE
  5
377
  8
_________1
 62
     7
 10
106.386
 20
163.66
 30
0.0
 11
105.2
 21
163.66
 31
0.0
  0
LINE
  5
378
  8
_________1
 62
     7
 10
105.786
 20
208.44900000000001
 30
0.0
 11
105.786
 21
161.44900000000001
 31
0.0
  0
INSERT
  5
379
  8
_________1
 62
     7
  2
AIGNBL02010036
 10
0.0
 20
0.0
 30
0.0
  0
LINE
  5
37A
  8
_________1
 62
     7
 10
118.92
 20
168.78999999999999
 30
0.0
 11
124.785
 21
168.78999999999999
 31
0.0
  0
LINE
  5
37B
  8
_________1
 62
     7
 10
148.386
 20
186.44900000000001
 30
0.0
 11
158.22800000000001
 21
186.44900000000001
 31
0.0
  0
LINE
  5
37C
  8
_________1
 62
     7
 10
89.747399999999999
 20
162.4489999999999
 30
0.0
 11
100.907
 21
162.4489999999999
 31
0.0
  0
LINE
  5
37D
  8
_________1
 62
     7
 10
89.747399999999999
 20
161.44900000000001
 30
0.0
 11
106.486
 21
161.44900000000001
 31
0.0
  0
LINE
  5
37E
  8
_________1
 62
     7
 10
89.747399999999999
 20
194.749
 30
0.0
 11
100.907
 21
194.749
 31
0.0
  0
LINE
  5
37F
  8
_________1
 62
     7
 10
62.491700000000002
 20
201.94900000000001
 30
0.0
 11
95.249199999999988
 21
201.94900000000001
 31
0.0
  0
LINE
  5
380
  8
_________1
 62
     7
 10
89.747399999999999
 20
208.44900000000001
 30
0.0
 11
106.486
 21
208.44900000000001
 31
0.0
  0
INSERT
  5
381
  8
_________1
 62
     7
  2
AIGNBL02010037
 10
0.0
 20
0.0
 30
0.0
  0
LINE
  5
382
  8
_________1
 62
     7
 10
176.15700000000001
 20
208.44900000000001
 30
0.0
 11
179.80500000000001
 21
208.44900000000001
 31
0.0
  0
LINE
  5
383
  8
_________1
 62
     7
 10
171.779
 20
163.94900000000001
 30
0.0
 11
179.80500000000001
 21
163.94900000000001
 31
0.0
  0
INSERT
  5
384
  8
_________1
 62
     7
  2
AIGNBL02010038
 10
0.0
 20
0.0
 30
0.0
  0
LINE
  5
385
  8
_________1
 62
     7
 10
171.07900000000001
 20
163.249
 30
0.0
 11
171.07900000000001
 21
153.39099999999999
 31
0.0
  0
LINE
  5
386
  8
_________1
 62
     7
 10
114.07899999999999
 20
163.249
 30
0.0
 11
114.07899999999999
 21
153.39099999999999
 31
0.0
  0
INSERT
  5
387
  8
_________1
 62
     7
  2
AIGNBL02010039
 10
0.0
 20
0.0
 30
0.0
  0
INSERT
  5
388
  8
_________1
 62
     7
  2
AIGNBL0201003A
 10
0.0
 20
0.0
 30
0.0
  0
INSERT
  5
389
  8
_________1
 62
     7
  2
AIGNBL0201003B
 10
0.0
 20
0.0
 30
0.0
  0
LINE
  5
38A
  8
_________1
 62
     7
 10
95.1417
 20
102.41
 30
0.0
 11
94.549199999999985
 21
104.621
 31
0.0
  0
LINE
  5
38B
  8
_________1
 62
     7
 10
94.549199999999985
 20
104.621
 30
0.0
 11
93.956599999999995
 21
102.41
 31
0.0
  0
LINE
  5
38C
  8
_________1
 62
     7
 10
93.956599999999995
 20
102.41
 30
0.0
 11
95.1417
 21
102.41
 31
0.0
  0
LINE
  5
38D
  8
_________1
 62
     7
 10
93.971100000000007
 20
101.813
 30
0.0
 11
94.563599999999994
 21
99.601399999999998
 31
0.0
  0
LINE
  5
38E
  8
_________1
 62
     7
 10
94.563599999999994
 20
99.601399999999998
 30
0.0
 11
95.156199999999998
 21
101.813
 31
0.0
  0
LINE
  5
38F
  8
_________1
 62
     7
 10
95.156199999999998
 20
101.813
 30
0.0
 11
93.971100000000007
 21
101.813
 31
0.0
  0
LINE
  5
390
  8
_________1
 62
     7
 10
94.556399999999996
 20
104.621
 30
0.0
 11
94.556399999999996
 21
99.601399999999998
 31
0.0
  0
INSERT
  5
391
  8
_________1
 62
     7
  2
AIGNBL0201003C
 10
0.0
 20
0.0
 30
0.0
  0
LINE
  5
392
  8
_________1
 62
     7
 10
76.341700000000003
 20
89.856600000000014
 30
0.0
 11
76.341700000000003
 21
79.298699999999997
 31
0.0
  0
LINE
  5
393
  8
_________1
 62
     7
 10
40.841500000000003
 20
89.856600000000014
 30
0.0
 11
40.841500000000003
 21
79.298699999999997
 31
0.0
  0
LINE
  5
394
  8
_________1
  6
AIGENLINE001
 62
     7
 10
69.091700000000003
 20
210.483
 30
0.0
 11
69.091700000000003
 21
205.255
 31
0.0
  0
LINE
  5
395
  8
_________1
  6
AIGENLINE001
 62
     7
 10
48.09129999999999
 20
210.483
 30
0.0
 11
48.09129999999999
 21
205.255
 31
0.0
  0
LINE
  5
396
  8
_________1
 62
     7
 10
69.091700000000003
 20
111.31100000000001
 30
0.0
 11
69.091700000000003
 21
99.507400000000004
 31
0.0
  0
LINE
  5
397
  8
_________1
 62
     7
 10
142.57900000000001
 20
84.650000000000006
 30
0.0
 11
142.57900000000001
 21
79.298699999999997
 31
0.0
  0
LINE
  5
398
  8
_________1
 62
     7
 10
164.57900000000001
 20
89.861699999999985
 30
0.0
 11
164.57900000000001
 21
79.298699999999997
 31
0.0
  0
LINE
  5
399
  8
_________1
 62
     7
 10
48.09129999999999
 20
111.31100000000001
 30
0.0
 11
48.09129999999999
 21
99.507400000000004
 31
0.0
  0
LINE
  5
39A
  8
_________1
 62
     7
 10
62.807899999999989
 20
87.357100000000003
 30
0.0
 11
106.486
 21
87.357100000000003
 31
0.0
  0
LINE
  5
39B
  8
_________1
 62
     7
 10
77.041799999999995
 20
90.557299999999998
 30
0.0
 11
100.822
 21
90.557299999999998
 31
0.0
  0
LINE
  5
39C
  8
_________1
 62
     7
 10
89.792800000000014
 20
99.601399999999998
 30
0.0
 11
95.249199999999988
 21
99.601399999999998
 31
0.0
  0
LINE
  5
39D
  8
_________1
 62
     7
 10
89.792800000000014
 20
104.601
 30
0.0
 11
106.486
 21
104.601
 31
0.0
  0
LINE
  5
39E
  8
_________1
 62
     7
 10
24.134399999999999
 20
97.601200000000006
 30
0.0
 11
45.141499999999994
 21
97.601200000000006
 31
0.0
  0
LINE
  5
39F
  8
_________1
 62
     7
 10
24.134399999999999
 20
104.601
 30
0.0
 11
27.391400000000001
 21
104.601
 31
0.0
  0
INSERT
  5
3A0
  8
_________1
 62
     7
  2
AIGNBL0201003D
 10
0.0
 20
0.0
 30
0.0
  0
INSERT
  5
3A1
  8
_________1
 62
     7
  2
AIGNBL0201003E
 10
0.0
 20
0.0
 30
0.0
  0
INSERT
  5
3A2
  8
_________1
 62
     7
  2
AIGNBL0201003F
 10
0.0
 20
0.0
 30
0.0
  0
INSERT
  5
3A3
  8
_________1
 62
     7
  2
AIGNBL02010040
 10
0.0
 20
0.0
 30
0.0
  0
INSERT
  5
3A4
  8
_________1
 62
     7
  2
AIGNBL02010041
 10
0.0
 20
0.0
 30
0.0
  0
INSERT
  5
3A5
  8
_________1
 62
     7
  2
AIGNBL02010042
 10
0.0
 20
0.0
 30
0.0
  0
INSERT
  5
3A6
  8
_________1
 62
     7
  2
AIGNBL02010043
 10
0.0
 20
0.0
 30
0.0
  0
ARC
  5
3A7
  8
_________1
  6
AIGENLINE002
 62
     7
 10
68.645966000000001
 20
97.546261000000015
 30
0.0
 40
1.055745999999999
 50
92.063036999999966
 51
177.016775
  0
ARC
  5
3A8
  8
_________1
  6
AIGENLINE002
 62
     7
 10
68.630319999999998
 20
97.640608999999998
 30
0.0
 40
1.039417
 50
182.17257799999999
 51
268.76734699999997
  0
LINE
  5
3A9
  8
_________1
  6
AIGENLINE002
 62
     7
 10
68.608000000000004
 20
96.601399999999998
 30
0.0
 11
69.575299999999999
 21
96.601399999999998
 31
0.0
  0
ARC
  5
3AA
  8
_________1
  6
AIGENLINE002
 62
     7
 10
69.537367000000003
 20
97.656489000000022
 30
0.0
 40
1.055739999999999
 50
272.06176399999998
 51
356.99835000000002
  0
ARC
  5
3AB
  8
_________1
  6
AIGENLINE002
 62
     7
 10
69.552634999999995
 20
97.561801000000017
 30
0.0
 40
1.0397700000000001
 50
2.171869
 51
88.748279000000011
  0
LINE
  5
3AC
  8
_________1
  6
AIGENLINE002
 62
     7
 10
69.575299999999999
 20
98.601299999999995
 30
0.0
 11
68.608000000000004
 21
98.601299999999995
 31
0.0
  0
LINE
  5
3AD
  8
_________1
  6
AIGENLINE001
 62
     7
 10
69.091700000000003
 20
96.307199999999995
 30
0.0
 11
69.091700000000003
 21
98.807299999999984
 31
0.0
  0
LINE
  5
3AE
  8
_________1
  6
AIGENLINE001
 62
     7
 10
66.8416
 20
97.601200000000006
 30
0.0
 11
71.341300000000004
 21
97.601200000000006
 31
0.0
  0
ARC
  5
3AF
  8
_________1
  6
AIGENLINE002
 62
     7
 10
47.645578
 20
97.546610000000001
 30
0.0
 40
1.0553980000000001
 50
92.064467000000022
 51
177.03476800000001
  0
ARC
  5
3B0
  8
_________1
  6
AIGENLINE002
 62
     7
 10
47.63024699999999
 20
97.64058399999999
 30
0.0
 40
1.0394000000000001
 50
182.171255
 51
268.74924800000002
  0
LINE
  5
3B1
  8
_________1
  6
AIGENLINE002
 62
     7
 10
47.607599999999998
 20
96.601399999999998
 30
0.0
 11
48.575600000000001
 21
96.601399999999998
 31
0.0
  0
ARC
  5
3B2
  8
_________1
  6
AIGENLINE002
 62
     7
 10
48.537630999999998
 20
97.656149999999997
 30
0.0
 40
1.0554019999999991
 50
272.06372800000003
 51
357.01580899999999
  0
ARC
  5
3B3
  8
_________1
  6
AIGENLINE002
 62
     7
 10
48.552594999999997
 20
97.561825999999996
 30
0.0
 40
1.0397529999999999
 50
2.170547
 51
88.730179000000007
  0
LINE
  5
3B4
  8
_________1
  6
AIGENLINE002
 62
     7
 10
48.575600000000001
 20
98.601299999999995
 30
0.0
 11
47.607599999999998
 21
98.601299999999995
 31
0.0
  0
LINE
  5
3B5
  8
_________1
  6
AIGENLINE001
 62
     7
 10
48.0916
 20
96.307199999999995
 30
0.0
 11
48.0916
 21
98.807299999999984
 31
0.0
  0
LINE
  5
3B6
  8
_________1
  6
AIGENLINE001
 62
     7
 10
45.841599999999993
 20
97.601200000000006
 30
0.0
 11
50.341599999999993
 21
97.601200000000006
 31
0.0
  0
ARC
  5
3B7
  8
_________1
 62
     7
 10
77.165604999999985
 20
92.915952000000004
 30
0.0
 40
0.8233919999999999
 50
103.733907
 51
178.71268599999999
  0
INSERT
  5
3B8
  8
_________1
 62
     7
  2
AIGNBL02010044
 10
0.0
 20
0.0
 30
0.0
  0
INSERT
  5
3B9
  8
_________1
 62
     7
  2
AIGNBL02010045
 10
0.0
 20
0.0
 30
0.0
  0
INSERT
  5
3BA
  8
_________1
 62
     7
  2
AIGNBL02010046
 10
0.0
 20
0.0
 30
0.0
  0
INSERT
  5
3BB
  8
_________1
 62
     7
  2
AIGNBL02010047
 10
0.0
 20
0.0
 30
0.0
  0
INSERT
  5
3BC
  8
_________1
 62
     7
  2
AIGNBL02010048
 10
0.0
 20
0.0
 30
0.0
  0
INSERT
  5
3BD
  8
_________1
 62
     7
  2
AIGNBL02010049
 10
0.0
 20
0.0
 30
0.0
  0
INSERT
  5
3BE
  8
_________1
 62
     7
  2
AIGNBL0201004A
 10
0.0
 20
0.0
 30
0.0
  0
INSERT
  5
3BF
  8
_________1
 62
     7
  2
AIGNBL0201004B
 10
0.0
 20
0.0
 30
0.0
  0
INSERT
  5
3C0
  8
_________1
 62
     7
  2
AIGNBL0201004C
 10
0.0
 20
0.0
 30
0.0
  0
INSERT
  5
3C1
  8
_________1
 62
     7
  2
AIGNBL0201004D
 10
0.0
 20
0.0
 30
0.0
  0
ARC
  5
3C2
  8
_________1
 62
     7
 10
40.017401
 20
92.915305000000004
 30
0.0
 40
0.8239979999999999
 50
1.331348999999999
 51
76.283407999999994
  0
INSERT
  5
3C3
  8
_________1
 62
     7
  2
AIGNBL0201004E
 10
0.0
 20
0.0
 30
0.0
  0
INSERT
  5
3C4
  8
_________1
 62
     7
  2
AIGNBL0201004F
 10
0.0
 20
0.0
 30
0.0
  0
INSERT
  5
3C5
  8
_________1
 62
     7
  2
AIGNBL02010050
 10
0.0
 20
0.0
 30
0.0
  0
INSERT
  5
3C6
  8
_________1
 62
     7
  2
AIGNBL02010051
 10
0.0
 20
0.0
 30
0.0
  0
INSERT
  5
3C7
  8
_________1
 62
     7
  2
AIGNBL02010052
 10
0.0
 20
0.0
 30
0.0
  0
INSERT
  5
3C8
  8
_________1
 62
     7
  2
AIGNBL02010053
 10
0.0
 20
0.0
 30
0.0
  0
INSERT
  5
3C9
  8
_________1
 62
     7
  2
AIGNBL02010054
 10
0.0
 20
0.0
 30
0.0
  0
INSERT
  5
3CA
  8
_________1
 62
     7
  2
AIGNBL02010055
 10
0.0
 20
0.0
 30
0.0
  0
INSERT
  5
3CB
  8
_________1
 62
     7
  2
AIGNBL02010056
 10
0.0
 20
0.0
 30
0.0
  0
INSERT
  5
3CC
  8
_________1
 62
     7
  2
AIGNBL02010057
 10
0.0
 20
0.0
 30
0.0
  0
INSERT
  5
3CD
  8
_________1
 62
     7
  2
AIGNBL02010058
 10
0.0
 20
0.0
 30
0.0
  0
INSERT
  5
3CE
  8
_________1
 62
     7
  2
AIGNBL02010059
 10
0.0
 20
0.0
 30
0.0
  0
INSERT
  5
3CF
  8
_________1
 62
     7
  2
AIGNBL0201005A
 10
0.0
 20
0.0
 30
0.0
  0
ARC
  5
3D0
  8
_________1
 62
     7
 10
58.591281000000002
 20
186.44940199999999
 30
0.0
 40
3.7501829999999998
 50
269.997388
 51
359.99735800000002
  0
ARC
  5
3D1
  8
_________1
 62
     7
 10
58.591281000000002
 20
186.44905700000001
 30
0.0
 40
3.7498369999999999
 50
179.99733800000001
 51
269.997388
  0
ARC
  5
3D2
  8
_________1
 62
     7
 10
58.591281999999993
 20
186.44940099999999
 30
0.0
 40
3.7498390000000001
 50
90.002631999999991
 51
180.0026419999999
  0
ARC
  5
3D3
  8
_________1
 62
     7
 10
58.591281000000002
 20
186.44905700000001
 30
0.0
 40
3.7501829999999998
 50
0.002642
 51
90.002611999999985
  0
ARC
  5
3D4
  8
_________1
 62
     7
 10
58.504973999999997
 20
186.53536500000001
 30
0.0
 40
2.3377289999999991
 50
272.11159600000002
 51
357.88841400000001
  0
ARC
  5
3D5
  8
_________1
 62
     7
 10
58.678043999999993
 20
186.53616500000001
 30
0.0
 40
2.3385579999999999
 50
182.13046
 51
267.86957000000001
  0
ARC
  5
3D6
  8
_________1
 62
     7
 10
58.677244000000002
 20
186.36309499999999
 30
0.0
 40
2.3377279999999989
 50
92.111559000000014
 51
177.88841099999999
  0
ARC
  5
3D7
  8
_________1
 62
     7
 10
58.504190000000001
 20
186.36231000000001
 30
0.0
 40
2.338541999999999
 50
2.130075999999999
 51
87.869913999999994
  0
ARC
  5
3D8
  8
_________1
 62
     7
 10
58.591281000000002
 20
201.94932900000001
 30
0.0
 40
1.7499480000000001
 50
269.99437999999998
 51
359.99435
  0
ARC
  5
3D9
  8
_________1
 62
     7
 10
58.658709999999999
 20
202.01711499999999
 30
0.0
 40
1.8189900000000001
 50
182.14112900000001
 51
267.87018
  0
ARC
  5
3DA
  8
_________1
 62
     7
 10
58.658320999999987
 20
201.881945
 30
0.0
 40
1.8185739999999999
 50
92.118047000000004
 51
177.881923
  0
ARC
  5
3DB
  8
_________1
 62
     7
 10
58.591109000000003
 20
201.94915599999999
 30
0.0
 40
1.7501199999999999
 50
0.00001
 51
89.999980000000008
  0
INSERT
  5
3DC
  8
_________1
 62
     7
  2
AIGNBL0201005B
 10
0.0
 20
0.0
 30
0.0
  0
INSERT
  5
3DD
  8
_________1
 62
     7
  2
AIGNBL0201005C
 10
0.0
 20
0.0
 30
0.0
  0
INSERT
  5
3DE
  8
_________1
 62
     7
  2
AIGNBL0201005D
 10
0.0
 20
0.0
 30
0.0
  0
INSERT
  5
3DF
  8
_________1
 62
     7
  2
AIGNBL0201005E
 10
0.0
 20
0.0
 30
0.0
  0
INSERT
  5
3E0
  8
_________1
 62
     7
  2
AIGNBL0201005F
 10
0.0
 20
0.0
 30
0.0
  0
INSERT
  5
3E1
  8
_________1
 62
     7
  2
AIGNBL02010060
 10
0.0
 20
0.0
 30
0.0
  0
INSERT
  5
3E2
  8
_________1
 62
     7
  2
AIGNBL02010061
 10
0.0
 20
0.0
 30
0.0
  0
INSERT
  5
3E3
  8
_________1
 62
     7
  2
AIGNBL02010062
 10
0.0
 20
0.0
 30
0.0
  0
INSERT
  5
3E4
  8
_________1
 62
     7
  2
AIGNBL02010063
 10
0.0
 20
0.0
 30
0.0
  0
INSERT
  5
3E5
  8
_________1
 62
     7
  2
AIGNBL02010064
 10
0.0
 20
0.0
 30
0.0
  0
INSERT
  5
3E6
  8
_________1
 62
     7
  2
AIGNBL02010065
 10
0.0
 20
0.0
 30
0.0
  0
INSERT
  5
3E7
  8
_________1
 62
     7
  2
AIGNBL02010066
 10
0.0
 20
0.0
 30
0.0
  0
INSERT
  5
3E8
  8
_________1
 62
     7
  2
AIGNBL02010067
 10
0.0
 20
0.0
 30
0.0
  0
INSERT
  5
3E9
  8
_________1
 62
     7
  2
AIGNBL02010068
 10
0.0
 20
0.0
 30
0.0
  0
INSERT
  5
3EA
  8
_________1
 62
     7
  2
AIGNBL02010069
 10
0.0
 20
0.0
 30
0.0
  0
INSERT
  5
3EB
  8
_________1
 62
     7
  2
AIGNBL0201006A
 10
0.0
 20
0.0
 30
0.0
  0
INSERT
  5
3EC
  8
_________1
 62
     7
  2
AIGNBL0201006B
 10
0.0
 20
0.0
 30
0.0
  0
INSERT
  5
3ED
  8
_________1
 62
     7
  2
AIGNBL0201006C
 10
0.0
 20
0.0
 30
0.0
  0
INSERT
  5
3EE
  8
_________1
 62
     7
  2
AIGNBL0201006D
 10
0.0
 20
0.0
 30
0.0
  0
INSERT
  5
3EF
  8
_________1
 62
     7
  2
AIGNBL0201006E
 10
0.0
 20
0.0
 30
0.0
  0
INSERT
  5
3F0
  8
_________1
 62
     7
  2
AIGNBL0201006F
 10
0.0
 20
0.0
 30
0.0
  0
INSERT
  5
3F1
  8
_________1
 62
     7
  2
AIGNBL02010070
 10
0.0
 20
0.0
 30
0.0
  0
INSERT
  5
3F2
  8
_________1
 62
     7
  2
AIGNBL02010071
 10
0.0
 20
0.0
 30
0.0
  0
INSERT
  5
3F3
  8
_________1
 62
     7
  2
AIGNBL02010072
 10
0.0
 20
0.0
 30
0.0
  0
INSERT
  5
3F4
  8
_________1
 62
     7
  2
AIGNBL02010073
 10
0.0
 20
0.0
 30
0.0
  0
INSERT
  5
3F5
  8
_________1
 62
     7
  2
AIGNBL02010074
 10
0.0
 20
0.0
 30
0.0
  0
INSERT
  5
3F6
  8
_________1
 62
     7
  2
AIGNBL02010075
 10
0.0
 20
0.0
 30
0.0
  0
INSERT
  5
3F7
  8
_________1
 62
     7
  2
AIGNBL02010076
 10
0.0
 20
0.0
 30
0.0
  0
INSERT
  5
3F8
  8
_________1
 62
     7
  2
AIGNBL02010077
 10
0.0
 20
0.0
 30
0.0
  0
INSERT
  5
3F9
  8
_________1
 62
     7
  2
AIGNBL02010078
 10
0.0
 20
0.0
 30
0.0
  0
INSERT
  5
3FA
  8
_________1
 62
     7
  2
AIGNBL02010079
 10
0.0
 20
0.0
 30
0.0
  0
INSERT
  5
3FB
  8
_________1
 62
     7
  2
AIGNBL0201007A
 10
0.0
 20
0.0
 30
0.0
  0
INSERT
  5
3FC
  8
_________1
 62
     7
  2
AIGNBL0201007B
 10
0.0
 20
0.0
 30
0.0
  0
ARC
  5
3FD
  8
_________1
 62
     7
 10
170.0402389999999
 20
164.98741000000001
 30
0.0
 40
1.0391330000000001
 50
272.13181600000001
 51
357.88793399999997
  0
LINE
  5
3FE
  8
_________1
 62
     7
 10
175.45699999999999
 20
208.44900000000001
 30
0.0
 11
171.07900000000001
 21
208.44900000000001
 31
0.0
  0
LINE
  5
3FF
  8
_________1
 62
     7
 10
170.07900000000001
 20
163.94900000000001
 30
0.0
 11
142.57900000000001
 21
163.94900000000001
 31
0.0
  0
LINE
  5
400
  8
_________1
 62
     7
 10
171.07900000000001
 20
208.44900000000001
 30
0.0
 11
171.07900000000001
 21
164.94900000000001
 31
0.0
  0
ARC
  5
401
  8
_________1
 62
     7
 10
115.116939
 20
164.98741000000001
 30
0.0
 40
1.0391330000000001
 50
182.11206799999999
 51
267.86822100000001
  0
LINE
  5
402
  8
_________1
  6
AIGENLINE003
 62
     7
 10
114.07899999999999
 20
208.44900000000001
 30
0.0
 11
171.07900000000001
 21
208.44900000000001
 31
0.0
  0
LINE
  5
403
  8
_________1
 62
     7
 10
109.7
 20
208.44900000000001
 30
0.0
 11
114.07899999999999
 21
208.44900000000001
 31
0.0
  0
INSERT
  5
404
  8
_________1
 62
     7
  2
AIGNBL0201007C
 10
0.0
 20
0.0
 30
0.0
  0
INSERT
  5
405
  8
_________1
 62
     7
  2
AIGNBL0201007D
 10
0.0
 20
0.0
 30
0.0
  0
INSERT
  5
406
  8
_________1
 62
     7
  2
AIGNBL0201007E
 10
0.0
 20
0.0
 30
0.0
  0
LINE
  5
407
  8
_________1
 62
     7
 10
115.078
 20
163.94900000000001
 30
0.0
 11
142.57900000000001
 21
163.94900000000001
 31
0.0
  0
LINE
  5
408
  8
_________1
 62
     7
 10
114.07899999999999
 20
208.44900000000001
 30
0.0
 11
114.07899999999999
 21
164.94900000000001
 31
0.0
  0
INSERT
  5
409
  8
_________1
 62
     7
  2
AIGNBL0201007F
 10
0.0
 20
0.0
 30
0.0
  0
LINE
  5
40A
  8
_________1
 62
     7
 10
162.17599999999999
 20
211.477
 30
0.0
 11
160.428
 21
208.44900000000001
 31
0.0
  0
LINE
  5
40B
  8
_________1
 62
     7
 10
160.428
 20
208.44900000000001
 30
0.0
 11
158.68100000000001
 21
211.477
 31
0.0
  0
LINE
  5
40C
  8
_________1
 62
     7
 10
158.68100000000001
 20
211.477
 30
0.0
 11
162.17599999999999
 21
211.477
 31
0.0
  0
TEXT
  5
40D
  8
_________2
 62
     7
 10
136.33455000000001
 20
9.1082000000000001
 30
0.0
 40
3.9357000000000002
  1
SB3004GR
 41
0.5
 72
     1
 11
143.55000000000001
 21
9.1082000000000001
 31
0.0
  0
TEXT
  5
40E
  8
_________2
 62
     7
 10
136.33455000000001
 20
-0.8926299999999999
 30
0.0
 40
3.9357000000000002
  1
SB3004GR
 41
0.5
 72
     1
 11
143.55000000000001
 21
-0.8926299999999999
 31
0.0
  0
TEXT
  5
40F
  8
_________2
 62
     7
 10
24.586600000000001
 20
0.707627
 30
0.0
 40
3.9357000000000002
  1
実容量：4.7L、重量：17kg、オーバーフロー付
 41
0.5
  0
LINE
  5
410
  8
_________2
 62
     7
 10
205.30099999999999
 20
127.411
 30
0.0
 11
183.55099999999999
 21
127.411
 31
0.0
  0
LINE
  5
411
  8
_________2
 62
     7
 10
100.3
 20
-4.0910799999999998
 30
0.0
 11
100.3
 21
-21.071000000000002
 31
0.0
  0
LINE
  5
412
  8
_________2
 62
     7
 10
100.3
 20
275.93099999999998
 30
0.0
 11
100.3
 21
258.911
 31
0.0
  0
LINE
  5
413
  8
_________2
 62
     7
 10
17.049399999999999
 20
127.411
 30
0.0
 11
-4.7010300000000003
 21
127.411
 31
0.0
  0
INSERT
  5
414
  8
_________2
 62
     7
  2
AIGNBL03010002
 10
0.0
 20
0.0
 30
0.0
  0
TEXT
  5
415
  8
_________2
 62
     7
 10
104.605
 20
1.6794899999999999
 30
0.0
 40
3.0923400000000001
  1
図番
 41
0.5
  0
LINE
  5
416
  8
_________2
 62
     7
 10
103.55
 20
5.9087199999999989
 30
0.0
 11
183.55099999999999
 21
5.9087199999999989
 31
0.0
  0
TEXT
  5
417
  8
_________2
 62
     7
 10
104.605
 20
11.6793
 30
0.0
 40
3.0923400000000001
  1
品番
 41
0.5
  0
TEXT
  5
418
  8
_________2
 62
     7
 10
104.605
 20
31.8184
 30
0.0
 40
3.0923400000000001
  1
名称
 41
0.5
  0
TEXT
  5
419
  8
_________2
 62
     7
 10
91.844958333333338
 20
26.822299999999998
 30
0.0
 40
3.6545800000000002
  1
mm
 41
0.5
 72
     1
 11
93.367699999999985
 21
26.822299999999998
 31
0.0
  0
TEXT
  5
41A
  8
_________2
 62
     7
 10
85.642999999999986
 20
31.8184
 30
0.0
 40
3.0923400000000001
  1
単位
 41
0.5
  0
TEXT
  5
41B
  8
_________2
 62
     7
 10
85.642999999999986
 20
19.410799999999998
 30
0.0
 40
3.0923400000000001
  1
尺度
 41
0.5
  0
TEXT
  5
41C
  8
_________2
 62
     7
 10
90.091736166666678
 20
13.2182
 30
0.0
 40
3.6545800000000002
  1
1 ： 10
 41
0.5
 72
     1
 11
93.959500000000006
 21
13.2182
 31
0.0
  0
TEXT
  5
41D
  8
_________2
 62
     7
 10
109.179
 20
24.226099999999999
 30
0.0
 40
3.9357000000000002
  1
ML 洗面器
 41
0.5
  0
TEXT
  5
41E
  8
_________2
 62
     7
 10
39.303280999999998
 20
13.603400000000001
 30
0.0
 40
3.6545800000000002
  1
中村
 41
0.5
 72
     1
 11
41.313299999999998
 21
13.603400000000001
 31
0.0
  0
TEXT
  5
41F
  8
_________2
 62
     7
 10
20.851100333333338
 20
13.603400000000001
 30
0.0
 40
3.6545800000000002
  1
福田
 41
0.5
 72
     1
 11
22.7393
 21
13.603400000000001
 31
0.0
  0
TEXT
  5
420
  8
_________2
 62
     7
 10
67.785600000000002
 20
13.2182
 30
0.0
 40
3.6545800000000002
  1
17.06.29
 41
0.5
  0
TEXT
  5
421
  8
_________2
 62
     7
 10
66.5929
 20
19.410799999999998
 30
0.0
 40
3.0923400000000001
  1
日付
 41
0.5
  0
TEXT
  5
422
  8
_________2
 62
     7
 10
29.639199999999999
 20
19.410799999999998
 30
0.0
 40
3.0923400000000001
  1
検図
 41
0.5
  0
TEXT
  5
423
  8
_________2
 62
     7
 10
18.020900000000001
 20
5.21143
 30
0.0
 40
3.0923400000000001
  1
備考
 41
0.5
  0
TEXT
  5
424
  8
_________2
 62
     7
 10
18.020900000000001
 20
19.410799999999998
 30
0.0
 40
3.0923400000000001
  1
製図
 41
0.5
  0
TEXT
  5
425
  8
_________2
 62
     7
 10
23.788265333333339
 20
27.936800000000002
 30
0.0
 40
4.4979399999999989
  1
セラトレーディング株式会社
 41
0.5
 72
     1
 11
41.180300000000003
 21
27.936800000000002
 31
0.0
  0
LINE
  5
426
  8
_________2
 62
     7
 10
183.55099999999999
 20
-4.0910799999999998
 30
0.0
 11
17.049399999999999
 21
-4.0910799999999998
 31
0.0
  0
LINE
  5
427
  8
_________2
 62
     7
 10
17.049399999999999
 20
-4.0910799999999998
 30
0.0
 11
17.049399999999999
 21
258.911
 31
0.0
  0
LINE
  5
428
  8
_________2
 62
     7
 10
17.049399999999999
 20
258.911
 30
0.0
 11
183.55099999999999
 21
258.911
 31
0.0
  0
LINE
  5
429
  8
_________2
 62
     7
 10
183.55099999999999
 20
258.911
 30
0.0
 11
183.55099999999999
 21
-4.0910799999999998
 31
0.0
  0
LINE
  5
42A
  8
_________2
 62
     7
 10
65.549700000000001
 20
9.4092999999999982
 30
0.0
 11
65.549700000000001
 21
35.909100000000002
 31
0.0
  0
LINE
  5
42B
  8
_________2
 62
     7
 10
84.549599999999984
 20
9.4092999999999982
 30
0.0
 11
84.549599999999984
 21
35.909100000000002
 31
0.0
  0
LINE
  5
42C
  8
_________2
 62
     7
 10
103.55
 20
-4.0910799999999998
 30
0.0
 11
103.55
 21
35.909100000000002
 31
0.0
  0
LINE
  5
42D
  8
_________2
 62
     7
 10
28.549199999999999
 20
9.4092999999999982
 30
0.0
 11
28.549199999999999
 21
23.409199999999998
 31
0.0
  0
LINE
  5
42E
  8
_________2
 62
     7
 10
17.049399999999999
 20
9.4092999999999982
 30
0.0
 11
103.55
 21
9.4092999999999982
 31
0.0
  0
LINE
  5
42F
  8
_________2
 62
     7
 10
17.049399999999999
 20
23.409199999999998
 30
0.0
 11
103.55
 21
23.409199999999998
 31
0.0
  0
LINE
  5
430
  8
_________2
 62
     7
 10
103.55
 20
15.9085
 30
0.0
 11
183.55099999999999
 21
15.9085
 31
0.0
  0
LINE
  5
431
  8
_________2
 62
     7
 10
17.049399999999999
 20
35.909100000000002
 30
0.0
 11
183.55099999999999
 21
35.909100000000002
 31
0.0
  0
ENDSEC
  0
EOF
