  0
SECTION
  2
HEADER
  9
$ACADVER
  1
AC1009
  9
$INSBASE
 10
0.0
 20
0.0
 30
0.0
  9
$EXTMIN
 10
-4.7010300000000003
 20
-21.070999999999991
 30
0.0
  9
$EXTMAX
 10
205.30099999999999
 20
275.93099999999993
 30
0.0
  9
$LIMMIN
 10
0.0
 20
0.0
  9
$LIMMAX
 10
12.0
 20
9.0
  9
$ORTHOMODE
 70
     0
  9
$REGENMODE
 70
     1
  9
$FILLMODE
 70
     1
  9
$QTEXTMODE
 70
     0
  9
$MIRRTEXT
 70
     1
  9
$DRAGMODE
 70
     2
  9
$LTSCALE
 40
1.0
  9
$OSMODE
 70
    37
  9
$ATTMODE
 70
     1
  9
$TEXTSIZE
 40
0.0
  9
$TRACEWID
 40
0.05
  9
$TEXTSTYLE
  7
STANDARD
  9
$CLAYER
  8
0
  9
$CELTYPE
  6
CONTINUOUS
  9
$CECOLOR
 62
   256
  9
$DIMSCALE
 40
1.0
  9
$DIMASZ
 40
0.18
  9
$DIMEXO
 40
0.0625
  9
$DIMDLI
 40
0.38
  9
$DIMRND
 40
0.0
  9
$DIMDLE
 40
0.0
  9
$DIMEXE
 40
0.18
  9
$DIMTP
 40
0.0
  9
$DIMTM
 40
0.0
  9
$DIMTXT
 40
0.18
  9
$DIMCEN
 40
0.09
  9
$DIMTSZ
 40
0.0
  9
$DIMTOL
 70
     0
  9
$DIMLIM
 70
     0
  9
$DIMTIH
 70
     1
  9
$DIMTOH
 70
     1
  9
$DIMSE1
 70
     0
  9
$DIMSE2
 70
     0
  9
$DIMTAD
 70
     0
  9
$DIMZIN
 70
     0
  9
$DIMBLK
  1

  9
$DIMASO
 70
     1
  9
$DIMSHO
 70
     1
  9
$DIMPOST
  1

  9
$DIMAPOST
  1

  9
$DIMALT
 70
     0
  9
$DIMALTD
 70
     2
  9
$DIMALTF
 40
25.399999999999999
  9
$DIMLFAC
 40
1.0
  9
$DIMTOFL
 70
     0
  9
$DIMTVP
 40
0.0
  9
$DIMTIX
 70
     0
  9
$DIMSOXD
 70
     0
  9
$DIMSAH
 70
     0
  9
$DIMBLK1
  1

  9
$DIMBLK2
  1

  9
$DIMSTYLE
  2
STANDARD
  9
$DIMCLRD
 70
     0
  9
$DIMCLRE
 70
     0
  9
$DIMCLRT
 70
     0
  9
$DIMTFAC
 40
1.0
  9
$DIMGAP
 40
0.09
  9
$LUNITS
 70
     2
  9
$LUPREC
 70
     4
  9
$SKETCHINC
 40
0.1
  9
$FILLETRAD
 40
0.0
  9
$AUNITS
 70
     0
  9
$AUPREC
 70
     0
  9
$MENU
  1
.
  9
$ELEVATION
 40
0.0
  9
$PELEVATION
 40
0.0
  9
$THICKNESS
 40
0.0
  9
$LIMCHECK
 70
     0
  9
$BLIPMODE
 70
     0
  9
$CHAMFERA
 40
0.0
  9
$CHAMFERB
 40
0.0
  9
$SKPOLY
 70
     0
  9
$TDCREATE
 40
2444972.375
  9
$TDUPDATE
 40
2456309.444014769
  9
$TDINDWG
 40
0.0000073264
  9
$TDUSRTIMER
 40
0.0000073264
  9
$USRTIMER
 70
     1
  9
$ANGBASE
 50
0.0
  9
$ANGDIR
 70
     0
  9
$PDMODE
 70
     0
  9
$PDSIZE
 40
0.0
  9
$PLINEWID
 40
0.0
  9
$COORDS
 70
     1
  9
$SPLFRAME
 70
     0
  9
$SPLINETYPE
 70
     6
  9
$SPLINESEGS
 70
     8
  9
$ATTDIA
 70
     0
  9
$ATTREQ
 70
     1
  9
$HANDLING
 70
     1
  9
$HANDSEED
  5
21F
  9
$SURFTAB1
 70
     6
  9
$SURFTAB2
 70
     6
  9
$SURFTYPE
 70
     6
  9
$SURFU
 70
     6
  9
$SURFV
 70
     6
  9
$UCSNAME
  2

  9
$UCSORG
 10
0.0
 20
0.0
 30
0.0
  9
$UCSXDIR
 10
1.0
 20
0.0
 30
0.0
  9
$UCSYDIR
 10
0.0
 20
1.0
 30
0.0
  9
$PUCSNAME
  2

  9
$PUCSORG
 10
0.0
 20
0.0
 30
0.0
  9
$PUCSXDIR
 10
1.0
 20
0.0
 30
0.0
  9
$PUCSYDIR
 10
0.0
 20
1.0
 30
0.0
  9
$USERI1
 70
     0
  9
$USERI2
 70
     0
  9
$USERI3
 70
     0
  9
$USERI4
 70
     0
  9
$USERI5
 70
     0
  9
$USERR1
 40
0.0
  9
$USERR2
 40
0.0
  9
$USERR3
 40
0.0
  9
$USERR4
 40
0.0
  9
$USERR5
 40
0.0
  9
$WORLDVIEW
 70
     1
  9
$SHADEDGE
 70
     3
  9
$SHADEDIF
 70
    70
  9
$TILEMODE
 70
     1
  9
$MAXACTVP
 70
    48
  9
$PLIMCHECK
 70
     0
  9
$PEXTMIN
 10
1.0000000000000000E+020
 20
1.0000000000000000E+020
 30
1.0000000000000000E+020
  9
$PEXTMAX
 10
-1.0000000000000000E+020
 20
-1.0000000000000000E+020
 30
-1.0000000000000000E+020
  9
$PLIMMIN
 10
0.0
 20
0.0
  9
$PLIMMAX
 10
12.0
 20
9.0
  9
$UNITMODE
 70
     0
  9
$VISRETAIN
 70
     1
  9
$PLINEGEN
 70
     0
  9
$PSLTSCALE
 70
     1
  0
ENDSEC
  0
SECTION
  2
TABLES
  0
TABLE
  2
VPORT
 70
     2
  0
VPORT
  2
*ACTIVE
 70
     0
 10
0.0
 20
0.0
 11
1.0
 21
1.0
 12
205.31028906752431
 22
127.42999999999989
 13
0.0
 23
0.0
 14
1.0
 24
1.0
 15
0.0
 25
0.0
 16
0.0
 26
0.0
 36
1.0
 17
0.0
 27
0.0
 37
0.0
 40
299.24634760705283
 41
2.2894736842105261
 42
50.0
 43
0.0
 44
0.0
 50
0.0
 51
0.0
 71
     0
 72
   100
 73
     1
 74
     1
 75
     0
 76
     0
 77
     0
 78
     0
  0
ENDTAB
  0
TABLE
  2
LTYPE
 70
     4
  0
LTYPE
  2
CONTINUOUS
 70
     0
  3
Solid line
 72
    65
 73
     0
 40
0.0
  0
LTYPE
  2
AIGENLINE001
 70
     0
  3
generate AI->DXF Converter
 72
    65
 73
     4
 40
5.8561449999999988
 49
3.5278
 49
-0.776115
 49
0.776115
 49
-0.776115
  0
LTYPE
  2
AIGENLINE002
 70
     0
  3
generate AI->DXF Converter
 72
    65
 73
     2
 40
1.5522299999999991
 49
0.776115
 49
-0.776115
  0
LTYPE
  2
AIGENLINE003
 70
     0
  3
generate AI->DXF Converter
 72
    65
 73
     6
 40
7.4083750000000004
 49
3.5278
 49
-0.776115
 49
0.776115
 49
-0.776115
 49
0.776115
 49
-0.776115
  0
ENDTAB
  0
TABLE
  2
LAYER
 70
     2
  0
LAYER
  2
0
 70
     0
 62
     7
  6
CONTINUOUS
  0
LAYER
  2
_________2
 70
     0
 62
     7
  6
CONTINUOUS
  0
ENDTAB
  0
TABLE
  2
STYLE
 70
     1
  0
STYLE
  2
STANDARD
 70
     0
 40
0.0
 41
0.0
 50
0.0
 71
     0
 42
0.0
  3
TXT
  4
EXTFONT.SHX
  0
ENDTAB
  0
TABLE
  2
VIEW
 70
     0
  0
ENDTAB
  0
TABLE
  2
UCS
 70
     0
  0
ENDTAB
  0
TABLE
  2
APPID
 70
     1
  0
APPID
  2
ACAD
 70
     0
  0
ENDTAB
  0
TABLE
  2
DIMSTYLE
 70
     1
  0
DIMSTYLE
  2
STANDARD
 70
     0
  3

  4

  5

  6

  7

 40
1.0
 41
0.18
 42
0.0625
 43
0.38
 44
0.18
 45
0.0
 46
0.0
 47
0.0
 48
0.0
140
0.18
141
0.09
142
0.0
143
25.399999999999999
144
1.0
145
0.0
146
1.0
147
0.09
 71
     0
 72
     0
 73
     1
 74
     1
 75
     0
 76
     0
 77
     0
 78
     0
170
     0
171
     2
172
     0
173
     0
174
     0
175
     0
176
     0
177
     0
178
     0
  0
ENDTAB
  0
ENDSEC
  0
SECTION
  2
BLOCKS
  0
BLOCK
  8
0
  2
$MODEL_SPACE
 70
     0
 10
0.0
 20
0.0
 30
0.0
  3
$MODEL_SPACE
  1

  0
ENDBLK
  5
1A
  8
0
  0
BLOCK
 67
     1
  8
0
  2
$PAPER_SPACE
 70
     0
 10
0.0
 20
0.0
 30
0.0
  3
$PAPER_SPACE
  1

  0
ENDBLK
  5
17
 67
     1
  8
0
  0
ENDSEC
  0
SECTION
  2
ENTITIES
  0
TEXT
  5
24
  8
0
 62
     7
 10
152.3962875
 20
80.706000000000003
 30
0.0
 40
3.0923400000000001
  1
220
 41
0.5
 72
     1
 11
154.32900000000001
 21
80.706000000000003
 31
0.0
  0
TEXT
  5
25
  8
0
 62
     7
 10
160.37100000000001
 20
108.3371349999999
 30
0.0
 40
3.0923400000000001
  1
10
 50
90.0
 41
0.5
 72
     2
 11
160.37100000000001
 21
110.14100000000001
 31
0.0
  0
TEXT
  5
26
  8
0
 62
     7
 10
156.83600000000001
 20
195.5162875
 30
0.0
 40
3.0923400000000001
  1
220
 50
90.0
 41
0.5
 72
     1
 11
156.83600000000001
 21
197.44900000000001
 31
0.0
  0
TEXT
  5
27
  8
0
 62
     7
 10
178.39799999999991
 20
184.13744
 30
0.0
 40
3.0923400000000001
  1
445
 50
90.0
 41
0.5
 72
     1
 11
178.39799999999991
 21
186.19900000000001
 31
0.0
  0
TEXT
  5
28
  8
0
 62
     7
 10
160.37200000000001
 20
169.49000000000001
 30
0.0
 40
3.0923400000000001
  1
R10
 41
0.5
  0
TEXT
  5
29
  8
0
 62
     7
 10
121.43496499999991
 20
169.49000000000001
 30
0.0
 40
3.0923400000000001
  1
R10
 41
0.5
 72
     2
 11
124.7849999999999
 21
169.49000000000001
 31
0.0
  0
TEXT
  5
2A
  8
0
 62
     7
 10
140.6462875
 20
154.804
 30
0.0
 40
3.0923400000000001
  1
570
 41
0.5
 72
     1
 11
142.57900000000001
 21
154.804
 31
0.0
  0
TEXT
  5
2B
  8
0
 62
     7
 10
147.05799999999991
 20
99.945830000000001
 30
0.0
 40
3.0923400000000001
  1
115
 50
90.0
 41
0.5
 72
     1
 11
147.05799999999991
 21
101.492
 31
0.0
  0
TEXT
  5
2C
  8
0
 62
     7
 10
105.0859999999999
 20
94.175335000000004
 30
0.0
 40
3.0923400000000001
  1
172
 50
90.0
 41
0.5
 72
     1
 11
105.0859999999999
 21
95.979200000000006
 31
0.0
  0
TEXT
  5
2D
  8
0
 62
     7
 10
99.422000000000011
 20
95.904182500000005
 30
0.0
 40
3.0923400000000001
  1
140
 50
90.0
 41
0.5
 72
     1
 11
99.422000000000011
 21
97.5792
 31
0.0
  0
TEXT
  5
2E
  8
0
 62
     7
 10
93.849100000000007
 20
100.81252499999989
 30
0.0
 40
3.0923400000000001
  1
55
 50
90.0
 41
0.5
 72
     1
 11
93.849100000000007
 21
102.1009999999999
 31
0.0
  0
TEXT
  5
2F
  8
0
 62
     7
 10
24.120000000000001
 20
99.941372500000014
 30
0.0
 40
3.0923400000000001
  1
70
 50
90.0
 41
0.5
 72
     1
 11
24.120000000000001
 21
101.1009999999999
 31
0.0
  0
TEXT
  5
30
  8
0
 62
     7
 10
56.529940000000003
 20
80.706400000000002
 30
0.0
 40
3.0923400000000001
  1
355
 41
0.5
 72
     1
 11
58.591500000000003
 21
80.706400000000002
 31
0.0
  0
TEXT
  5
31
  8
0
 62
     7
 10
56.916782499999989
 20
111.40600000000001
 30
0.0
 40
3.0923400000000001
  1
210
 41
0.5
 72
     1
 11
58.591799999999999
 21
111.40600000000001
 31
0.0
  0
TEXT
  5
32
  8
0
 62
     7
 10
65.852680000000007
 20
198.422
 30
0.0
 40
3.0923400000000001
  1
%%c35
 41
0.5
 72
     2
 11
69.975800000000007
 21
198.422
 31
0.0
  0
TEXT
  5
33
  8
0
 62
     7
 10
65.759680000000003
 20
183.19799999999989
 30
0.0
 40
3.0923400000000001
  1
%%c45
 41
0.5
 72
     2
 11
69.882800000000003
 21
183.19799999999989
 31
0.0
  0
TEXT
  5
34
  8
0
 62
     7
 10
22.5505
 20
195.5162875
 30
0.0
 40
3.0923400000000001
  1
220
 50
90.0
 41
0.5
 72
     1
 11
22.5505
 21
197.44900000000001
 31
0.0
  0
TEXT
  5
35
  8
0
 62
     7
 10
93.217334999999977
 20
152.35099999999991
 30
0.0
 40
3.0923400000000001
  1
10
 41
0.5
 72
     2
 11
95.021199999999993
 21
152.35099999999991
 31
0.0
  0
TEXT
  5
36
  8
0
 62
     7
 10
21.7959
 20
152.35099999999991
 30
0.0
 40
3.0923400000000001
  1
10
 41
0.5
  0
TEXT
  5
37
  8
0
 62
     7
 10
56.916082499999987
 20
144.82599999999991
 30
0.0
 40
3.0923400000000001
  1
610
 41
0.5
 72
     1
 11
58.591099999999997
 21
144.82599999999991
 31
0.0
  0
TEXT
  5
38
  8
0
 62
     7
 10
56.659087499999991
 20
152.35099999999991
 30
0.0
 40
3.0923400000000001
  1
590
 41
0.5
 72
     1
 11
58.591799999999999
 21
152.35099999999991
 31
0.0
  0
TEXT
  5
39
  8
0
 62
     7
 10
99.507400000000004
 20
155.15399999999991
 30
0.0
 40
3.0923400000000001
  1
10
 50
90.0
 41
0.5
  0
TEXT
  5
3A
  8
0
 62
     7
 10
99.507400000000004
 20
176.53743999999989
 30
0.0
 40
3.0923400000000001
  1
323
 50
90.0
 41
0.5
 72
     1
 11
99.507400000000004
 21
178.59899999999999
 31
0.0
  0
TEXT
  5
3B
  8
0
 62
     7
 10
99.507400000000004
 20
199.79513499999999
 30
0.0
 40
3.0923400000000001
  1
137
 50
90.0
 41
0.5
 72
     1
 11
99.507400000000004
 21
201.59899999999999
 31
0.0
  0
TEXT
  5
3C
  8
0
 62
     7
 10
93.841899999999995
 20
203.91052499999989
 30
0.0
 40
3.0923400000000001
  1
65
 50
90.0
 41
0.5
 72
     1
 11
93.841899999999995
 21
205.1989999999999
 31
0.0
  0
TEXT
  5
3D
  8
0
 62
     7
 10
93.841899999999995
 20
197.06052500000001
 30
0.0
 40
3.0923400000000001
  1
72
 50
90.0
 41
0.5
 72
     1
 11
93.841899999999995
 21
198.34899999999999
 31
0.0
  0
TEXT
  5
3E
  8
0
 62
     7
 10
105.0859999999999
 20
183.0162875
 30
0.0
 40
3.0923400000000001
  1
470
 50
90.0
 41
0.5
 72
     1
 11
105.0859999999999
 21
184.94900000000001
 31
0.0
  0
TEXT
  5
3F
  8
0
 62
     7
 10
22.287500000000001
 20
39.127200000000002
 30
0.0
 40
3.9357000000000002
  1
※壁取付部には厚さ30mm以上の補強木を入れてください。
 41
0.5
  0
TEXT
  5
40
  8
0
 62
     7
 10
134.33276000000001
 20
146.41799999999989
 30
0.0
 40
3.0923400000000001
  1
カウンター切込寸法
 41
0.5
 72
     1
 11
142.57900000000001
 21
146.41799999999989
 31
0.0
  0
TEXT
  5
41
  8
0
 62
     7
 10
155.99564599999991
 20
212.327
 30
0.0
 40
3.0923400000000001
  1
洗面器後端
 41
0.5
 72
     1
 11
160.42799999999991
 21
212.327
 31
0.0
  0
LINE
  5
42
  8
0
 62
     7
 10
130.99199999999999
 20
90.944599999999994
 30
0.0
 11
130.113
 21
94.902999999999992
 31
0.0
  0
ARC
  5
43
  8
0
 62
     7
 10
129.61963199999991
 20
94.787439000000006
 30
0.0
 40
0.5065020000000001
 50
13.18727399999999
 51
49.108692999999988
  0
ARC
  5
44
  8
0
 62
     7
 10
131.5070199999999
 20
91.093305000000001
 30
0.0
 40
0.5357690000000001
 50
196.1198179999999
 51
268.74682000000001
  0
ARC
  5
45
  8
0
 62
     7
 10
122.43481299999991
 20
98.555087000000015
 30
0.0
 40
0.5020250000000001
 50
49.026274000000001
 51
89.940622000000005
  0
ARC
  5
46
  8
0
 62
     7
 10
117.890154
 20
99.368845999999991
 30
0.0
 40
0.311952
 50
182.07951099999991
 51
267.85477500000002
  0
LINE
  5
47
  8
0
 62
     7
 10
117.5779999999999
 20
104.0349999999999
 30
0.0
 11
117.5779999999999
 21
99.357500000000002
 31
0.0
  0
LINE
  5
48
  8
0
 62
     7
 10
129.95099999999991
 20
95.170299999999997
 30
0.0
 11
122.764
 21
98.934100000000015
 31
0.0
  0
ARC
  5
49
  8
0
  6
AIGENLINE002
 62
     7
 10
163.06008799999989
 20
104.07604000000001
 30
0.0
 40
0.518907
 50
272.062096
 51
357.89841300000001
  0
ARC
  5
4A
  8
0
  6
AIGENLINE002
 62
     7
 10
164.0975949999999
 20
104.0383069999999
 30
0.0
 40
0.519285
 50
92.103645999999998
 51
177.93579800000001
  0
LINE
  5
4B
  8
0
  6
AIGENLINE001
 62
     7
 10
149.232
 20
100.557
 30
0.0
 11
155.227
 21
100.557
 31
0.0
  0
LINE
  5
4C
  8
0
  6
AIGENLINE001
 62
     7
 10
157.078
 20
105.91200000000001
 30
0.0
 11
157.078
 21
101.31699999999999
 31
0.0
  0
LINE
  5
4D
  8
0
  6
AIGENLINE001
 62
     7
 10
142.57900000000001
 20
85.349999999999994
 30
0.0
 11
142.57900000000001
 21
106.23399999999999
 31
0.0
  0
LINE
  5
4E
  8
0
  6
AIGENLINE002
 62
     7
 10
163.07599999999991
 20
103.557
 30
0.0
 11
159.35499999999999
 21
103.557
 31
0.0
  0
LINE
  5
4F
  8
0
 62
     7
 10
162.57900000000001
 20
97.557500000000005
 30
0.0
 11
162.57900000000001
 21
99.057100000000005
 31
0.0
  0
LINE
  5
50
  8
0
 62
     7
 10
164.05799999999991
 20
104.557
 30
0.0
 11
164.09599999999989
 21
104.557
 31
0.0
  0
ARC
  5
51
  8
0
 62
     7
 10
164.03799100000001
 20
104.01649399999989
 30
0.0
 40
0.5411000000000001
 50
1.992408
 51
87.931894000000014
  0
LINE
  5
52
  8
0
  6
AIGENLINE001
 62
     7
 10
161.11399999999989
 20
97.557500000000005
 30
0.0
 11
166.114
 21
97.557500000000005
 31
0.0
  0
LINE
  5
53
  8
0
 62
     7
 10
164.57900000000001
 20
98.599599999999995
 30
0.0
 11
164.57900000000001
 21
104.0349999999999
 31
0.0
  0
LINE
  5
54
  8
0
  6
AIGENLINE002
 62
     7
 10
156.3129999999999
 20
103.557
 30
0.0
 11
153.14500000000001
 21
103.557
 31
0.0
  0
ARC
  5
55
  8
0
  6
AIGENLINE002
 62
     7
 10
153.09648200000001
 20
102.55506
 30
0.0
 40
0.95996
 50
125.84433899999991
 51
152.86982
  0
ARC
  5
56
  8
0
  6
AIGENLINE002
 62
     7
 10
153.18327400000001
 20
102.509621
 30
0.0
 40
1.0485299999999991
 50
92.067118999999977
 51
128.235534
  0
ARC
  5
57
  8
0
 62
     7
 10
132.62310400000001
 20
115.624655
 30
0.0
 40
32.738740999999997
 50
308.17476099999988
 51
310.03359
  0
ARC
  5
58
  8
0
 62
     7
 10
146.742209
 20
97.724601000000007
 30
0.0
 40
9.9405660000000005
 50
298.80631499999993
 51
307.96669900000001
  0
ARC
  5
59
  8
0
 62
     7
 10
149.23243099999999
 20
93.333763000000005
 30
0.0
 40
4.8936149999999996
 50
284.56169199999988
 51
298.02956
  0
ARC
  5
5A
  8
0
 62
     7
 10
149.68471
 20
91.756358000000006
 30
0.0
 40
3.253426999999999
 50
269.63814899999988
 51
283.836884
  0
LINE
  5
5B
  8
0
  6
AIGENLINE002
 62
     7
 10
151.459
 20
94.508899999999997
 30
0.0
 11
152.05999999999989
 21
100.9099999999999
 31
0.0
  0
ARC
  5
5C
  8
0
  6
AIGENLINE002
 62
     7
 10
150.39773
 20
94.624712000000017
 30
0.0
 40
1.067984
 50
271.25143600000001
 51
353.77291200000002
  0
LINE
  5
5D
  8
0
 62
     7
 10
147.083
 20
88.502999999999986
 30
0.0
 11
149.66399999999999
 21
88.502999999999986
 31
0.0
  0
LINE
  5
5E
  8
0
  6
AIGENLINE002
 62
     7
 10
145.922
 20
93.557000000000002
 30
0.0
 11
150.42099999999999
 21
93.557000000000002
 31
0.0
  0
ARC
  5
5F
  8
0
 62
     7
 10
147.07933299999999
 20
87.466635999999994
 30
0.0
 40
1.036367
 50
89.792814000000007
 51
164.810315
  0
ARC
  5
60
  8
0
 62
     7
 10
145.57788199999999
 20
87.877418999999975
 30
0.0
 40
0.52027
 50
269.96502599999991
 51
344.47671200000002
  0
ARC
  5
61
  8
0
  6
AIGENLINE002
 62
     7
 10
145.96105900000001
 20
92.474446999999998
 30
0.0
 40
1.08325
 50
92.080601000000001
 51
177.8815129999999
  0
LINE
  5
62
  8
0
  6
AIGENLINE002
 62
     7
 10
144.87899999999991
 20
87.357100000000003
 30
0.0
 11
144.87899999999991
 21
92.514499999999998
 31
0.0
  0
LINE
  5
63
  8
0
 62
     7
 10
145.578
 20
87.357100000000003
 30
0.0
 11
145.05499999999989
 21
87.357100000000003
 31
0.0
  0
LINE
  5
64
  8
0
 62
     7
 10
139.07900000000001
 20
90.557699999999997
 30
0.0
 11
139.07900000000001
 21
87.879099999999994
 31
0.0
  0
ARC
  5
65
  8
0
 62
     7
 10
139.620589
 20
87.899043000000006
 30
0.0
 40
0.542261
 50
182.10931599999989
 51
267.890714
  0
LINE
  5
66
  8
0
 62
     7
 10
140.12100000000001
 20
87.357100000000003
 30
0.0
 11
139.60099999999991
 21
87.357100000000003
 31
0.0
  0
LINE
  5
67
  8
0
  6
AIGENLINE002
 62
     7
 10
140.27899999999991
 20
92.514499999999998
 30
0.0
 11
140.27899999999991
 21
87.357100000000003
 31
0.0
  0
LINE
  5
68
  8
0
 62
     7
 10
131.495
 20
90.557699999999997
 30
0.0
 11
133.67199999999991
 21
90.557699999999997
 31
0.0
  0
ARC
  5
69
  8
0
  6
AIGENLINE002
 62
     7
 10
139.19615200000001
 20
92.474505000000008
 30
0.0
 40
1.083215
 50
2.1154419999999989
 51
87.884547999999995
  0
LINE
  5
6A
  8
0
  6
AIGENLINE002
 62
     7
 10
133.529
 20
93.557000000000002
 30
0.0
 11
139.2359999999999
 21
93.557000000000002
 31
0.0
  0
ARC
  5
6B
  8
0
  6
AIGENLINE002
 62
     7
 10
133.492209
 20
94.221374999999995
 30
0.0
 40
0.6654270000000001
 50
259.33292299999999
 51
273.19530499999991
  0
ARC
  5
6C
  8
0
  6
AIGENLINE002
 62
     7
 10
133.555543
 20
94.644838000000007
 30
0.0
 40
1.093413999999999
 50
230.49103600000001
 51
260.17894999999987
  0
LINE
  5
6D
  8
0
  6
AIGENLINE002
 62
     7
 10
132.86000000000001
 20
93.801199999999994
 30
0.0
 11
118.664
 21
103.515
 31
0.0
  0
LINE
  5
6E
  8
0
 62
     7
 10
123.33499999999989
 20
99.057100000000005
 30
0.0
 11
117.8779999999999
 21
99.057100000000005
 31
0.0
  0
LINE
  5
6F
  8
0
  6
AIGENLINE002
 62
     7
 10
118.57899999999989
 20
104.0349999999999
 30
0.0
 11
118.57899999999989
 21
103.515
 31
0.0
  0
ARC
  5
70
  8
0
 62
     7
 10
118.1202889999999
 20
104.015387
 30
0.0
 40
0.542248
 50
92.180948999999984
 51
177.89470900000001
  0
ARC
  5
71
  8
0
  6
AIGENLINE002
 62
     7
 10
118.0382339999999
 20
104.016989
 30
0.0
 40
0.5406010000000001
 50
1.9417880000000001
 51
87.944632999999996
  0
LINE
  5
72
  8
0
 62
     7
 10
118.05799999999989
 20
104.557
 30
0.0
 11
118.09999999999999
 21
104.557
 31
0.0
  0
ARC
  5
73
  8
0
 62
     7
 10
164.03648000000001
 20
91.099217999999993
 30
0.0
 40
0.542652
 50
272.22185799999988
 51
357.89164599999992
  0
LINE
  5
74
  8
0
  6
AIGENLINE002
 62
     7
 10
152.24199999999999
 20
102.99299999999999
 30
0.0
 11
152.20400000000001
 21
102.56399999999989
 31
0.0
  0
LINE
  5
75
  8
0
  6
AIGENLINE002
 62
     7
 10
152.20400000000001
 20
102.56399999999989
 30
0.0
 11
152.05999999999989
 21
100.9099999999999
 31
0.0
  0
LINE
  5
76
  8
0
 62
     7
 10
145.05499999999989
 20
87.357100000000003
 30
0.0
 11
140.131
 21
87.357100000000003
 31
0.0
  0
LINE
  5
77
  8
0
 62
     7
 10
123.235
 20
99.057100000000005
 30
0.0
 11
164.57900000000001
 21
99.057100000000005
 31
0.0
  0
LINE
  5
78
  8
0
 62
     7
 10
162.57900000000001
 20
90.561800000000005
 30
0.0
 11
162.57900000000001
 21
97.557500000000005
 31
0.0
  0
LINE
  5
79
  8
0
 62
     7
 10
164.05799999999991
 20
104.557
 30
0.0
 11
118.05799999999989
 21
104.557
 31
0.0
  0
LINE
  5
7A
  8
0
 62
     7
 10
164.57900000000001
 20
91.079300000000003
 30
0.0
 11
164.57900000000001
 21
98.599599999999995
 31
0.0
  0
LINE
  5
7B
  8
0
 62
     7
 10
163.62200000000001
 20
90.556999999999988
 30
0.0
 11
164.05799999999991
 21
90.556999999999988
 31
0.0
  0
LINE
  5
7C
  8
0
 62
     7
 10
163.09999999999999
 20
90.556999999999988
 30
0.0
 11
163.62200000000001
 21
90.556999999999988
 31
0.0
  0
LINE
  5
7D
  8
0
 62
     7
 10
131.54699999999991
 20
93.056799999999996
 30
0.0
 11
162.57799999999989
 21
93.056799999999996
 31
0.0
  0
LINE
  5
7E
  8
0
 62
     7
 10
153.68199999999999
 20
90.556999999999988
 30
0.0
 11
163.09999999999999
 21
90.556999999999988
 31
0.0
  0
LINE
  5
7F
  8
0
 62
     7
 10
133.67199999999991
 20
90.557699999999997
 30
0.0
 11
139.07900000000001
 21
90.557699999999997
 31
0.0
  0
LINE
  5
80
  8
0
  6
AIGENLINE002
 62
     7
 10
145.922
 20
93.557000000000002
 30
0.0
 11
139.24600000000001
 21
93.557000000000002
 31
0.0
  0
LINE
  5
81
  8
0
  6
AIGENLINE002
 62
     7
 10
140.2879999999999
 20
92.514499999999998
 30
0.0
 11
144.87899999999991
 21
92.514499999999998
 31
0.0
  0
LINE
  5
82
  8
0
  6
AIGENLINE002
 62
     7
 10
159.35499999999999
 20
103.557
 30
0.0
 11
156.3129999999999
 21
103.557
 31
0.0
  0
LINE
  5
83
  8
0
 62
     7
 10
144.7889999999999
 20
79.413399999999996
 30
0.0
 11
142.57699999999991
 21
80.006
 31
0.0
  0
LINE
  5
84
  8
0
 62
     7
 10
142.57699999999991
 20
80.006
 30
0.0
 11
144.7889999999999
 21
80.598500000000001
 31
0.0
  0
LINE
  5
85
  8
0
 62
     7
 10
144.7889999999999
 20
80.598500000000001
 30
0.0
 11
144.7889999999999
 21
79.413399999999996
 31
0.0
  0
LINE
  5
86
  8
0
 62
     7
 10
162.36799999999999
 20
80.584000000000003
 30
0.0
 11
164.57900000000001
 21
79.991500000000002
 31
0.0
  0
LINE
  5
87
  8
0
 62
     7
 10
164.57900000000001
 20
79.991500000000002
 30
0.0
 11
162.36799999999999
 21
79.398899999999998
 31
0.0
  0
LINE
  5
88
  8
0
 62
     7
 10
162.36799999999999
 20
79.398899999999998
 30
0.0
 11
162.36799999999999
 21
80.584000000000003
 31
0.0
  0
LINE
  5
89
  8
0
 62
     7
 10
142.578
 20
79.998699999999999
 30
0.0
 11
164.578
 21
79.998699999999999
 31
0.0
  0
LINE
  5
8A
  8
0
 62
     7
 10
161.071
 20
100.29600000000001
 30
0.0
 11
161.071
 21
110.14100000000001
 31
0.0
  0
LINE
  5
8B
  8
0
 62
     7
 10
161.6639999999999
 20
106.76900000000001
 30
0.0
 11
161.071
 21
104.557
 31
0.0
  0
LINE
  5
8C
  8
0
 62
     7
 10
161.071
 20
104.557
 30
0.0
 11
160.4789999999999
 21
106.76900000000001
 31
0.0
  0
LINE
  5
8D
  8
0
 62
     7
 10
160.4789999999999
 20
106.76900000000001
 30
0.0
 11
161.6639999999999
 21
106.76900000000001
 31
0.0
  0
LINE
  5
8E
  8
0
 62
     7
 10
160.4789999999999
 20
101.3449999999999
 30
0.0
 11
161.071
 21
103.557
 31
0.0
  0
LINE
  5
8F
  8
0
 62
     7
 10
161.071
 20
103.557
 30
0.0
 11
161.6639999999999
 21
101.3449999999999
 31
0.0
  0
LINE
  5
90
  8
0
 62
     7
 10
161.6639999999999
 20
101.3449999999999
 30
0.0
 11
160.4789999999999
 21
101.3449999999999
 31
0.0
  0
LINE
  5
91
  8
0
 62
     7
 10
55.183900000000001
 20
205.374
 30
0.0
 11
63.296500000000002
 21
197.26099999999991
 31
0.0
  0
LINE
  5
92
  8
0
 62
     7
 10
63.296500000000002
 20
197.26099999999991
 30
0.0
 11
69.925899999999984
 21
197.26099999999991
 31
0.0
  0
LINE
  5
93
  8
0
 62
     7
 10
55.3797
 20
204.34
 30
0.0
 11
57.3628
 21
203.19499999999999
 31
0.0
  0
LINE
  5
94
  8
0
 62
     7
 10
57.3628
 20
203.19499999999999
 30
0.0
 11
56.2179
 21
205.17799999999991
 31
0.0
  0
LINE
  5
95
  8
0
 62
     7
 10
56.2179
 20
205.17799999999991
 30
0.0
 11
55.3797
 21
204.34
 31
0.0
  0
LINE
  5
96
  8
0
 62
     7
 10
61.819499999999998
 20
199.57599999999991
 30
0.0
 11
59.8369
 21
200.72099999999989
 31
0.0
  0
LINE
  5
97
  8
0
 62
     7
 10
59.8369
 20
200.72099999999989
 30
0.0
 11
60.981699999999989
 21
198.738
 31
0.0
  0
LINE
  5
98
  8
0
 62
     7
 10
60.981699999999989
 20
198.738
 30
0.0
 11
61.819499999999998
 21
199.57599999999991
 31
0.0
  0
LINE
  5
99
  8
0
 62
     7
 10
55.017800000000001
 20
189.18499999999989
 30
0.0
 11
57.000799999999991
 21
188.03999999999991
 31
0.0
  0
LINE
  5
9A
  8
0
 62
     7
 10
57.000799999999991
 20
188.03999999999991
 30
0.0
 11
55.856000000000002
 21
190.023
 31
0.0
  0
LINE
  5
9B
  8
0
 62
     7
 10
55.856000000000002
 20
190.023
 30
0.0
 11
55.017800000000001
 21
189.18499999999989
 31
0.0
  0
LINE
  5
9C
  8
0
 62
     7
 10
62.164900000000003
 20
183.714
 30
0.0
 11
60.182200000000002
 21
184.85900000000001
 31
0.0
  0
LINE
  5
9D
  8
0
 62
     7
 10
60.182200000000002
 20
184.85900000000001
 30
0.0
 11
61.326999999999991
 21
182.87599999999989
 31
0.0
  0
LINE
  5
9E
  8
0
 62
     7
 10
61.326999999999991
 20
182.87599999999989
 30
0.0
 11
62.164900000000003
 21
183.714
 31
0.0
  0
LINE
  5
9F
  8
0
 62
     7
 10
54.091799999999999
 20
190.94900000000001
 30
0.0
 11
63.091799999999999
 21
181.94900000000001
 31
0.0
  0
LINE
  5
A0
  8
0
 62
     7
 10
63.091799999999999
 20
181.94900000000001
 30
0.0
 11
69.833200000000005
 21
181.94900000000001
 31
0.0
  0
LINE
  5
A1
  8
0
 62
     7
 10
23.835899999999992
 20
206.239
 30
0.0
 11
23.243300000000001
 21
208.4499999999999
 31
0.0
  0
LINE
  5
A2
  8
0
 62
     7
 10
23.243300000000001
 20
208.4499999999999
 30
0.0
 11
22.6508
 21
206.239
 31
0.0
  0
LINE
  5
A3
  8
0
 62
     7
 10
22.6508
 20
206.239
 30
0.0
 11
23.835899999999992
 21
206.239
 31
0.0
  0
LINE
  5
A4
  8
0
 62
     7
 10
22.665299999999991
 20
188.749
 30
0.0
 11
23.257799999999989
 21
186.5379999999999
 31
0.0
  0
LINE
  5
A5
  8
0
 62
     7
 10
23.257799999999989
 20
186.5379999999999
 30
0.0
 11
23.8504
 21
188.749
 31
0.0
  0
LINE
  5
A6
  8
0
 62
     7
 10
23.8504
 20
188.749
 30
0.0
 11
22.665299999999991
 21
188.749
 31
0.0
  0
LINE
  5
A7
  8
0
 62
     7
 10
23.250599999999999
 20
208.4499999999999
 30
0.0
 11
23.250599999999999
 21
186.5379999999999
 31
0.0
  0
LINE
  5
A8
  8
0
 62
     7
 10
22.5578
 20
186.44900000000001
 30
0.0
 11
53.500900000000001
 21
186.44900000000001
 31
0.0
  0
LINE
  5
A9
  8
0
 62
     7
 10
22.5578
 20
208.44900000000001
 30
0.0
 11
27.3005
 21
208.44900000000001
 31
0.0
  0
LINE
  5
AA
  8
0
 62
     7
 10
88.092999999999975
 20
160.74600000000001
 30
0.0
 11
88.092999999999975
 21
150.95099999999991
 31
0.0
  0
LINE
  5
AB
  8
0
 62
     7
 10
29.090900000000001
 20
151.65100000000001
 30
0.0
 11
22.212700000000002
 21
151.65100000000001
 31
0.0
  0
LINE
  5
AC
  8
0
 62
     7
 10
25.8794
 20
151.065
 30
0.0
 11
28.090800000000002
 21
151.6579999999999
 31
0.0
  0
LINE
  5
AD
  8
0
 62
     7
 10
28.090800000000002
 20
151.6579999999999
 30
0.0
 11
25.8794
 21
152.251
 31
0.0
  0
LINE
  5
AE
  8
0
 62
     7
 10
25.8794
 20
152.251
 30
0.0
 11
25.8794
 21
151.065
 31
0.0
  0
LINE
  5
AF
  8
0
 62
     7
 10
85.775199999999984
 20
151.065
 30
0.0
 11
87.986900000000006
 21
151.6579999999999
 31
0.0
  0
LINE
  5
B0
  8
0
 62
     7
 10
87.986900000000006
 20
151.6579999999999
 30
0.0
 11
85.775199999999984
 21
152.251
 31
0.0
  0
LINE
  5
B1
  8
0
 62
     7
 10
85.775199999999984
 20
152.251
 30
0.0
 11
85.775199999999984
 21
151.065
 31
0.0
  0
LINE
  5
B2
  8
0
 62
     7
 10
91.303200000000004
 20
152.2359999999999
 30
0.0
 11
89.091399999999979
 21
151.64400000000001
 31
0.0
  0
LINE
  5
B3
  8
0
 62
     7
 10
89.091399999999979
 20
151.64400000000001
 30
0.0
 11
91.303200000000004
 21
151.05099999999999
 31
0.0
  0
LINE
  5
B4
  8
0
 62
     7
 10
91.303200000000004
 20
151.05099999999999
 30
0.0
 11
91.303200000000004
 21
152.2359999999999
 31
0.0
  0
LINE
  5
B5
  8
0
 62
     7
 10
31.301600000000001
 20
152.2359999999999
 30
0.0
 11
29.0899
 21
151.64400000000001
 31
0.0
  0
LINE
  5
B6
  8
0
 62
     7
 10
29.0899
 20
151.64400000000001
 30
0.0
 11
31.301600000000001
 21
151.05099999999999
 31
0.0
  0
LINE
  5
B7
  8
0
 62
     7
 10
31.301600000000001
 20
151.05099999999999
 30
0.0
 11
31.301600000000001
 21
152.2359999999999
 31
0.0
  0
LINE
  5
B8
  8
0
 62
     7
 10
86.879699999999985
 20
143.541
 30
0.0
 11
89.091399999999979
 21
144.1329999999999
 31
0.0
  0
LINE
  5
B9
  8
0
 62
     7
 10
89.091399999999979
 20
144.1329999999999
 30
0.0
 11
86.879699999999985
 21
144.72599999999991
 31
0.0
  0
LINE
  5
BA
  8
0
 62
     7
 10
86.879699999999985
 20
144.72599999999991
 30
0.0
 11
86.879699999999985
 21
143.541
 31
0.0
  0
LINE
  5
BB
  8
0
 62
     7
 10
30.425899999999999
 20
144.71100000000001
 30
0.0
 11
28.214099999999998
 21
144.11899999999989
 31
0.0
  0
LINE
  5
BC
  8
0
 62
     7
 10
28.214099999999998
 20
144.11899999999989
 30
0.0
 11
30.425899999999999
 21
143.52600000000001
 31
0.0
  0
LINE
  5
BD
  8
0
 62
     7
 10
30.425899999999999
 20
143.52600000000001
 30
0.0
 11
30.425899999999999
 21
144.71100000000001
 31
0.0
  0
LINE
  5
BE
  8
0
 62
     7
 10
89.091399999999979
 20
144.12599999999989
 30
0.0
 11
28.090800000000002
 21
144.12599999999989
 31
0.0
  0
LINE
  5
BF
  8
0
 62
     7
 10
94.9709
 20
151.65100000000001
 30
0.0
 11
29.090900000000001
 21
151.65100000000001
 31
0.0
  0
LINE
  5
C0
  8
0
 62
     7
 10
29.090900000000001
 20
160.74600000000001
 30
0.0
 11
29.090900000000001
 21
150.95099999999991
 31
0.0
  0
LINE
  5
C1
  8
0
 62
     7
 10
28.090800000000002
 20
160.74600000000001
 30
0.0
 11
28.090800000000002
 21
144.12599999999989
 31
0.0
  0
LINE
  5
C2
  8
0
 62
     7
 10
89.091399999999979
 20
160.74600000000001
 30
0.0
 11
89.091399999999979
 21
144.12599999999989
 31
0.0
  0
LINE
  5
C3
  8
0
 62
     7
 10
95.134500000000003
 20
199.73799999999989
 30
0.0
 11
94.541899999999998
 21
201.94900000000001
 31
0.0
  0
LINE
  5
C4
  8
0
 62
     7
 10
94.541899999999998
 20
201.94900000000001
 30
0.0
 11
93.949399999999997
 21
199.73799999999989
 31
0.0
  0
LINE
  5
C5
  8
0
 62
     7
 10
93.949399999999997
 20
199.73799999999989
 30
0.0
 11
95.134500000000003
 21
199.73799999999989
 31
0.0
  0
LINE
  5
C6
  8
0
 62
     7
 10
93.963899999999995
 20
196.959
 30
0.0
 11
94.556399999999996
 21
194.74700000000001
 31
0.0
  0
LINE
  5
C7
  8
0
 62
     7
 10
94.556399999999996
 20
194.74700000000001
 30
0.0
 11
95.149000000000001
 21
196.959
 31
0.0
  0
LINE
  5
C8
  8
0
 62
     7
 10
95.149000000000001
 20
196.959
 30
0.0
 11
93.963899999999995
 21
196.959
 31
0.0
  0
LINE
  5
C9
  8
0
 62
     7
 10
94.549199999999985
 20
201.94799999999989
 30
0.0
 11
94.549199999999985
 21
194.74799999999991
 31
0.0
  0
LINE
  5
CA
  8
0
 62
     7
 10
95.134500000000003
 20
206.239
 30
0.0
 11
94.541899999999998
 21
208.4499999999999
 31
0.0
  0
LINE
  5
CB
  8
0
 62
     7
 10
94.541899999999998
 20
208.4499999999999
 30
0.0
 11
93.949399999999997
 21
206.239
 31
0.0
  0
LINE
  5
CC
  8
0
 62
     7
 10
93.949399999999997
 20
206.239
 30
0.0
 11
95.134500000000003
 21
206.239
 31
0.0
  0
LINE
  5
CD
  8
0
 62
     7
 10
93.963899999999995
 20
204.15999999999991
 30
0.0
 11
94.556399999999996
 21
201.94799999999989
 31
0.0
  0
LINE
  5
CE
  8
0
 62
     7
 10
94.556399999999996
 20
201.94799999999989
 30
0.0
 11
95.149000000000001
 21
204.15999999999991
 31
0.0
  0
LINE
  5
CF
  8
0
 62
     7
 10
95.149000000000001
 20
204.15999999999991
 30
0.0
 11
93.963899999999995
 21
204.15999999999991
 31
0.0
  0
LINE
  5
D0
  8
0
 62
     7
 10
94.549199999999985
 20
208.44900000000001
 30
0.0
 11
94.549199999999985
 21
201.94900000000001
 31
0.0
  0
LINE
  5
D1
  8
0
 62
     7
 10
100.20699999999999
 20
162.4489999999999
 30
0.0
 11
100.20699999999999
 21
155.57099999999991
 31
0.0
  0
LINE
  5
D2
  8
0
 62
     7
 10
100.79299999999991
 20
159.23699999999999
 30
0.0
 11
100.2
 21
161.4489999999999
 31
0.0
  0
LINE
  5
D3
  8
0
 62
     7
 10
100.2
 20
161.4489999999999
 30
0.0
 11
99.607600000000005
 21
159.23699999999999
 31
0.0
  0
LINE
  5
D4
  8
0
 62
     7
 10
99.607600000000005
 20
159.23699999999999
 30
0.0
 11
100.79299999999991
 21
159.23699999999999
 31
0.0
  0
LINE
  5
D5
  8
0
 62
     7
 10
100.79299999999991
 20
192.5379999999999
 30
0.0
 11
100.2
 21
194.74999999999989
 31
0.0
  0
LINE
  5
D6
  8
0
 62
     7
 10
100.2
 20
194.74999999999989
 30
0.0
 11
99.607600000000005
 21
192.5379999999999
 31
0.0
  0
LINE
  5
D7
  8
0
 62
     7
 10
99.607600000000005
 20
192.5379999999999
 30
0.0
 11
100.79299999999991
 21
192.5379999999999
 31
0.0
  0
LINE
  5
D8
  8
0
 62
     7
 10
99.622100000000003
 20
164.66
 30
0.0
 11
100.215
 21
162.44799999999989
 31
0.0
  0
LINE
  5
D9
  8
0
 62
     7
 10
100.215
 20
162.44799999999989
 30
0.0
 11
100.807
 21
164.66
 31
0.0
  0
LINE
  5
DA
  8
0
 62
     7
 10
100.807
 20
164.66
 30
0.0
 11
99.622100000000003
 21
164.66
 31
0.0
  0
LINE
  5
DB
  8
0
 62
     7
 10
100.20699999999999
 20
194.749
 30
0.0
 11
100.20699999999999
 21
162.4489999999999
 31
0.0
  0
LINE
  5
DC
  8
0
 62
     7
 10
169.64099999999999
 20
166.22499999999999
 30
0.0
 11
170.78599999999989
 21
164.24199999999999
 31
0.0
  0
LINE
  5
DD
  8
0
 62
     7
 10
170.78599999999989
 20
164.24199999999999
 30
0.0
 11
168.80299999999991
 21
165.38699999999989
 31
0.0
  0
LINE
  5
DE
  8
0
 62
     7
 10
168.80299999999991
 20
165.38699999999989
 30
0.0
 11
169.64099999999999
 21
166.22499999999999
 31
0.0
  0
LINE
  5
DF
  8
0
 62
     7
 10
170.78599999999989
 20
164.24199999999999
 30
0.0
 11
166.23699999999991
 21
168.78999999999991
 31
0.0
  0
LINE
  5
E0
  8
0
 62
     7
 10
166.23699999999991
 20
168.78999999999991
 30
0.0
 11
160.37200000000001
 21
168.78999999999991
 31
0.0
  0
LINE
  5
E1
  8
0
 62
     7
 10
115.51600000000001
 20
166.22499999999999
 30
0.0
 11
114.371
 21
164.24199999999999
 31
0.0
  0
LINE
  5
E2
  8
0
 62
     7
 10
114.371
 20
164.24199999999999
 30
0.0
 11
116.354
 21
165.38699999999989
 31
0.0
  0
LINE
  5
E3
  8
0
 62
     7
 10
116.354
 20
165.38699999999989
 30
0.0
 11
115.51600000000001
 21
166.22499999999999
 31
0.0
  0
LINE
  5
E4
  8
0
 62
     7
 10
114.371
 20
164.24199999999999
 30
0.0
 11
118.92
 21
168.78999999999991
 31
0.0
  0
LINE
  5
E5
  8
0
 62
     7
 10
100.79299999999991
 20
206.239
 30
0.0
 11
100.2
 21
208.4499999999999
 31
0.0
  0
LINE
  5
E6
  8
0
 62
     7
 10
100.2
 20
208.4499999999999
 30
0.0
 11
99.607600000000005
 21
206.239
 31
0.0
  0
LINE
  5
E7
  8
0
 62
     7
 10
99.607600000000005
 20
206.239
 30
0.0
 11
100.79299999999991
 21
206.239
 31
0.0
  0
LINE
  5
E8
  8
0
 62
     7
 10
99.622100000000003
 20
196.95999999999989
 30
0.0
 11
100.215
 21
194.749
 31
0.0
  0
LINE
  5
E9
  8
0
 62
     7
 10
100.215
 20
194.749
 30
0.0
 11
100.807
 21
196.95999999999989
 31
0.0
  0
LINE
  5
EA
  8
0
 62
     7
 10
100.807
 20
196.95999999999989
 30
0.0
 11
99.622100000000003
 21
196.95999999999989
 31
0.0
  0
LINE
  5
EB
  8
0
 62
     7
 10
100.20699999999999
 20
208.44900000000001
 30
0.0
 11
100.20699999999999
 21
194.749
 31
0.0
  0
LINE
  5
EC
  8
0
 62
     7
 10
106.371
 20
206.239
 30
0.0
 11
105.779
 21
208.4499999999999
 31
0.0
  0
LINE
  5
ED
  8
0
 62
     7
 10
105.779
 20
208.4499999999999
 30
0.0
 11
105.18600000000001
 21
206.239
 31
0.0
  0
LINE
  5
EE
  8
0
 62
     7
 10
105.18600000000001
 20
206.239
 30
0.0
 11
106.371
 21
206.239
 31
0.0
  0
LINE
  5
EF
  8
0
 62
     7
 10
105.2
 20
163.66
 30
0.0
 11
105.79300000000001
 21
161.44799999999989
 31
0.0
  0
LINE
  5
F0
  8
0
 62
     7
 10
105.79300000000001
 20
161.44799999999989
 30
0.0
 11
106.386
 21
163.66
 31
0.0
  0
LINE
  5
F1
  8
0
 62
     7
 10
106.386
 20
163.66
 30
0.0
 11
105.2
 21
163.66
 31
0.0
  0
LINE
  5
F2
  8
0
 62
     7
 10
105.786
 20
208.44900000000001
 30
0.0
 11
105.786
 21
161.4489999999999
 31
0.0
  0
LINE
  5
F3
  8
0
 62
     7
 10
158.11399999999989
 20
206.238
 30
0.0
 11
157.52099999999999
 21
208.4499999999999
 31
0.0
  0
LINE
  5
F4
  8
0
 62
     7
 10
157.52099999999999
 20
208.4499999999999
 30
0.0
 11
156.929
 21
206.238
 31
0.0
  0
LINE
  5
F5
  8
0
 62
     7
 10
156.929
 20
206.238
 30
0.0
 11
158.11399999999989
 21
206.238
 31
0.0
  0
LINE
  5
F6
  8
0
 62
     7
 10
156.9429999999999
 20
188.65999999999991
 30
0.0
 11
157.536
 21
186.44800000000001
 31
0.0
  0
LINE
  5
F7
  8
0
 62
     7
 10
157.536
 20
186.44800000000001
 30
0.0
 11
158.1279999999999
 21
188.65999999999991
 31
0.0
  0
LINE
  5
F8
  8
0
 62
     7
 10
158.1279999999999
 20
188.65999999999991
 30
0.0
 11
156.9429999999999
 21
188.65999999999991
 31
0.0
  0
LINE
  5
F9
  8
0
 62
     7
 10
157.52799999999999
 20
208.44900000000001
 30
0.0
 11
157.52799999999999
 21
186.44900000000001
 31
0.0
  0
LINE
  5
FA
  8
0
 62
     7
 10
118.92
 20
168.78999999999991
 30
0.0
 11
124.7849999999999
 21
168.78999999999991
 31
0.0
  0
LINE
  5
FB
  8
0
 62
     7
 10
148.38599999999991
 20
186.44900000000001
 30
0.0
 11
158.22799999999989
 21
186.44900000000001
 31
0.0
  0
LINE
  5
FC
  8
0
 62
     7
 10
89.747399999999999
 20
162.4489999999999
 30
0.0
 11
100.907
 21
162.4489999999999
 31
0.0
  0
LINE
  5
FD
  8
0
 62
     7
 10
89.747399999999999
 20
161.4489999999999
 30
0.0
 11
106.486
 21
161.4489999999999
 31
0.0
  0
LINE
  5
FE
  8
0
 62
     7
 10
89.747399999999999
 20
194.749
 30
0.0
 11
100.907
 21
194.749
 31
0.0
  0
LINE
  5
FF
  8
0
 62
     7
 10
62.491700000000002
 20
201.94900000000001
 30
0.0
 11
95.249199999999988
 21
201.94900000000001
 31
0.0
  0
LINE
  5
100
  8
0
 62
     7
 10
89.747399999999999
 20
208.44900000000001
 30
0.0
 11
106.486
 21
208.44900000000001
 31
0.0
  0
LINE
  5
101
  8
0
 62
     7
 10
179.69099999999989
 20
206.238
 30
0.0
 11
179.0979999999999
 21
208.4499999999999
 31
0.0
  0
LINE
  5
102
  8
0
 62
     7
 10
179.0979999999999
 20
208.4499999999999
 30
0.0
 11
178.50599999999989
 21
206.238
 31
0.0
  0
LINE
  5
103
  8
0
 62
     7
 10
178.50599999999989
 20
206.238
 30
0.0
 11
179.69099999999989
 21
206.238
 31
0.0
  0
LINE
  5
104
  8
0
 62
     7
 10
178.52000000000001
 20
166.15999999999991
 30
0.0
 11
179.113
 21
163.94799999999989
 31
0.0
  0
LINE
  5
105
  8
0
 62
     7
 10
179.113
 20
163.94799999999989
 30
0.0
 11
179.70500000000001
 21
166.15999999999991
 31
0.0
  0
LINE
  5
106
  8
0
 62
     7
 10
179.70500000000001
 20
166.15999999999991
 30
0.0
 11
178.52000000000001
 21
166.15999999999991
 31
0.0
  0
LINE
  5
107
  8
0
 62
     7
 10
179.10499999999999
 20
208.44900000000001
 30
0.0
 11
179.10499999999999
 21
163.94900000000001
 31
0.0
  0
LINE
  5
108
  8
0
 62
     7
 10
176.15700000000001
 20
208.44900000000001
 30
0.0
 11
179.80500000000001
 21
208.44900000000001
 31
0.0
  0
LINE
  5
109
  8
0
 62
     7
 10
171.779
 20
163.94900000000001
 30
0.0
 11
179.80500000000001
 21
163.94900000000001
 31
0.0
  0
LINE
  5
10A
  8
0
 62
     7
 10
116.2879999999999
 20
154.6689999999999
 30
0.0
 11
114.07599999999989
 21
154.077
 31
0.0
  0
LINE
  5
10B
  8
0
 62
     7
 10
114.07599999999989
 20
154.077
 30
0.0
 11
116.2879999999999
 21
153.48400000000001
 31
0.0
  0
LINE
  5
10C
  8
0
 62
     7
 10
116.2879999999999
 20
153.48400000000001
 30
0.0
 11
116.2879999999999
 21
154.6689999999999
 31
0.0
  0
LINE
  5
10D
  8
0
 62
     7
 10
168.86699999999999
 20
153.499
 30
0.0
 11
171.07900000000001
 21
154.09100000000001
 31
0.0
  0
LINE
  5
10E
  8
0
 62
     7
 10
171.07900000000001
 20
154.09100000000001
 30
0.0
 11
168.86699999999999
 21
154.68399999999991
 31
0.0
  0
LINE
  5
10F
  8
0
 62
     7
 10
168.86699999999999
 20
154.68399999999991
 30
0.0
 11
168.86699999999999
 21
153.499
 31
0.0
  0
LINE
  5
110
  8
0
 62
     7
 10
114.077
 20
154.084
 30
0.0
 11
171.07799999999989
 21
154.084
 31
0.0
  0
LINE
  5
111
  8
0
 62
     7
 10
171.07900000000001
 20
163.24899999999991
 30
0.0
 11
171.07900000000001
 21
153.39099999999991
 31
0.0
  0
LINE
  5
112
  8
0
 62
     7
 10
114.07899999999989
 20
163.24899999999991
 30
0.0
 11
114.07899999999989
 21
153.39099999999991
 31
0.0
  0
LINE
  5
113
  8
0
 62
     7
 10
148.34299999999999
 20
102.3449999999999
 30
0.0
 11
147.751
 21
104.557
 31
0.0
  0
LINE
  5
114
  8
0
 62
     7
 10
147.751
 20
104.557
 30
0.0
 11
147.1579999999999
 21
102.3449999999999
 31
0.0
  0
LINE
  5
115
  8
0
 62
     7
 10
147.1579999999999
 20
102.3449999999999
 30
0.0
 11
148.34299999999999
 21
102.3449999999999
 31
0.0
  0
LINE
  5
116
  8
0
 62
     7
 10
147.17299999999989
 20
95.768100000000004
 30
0.0
 11
147.7649999999999
 21
93.557000000000002
 31
0.0
  0
LINE
  5
117
  8
0
 62
     7
 10
147.7649999999999
 20
93.557000000000002
 30
0.0
 11
148.358
 21
95.768100000000004
 31
0.0
  0
LINE
  5
118
  8
0
 62
     7
 10
148.358
 20
95.768100000000004
 30
0.0
 11
147.17299999999989
 21
95.768100000000004
 31
0.0
  0
LINE
  5
119
  8
0
 62
     7
 10
147.7579999999999
 20
104.556
 30
0.0
 11
147.7579999999999
 21
93.557699999999997
 31
0.0
  0
LINE
  5
11A
  8
0
 62
     7
 10
106.371
 20
102.34699999999999
 30
0.0
 11
105.779
 21
104.55799999999989
 31
0.0
  0
LINE
  5
11B
  8
0
 62
     7
 10
105.779
 20
104.55799999999989
 30
0.0
 11
105.18600000000001
 21
102.34699999999999
 31
0.0
  0
LINE
  5
11C
  8
0
 62
     7
 10
105.18600000000001
 20
102.34699999999999
 30
0.0
 11
106.371
 21
102.34699999999999
 31
0.0
  0
LINE
  5
11D
  8
0
 62
     7
 10
105.20099999999999
 20
89.567499999999995
 30
0.0
 11
105.79300000000001
 21
87.356499999999997
 31
0.0
  0
LINE
  5
11E
  8
0
 62
     7
 10
105.79300000000001
 20
87.356499999999997
 30
0.0
 11
106.386
 21
89.567499999999995
 31
0.0
  0
LINE
  5
11F
  8
0
 62
     7
 10
106.386
 20
89.567499999999995
 30
0.0
 11
105.20099999999999
 21
89.567499999999995
 31
0.0
  0
LINE
  5
120
  8
0
 62
     7
 10
105.786
 20
104.557
 30
0.0
 11
105.786
 21
87.357100000000003
 31
0.0
  0
LINE
  5
121
  8
0
 62
     7
 10
100.70699999999999
 20
102.34699999999999
 30
0.0
 11
100.1149999999999
 21
104.55799999999989
 31
0.0
  0
LINE
  5
122
  8
0
 62
     7
 10
100.1149999999999
 20
104.55799999999989
 30
0.0
 11
99.522199999999998
 21
102.34699999999999
 31
0.0
  0
LINE
  5
123
  8
0
 62
     7
 10
99.522199999999998
 20
102.34699999999999
 30
0.0
 11
100.70699999999999
 21
102.34699999999999
 31
0.0
  0
LINE
  5
124
  8
0
 62
     7
 10
99.536699999999996
 20
92.767700000000005
 30
0.0
 11
100.129
 21
90.556600000000003
 31
0.0
  0
LINE
  5
125
  8
0
 62
     7
 10
100.129
 20
90.556600000000003
 30
0.0
 11
100.72199999999999
 21
92.767700000000005
 31
0.0
  0
LINE
  5
126
  8
0
 62
     7
 10
100.72199999999999
 20
92.767700000000005
 30
0.0
 11
99.536699999999996
 21
92.767700000000005
 31
0.0
  0
LINE
  5
127
  8
0
 62
     7
 10
100.122
 20
104.557
 30
0.0
 11
100.122
 21
90.557299999999998
 31
0.0
  0
LINE
  5
128
  8
0
 62
     7
 10
95.1417
 20
102.41
 30
0.0
 11
94.549199999999985
 21
104.621
 31
0.0
  0
LINE
  5
129
  8
0
 62
     7
 10
94.549199999999985
 20
104.621
 30
0.0
 11
93.956599999999995
 21
102.41
 31
0.0
  0
LINE
  5
12A
  8
0
 62
     7
 10
93.956599999999995
 20
102.41
 30
0.0
 11
95.1417
 21
102.41
 31
0.0
  0
LINE
  5
12B
  8
0
 62
     7
 10
93.971100000000007
 20
101.8129999999999
 30
0.0
 11
94.563599999999994
 21
99.601399999999998
 31
0.0
  0
LINE
  5
12C
  8
0
 62
     7
 10
94.563599999999994
 20
99.601399999999998
 30
0.0
 11
95.156199999999998
 21
101.8129999999999
 31
0.0
  0
LINE
  5
12D
  8
0
 62
     7
 10
95.156199999999998
 20
101.8129999999999
 30
0.0
 11
93.971100000000007
 21
101.8129999999999
 31
0.0
  0
LINE
  5
12E
  8
0
 62
     7
 10
94.556399999999996
 20
104.621
 30
0.0
 11
94.556399999999996
 21
99.601399999999998
 31
0.0
  0
LINE
  5
12F
  8
0
 62
     7
 10
25.412600000000001
 20
102.34699999999999
 30
0.0
 11
24.82
 21
104.55799999999989
 31
0.0
  0
LINE
  5
130
  8
0
 62
     7
 10
24.82
 20
104.55799999999989
 30
0.0
 11
24.227399999999999
 21
102.34699999999999
 31
0.0
  0
LINE
  5
131
  8
0
 62
     7
 10
24.227399999999999
 20
102.34699999999999
 30
0.0
 11
25.412600000000001
 21
102.34699999999999
 31
0.0
  0
LINE
  5
132
  8
0
 62
     7
 10
24.241900000000001
 20
99.811599999999999
 30
0.0
 11
24.834499999999991
 21
97.600499999999997
 31
0.0
  0
LINE
  5
133
  8
0
 62
     7
 10
24.834499999999991
 20
97.600499999999997
 30
0.0
 11
25.426999999999989
 21
99.811599999999999
 31
0.0
  0
LINE
  5
134
  8
0
 62
     7
 10
25.426999999999989
 20
99.811599999999999
 30
0.0
 11
24.241900000000001
 21
99.811599999999999
 31
0.0
  0
LINE
  5
135
  8
0
 62
     7
 10
24.827200000000001
 20
104.557
 30
0.0
 11
24.827200000000001
 21
97.601200000000006
 31
0.0
  0
LINE
  5
136
  8
0
 62
     7
 10
76.341700000000003
 20
89.856600000000014
 30
0.0
 11
76.341700000000003
 21
79.298699999999997
 31
0.0
  0
LINE
  5
137
  8
0
 62
     7
 10
40.841500000000003
 20
89.856600000000014
 30
0.0
 11
40.841500000000003
 21
79.298699999999997
 31
0.0
  0
LINE
  5
138
  8
0
  6
AIGENLINE001
 62
     7
 10
69.091700000000003
 20
210.483
 30
0.0
 11
69.091700000000003
 21
205.255
 31
0.0
  0
LINE
  5
139
  8
0
  6
AIGENLINE001
 62
     7
 10
48.09129999999999
 20
210.483
 30
0.0
 11
48.09129999999999
 21
205.255
 31
0.0
  0
LINE
  5
13A
  8
0
 62
     7
 10
69.091700000000003
 20
111.31100000000001
 30
0.0
 11
69.091700000000003
 21
99.507400000000004
 31
0.0
  0
LINE
  5
13B
  8
0
 62
     7
 10
142.57900000000001
 20
84.650000000000006
 30
0.0
 11
142.57900000000001
 21
79.298699999999997
 31
0.0
  0
LINE
  5
13C
  8
0
 62
     7
 10
164.57900000000001
 20
89.861699999999985
 30
0.0
 11
164.57900000000001
 21
79.298699999999997
 31
0.0
  0
LINE
  5
13D
  8
0
 62
     7
 10
48.09129999999999
 20
111.31100000000001
 30
0.0
 11
48.09129999999999
 21
99.507400000000004
 31
0.0
  0
LINE
  5
13E
  8
0
 62
     7
 10
62.807899999999989
 20
87.357100000000003
 30
0.0
 11
106.486
 21
87.357100000000003
 31
0.0
  0
LINE
  5
13F
  8
0
 62
     7
 10
77.041799999999995
 20
90.557299999999998
 30
0.0
 11
100.822
 21
90.557299999999998
 31
0.0
  0
LINE
  5
140
  8
0
 62
     7
 10
89.792800000000014
 20
99.601399999999998
 30
0.0
 11
95.249199999999988
 21
99.601399999999998
 31
0.0
  0
LINE
  5
141
  8
0
 62
     7
 10
89.792800000000014
 20
104.601
 30
0.0
 11
106.486
 21
104.601
 31
0.0
  0
LINE
  5
142
  8
0
 62
     7
 10
24.134399999999999
 20
97.601200000000006
 30
0.0
 11
45.141499999999994
 21
97.601200000000006
 31
0.0
  0
LINE
  5
143
  8
0
 62
     7
 10
24.134399999999999
 20
104.601
 30
0.0
 11
27.391400000000001
 21
104.601
 31
0.0
  0
LINE
  5
144
  8
0
 62
     7
 10
43.052900000000001
 20
80.584400000000002
 30
0.0
 11
40.841500000000003
 21
79.991500000000002
 31
0.0
  0
LINE
  5
145
  8
0
 62
     7
 10
40.841500000000003
 20
79.991500000000002
 30
0.0
 11
43.052900000000001
 21
79.398899999999998
 31
0.0
  0
LINE
  5
146
  8
0
 62
     7
 10
43.052900000000001
 20
79.398899999999998
 30
0.0
 11
43.052900000000001
 21
80.584400000000002
 31
0.0
  0
LINE
  5
147
  8
0
 62
     7
 10
74.132000000000005
 20
79.413399999999996
 30
0.0
 11
76.343800000000002
 21
80.006
 31
0.0
  0
LINE
  5
148
  8
0
 62
     7
 10
76.343800000000002
 20
80.006
 30
0.0
 11
74.132000000000005
 21
80.598900000000015
 31
0.0
  0
LINE
  5
149
  8
0
 62
     7
 10
74.132000000000005
 20
80.598900000000015
 30
0.0
 11
74.132000000000005
 21
79.413399999999996
 31
0.0
  0
LINE
  5
14A
  8
0
 62
     7
 10
40.84259999999999
 20
79.998699999999999
 30
0.0
 11
76.342799999999997
 21
79.998699999999999
 31
0.0
  0
LINE
  5
14B
  8
0
 62
     7
 10
50.302300000000002
 20
111.197
 30
0.0
 11
48.090600000000002
 21
110.6039999999999
 31
0.0
  0
LINE
  5
14C
  8
0
 62
     7
 10
48.090600000000002
 20
110.6039999999999
 30
0.0
 11
50.302300000000002
 21
110.0119999999999
 31
0.0
  0
LINE
  5
14D
  8
0
 62
     7
 10
50.302300000000002
 20
110.0119999999999
 30
0.0
 11
50.302300000000002
 21
111.197
 31
0.0
  0
LINE
  5
14E
  8
0
 62
     7
 10
66.880600000000001
 20
110.026
 30
0.0
 11
69.092299999999994
 21
110.619
 31
0.0
  0
LINE
  5
14F
  8
0
 62
     7
 10
69.092299999999994
 20
110.619
 30
0.0
 11
66.880600000000001
 21
111.2109999999999
 31
0.0
  0
LINE
  5
150
  8
0
 62
     7
 10
66.880600000000001
 20
111.2109999999999
 30
0.0
 11
66.880600000000001
 21
110.026
 31
0.0
  0
LINE
  5
151
  8
0
 62
     7
 10
48.09129999999999
 20
110.611
 30
0.0
 11
69.091700000000003
 21
110.611
 31
0.0
  0
ARC
  5
152
  8
0
 62
     7
 10
71.978149000000002
 20
160.8689939999999
 30
0.0
 40
13.38891799999999
 50
67.082098000000002
 51
83.410176000000007
  0
ARC
  5
153
  8
0
 62
     7
 10
70.142779000000004
 20
156.18867199999991
 30
0.0
 40
18.414981000000001
 50
23.015782999999999
 51
67.493048999999999
  0
ARC
  5
154
  8
0
 62
     7
 10
87.053269000000014
 20
163.48753099999999
 30
0.0
 40
1.0390829999999991
 50
272.12927300000001
 51
357.89047799999992
  0
ARC
  5
155
  8
0
 62
     7
 10
30.129638
 20
163.48752999999999
 30
0.0
 40
1.0390829999999991
 50
182.10952499999991
 51
267.87076400000001
  0
ARC
  5
156
  8
0
 62
     7
 10
87.053269000000014
 20
206.41091999999989
 30
0.0
 40
1.0390829999999991
 50
2.1095220000000001
 51
87.870727000000016
  0
ARC
  5
157
  8
0
 62
     7
 10
30.129683
 20
206.41086299999989
 30
0.0
 40
1.039142
 50
92.131572000000006
 51
177.86839900000001
  0
ARC
  5
158
  8
0
  6
AIGENLINE002
 62
     7
 10
68.645966000000001
 20
97.546261000000015
 30
0.0
 40
1.055745999999999
 50
92.063036999999966
 51
177.01677499999991
  0
ARC
  5
159
  8
0
  6
AIGENLINE002
 62
     7
 10
68.630319999999998
 20
97.640608999999998
 30
0.0
 40
1.039417
 50
182.17257799999999
 51
268.76734699999997
  0
LINE
  5
15A
  8
0
  6
AIGENLINE002
 62
     7
 10
68.608000000000004
 20
96.601399999999998
 30
0.0
 11
69.575299999999999
 21
96.601399999999998
 31
0.0
  0
ARC
  5
15B
  8
0
  6
AIGENLINE002
 62
     7
 10
69.537367000000003
 20
97.656489000000022
 30
0.0
 40
1.055739999999999
 50
272.06176399999998
 51
356.99835000000002
  0
ARC
  5
15C
  8
0
  6
AIGENLINE002
 62
     7
 10
69.552634999999995
 20
97.561801000000017
 30
0.0
 40
1.0397700000000001
 50
2.171869
 51
88.748279000000011
  0
LINE
  5
15D
  8
0
  6
AIGENLINE002
 62
     7
 10
69.575299999999999
 20
98.601299999999995
 30
0.0
 11
68.608000000000004
 21
98.601299999999995
 31
0.0
  0
LINE
  5
15E
  8
0
  6
AIGENLINE001
 62
     7
 10
69.091700000000003
 20
96.307199999999995
 30
0.0
 11
69.091700000000003
 21
98.807299999999984
 31
0.0
  0
LINE
  5
15F
  8
0
  6
AIGENLINE001
 62
     7
 10
66.8416
 20
97.601200000000006
 30
0.0
 11
71.341300000000004
 21
97.601200000000006
 31
0.0
  0
ARC
  5
160
  8
0
  6
AIGENLINE002
 62
     7
 10
47.645578
 20
97.546610000000001
 30
0.0
 40
1.0553980000000001
 50
92.064467000000022
 51
177.0347679999999
  0
ARC
  5
161
  8
0
  6
AIGENLINE002
 62
     7
 10
47.63024699999999
 20
97.64058399999999
 30
0.0
 40
1.0394000000000001
 50
182.171255
 51
268.74924800000002
  0
LINE
  5
162
  8
0
  6
AIGENLINE002
 62
     7
 10
47.607599999999998
 20
96.601399999999998
 30
0.0
 11
48.575600000000001
 21
96.601399999999998
 31
0.0
  0
ARC
  5
163
  8
0
  6
AIGENLINE002
 62
     7
 10
48.537630999999998
 20
97.656149999999997
 30
0.0
 40
1.0554019999999991
 50
272.06372799999991
 51
357.01580899999999
  0
ARC
  5
164
  8
0
  6
AIGENLINE002
 62
     7
 10
48.552594999999997
 20
97.561825999999996
 30
0.0
 40
1.0397529999999999
 50
2.170547
 51
88.730179000000007
  0
LINE
  5
165
  8
0
  6
AIGENLINE002
 62
     7
 10
48.575600000000001
 20
98.601299999999995
 30
0.0
 11
47.607599999999998
 21
98.601299999999995
 31
0.0
  0
LINE
  5
166
  8
0
  6
AIGENLINE001
 62
     7
 10
48.0916
 20
96.307199999999995
 30
0.0
 11
48.0916
 21
98.807299999999984
 31
0.0
  0
LINE
  5
167
  8
0
  6
AIGENLINE001
 62
     7
 10
45.841599999999993
 20
97.601200000000006
 30
0.0
 11
50.341599999999993
 21
97.601200000000006
 31
0.0
  0
ARC
  5
168
  8
0
 62
     7
 10
77.165522999999993
 20
92.916017999999994
 30
0.0
 40
0.823309
 50
103.729427
 51
178.71716499999991
  0
ARC
  5
169
  8
0
 62
     7
 10
61.579256999999991
 20
87.885750999999999
 30
0.0
 40
0.528984
 50
272.18074300000001
 51
357.89685099999991
  0
LINE
  5
16A
  8
0
 62
     7
 10
62.107900000000001
 20
90.557299999999998
 30
0.0
 11
62.107900000000001
 21
87.866299999999995
 31
0.0
  0
LINE
  5
16B
  8
0
 62
     7
 10
58.591799999999999
 20
87.357100000000003
 30
0.0
 11
61.599400000000003
 21
87.357100000000003
 31
0.0
  0
ARC
  5
16C
  8
0
 62
     7
 10
76.997095000000002
 20
104.723095
 30
0.0
 40
9.9824850000000005
 50
312.01776699999988
 51
325.41989599999999
  0
ARC
  5
16D
  8
0
 62
     7
 10
73.408054000000007
 20
108.43320899999991
 30
0.0
 40
15.142336999999999
 50
283.60571399999998
 51
312.7103259999999
  0
ARC
  5
16E
  8
0
 62
     7
 10
88.564544999999995
 20
99.585034999999991
 30
0.0
 40
0.527923
 50
272.06972999999988
 51
357.89144800000003
  0
ARC
  5
16F
  8
0
 62
     7
 10
75.814775999999995
 20
91.084314000000006
 30
0.0
 40
0.5273180000000001
 50
272.005832
 51
357.8776049999999
  0
LINE
  5
170
  8
0
 62
     7
 10
76.341700000000003
 20
91.064800000000005
 30
0.0
 11
76.341700000000003
 21
92.934399999999997
 31
0.0
  0
LINE
  5
171
  8
0
 62
     7
 10
89.092099999999988
 20
99.565600000000003
 30
0.0
 11
89.092099999999988
 21
104.04899999999989
 31
0.0
  0
LINE
  5
172
  8
0
 62
     7
 10
58.591799999999999
 20
95.557199999999995
 30
0.0
 11
75.874600000000001
 21
95.557199999999995
 31
0.0
  0
ARC
  5
173
  8
0
 62
     7
 10
88.564654000000004
 20
104.0297589999999
 30
0.0
 40
0.527824
 50
2.1359840000000001
 51
87.941694999999996
  0
ARC
  5
174
  8
0
 62
     7
 10
40.016950999999999
 20
92.914943000000008
 30
0.0
 40
0.8244559999999999
 50
1.35575
 51
76.259005999999999
  0
ARC
  5
175
  8
0
 62
     7
 10
55.603650999999999
 20
87.885750999999999
 30
0.0
 40
0.528984
 50
182.10315199999991
 51
267.81929400000001
  0
LINE
  5
176
  8
0
 62
     7
 10
55.075000000000003
 20
90.557299999999998
 30
0.0
 11
55.075000000000003
 21
87.866299999999995
 31
0.0
  0
LINE
  5
177
  8
0
 62
     7
 10
58.591799999999999
 20
87.357100000000003
 30
0.0
 11
55.583500000000001
 21
87.357100000000003
 31
0.0
  0
ARC
  5
178
  8
0
 62
     7
 10
40.18332199999999
 20
104.7195099999999
 30
0.0
 40
9.9779739999999997
 50
214.57297600000001
 51
227.98024699999999
  0
ARC
  5
179
  8
0
 62
     7
 10
43.774584999999988
 20
108.431937
 30
0.0
 40
15.141037999999989
 50
227.28792499999989
 51
256.394161
  0
ARC
  5
17A
  8
0
 62
     7
 10
28.619052
 20
99.585034999999991
 30
0.0
 40
0.527923
 50
182.108554
 51
267.93030699999991
  0
ARC
  5
17B
  8
0
 62
     7
 10
41.368464999999993
 20
91.084288999999984
 30
0.0
 40
0.5273050000000001
 50
182.11979799999989
 51
267.95797399999998
  0
LINE
  5
17C
  8
0
 62
     7
 10
40.841500000000003
 20
91.064800000000005
 30
0.0
 11
40.841500000000003
 21
92.934399999999997
 31
0.0
  0
LINE
  5
17D
  8
0
 62
     7
 10
28.0915
 20
99.565600000000003
 30
0.0
 11
28.0915
 21
104.04899999999989
 31
0.0
  0
LINE
  5
17E
  8
0
 62
     7
 10
58.591799999999999
 20
95.557199999999995
 30
0.0
 11
41.308300000000003
 21
95.557199999999995
 31
0.0
  0
LINE
  5
17F
  8
0
 62
     7
 10
75.833200000000005
 20
90.557299999999998
 30
0.0
 11
41.349699999999999
 21
90.557299999999998
 31
0.0
  0
LINE
  5
180
  8
0
 62
     7
 10
88.583600000000004
 20
99.057500000000005
 30
0.0
 11
28.600000000000001
 21
99.057500000000005
 31
0.0
  0
ARC
  5
181
  8
0
 62
     7
 10
28.619202000000001
 20
104.0294999999999
 30
0.0
 40
0.528092
 50
92.085316000000006
 51
177.83696499999991
  0
LINE
  5
182
  8
0
 62
     7
 10
28.600000000000001
 20
104.557
 30
0.0
 11
88.583600000000004
 21
104.557
 31
0.0
  0
ARC
  5
183
  8
0
 62
     7
 10
58.591281000000002
 20
186.44940199999999
 30
0.0
 40
3.7501829999999998
 50
269.99738799999989
 51
359.99735800000002
  0
ARC
  5
184
  8
0
 62
     7
 10
58.591281000000002
 20
186.44905700000001
 30
0.0
 40
3.7498369999999999
 50
179.9973379999999
 51
269.99738799999989
  0
ARC
  5
185
  8
0
 62
     7
 10
58.591281999999993
 20
186.44940099999991
 30
0.0
 40
3.7498390000000001
 50
90.002631999999991
 51
180.0026419999999
  0
ARC
  5
186
  8
0
 62
     7
 10
58.591281000000002
 20
186.44905700000001
 30
0.0
 40
3.7501829999999998
 50
0.002642
 51
90.002611999999985
  0
ARC
  5
187
  8
0
 62
     7
 10
58.504973999999997
 20
186.5353649999999
 30
0.0
 40
2.3377289999999991
 50
272.11159600000002
 51
357.8884139999999
  0
ARC
  5
188
  8
0
 62
     7
 10
58.678043999999993
 20
186.5361649999999
 30
0.0
 40
2.3385579999999999
 50
182.13045999999991
 51
267.86957000000001
  0
ARC
  5
189
  8
0
 62
     7
 10
58.677244000000002
 20
186.3630949999999
 30
0.0
 40
2.3377279999999989
 50
92.111559000000014
 51
177.88841099999999
  0
ARC
  5
18A
  8
0
 62
     7
 10
58.504190000000001
 20
186.36231000000001
 30
0.0
 40
2.338541999999999
 50
2.130075999999999
 51
87.869913999999994
  0
ARC
  5
18B
  8
0
 62
     7
 10
58.591281000000002
 20
201.94932900000001
 30
0.0
 40
1.7499480000000001
 50
269.99437999999992
 51
359.99435
  0
ARC
  5
18C
  8
0
 62
     7
 10
58.658709999999999
 20
202.0171149999999
 30
0.0
 40
1.8189900000000001
 50
182.14112900000001
 51
267.87018
  0
ARC
  5
18D
  8
0
 62
     7
 10
58.658320999999987
 20
201.881945
 30
0.0
 40
1.8185739999999999
 50
92.118047000000004
 51
177.881923
  0
ARC
  5
18E
  8
0
 62
     7
 10
58.591109000000003
 20
201.94915599999999
 30
0.0
 40
1.7501199999999999
 50
0.00001
 51
89.999980000000008
  0
LINE
  5
18F
  8
0
  6
AIGENLINE001
 62
     7
 10
61.791600000000003
 20
201.9499999999999
 30
0.0
 11
55.391300000000001
 21
201.9499999999999
 31
0.0
  0
LINE
  5
190
  8
0
  6
AIGENLINE001
 62
     7
 10
58.591099999999997
 20
106.1599999999999
 30
0.0
 11
58.591099999999997
 21
85.725200000000001
 31
0.0
  0
LINE
  5
191
  8
0
  6
AIGENLINE001
 62
     7
 10
58.591099999999997
 20
210.22399999999999
 30
0.0
 11
58.591099999999997
 21
158.0149999999999
 31
0.0
  0
LINE
  5
192
  8
0
  6
AIGENLINE001
 62
     7
 10
63.091799999999999
 20
186.44900000000001
 30
0.0
 11
54.091799999999999
 21
186.44900000000001
 31
0.0
  0
ARC
  5
193
  8
0
 62
     7
 10
86.343602000000004
 20
192.9620909999999
 30
0.0
 40
1.7882629999999999
 50
79.72720600000001
 51
87.946651000000017
  0
ARC
  5
194
  8
0
 62
     7
 10
86.196984
 20
192.0781419999999
 30
0.0
 40
2.6842220000000001
 50
53.833942999999991
 51
80.012623000000005
  0
ARC
  5
195
  8
0
 62
     7
 10
87.287255000000016
 20
193.58919599999999
 30
0.0
 40
0.821016
 50
11.548932000000001
 51
53.029445000000003
  0
LINE
  5
196
  8
0
 62
     7
 10
73.514700000000005
 20
194.03399999999999
 30
0.0
 11
58.591099999999997
 21
194.03399999999999
 31
0.0
  0
ARC
  5
197
  8
0
 62
     7
 10
83.068718999999987
 20
217.42177699999991
 30
0.0
 40
22.917114000000002
 50
276.105527
 51
278.377655
  0
ARC
  5
198
  8
0
 62
     7
 10
79.016154999999998
 20
254.1923589999999
 30
0.0
 40
59.91026999999999
 50
274.37300800000003
 51
276.21901200000002
  0
ARC
  5
199
  8
0
 62
     7
 10
72.466562999999994
 20
339.33951000000002
 30
0.0
 40
145.30894599999991
 50
270.41328499999997
 51
274.38804199999993
  0
LINE
  5
19A
  8
0
 62
     7
 10
73.514700000000005
 20
174.16900000000001
 30
0.0
 11
73.514700000000005
 21
194.03399999999999
 31
0.0
  0
LINE
  5
19B
  8
0
 62
     7
 10
58.591099999999997
 20
174.16900000000001
 30
0.0
 11
73.514700000000005
 21
174.16900000000001
 31
0.0
  0
LINE
  5
19C
  8
0
 62
     7
 10
58.591099999999997
 20
207.4489999999999
 30
0.0
 11
87.091899999999995
 21
207.4489999999999
 31
0.0
  0
LINE
  5
19D
  8
0
 62
     7
 10
87.091899999999995
 20
162.4489999999999
 30
0.0
 11
58.591099999999997
 21
162.4489999999999
 31
0.0
  0
LINE
  5
19E
  8
0
 62
     7
 10
88.0916
 20
163.4489999999999
 30
0.0
 11
88.0916
 21
206.44900000000001
 31
0.0
  0
LINE
  5
19F
  8
0
 62
     7
 10
58.591099999999997
 20
194.749
 30
0.0
 11
86.407700000000006
 21
194.749
 31
0.0
  0
LINE
  5
1A0
  8
0
 62
     7
 10
58.591099999999997
 20
161.4489999999999
 30
0.0
 11
88.0916
 21
161.4489999999999
 31
0.0
  0
ARC
  5
1A1
  8
0
 62
     7
 10
88.053061999999997
 20
162.48739299999991
 30
0.0
 40
1.039062999999999
 50
272.12821300000002
 51
357.89153700000003
  0
LINE
  5
1A2
  8
0
 62
     7
 10
89.091399999999979
 20
162.4489999999999
 30
0.0
 11
89.091399999999979
 21
207.44999999999999
 31
0.0
  0
ARC
  5
1A3
  8
0
 62
     7
 10
88.052998000000002
 20
207.41098
 30
0.0
 40
1.039142
 50
2.1315810000000002
 51
87.868408999999986
  0
LINE
  5
1A4
  8
0
 62
     7
 10
88.0916
 20
208.44900000000001
 30
0.0
 11
58.591099999999997
 21
208.44900000000001
 31
0.0
  0
ARC
  5
1A5
  8
0
 62
     7
 10
30.838605000000001
 20
192.96450999999999
 30
0.0
 40
1.7858449999999999
 50
92.055723000000015
 51
100.279946
  0
ARC
  5
1A6
  8
0
 62
     7
 10
30.985769000000001
 20
192.07787400000001
 30
0.0
 40
2.6845449999999991
 50
99.993413000000018
 51
126.16574900000001
  0
ARC
  5
1A7
  8
0
 62
     7
 10
29.894570999999999
 20
193.59021399999989
 30
0.0
 40
0.819752
 50
126.971555
 51
168.5056439999999
  0
LINE
  5
1A8
  8
0
 62
     7
 10
43.668199999999992
 20
194.03399999999999
 30
0.0
 11
58.591099999999997
 21
194.03399999999999
 31
0.0
  0
ARC
  5
1A9
  8
0
 62
     7
 10
34.11551699999999
 20
217.442013
 30
0.0
 40
22.937427
 50
261.62474300000002
 51
263.89536499999991
  0
ARC
  5
1AA
  8
0
 62
     7
 10
38.168290999999989
 20
254.22025699999989
 30
0.0
 40
59.938222000000003
 50
263.78197399999999
 51
265.627343
  0
ARC
  5
1AB
  8
0
 62
     7
 10
44.717007999999993
 20
339.36185999999998
 30
0.0
 40
145.3313
 50
265.61229400000002
 51
269.58653700000002
  0
LINE
  5
1AC
  8
0
 62
     7
 10
43.668199999999992
 20
174.16900000000001
 30
0.0
 11
43.668199999999992
 21
194.03399999999999
 31
0.0
  0
LINE
  5
1AD
  8
0
 62
     7
 10
58.591099999999997
 20
174.16900000000001
 30
0.0
 11
43.668199999999992
 21
174.16900000000001
 31
0.0
  0
ARC
  5
1AE
  8
0
 62
     7
 10
45.204794999999997
 20
160.86691599999989
 30
0.0
 40
13.390985999999989
 50
96.588936000000004
 51
112.9159819999999
  0
ARC
  5
1AF
  8
0
 62
     7
 10
47.03849799999999
 20
156.19057599999991
 30
0.0
 40
18.412735999999999
 50
112.505549
 51
156.98766699999999
  0
LINE
  5
1B0
  8
0
 62
     7
 10
58.591099999999997
 20
207.4489999999999
 30
0.0
 11
30.091000000000001
 21
207.4489999999999
 31
0.0
  0
LINE
  5
1B1
  8
0
 62
     7
 10
30.091000000000001
 20
162.4489999999999
 30
0.0
 11
58.591099999999997
 21
162.4489999999999
 31
0.0
  0
LINE
  5
1B2
  8
0
 62
     7
 10
29.0913
 20
163.4489999999999
 30
0.0
 11
29.0913
 21
206.4499999999999
 31
0.0
  0
LINE
  5
1B3
  8
0
 62
     7
 10
58.591099999999997
 20
194.749
 30
0.0
 11
30.7745
 21
194.749
 31
0.0
  0
LINE
  5
1B4
  8
0
 62
     7
 10
58.591099999999997
 20
161.4489999999999
 30
0.0
 11
29.0913
 21
161.4489999999999
 31
0.0
  0
ARC
  5
1B5
  8
0
 62
     7
 10
29.129570999999999
 20
162.48783399999999
 30
0.0
 40
1.039493
 50
182.131936
 51
267.88782700000002
  0
LINE
  5
1B6
  8
0
 62
     7
 10
28.090800000000002
 20
162.4489999999999
 30
0.0
 11
28.090800000000002
 21
207.44999999999999
 31
0.0
  0
ARC
  5
1B7
  8
0
 62
     7
 10
29.129892000000002
 20
207.41028199999991
 30
0.0
 40
1.0398389999999991
 50
92.129159000000001
 51
177.8313379999999
  0
LINE
  5
1B8
  8
0
 62
     7
 10
29.0913
 20
208.44900000000001
 30
0.0
 11
58.591099999999997
 21
208.44900000000001
 31
0.0
  0
ARC
  5
1B9
  8
0
 62
     7
 10
170.0402389999999
 20
164.98741000000001
 30
0.0
 40
1.0391330000000001
 50
272.13181600000001
 51
357.88793399999992
  0
LINE
  5
1BA
  8
0
 62
     7
 10
175.45699999999999
 20
208.44900000000001
 30
0.0
 11
171.07900000000001
 21
208.44900000000001
 31
0.0
  0
LINE
  5
1BB
  8
0
 62
     7
 10
170.07900000000001
 20
163.94900000000001
 30
0.0
 11
142.57900000000001
 21
163.94900000000001
 31
0.0
  0
LINE
  5
1BC
  8
0
 62
     7
 10
171.07900000000001
 20
208.44900000000001
 30
0.0
 11
171.07900000000001
 21
164.94900000000001
 31
0.0
  0
ARC
  5
1BD
  8
0
 62
     7
 10
115.1169389999999
 20
164.98741000000001
 30
0.0
 40
1.0391330000000001
 50
182.11206799999991
 51
267.86822100000001
  0
LINE
  5
1BE
  8
0
  6
AIGENLINE003
 62
     7
 10
114.07899999999989
 20
208.44900000000001
 30
0.0
 11
171.07900000000001
 21
208.44900000000001
 31
0.0
  0
LINE
  5
1BF
  8
0
 62
     7
 10
109.6999999999999
 20
208.44900000000001
 30
0.0
 11
114.07899999999989
 21
208.44900000000001
 31
0.0
  0
LINE
  5
1C0
  8
0
  6
AIGENLINE001
 62
     7
 10
147.82900000000001
 20
186.44900000000001
 30
0.0
 11
137.328
 21
186.44900000000001
 31
0.0
  0
LINE
  5
1C1
  8
0
  6
AIGENLINE001
 62
     7
 10
142.57900000000001
 20
211.00399999999999
 30
0.0
 11
142.57900000000001
 21
161.58500000000001
 31
0.0
  0
ARC
  5
1C2
  8
0
  6
AIGENLINE002
 62
     7
 10
142.57858899999999
 20
186.449229
 30
0.0
 40
2.2999610000000001
 50
0.00001
 51
89.999980000000008
  0
ARC
  5
1C3
  8
0
  6
AIGENLINE002
 62
     7
 10
142.57858999999991
 20
186.449229
 30
0.0
 40
2.2999610000000001
 50
90.0
 51
179.99996999999991
  0
ARC
  5
1C4
  8
0
  6
AIGENLINE002
 62
     7
 10
142.578675
 20
186.44914299999991
 30
0.0
 40
2.300046
 50
179.99782500000001
 51
269.99787400000002
  0
ARC
  5
1C5
  8
0
  6
AIGENLINE002
 62
     7
 10
142.57850300000001
 20
186.4491439999999
 30
0.0
 40
2.3000470000000002
 50
270.00216499999999
 51
0.002136
  0
LINE
  5
1C6
  8
0
 62
     7
 10
115.0779999999999
 20
163.94900000000001
 30
0.0
 11
142.57900000000001
 21
163.94900000000001
 31
0.0
  0
LINE
  5
1C7
  8
0
 62
     7
 10
114.07899999999989
 20
208.44900000000001
 30
0.0
 11
114.07899999999989
 21
164.94900000000001
 31
0.0
  0
ARC
  5
1C8
  8
0
  6
AIGENLINE002
 62
     7
 10
142.57858899999999
 20
186.449229
 30
0.0
 40
3.7500110000000002
 50
0.00001
 51
89.999980000000008
  0
ARC
  5
1C9
  8
0
  6
AIGENLINE002
 62
     7
 10
142.57858999999991
 20
186.449229
 30
0.0
 40
3.7500110000000002
 50
90.0
 51
179.99996999999991
  0
ARC
  5
1CA
  8
0
  6
AIGENLINE002
 62
     7
 10
142.57858899999999
 20
186.449229
 30
0.0
 40
3.750008999999999
 50
179.99996999999991
 51
270.00002000000001
  0
ARC
  5
1CB
  8
0
  6
AIGENLINE002
 62
     7
 10
142.57858899999999
 20
186.44923
 30
0.0
 40
3.7500110000000002
 50
270.00002000000001
 51
359.99998999999991
  0
LINE
  5
1CC
  8
0
 62
     7
 10
162.17599999999999
 20
211.477
 30
0.0
 11
160.42799999999991
 21
208.44900000000001
 31
0.0
  0
LINE
  5
1CD
  8
0
 62
     7
 10
160.42799999999991
 20
208.44900000000001
 30
0.0
 11
158.68100000000001
 21
211.477
 31
0.0
  0
LINE
  5
1CE
  8
0
 62
     7
 10
158.68100000000001
 20
211.477
 30
0.0
 11
162.17599999999999
 21
211.477
 31
0.0
  0
TEXT
  5
1CF
  8
_________2
 62
     7
 10
137.31847500000001
 20
9.1082000000000001
 30
0.0
 40
3.9357000000000002
  1
SB3004G
 41
0.5
 72
     1
 11
143.55000000000001
 21
9.1082000000000001
 31
0.0
  0
TEXT
  5
1D0
  8
_________2
 62
     7
 10
137.31847500000001
 20
-0.8926299999999999
 30
0.0
 40
3.9357000000000002
  1
SB3004G
 41
0.5
 72
     1
 11
143.55000000000001
 21
-0.8926299999999999
 31
0.0
  0
TEXT
  5
1D1
  8
_________2
 62
     7
 10
24.586600000000001
 20
0.707627
 30
0.0
 40
3.9357000000000002
  1
実容量：4.7L、重量：17kg、オーバーフロー付
 41
0.5
  0
LINE
  5
1D2
  8
_________2
 62
     7
 10
205.30099999999999
 20
127.411
 30
0.0
 11
183.55099999999999
 21
127.411
 31
0.0
  0
LINE
  5
1D3
  8
_________2
 62
     7
 10
100.2999999999999
 20
-4.0910799999999998
 30
0.0
 11
100.2999999999999
 21
-21.070999999999991
 31
0.0
  0
LINE
  5
1D4
  8
_________2
 62
     7
 10
100.2999999999999
 20
275.93099999999993
 30
0.0
 11
100.2999999999999
 21
258.911
 31
0.0
  0
LINE
  5
1D5
  8
_________2
 62
     7
 10
17.049399999999991
 20
127.411
 30
0.0
 11
-4.7010300000000003
 21
127.411
 31
0.0
  0
LINE
  5
1D6
  8
_________2
 62
     7
 10
76.740799999999993
 20
29.8047
 30
0.0
 11
74.554599999999994
 21
29.8047
 31
0.0
  0
LINE
  5
1D7
  8
_________2
 62
     7
 10
77.233500000000006
 20
29.8047
 30
0.0
 11
76.981300000000005
 21
29.8047
 31
0.0
  0
LINE
  5
1D8
  8
_________2
 62
     7
 10
77.726200000000006
 20
29.8047
 30
0.0
 11
80.6511
 21
29.8047
 31
0.0
  0
LINE
  5
1D9
  8
_________2
 62
     7
 10
77.233500000000006
 20
29.8047
 30
0.0
 11
77.485699999999994
 21
29.8047
 31
0.0
  0
LINE
  5
1DA
  8
_________2
 62
     7
 10
70.837299999999999
 20
29.8047
 30
0.0
 11
68.650300000000001
 21
29.8047
 31
0.0
  0
LINE
  5
1DB
  8
_________2
 62
     7
 10
71.329300000000003
 20
29.8047
 30
0.0
 11
71.077799999999996
 21
29.8047
 31
0.0
  0
LINE
  5
1DC
  8
_________2
 62
     7
 10
71.329300000000003
 20
30.2974
 30
0.0
 11
71.329300000000003
 21
32.484400000000001
 31
0.0
  0
LINE
  5
1DD
  8
_________2
 62
     7
 10
71.329300000000003
 20
29.8047
 30
0.0
 11
71.329300000000003
 21
30.057300000000001
 31
0.0
  0
LINE
  5
1DE
  8
_________2
 62
     7
 10
71.821899999999999
 20
29.8047
 30
0.0
 11
74.008899999999997
 21
29.8047
 31
0.0
  0
LINE
  5
1DF
  8
_________2
 62
     7
 10
71.329300000000003
 20
29.8047
 30
0.0
 11
71.581400000000002
 21
29.8047
 31
0.0
  0
LINE
  5
1E0
  8
_________2
 62
     7
 10
71.329300000000003
 20
29.312799999999999
 30
0.0
 11
71.329300000000003
 21
27.126200000000001
 31
0.0
  0
LINE
  5
1E1
  8
_________2
 62
     7
 10
71.329300000000003
 20
29.8047
 30
0.0
 11
71.329300000000003
 21
29.5532
 31
0.0
  0
LINE
  5
1E2
  8
_________2
 62
     7
 10
75.040300000000002
 20
28.5852
 30
0.0
 11
80.218299999999985
 21
27.720400000000001
 31
0.0
  0
LINE
  5
1E3
  8
_________2
 62
     7
 10
75.040300000000002
 20
31.024699999999999
 30
0.0
 11
80.218299999999985
 21
31.8901
 31
0.0
  0
LINE
  5
1E4
  8
_________2
 62
     7
 10
80.218299999999985
 20
27.720400000000001
 30
0.0
 11
80.218299999999985
 21
31.8901
 31
0.0
  0
LINE
  5
1E5
  8
_________2
 62
     7
 10
75.040300000000002
 20
28.5852
 30
0.0
 11
75.040300000000002
 21
31.024699999999999
 31
0.0
  0
ARC
  5
1E6
  8
_________2
 62
     7
 10
71.282674
 20
29.757801000000001
 30
0.0
 40
1.267714
 50
2.1220840000000001
 51
87.894083999999992
  0
ARC
  5
1E7
  8
_________2
 62
     7
 10
71.375812999999994
 20
29.758545999999999
 30
0.0
 40
1.2669680000000001
 50
92.105782999999988
 51
177.91037
  0
ARC
  5
1E8
  8
_________2
 62
     7
 10
71.376186000000004
 20
29.851671
 30
0.0
 40
1.2673680000000001
 50
182.12203600000001
 51
267.877993
  0
ARC
  5
1E9
  8
_________2
 62
     7
 10
71.282368999999989
 20
29.852347999999999
 30
0.0
 40
1.2680439999999991
 50
272.11916400000001
 51
357.84848499999993
  0
ARC
  5
1EA
  8
_________2
 62
     7
 10
71.248890000000003
 20
29.724731999999989
 30
0.0
 40
2.1668310000000002
 50
2.1161439999999989
 51
87.874379000000005
  0
ARC
  5
1EB
  8
_________2
 62
     7
 10
71.408928000000003
 20
29.726146
 30
0.0
 40
2.165392999999999
 50
92.108508999999998
 51
177.91986499999999
  0
ARC
  5
1EC
  8
_________2
 62
     7
 10
71.409267
 20
29.884751999999999
 30
0.0
 40
2.1657829999999998
 50
182.117133
 51
267.88289700000001
  0
ARC
  5
1ED
  8
_________2
 62
     7
 10
71.249286999999995
 20
29.885429999999989
 30
0.0
 40
2.1664590000000001
 50
272.11546800000002
 51
357.86560400000002
  0
TEXT
  5
1EE
  8
_________2
 62
     7
 10
104.605
 20
1.6794899999999999
 30
0.0
 40
3.0923400000000001
  1
図番
 41
0.5
  0
LINE
  5
1EF
  8
_________2
 62
     7
 10
103.55
 20
5.9087199999999989
 30
0.0
 11
183.55099999999999
 21
5.9087199999999989
 31
0.0
  0
TEXT
  5
1F0
  8
_________2
 62
     7
 10
104.605
 20
11.679299999999991
 30
0.0
 40
3.0923400000000001
  1
品番
 41
0.5
  0
TEXT
  5
1F1
  8
_________2
 62
     7
 10
104.605
 20
31.8184
 30
0.0
 40
3.0923400000000001
  1
名称
 41
0.5
  0
TEXT
  5
1F2
  8
_________2
 62
     7
 10
91.844958333333338
 20
26.822299999999998
 30
0.0
 40
3.6545800000000002
  1
mm
 41
0.5
 72
     1
 11
93.367699999999985
 21
26.822299999999998
 31
0.0
  0
TEXT
  5
1F3
  8
_________2
 62
     7
 10
85.642999999999986
 20
31.8184
 30
0.0
 40
3.0923400000000001
  1
単位
 41
0.5
  0
TEXT
  5
1F4
  8
_________2
 62
     7
 10
85.642999999999986
 20
19.410799999999991
 30
0.0
 40
3.0923400000000001
  1
尺度
 41
0.5
  0
TEXT
  5
1F5
  8
_________2
 62
     7
 10
90.091736166666678
 20
13.218199999999991
 30
0.0
 40
3.6545800000000002
  1
1 ： 10
 41
0.5
 72
     1
 11
93.959500000000006
 21
13.218199999999991
 31
0.0
  0
TEXT
  5
1F6
  8
_________2
 62
     7
 10
109.179
 20
24.226099999999999
 30
0.0
 40
3.9357000000000002
  1
ML 洗面器
 41
0.5
  0
TEXT
  5
1F7
  8
_________2
 62
     7
 10
39.425100333333333
 20
13.603400000000001
 30
0.0
 40
3.6545800000000002
  1
早川
 41
0.5
 72
     1
 11
41.313299999999998
 21
13.603400000000001
 31
0.0
  0
TEXT
  5
1F8
  8
_________2
 62
     7
 10
20.790190666666671
 20
13.603400000000001
 30
0.0
 40
3.6545800000000002
  1
菅原
 41
0.5
 72
     1
 11
22.7393
 21
13.603400000000001
 31
0.0
  0
TEXT
  5
1F9
  8
_________2
 62
     7
 10
67.785600000000002
 20
13.218199999999991
 30
0.0
 40
3.6545800000000002
  1
12.11.20
 41
0.5
  0
TEXT
  5
1FA
  8
_________2
 62
     7
 10
66.5929
 20
19.410799999999991
 30
0.0
 40
3.0923400000000001
  1
日付
 41
0.5
  0
TEXT
  5
1FB
  8
_________2
 62
     7
 10
29.639199999999992
 20
19.410799999999991
 30
0.0
 40
3.0923400000000001
  1
検図
 41
0.5
  0
TEXT
  5
1FC
  8
_________2
 62
     7
 10
18.020900000000001
 20
5.21143
 30
0.0
 40
3.0923400000000001
  1
備考
 41
0.5
  0
TEXT
  5
1FD
  8
_________2
 62
     7
 10
18.020900000000001
 20
19.410799999999991
 30
0.0
 40
3.0923400000000001
  1
製図
 41
0.5
  0
TEXT
  5
1FE
  8
_________2
 62
     7
 10
23.788265333333339
 20
27.936800000000002
 30
0.0
 40
4.4979399999999989
  1
セラトレーディング株式会社
 41
0.5
 72
     1
 11
41.180300000000003
 21
27.936800000000002
 31
0.0
  0
LINE
  5
1FF
  8
_________2
 62
     7
 10
183.55099999999999
 20
-4.0910799999999998
 30
0.0
 11
17.049399999999991
 21
-4.0910799999999998
 31
0.0
  0
LINE
  5
200
  8
_________2
 62
     7
 10
17.049399999999991
 20
-4.0910799999999998
 30
0.0
 11
17.049399999999991
 21
258.911
 31
0.0
  0
LINE
  5
201
  8
_________2
 62
     7
 10
17.049399999999991
 20
258.911
 30
0.0
 11
183.55099999999999
 21
258.911
 31
0.0
  0
LINE
  5
202
  8
_________2
 62
     7
 10
183.55099999999999
 20
258.911
 30
0.0
 11
183.55099999999999
 21
-4.0910799999999998
 31
0.0
  0
LINE
  5
203
  8
_________2
 62
     7
 10
65.549700000000001
 20
9.4092999999999982
 30
0.0
 11
65.549700000000001
 21
35.909100000000002
 31
0.0
  0
LINE
  5
204
  8
_________2
 62
     7
 10
84.549599999999984
 20
9.4092999999999982
 30
0.0
 11
84.549599999999984
 21
35.909100000000002
 31
0.0
  0
LINE
  5
205
  8
_________2
 62
     7
 10
103.55
 20
-4.0910799999999998
 30
0.0
 11
103.55
 21
35.909100000000002
 31
0.0
  0
LINE
  5
206
  8
_________2
 62
     7
 10
28.549199999999988
 20
9.4092999999999982
 30
0.0
 11
28.549199999999988
 21
23.409199999999998
 31
0.0
  0
LINE
  5
207
  8
_________2
 62
     7
 10
17.049399999999991
 20
9.4092999999999982
 30
0.0
 11
103.55
 21
9.4092999999999982
 31
0.0
  0
LINE
  5
208
  8
_________2
 62
     7
 10
17.049399999999991
 20
23.409199999999998
 30
0.0
 11
103.55
 21
23.409199999999998
 31
0.0
  0
LINE
  5
209
  8
_________2
 62
     7
 10
103.55
 20
15.9085
 30
0.0
 11
183.55099999999999
 21
15.9085
 31
0.0
  0
LINE
  5
20A
  8
_________2
 62
     7
 10
17.049399999999991
 20
35.909100000000002
 30
0.0
 11
183.55099999999999
 21
35.909100000000002
 31
0.0
  0
ENDSEC
  0
EOF
