  0
SECTION
  2
HEADER
  9
$ACADVER
  1
AC1009
  9
$INSBASE
 10
0.0
 20
0.0
 30
0.0
  9
$EXTMIN
 10
-4.7010300000000003
 20
-21.070999999999991
 30
0.0
  9
$EXTMAX
 10
205.30099999999999
 20
275.93099999999993
 30
0.0
  9
$LIMMIN
 10
0.0
 20
0.0
  9
$LIMMAX
 10
12.0
 20
9.0
  9
$ORTHOMODE
 70
     0
  9
$REGENMODE
 70
     1
  9
$FILLMODE
 70
     1
  9
$QTEXTMODE
 70
     0
  9
$MIRRTEXT
 70
     1
  9
$DRAGMODE
 70
     2
  9
$LTSCALE
 40
1.0
  9
$OSMODE
 70
    37
  9
$ATTMODE
 70
     1
  9
$TEXTSIZE
 40
0.0
  9
$TRACEWID
 40
0.05
  9
$TEXTSTYLE
  7
STANDARD
  9
$CLAYER
  8
0
  9
$CELTYPE
  6
CONTINUOUS
  9
$CECOLOR
 62
   256
  9
$DIMSCALE
 40
1.0
  9
$DIMASZ
 40
0.18
  9
$DIMEXO
 40
0.0625
  9
$DIMDLI
 40
0.38
  9
$DIMRND
 40
0.0
  9
$DIMDLE
 40
0.0
  9
$DIMEXE
 40
0.18
  9
$DIMTP
 40
0.0
  9
$DIMTM
 40
0.0
  9
$DIMTXT
 40
0.18
  9
$DIMCEN
 40
0.09
  9
$DIMTSZ
 40
0.0
  9
$DIMTOL
 70
     0
  9
$DIMLIM
 70
     0
  9
$DIMTIH
 70
     1
  9
$DIMTOH
 70
     1
  9
$DIMSE1
 70
     0
  9
$DIMSE2
 70
     0
  9
$DIMTAD
 70
     0
  9
$DIMZIN
 70
     0
  9
$DIMBLK
  1

  9
$DIMASO
 70
     1
  9
$DIMSHO
 70
     1
  9
$DIMPOST
  1

  9
$DIMAPOST
  1

  9
$DIMALT
 70
     0
  9
$DIMALTD
 70
     2
  9
$DIMALTF
 40
25.399999999999999
  9
$DIMLFAC
 40
1.0
  9
$DIMTOFL
 70
     0
  9
$DIMTVP
 40
0.0
  9
$DIMTIX
 70
     0
  9
$DIMSOXD
 70
     0
  9
$DIMSAH
 70
     0
  9
$DIMBLK1
  1

  9
$DIMBLK2
  1

  9
$DIMSTYLE
  2
STANDARD
  9
$DIMCLRD
 70
     0
  9
$DIMCLRE
 70
     0
  9
$DIMCLRT
 70
     0
  9
$DIMTFAC
 40
1.0
  9
$DIMGAP
 40
0.09
  9
$LUNITS
 70
     2
  9
$LUPREC
 70
     4
  9
$SKETCHINC
 40
0.1
  9
$FILLETRAD
 40
0.0
  9
$AUNITS
 70
     0
  9
$AUPREC
 70
     0
  9
$MENU
  1
.
  9
$ELEVATION
 40
0.0
  9
$PELEVATION
 40
0.0
  9
$THICKNESS
 40
0.0
  9
$LIMCHECK
 70
     0
  9
$BLIPMODE
 70
     0
  9
$CHAMFERA
 40
0.0
  9
$CHAMFERB
 40
0.0
  9
$SKPOLY
 70
     0
  9
$TDCREATE
 40
2444972.375
  9
$TDUPDATE
 40
2457079.2466160059
  9
$TDINDWG
 40
0.0000063657
  9
$TDUSRTIMER
 40
0.0000063657
  9
$USRTIMER
 70
     1
  9
$ANGBASE
 50
0.0
  9
$ANGDIR
 70
     0
  9
$PDMODE
 70
     0
  9
$PDSIZE
 40
0.0
  9
$PLINEWID
 40
0.0
  9
$COORDS
 70
     1
  9
$SPLFRAME
 70
     0
  9
$SPLINETYPE
 70
     6
  9
$SPLINESEGS
 70
     8
  9
$ATTDIA
 70
     0
  9
$ATTREQ
 70
     1
  9
$HANDLING
 70
     1
  9
$HANDSEED
  5
1EF
  9
$SURFTAB1
 70
     6
  9
$SURFTAB2
 70
     6
  9
$SURFTYPE
 70
     6
  9
$SURFU
 70
     6
  9
$SURFV
 70
     6
  9
$UCSNAME
  2

  9
$UCSORG
 10
0.0
 20
0.0
 30
0.0
  9
$UCSXDIR
 10
1.0
 20
0.0
 30
0.0
  9
$UCSYDIR
 10
0.0
 20
1.0
 30
0.0
  9
$PUCSNAME
  2

  9
$PUCSORG
 10
0.0
 20
0.0
 30
0.0
  9
$PUCSXDIR
 10
1.0
 20
0.0
 30
0.0
  9
$PUCSYDIR
 10
0.0
 20
1.0
 30
0.0
  9
$USERI1
 70
     0
  9
$USERI2
 70
     0
  9
$USERI3
 70
     0
  9
$USERI4
 70
     0
  9
$USERI5
 70
     0
  9
$USERR1
 40
0.0
  9
$USERR2
 40
0.0
  9
$USERR3
 40
0.0
  9
$USERR4
 40
0.0
  9
$USERR5
 40
0.0
  9
$WORLDVIEW
 70
     1
  9
$SHADEDGE
 70
     3
  9
$SHADEDIF
 70
    70
  9
$TILEMODE
 70
     1
  9
$MAXACTVP
 70
    48
  9
$PLIMCHECK
 70
     0
  9
$PEXTMIN
 10
1.0000000000000000E+020
 20
1.0000000000000000E+020
 30
1.0000000000000000E+020
  9
$PEXTMAX
 10
-1.0000000000000000E+020
 20
-1.0000000000000000E+020
 30
-1.0000000000000000E+020
  9
$PLIMMIN
 10
0.0
 20
0.0
  9
$PLIMMAX
 10
12.0
 20
9.0
  9
$UNITMODE
 70
     0
  9
$VISRETAIN
 70
     1
  9
$PLINEGEN
 70
     0
  9
$PSLTSCALE
 70
     1
  0
ENDSEC
  0
SECTION
  2
TABLES
  0
TABLE
  2
VPORT
 70
     2
  0
VPORT
  2
*ACTIVE
 70
     0
 10
0.0
 20
0.0
 11
1.0
 21
1.0
 12
200.34015747553701
 22
127.42999999999989
 13
0.0
 23
0.0
 14
1.0
 24
1.0
 15
0.0
 25
0.0
 16
0.0
 26
0.0
 36
1.0
 17
0.0
 27
0.0
 37
0.0
 40
299.4701606648199
 41
2.2894736842105261
 42
50.0
 43
0.0
 44
0.0
 50
0.0
 51
0.0
 71
     0
 72
   100
 73
     1
 74
     1
 75
     0
 76
     0
 77
     0
 78
     0
  0
ENDTAB
  0
TABLE
  2
LTYPE
 70
     3
  0
LTYPE
  2
CONTINUOUS
 70
     0
  3
Solid line
 72
    65
 73
     0
 40
0.0
  0
LTYPE
  2
AIGENLINE001
 70
     0
  3
generate AI->DXF Converter
 72
    65
 73
     4
 40
5.8561449999999988
 49
3.5278
 49
-0.776115
 49
0.776115
 49
-0.776115
  0
LTYPE
  2
AIGENLINE002
 70
     0
  3
generate AI->DXF Converter
 72
    65
 73
     2
 40
1.5522299999999991
 49
0.776115
 49
-0.776115
  0
ENDTAB
  0
TABLE
  2
LAYER
 70
     2
  0
LAYER
  2
0
 70
     0
 62
     7
  6
CONTINUOUS
  0
LAYER
  2
_________2
 70
     0
 62
     7
  6
CONTINUOUS
  0
ENDTAB
  0
TABLE
  2
STYLE
 70
     1
  0
STYLE
  2
STANDARD
 70
     0
 40
0.0
 41
0.0
 50
0.0
 71
     0
 42
0.0
  3
TXT
  4
EXTFONT.SHX
  0
ENDTAB
  0
TABLE
  2
VIEW
 70
     0
  0
ENDTAB
  0
TABLE
  2
UCS
 70
     0
  0
ENDTAB
  0
TABLE
  2
APPID
 70
     1
  0
APPID
  2
ACAD
 70
     0
  0
ENDTAB
  0
TABLE
  2
DIMSTYLE
 70
     1
  0
DIMSTYLE
  2
STANDARD
 70
     0
  3

  4

  5

  6

  7

 40
1.0
 41
0.18
 42
0.0625
 43
0.38
 44
0.18
 45
0.0
 46
0.0
 47
0.0
 48
0.0
140
0.18
141
0.09
142
0.0
143
25.399999999999999
144
1.0
145
0.0
146
1.0
147
0.09
 71
     0
 72
     0
 73
     1
 74
     1
 75
     0
 76
     0
 77
     0
 78
     0
170
     0
171
     2
172
     0
173
     0
174
     0
175
     0
176
     0
177
     0
178
     0
  0
ENDTAB
  0
ENDSEC
  0
SECTION
  2
BLOCKS
  0
BLOCK
  8
0
  2
$MODEL_SPACE
 70
     0
 10
0.0
 20
0.0
 30
0.0
  3
$MODEL_SPACE
  1

  0
ENDBLK
  5
1A
  8
0
  0
BLOCK
 67
     1
  8
0
  2
$PAPER_SPACE
 70
     0
 10
0.0
 20
0.0
 30
0.0
  3
$PAPER_SPACE
  1

  0
ENDBLK
  5
17
 67
     1
  8
0
  0
ENDSEC
  0
SECTION
  2
ENTITIES
  0
TEXT
  5
23
  8
0
 62
     7
 10
155.52339374999991
 20
80.706000000000003
 30
0.0
 40
3.660169999999999
  1
220
 41
0.5
 72
     1
 11
157.81100000000001
 21
80.706000000000003
 31
0.0
  0
TEXT
  5
24
  8
0
 62
     7
 10
163.85299999999989
 20
108.0059008333333
 30
0.0
 40
3.660169999999999
  1
10
 50
90.0
 41
0.5
 72
     2
 11
163.85299999999989
 21
110.14100000000001
 31
0.0
  0
TEXT
  5
25
  8
0
 62
     7
 10
150.53999999999991
 20
99.661914999999993
 30
0.0
 40
3.660169999999999
  1
115
 50
90.0
 41
0.5
 72
     1
 11
150.53999999999991
 21
101.492
 31
0.0
  0
TEXT
  5
26
  8
0
 62
     7
 10
112.07599999999999
 20
93.844100833333329
 30
0.0
 40
3.660169999999999
  1
172
 50
90.0
 41
0.5
 72
     1
 11
112.07599999999999
 21
95.979200000000006
 31
0.0
  0
TEXT
  5
27
  8
0
 62
     7
 10
106.41200000000001
 20
95.59660791666667
 30
0.0
 40
3.660169999999999
  1
140
 50
90.0
 41
0.5
 72
     1
 11
106.41200000000001
 21
97.5792
 31
0.0
  0
TEXT
  5
28
  8
0
 62
     7
 10
100.8389999999999
 20
100.5759291666666
 30
0.0
 40
3.660169999999999
  1
55
 50
90.0
 41
0.5
 72
     1
 11
100.8389999999999
 21
102.1009999999999
 31
0.0
  0
TEXT
  5
29
  8
0
 62
     7
 10
29.009599999999988
 20
99.728436250000016
 30
0.0
 40
3.660169999999999
  1
70
 50
90.0
 41
0.5
 72
     1
 11
29.009599999999988
 21
101.1009999999999
 31
0.0
  0
TEXT
  5
2A
  8
0
 62
     7
 10
63.141186666666663
 20
80.706400000000002
 30
0.0
 40
3.660169999999999
  1
355
 41
0.5
 72
     1
 11
65.581299999999999
 21
80.706400000000002
 31
0.0
  0
TEXT
  5
2B
  8
0
 62
     7
 10
63.599007916666658
 20
111.40600000000001
 30
0.0
 40
3.660169999999999
  1
210
 41
0.5
 72
     1
 11
65.581599999999995
 21
111.40600000000001
 31
0.0
  0
TEXT
  5
2C
  8
0
 62
     7
 10
72.035473333333314
 20
197.9609999999999
 30
0.0
 40
3.660169999999999
  1
%%c35
 41
0.5
 72
     2
 11
76.915700000000001
 21
197.9609999999999
 31
0.0
  0
TEXT
  5
2D
  8
0
 62
     7
 10
71.942773333333335
 20
182.64899999999989
 30
0.0
 40
3.660169999999999
  1
%%c45
 41
0.5
 72
     2
 11
76.823000000000008
 21
182.64899999999989
 31
0.0
  0
TEXT
  5
2E
  8
0
 62
     7
 10
27.440200000000001
 20
195.16139375
 30
0.0
 40
3.660169999999999
  1
220
 50
90.0
 41
0.5
 72
     1
 11
27.440200000000001
 21
197.44900000000001
 31
0.0
  0
TEXT
  5
2F
  8
0
 62
     7
 10
99.875900833333347
 20
152.35099999999991
 30
0.0
 40
3.660169999999999
  1
10
 41
0.5
 72
     2
 11
102.011
 21
152.35099999999991
 31
0.0
  0
TEXT
  5
30
  8
0
 62
     7
 10
28.785699999999991
 20
152.35099999999991
 30
0.0
 40
3.660169999999999
  1
10
 41
0.5
  0
TEXT
  5
31
  8
0
 62
     7
 10
63.598307916666663
 20
144.82599999999991
 30
0.0
 40
3.660169999999999
  1
610
 41
0.5
 72
     1
 11
65.580899999999986
 21
144.82599999999991
 31
0.0
  0
TEXT
  5
32
  8
0
 62
     7
 10
63.293993749999991
 20
152.35099999999991
 30
0.0
 40
3.660169999999999
  1
590
 41
0.5
 72
     1
 11
65.581599999999995
 21
152.35099999999991
 31
0.0
  0
TEXT
  5
33
  8
0
 62
     7
 10
109.64700000000001
 20
155.15399999999991
 30
0.0
 40
3.660169999999999
  1
10
 50
90.0
 41
0.5
  0
TEXT
  5
34
  8
0
 62
     7
 10
109.64700000000001
 20
176.15888666666669
 30
0.0
 40
3.660169999999999
  1
323
 50
90.0
 41
0.5
 72
     1
 11
109.64700000000001
 21
178.59899999999999
 31
0.0
  0
TEXT
  5
35
  8
0
 62
     7
 10
109.64700000000001
 20
199.4639008333333
 30
0.0
 40
3.660169999999999
  1
137
 50
90.0
 41
0.5
 72
     1
 11
109.64700000000001
 21
201.59899999999999
 31
0.0
  0
TEXT
  5
36
  8
0
 62
     7
 10
102.58199999999999
 20
203.6739291666666
 30
0.0
 40
3.660169999999999
  1
65
 50
90.0
 41
0.5
 72
     1
 11
102.58199999999999
 21
205.1989999999999
 31
0.0
  0
TEXT
  5
37
  8
0
 62
     7
 10
102.58199999999999
 20
196.8239291666666
 30
0.0
 40
3.660169999999999
  1
72
 50
90.0
 41
0.5
 72
     1
 11
102.58199999999999
 21
198.34899999999999
 31
0.0
  0
TEXT
  5
38
  8
0
 62
     7
 10
116.626
 20
182.66139375
 30
0.0
 40
3.660169999999999
  1
470
 50
90.0
 41
0.5
 72
     1
 11
116.626
 21
184.94900000000001
 31
0.0
  0
TEXT
  5
39
  8
0
 62
     7
 10
22.287500000000001
 20
39.127200000000002
 30
0.0
 40
4.6583899999999989
  1
※壁取付部には厚さ30mm以上の補強木を入れてください。
 41
0.5
  0
LINE
  5
3A
  8
0
 62
     7
 10
134.4739999999999
 20
90.944599999999994
 30
0.0
 11
133.59499999999991
 21
94.902999999999992
 31
0.0
  0
ARC
  5
3B
  8
0
 62
     7
 10
133.10055500000001
 20
94.786800999999997
 30
0.0
 40
0.5076760000000001
 50
13.230225000000001
 51
49.065741000000003
  0
ARC
  5
3C
  8
0
 62
     7
 10
134.98952099999991
 20
91.093980999999985
 30
0.0
 40
0.536457
 50
196.173776
 51
268.69286199999988
  0
ARC
  5
3D
  8
0
 62
     7
 10
125.9150629999999
 20
98.550464000000005
 30
0.0
 40
0.5066530000000001
 50
49.221381999999998
 51
89.745514000000014
  0
ARC
  5
3E
  8
0
 62
     7
 10
121.372077
 20
99.368789000000007
 30
0.0
 40
0.311893
 50
182.0694419999999
 51
267.86484399999989
  0
LINE
  5
3F
  8
0
 62
     7
 10
121.06
 20
104.0349999999999
 30
0.0
 11
121.06
 21
99.357500000000002
 31
0.0
  0
LINE
  5
40
  8
0
 62
     7
 10
133.43299999999999
 20
95.170299999999997
 30
0.0
 11
126.246
 21
98.934100000000015
 31
0.0
  0
ARC
  5
41
  8
0
  6
AIGENLINE002
 62
     7
 10
166.541449
 20
104.07665900000001
 30
0.0
 40
0.519549
 50
272.127861
 51
357.83264800000001
  0
ARC
  5
42
  8
0
  6
AIGENLINE002
 62
     7
 10
167.5798519999999
 20
104.03803000000001
 30
0.0
 40
0.5195720000000001
 50
92.133097000000006
 51
177.90634700000001
  0
LINE
  5
43
  8
0
  6
AIGENLINE001
 62
     7
 10
152.012
 20
100.557
 30
0.0
 11
156.98699999999991
 21
100.557
 31
0.0
  0
LINE
  5
44
  8
0
  6
AIGENLINE001
 62
     7
 10
161.56
 20
105.91200000000001
 30
0.0
 11
161.56
 21
101.31699999999999
 31
0.0
  0
LINE
  5
45
  8
0
  6
AIGENLINE001
 62
     7
 10
146.06100000000001
 20
85.349999999999994
 30
0.0
 11
146.06100000000001
 21
106.23399999999999
 31
0.0
  0
LINE
  5
46
  8
0
 62
     7
 10
166.06099999999989
 20
97.557500000000005
 30
0.0
 11
166.06099999999989
 21
99.057100000000005
 31
0.0
  0
LINE
  5
47
  8
0
 62
     7
 10
167.53899999999999
 20
104.557
 30
0.0
 11
167.578
 21
104.557
 31
0.0
  0
ARC
  5
48
  8
0
 62
     7
 10
167.51943600000001
 20
104.01595999999989
 30
0.0
 40
0.5416530000000001
 50
2.0468669999999989
 51
87.877436000000003
  0
LINE
  5
49
  8
0
  6
AIGENLINE001
 62
     7
 10
164.59599999999989
 20
97.557500000000005
 30
0.0
 11
169.59599999999989
 21
97.557500000000005
 31
0.0
  0
LINE
  5
4A
  8
0
 62
     7
 10
168.06099999999989
 20
98.599599999999995
 30
0.0
 11
168.06099999999989
 21
104.0349999999999
 31
0.0
  0
LINE
  5
4B
  8
0
  6
AIGENLINE002
 62
     7
 10
166.56099999999989
 20
103.557
 30
0.0
 11
155.215
 21
103.557
 31
0.0
  0
ARC
  5
4C
  8
0
  6
AIGENLINE002
 62
     7
 10
155.11744899999999
 20
102.581943
 30
0.0
 40
0.9045260000000001
 50
132.9091929999999
 51
152.9839649999999
  0
ARC
  5
4D
  8
0
  6
AIGENLINE002
 62
     7
 10
155.3213199999999
 20
102.400131
 30
0.0
 40
1.176771
 50
104.1298859999999
 51
134.152669
  0
ARC
  5
4E
  8
0
  6
AIGENLINE002
 62
     7
 10
155.18886900000001
 20
102.82921399999999
 30
0.0
 40
0.728722
 50
87.950101000000004
 51
102.2665319999999
  0
ARC
  5
4F
  8
0
 62
     7
 10
127.42211
 20
125.971136
 30
0.0
 40
46.245913000000002
 50
309.33616499999988
 51
310.02496300000001
  0
ARC
  5
50
  8
0
 62
     7
 10
146.264319
 20
102.998334
 30
0.0
 40
16.534330999999991
 50
306.00924900000001
 51
309.29605299999992
  0
ARC
  5
51
  8
0
 62
     7
 10
150.66390799999999
 20
97.001109
 30
0.0
 40
9.0965150000000001
 50
299.50085300000001
 51
305.80100599999997
  0
ARC
  5
52
  8
0
 62
     7
 10
152.47471399999989
 20
93.871950999999996
 30
0.0
 40
5.4814629999999989
 50
288.16311599999989
 51
299.13373899999988
  0
ARC
  5
53
  8
0
 62
     7
 10
153.134837
 20
92.005662999999998
 30
0.0
 40
3.502685
 50
270.18493100000001
 51
287.41937999999999
  0
ARC
  5
54
  8
0
  6
AIGENLINE002
 62
     7
 10
152.85375400000001
 20
94.624712000000017
 30
0.0
 40
1.067984
 50
271.25143600000001
 51
353.77291200000002
  0
LINE
  5
55
  8
0
 62
     7
 10
150.56499999999991
 20
88.502999999999986
 30
0.0
 11
153.14599999999999
 21
88.502999999999986
 31
0.0
  0
LINE
  5
56
  8
0
  6
AIGENLINE002
 62
     7
 10
149.404
 20
93.557000000000002
 30
0.0
 11
152.87700000000001
 21
93.557000000000002
 31
0.0
  0
ARC
  5
57
  8
0
 62
     7
 10
150.4850999999999
 20
87.509833999999998
 30
0.0
 40
0.951745
 50
133.51634300000001
 51
166.1180149999999
  0
ARC
  5
58
  8
0
 62
     7
 10
150.573047
 20
87.439878000000007
 30
0.0
 40
1.063146999999999
 50
90.430397999999997
 51
134.35752400000001
  0
ARC
  5
59
  8
0
 62
     7
 10
149.0836009999999
 20
87.860697999999985
 30
0.0
 40
0.493019
 50
300.07296999999988
 51
345.61082499999998
  0
ARC
  5
5A
  8
0
 62
     7
 10
149.06037900000001
 20
87.870572999999979
 30
0.0
 40
0.5134240000000001
 50
269.90682900000002
 51
301.76358599999992
  0
ARC
  5
5B
  8
0
  6
AIGENLINE002
 62
     7
 10
149.44303899999991
 20
92.474446999999998
 30
0.0
 40
1.08325
 50
92.080601000000001
 51
177.8815129999999
  0
LINE
  5
5C
  8
0
  6
AIGENLINE002
 62
     7
 10
148.3609999999999
 20
87.357100000000003
 30
0.0
 11
148.3609999999999
 21
92.514499999999998
 31
0.0
  0
LINE
  5
5D
  8
0
 62
     7
 10
149.06
 20
87.357100000000003
 30
0.0
 11
148.53700000000001
 21
87.357100000000003
 31
0.0
  0
LINE
  5
5E
  8
0
 62
     7
 10
142.56099999999989
 20
90.557699999999997
 30
0.0
 11
142.56099999999989
 21
87.879099999999994
 31
0.0
  0
ARC
  5
5F
  8
0
 62
     7
 10
143.10261299999999
 20
87.899086999999994
 30
0.0
 40
0.542307
 50
182.11382699999999
 51
267.88620200000003
  0
LINE
  5
60
  8
0
 62
     7
 10
143.60299999999989
 20
87.357100000000003
 30
0.0
 11
143.083
 21
87.357100000000003
 31
0.0
  0
LINE
  5
61
  8
0
  6
AIGENLINE002
 62
     7
 10
143.761
 20
92.514499999999998
 30
0.0
 11
143.761
 21
87.357100000000003
 31
0.0
  0
LINE
  5
62
  8
0
 62
     7
 10
134.977
 20
90.557699999999997
 30
0.0
 11
137.15399999999991
 21
90.557699999999997
 31
0.0
  0
ARC
  5
63
  8
0
  6
AIGENLINE002
 62
     7
 10
142.67813200000001
 20
92.474505000000008
 30
0.0
 40
1.083215
 50
2.1154419999999989
 51
87.884547999999995
  0
LINE
  5
64
  8
0
  6
AIGENLINE002
 62
     7
 10
137.01099999999991
 20
93.557000000000002
 30
0.0
 11
142.7179999999999
 21
93.557000000000002
 31
0.0
  0
ARC
  5
65
  8
0
  6
AIGENLINE002
 62
     7
 10
136.97315699999999
 20
94.213422999999992
 30
0.0
 40
0.6575470000000001
 50
258.79252799999989
 51
273.32375500000001
  0
ARC
  5
66
  8
0
  6
AIGENLINE002
 62
     7
 10
137.04285400000001
 20
94.675035999999977
 30
0.0
 40
1.124106
 50
235.23475999999999
 51
259.88094699999999
  0
ARC
  5
67
  8
0
  6
AIGENLINE002
 62
     7
 10
136.76527499999989
 20
94.251607999999976
 30
0.0
 40
0.618128
 50
226.769012
 51
233.99112
  0
LINE
  5
68
  8
0
  6
AIGENLINE002
 62
     7
 10
136.34200000000001
 20
93.801199999999994
 30
0.0
 11
122.1459999999999
 21
103.515
 31
0.0
  0
LINE
  5
69
  8
0
 62
     7
 10
126.81699999999999
 20
99.057100000000005
 30
0.0
 11
121.36
 21
99.057100000000005
 31
0.0
  0
LINE
  5
6A
  8
0
  6
AIGENLINE002
 62
     7
 10
122.06100000000001
 20
104.0349999999999
 30
0.0
 11
122.06100000000001
 21
103.515
 31
0.0
  0
ARC
  5
6B
  8
0
 62
     7
 10
121.6023129999999
 20
104.0153429999999
 30
0.0
 40
0.5422940000000001
 50
92.185452999999995
 51
177.89020500000001
  0
ARC
  5
6C
  8
0
  6
AIGENLINE002
 62
     7
 10
121.519543
 20
104.0163189999999
 30
0.0
 40
0.541295
 50
2.0102809999999991
 51
87.876140000000007
  0
LINE
  5
6D
  8
0
 62
     7
 10
121.54000000000001
 20
104.557
 30
0.0
 11
121.58199999999999
 21
104.557
 31
0.0
  0
ARC
  5
6E
  8
0
 62
     7
 10
167.51844800000001
 20
91.099230000000006
 30
0.0
 40
0.5426640000000002
 50
272.22303599999998
 51
357.89046799999988
  0
LINE
  5
6F
  8
0
  6
AIGENLINE002
 62
     7
 10
154.31200000000001
 20
102.99299999999999
 30
0.0
 11
154.274
 21
102.56399999999989
 31
0.0
  0
LINE
  5
70
  8
0
  6
AIGENLINE002
 62
     7
 10
154.274
 20
102.56399999999989
 30
0.0
 11
153.91499999999999
 21
94.508899999999997
 31
0.0
  0
LINE
  5
71
  8
0
 62
     7
 10
148.53700000000001
 20
87.357100000000003
 30
0.0
 11
143.613
 21
87.357100000000003
 31
0.0
  0
LINE
  5
72
  8
0
 62
     7
 10
126.717
 20
99.057100000000005
 30
0.0
 11
168.06099999999989
 21
99.057100000000005
 31
0.0
  0
LINE
  5
73
  8
0
 62
     7
 10
166.06099999999989
 20
90.561800000000005
 30
0.0
 11
166.06099999999989
 21
97.557500000000005
 31
0.0
  0
LINE
  5
74
  8
0
 62
     7
 10
167.53899999999999
 20
104.557
 30
0.0
 11
121.54000000000001
 21
104.557
 31
0.0
  0
LINE
  5
75
  8
0
 62
     7
 10
168.06099999999989
 20
91.079300000000003
 30
0.0
 11
168.06099999999989
 21
98.599599999999995
 31
0.0
  0
LINE
  5
76
  8
0
 62
     7
 10
167.10400000000001
 20
90.556999999999988
 30
0.0
 11
167.53899999999999
 21
90.556999999999988
 31
0.0
  0
LINE
  5
77
  8
0
 62
     7
 10
166.58199999999999
 20
90.556999999999988
 30
0.0
 11
167.10400000000001
 21
90.556999999999988
 31
0.0
  0
LINE
  5
78
  8
0
 62
     7
 10
135.02899999999991
 20
93.056799999999996
 30
0.0
 11
166.06
 21
93.056799999999996
 31
0.0
  0
LINE
  5
79
  8
0
 62
     7
 10
157.1639999999999
 20
90.556999999999988
 30
0.0
 11
166.58199999999999
 21
90.556999999999988
 31
0.0
  0
LINE
  5
7A
  8
0
 62
     7
 10
137.15399999999991
 20
90.557699999999997
 30
0.0
 11
142.56099999999989
 21
90.557699999999997
 31
0.0
  0
LINE
  5
7B
  8
0
  6
AIGENLINE002
 62
     7
 10
149.404
 20
93.557000000000002
 30
0.0
 11
142.72799999999989
 21
93.557000000000002
 31
0.0
  0
LINE
  5
7C
  8
0
  6
AIGENLINE002
 62
     7
 10
143.77000000000001
 20
92.514499999999998
 30
0.0
 11
148.3609999999999
 21
92.514499999999998
 31
0.0
  0
LINE
  5
7D
  8
0
 62
     7
 10
148.27099999999999
 20
79.413399999999996
 30
0.0
 11
146.059
 21
80.006
 31
0.0
  0
LINE
  5
7E
  8
0
 62
     7
 10
146.059
 20
80.006
 30
0.0
 11
148.27099999999999
 21
80.598500000000001
 31
0.0
  0
LINE
  5
7F
  8
0
 62
     7
 10
148.27099999999999
 20
80.598500000000001
 30
0.0
 11
148.27099999999999
 21
79.413399999999996
 31
0.0
  0
LINE
  5
80
  8
0
 62
     7
 10
165.84999999999999
 20
80.584000000000003
 30
0.0
 11
168.06099999999989
 21
79.991500000000002
 31
0.0
  0
LINE
  5
81
  8
0
 62
     7
 10
168.06099999999989
 20
79.991500000000002
 30
0.0
 11
165.84999999999999
 21
79.398899999999998
 31
0.0
  0
LINE
  5
82
  8
0
 62
     7
 10
165.84999999999999
 20
79.398899999999998
 30
0.0
 11
165.84999999999999
 21
80.584000000000003
 31
0.0
  0
LINE
  5
83
  8
0
 62
     7
 10
146.06
 20
79.998699999999999
 30
0.0
 11
168.06
 21
79.998699999999999
 31
0.0
  0
LINE
  5
84
  8
0
 62
     7
 10
164.55299999999991
 20
100.29600000000001
 30
0.0
 11
164.55299999999991
 21
110.14100000000001
 31
0.0
  0
LINE
  5
85
  8
0
 62
     7
 10
165.14500000000001
 20
106.76900000000001
 30
0.0
 11
164.55299999999991
 21
104.557
 31
0.0
  0
LINE
  5
86
  8
0
 62
     7
 10
164.55299999999991
 20
104.557
 30
0.0
 11
163.9609999999999
 21
106.76900000000001
 31
0.0
  0
LINE
  5
87
  8
0
 62
     7
 10
163.9609999999999
 20
106.76900000000001
 30
0.0
 11
165.14500000000001
 21
106.76900000000001
 31
0.0
  0
LINE
  5
88
  8
0
 62
     7
 10
163.9609999999999
 20
101.3449999999999
 30
0.0
 11
164.55299999999991
 21
103.557
 31
0.0
  0
LINE
  5
89
  8
0
 62
     7
 10
164.55299999999991
 20
103.557
 30
0.0
 11
165.14500000000001
 21
101.3449999999999
 31
0.0
  0
LINE
  5
8A
  8
0
 62
     7
 10
165.14500000000001
 20
101.3449999999999
 30
0.0
 11
163.9609999999999
 21
101.3449999999999
 31
0.0
  0
LINE
  5
8B
  8
0
 62
     7
 10
62.17369999999999
 20
205.374
 30
0.0
 11
70.286199999999994
 21
197.26099999999991
 31
0.0
  0
LINE
  5
8C
  8
0
 62
     7
 10
70.286199999999994
 20
197.26099999999991
 30
0.0
 11
76.915700000000001
 21
197.26099999999991
 31
0.0
  0
LINE
  5
8D
  8
0
 62
     7
 10
62.369500000000002
 20
204.34
 30
0.0
 11
64.352599999999995
 21
203.19499999999999
 31
0.0
  0
LINE
  5
8E
  8
0
 62
     7
 10
64.352599999999995
 20
203.19499999999999
 30
0.0
 11
63.207700000000003
 21
205.17799999999991
 31
0.0
  0
LINE
  5
8F
  8
0
 62
     7
 10
63.207700000000003
 20
205.17799999999991
 30
0.0
 11
62.369500000000002
 21
204.34
 31
0.0
  0
LINE
  5
90
  8
0
 62
     7
 10
68.809299999999993
 20
199.57599999999991
 30
0.0
 11
66.826700000000002
 21
200.72099999999989
 31
0.0
  0
LINE
  5
91
  8
0
 62
     7
 10
66.826700000000002
 20
200.72099999999989
 30
0.0
 11
67.971500000000006
 21
198.738
 31
0.0
  0
LINE
  5
92
  8
0
 62
     7
 10
67.971500000000006
 20
198.738
 30
0.0
 11
68.809299999999993
 21
199.57599999999991
 31
0.0
  0
LINE
  5
93
  8
0
 62
     7
 10
62.007599999999989
 20
189.18499999999989
 30
0.0
 11
63.990600000000001
 21
188.03999999999991
 31
0.0
  0
LINE
  5
94
  8
0
 62
     7
 10
63.990600000000001
 20
188.03999999999991
 30
0.0
 11
62.845799999999997
 21
190.023
 31
0.0
  0
LINE
  5
95
  8
0
 62
     7
 10
62.845799999999997
 20
190.023
 30
0.0
 11
62.007599999999989
 21
189.18499999999989
 31
0.0
  0
LINE
  5
96
  8
0
 62
     7
 10
69.154700000000005
 20
183.714
 30
0.0
 11
67.171999999999997
 21
184.85900000000001
 31
0.0
  0
LINE
  5
97
  8
0
 62
     7
 10
67.171999999999997
 20
184.85900000000001
 30
0.0
 11
68.316800000000001
 21
182.87599999999989
 31
0.0
  0
LINE
  5
98
  8
0
 62
     7
 10
68.316800000000001
 20
182.87599999999989
 30
0.0
 11
69.154700000000005
 21
183.714
 31
0.0
  0
LINE
  5
99
  8
0
 62
     7
 10
61.081600000000002
 20
190.94900000000001
 30
0.0
 11
70.081599999999995
 21
181.94900000000001
 31
0.0
  0
LINE
  5
9A
  8
0
 62
     7
 10
70.081599999999995
 20
181.94900000000001
 30
0.0
 11
76.823000000000008
 21
181.94900000000001
 31
0.0
  0
LINE
  5
9B
  8
0
 62
     7
 10
28.7256
 20
206.239
 30
0.0
 11
28.132999999999999
 21
208.4499999999999
 31
0.0
  0
LINE
  5
9C
  8
0
 62
     7
 10
28.132999999999999
 20
208.4499999999999
 30
0.0
 11
27.540400000000002
 21
206.239
 31
0.0
  0
LINE
  5
9D
  8
0
 62
     7
 10
27.540400000000002
 20
206.239
 30
0.0
 11
28.7256
 21
206.239
 31
0.0
  0
LINE
  5
9E
  8
0
 62
     7
 10
27.554899999999989
 20
188.749
 30
0.0
 11
28.147500000000001
 21
186.5379999999999
 31
0.0
  0
LINE
  5
9F
  8
0
 62
     7
 10
28.147500000000001
 20
186.5379999999999
 30
0.0
 11
28.739999999999998
 21
188.749
 31
0.0
  0
LINE
  5
A0
  8
0
 62
     7
 10
28.739999999999998
 20
188.749
 30
0.0
 11
27.554899999999989
 21
188.749
 31
0.0
  0
LINE
  5
A1
  8
0
 62
     7
 10
28.1402
 20
208.4499999999999
 30
0.0
 11
28.1402
 21
186.5379999999999
 31
0.0
  0
LINE
  5
A2
  8
0
 62
     7
 10
27.447399999999998
 20
186.44900000000001
 30
0.0
 11
60.490699999999997
 21
186.44900000000001
 31
0.0
  0
LINE
  5
A3
  8
0
 62
     7
 10
27.447399999999998
 20
208.44900000000001
 30
0.0
 11
34.290300000000002
 21
208.44900000000001
 31
0.0
  0
LINE
  5
A4
  8
0
 62
     7
 10
95.082800000000006
 20
160.74600000000001
 30
0.0
 11
95.082800000000006
 21
150.95099999999991
 31
0.0
  0
LINE
  5
A5
  8
0
 62
     7
 10
36.0807
 20
151.65100000000001
 30
0.0
 11
29.202500000000001
 21
151.65100000000001
 31
0.0
  0
LINE
  5
A6
  8
0
 62
     7
 10
32.869199999999999
 20
151.065
 30
0.0
 11
35.08059999999999
 21
151.6579999999999
 31
0.0
  0
LINE
  5
A7
  8
0
 62
     7
 10
35.08059999999999
 20
151.6579999999999
 30
0.0
 11
32.869199999999999
 21
152.251
 31
0.0
  0
LINE
  5
A8
  8
0
 62
     7
 10
32.869199999999999
 20
152.251
 30
0.0
 11
32.869199999999999
 21
151.065
 31
0.0
  0
LINE
  5
A9
  8
0
 62
     7
 10
92.765000000000001
 20
151.065
 30
0.0
 11
94.976699999999994
 21
151.6579999999999
 31
0.0
  0
LINE
  5
AA
  8
0
 62
     7
 10
94.976699999999994
 20
151.6579999999999
 30
0.0
 11
92.765000000000001
 21
152.251
 31
0.0
  0
LINE
  5
AB
  8
0
 62
     7
 10
92.765000000000001
 20
152.251
 30
0.0
 11
92.765000000000001
 21
151.065
 31
0.0
  0
LINE
  5
AC
  8
0
 62
     7
 10
98.292999999999992
 20
152.2359999999999
 30
0.0
 11
96.081199999999995
 21
151.64400000000001
 31
0.0
  0
LINE
  5
AD
  8
0
 62
     7
 10
96.081199999999995
 20
151.64400000000001
 30
0.0
 11
98.292999999999992
 21
151.05099999999999
 31
0.0
  0
LINE
  5
AE
  8
0
 62
     7
 10
98.292999999999992
 20
151.05099999999999
 30
0.0
 11
98.292999999999992
 21
152.2359999999999
 31
0.0
  0
LINE
  5
AF
  8
0
 62
     7
 10
38.291400000000003
 20
152.2359999999999
 30
0.0
 11
36.079700000000003
 21
151.64400000000001
 31
0.0
  0
LINE
  5
B0
  8
0
 62
     7
 10
36.079700000000003
 20
151.64400000000001
 30
0.0
 11
38.291400000000003
 21
151.05099999999999
 31
0.0
  0
LINE
  5
B1
  8
0
 62
     7
 10
38.291400000000003
 20
151.05099999999999
 30
0.0
 11
38.291400000000003
 21
152.2359999999999
 31
0.0
  0
LINE
  5
B2
  8
0
 62
     7
 10
93.869500000000002
 20
143.541
 30
0.0
 11
96.081199999999995
 21
144.1329999999999
 31
0.0
  0
LINE
  5
B3
  8
0
 62
     7
 10
96.081199999999995
 20
144.1329999999999
 30
0.0
 11
93.869500000000002
 21
144.72599999999991
 31
0.0
  0
LINE
  5
B4
  8
0
 62
     7
 10
93.869500000000002
 20
144.72599999999991
 30
0.0
 11
93.869500000000002
 21
143.541
 31
0.0
  0
LINE
  5
B5
  8
0
 62
     7
 10
37.415700000000001
 20
144.71100000000001
 30
0.0
 11
35.20389999999999
 21
144.11899999999989
 31
0.0
  0
LINE
  5
B6
  8
0
 62
     7
 10
35.20389999999999
 20
144.11899999999989
 30
0.0
 11
37.415700000000001
 21
143.52600000000001
 31
0.0
  0
LINE
  5
B7
  8
0
 62
     7
 10
37.415700000000001
 20
143.52600000000001
 30
0.0
 11
37.415700000000001
 21
144.71100000000001
 31
0.0
  0
LINE
  5
B8
  8
0
 62
     7
 10
96.081199999999995
 20
144.12599999999989
 30
0.0
 11
35.08059999999999
 21
144.12599999999989
 31
0.0
  0
LINE
  5
B9
  8
0
 62
     7
 10
101.9609999999999
 20
151.65100000000001
 30
0.0
 11
36.0807
 21
151.65100000000001
 31
0.0
  0
LINE
  5
BA
  8
0
 62
     7
 10
36.0807
 20
160.74600000000001
 30
0.0
 11
36.0807
 21
150.95099999999991
 31
0.0
  0
LINE
  5
BB
  8
0
 62
     7
 10
35.08059999999999
 20
160.74600000000001
 30
0.0
 11
35.08059999999999
 21
144.12599999999989
 31
0.0
  0
LINE
  5
BC
  8
0
 62
     7
 10
96.081199999999995
 20
160.74600000000001
 30
0.0
 11
96.081199999999995
 21
144.12599999999989
 31
0.0
  0
LINE
  5
BD
  8
0
 62
     7
 10
103.8739999999999
 20
199.73799999999989
 30
0.0
 11
103.282
 21
201.94900000000001
 31
0.0
  0
LINE
  5
BE
  8
0
 62
     7
 10
103.282
 20
201.94900000000001
 30
0.0
 11
102.68899999999989
 21
199.73799999999989
 31
0.0
  0
LINE
  5
BF
  8
0
 62
     7
 10
102.68899999999989
 20
199.73799999999989
 30
0.0
 11
103.8739999999999
 21
199.73799999999989
 31
0.0
  0
LINE
  5
C0
  8
0
 62
     7
 10
102.70399999999989
 20
196.959
 30
0.0
 11
103.29600000000001
 21
194.74700000000001
 31
0.0
  0
LINE
  5
C1
  8
0
 62
     7
 10
103.29600000000001
 20
194.74700000000001
 30
0.0
 11
103.8889999999999
 21
196.959
 31
0.0
  0
LINE
  5
C2
  8
0
 62
     7
 10
103.8889999999999
 20
196.959
 30
0.0
 11
102.70399999999989
 21
196.959
 31
0.0
  0
LINE
  5
C3
  8
0
 62
     7
 10
103.289
 20
201.94799999999989
 30
0.0
 11
103.289
 21
194.74799999999991
 31
0.0
  0
LINE
  5
C4
  8
0
 62
     7
 10
103.8739999999999
 20
206.239
 30
0.0
 11
103.282
 21
208.4499999999999
 31
0.0
  0
LINE
  5
C5
  8
0
 62
     7
 10
103.282
 20
208.4499999999999
 30
0.0
 11
102.68899999999989
 21
206.239
 31
0.0
  0
LINE
  5
C6
  8
0
 62
     7
 10
102.68899999999989
 20
206.239
 30
0.0
 11
103.8739999999999
 21
206.239
 31
0.0
  0
LINE
  5
C7
  8
0
 62
     7
 10
102.70399999999989
 20
204.15999999999991
 30
0.0
 11
103.29600000000001
 21
201.94799999999989
 31
0.0
  0
LINE
  5
C8
  8
0
 62
     7
 10
103.29600000000001
 20
201.94799999999989
 30
0.0
 11
103.8889999999999
 21
204.15999999999991
 31
0.0
  0
LINE
  5
C9
  8
0
 62
     7
 10
103.8889999999999
 20
204.15999999999991
 30
0.0
 11
102.70399999999989
 21
204.15999999999991
 31
0.0
  0
LINE
  5
CA
  8
0
 62
     7
 10
103.289
 20
208.44900000000001
 30
0.0
 11
103.289
 21
201.94900000000001
 31
0.0
  0
LINE
  5
CB
  8
0
 62
     7
 10
110.34699999999999
 20
162.4489999999999
 30
0.0
 11
110.34699999999999
 21
155.57099999999991
 31
0.0
  0
LINE
  5
CC
  8
0
 62
     7
 10
110.93299999999989
 20
159.23699999999999
 30
0.0
 11
110.34
 21
161.4489999999999
 31
0.0
  0
LINE
  5
CD
  8
0
 62
     7
 10
110.34
 20
161.4489999999999
 30
0.0
 11
109.748
 21
159.23699999999999
 31
0.0
  0
LINE
  5
CE
  8
0
 62
     7
 10
109.748
 20
159.23699999999999
 30
0.0
 11
110.93299999999989
 21
159.23699999999999
 31
0.0
  0
LINE
  5
CF
  8
0
 62
     7
 10
110.93299999999989
 20
192.5379999999999
 30
0.0
 11
110.34
 21
194.74999999999989
 31
0.0
  0
LINE
  5
D0
  8
0
 62
     7
 10
110.34
 20
194.74999999999989
 30
0.0
 11
109.748
 21
192.5379999999999
 31
0.0
  0
LINE
  5
D1
  8
0
 62
     7
 10
109.748
 20
192.5379999999999
 30
0.0
 11
110.93299999999989
 21
192.5379999999999
 31
0.0
  0
LINE
  5
D2
  8
0
 62
     7
 10
109.762
 20
164.66
 30
0.0
 11
110.355
 21
162.44799999999989
 31
0.0
  0
LINE
  5
D3
  8
0
 62
     7
 10
110.355
 20
162.44799999999989
 30
0.0
 11
110.9469999999999
 21
164.66
 31
0.0
  0
LINE
  5
D4
  8
0
 62
     7
 10
110.9469999999999
 20
164.66
 30
0.0
 11
109.762
 21
164.66
 31
0.0
  0
LINE
  5
D5
  8
0
 62
     7
 10
110.34699999999999
 20
194.749
 30
0.0
 11
110.34699999999999
 21
162.4489999999999
 31
0.0
  0
LINE
  5
D6
  8
0
 62
     7
 10
110.93299999999989
 20
206.239
 30
0.0
 11
110.34
 21
208.4499999999999
 31
0.0
  0
LINE
  5
D7
  8
0
 62
     7
 10
110.34
 20
208.4499999999999
 30
0.0
 11
109.748
 21
206.239
 31
0.0
  0
LINE
  5
D8
  8
0
 62
     7
 10
109.748
 20
206.239
 30
0.0
 11
110.93299999999989
 21
206.239
 31
0.0
  0
LINE
  5
D9
  8
0
 62
     7
 10
109.762
 20
196.95999999999989
 30
0.0
 11
110.355
 21
194.749
 31
0.0
  0
LINE
  5
DA
  8
0
 62
     7
 10
110.355
 20
194.749
 30
0.0
 11
110.9469999999999
 21
196.95999999999989
 31
0.0
  0
LINE
  5
DB
  8
0
 62
     7
 10
110.9469999999999
 20
196.95999999999989
 30
0.0
 11
109.762
 21
196.95999999999989
 31
0.0
  0
LINE
  5
DC
  8
0
 62
     7
 10
110.34699999999999
 20
208.44900000000001
 30
0.0
 11
110.34699999999999
 21
194.749
 31
0.0
  0
LINE
  5
DD
  8
0
 62
     7
 10
117.911
 20
206.239
 30
0.0
 11
117.3189999999999
 21
208.4499999999999
 31
0.0
  0
LINE
  5
DE
  8
0
 62
     7
 10
117.3189999999999
 20
208.4499999999999
 30
0.0
 11
116.7259999999999
 21
206.239
 31
0.0
  0
LINE
  5
DF
  8
0
 62
     7
 10
116.7259999999999
 20
206.239
 30
0.0
 11
117.911
 21
206.239
 31
0.0
  0
LINE
  5
E0
  8
0
 62
     7
 10
116.741
 20
163.66
 30
0.0
 11
117.3329999999999
 21
161.44799999999989
 31
0.0
  0
LINE
  5
E1
  8
0
 62
     7
 10
117.3329999999999
 20
161.44799999999989
 30
0.0
 11
117.9259999999999
 21
163.66
 31
0.0
  0
LINE
  5
E2
  8
0
 62
     7
 10
117.9259999999999
 20
163.66
 30
0.0
 11
116.741
 21
163.66
 31
0.0
  0
LINE
  5
E3
  8
0
 62
     7
 10
117.32599999999999
 20
208.44900000000001
 30
0.0
 11
117.32599999999999
 21
161.4489999999999
 31
0.0
  0
LINE
  5
E4
  8
0
 62
     7
 10
96.737200000000016
 20
162.4489999999999
 30
0.0
 11
111.047
 21
162.4489999999999
 31
0.0
  0
LINE
  5
E5
  8
0
 62
     7
 10
96.737200000000016
 20
161.4489999999999
 30
0.0
 11
118.026
 21
161.4489999999999
 31
0.0
  0
LINE
  5
E6
  8
0
 62
     7
 10
96.737200000000016
 20
194.749
 30
0.0
 11
111.047
 21
194.749
 31
0.0
  0
LINE
  5
E7
  8
0
 62
     7
 10
69.481499999999997
 20
201.94900000000001
 30
0.0
 11
103.9889999999999
 21
201.94900000000001
 31
0.0
  0
LINE
  5
E8
  8
0
 62
     7
 10
96.737200000000016
 20
208.44900000000001
 30
0.0
 11
118.026
 21
208.44900000000001
 31
0.0
  0
LINE
  5
E9
  8
0
 62
     7
 10
151.8249999999999
 20
102.3449999999999
 30
0.0
 11
151.233
 21
104.557
 31
0.0
  0
LINE
  5
EA
  8
0
 62
     7
 10
151.233
 20
104.557
 30
0.0
 11
150.63999999999999
 21
102.3449999999999
 31
0.0
  0
LINE
  5
EB
  8
0
 62
     7
 10
150.63999999999999
 20
102.3449999999999
 30
0.0
 11
151.8249999999999
 21
102.3449999999999
 31
0.0
  0
LINE
  5
EC
  8
0
 62
     7
 10
150.655
 20
95.768100000000004
 30
0.0
 11
151.24700000000001
 21
93.557000000000002
 31
0.0
  0
LINE
  5
ED
  8
0
 62
     7
 10
151.24700000000001
 20
93.557000000000002
 30
0.0
 11
151.83999999999989
 21
95.768100000000004
 31
0.0
  0
LINE
  5
EE
  8
0
 62
     7
 10
151.83999999999989
 20
95.768100000000004
 30
0.0
 11
150.655
 21
95.768100000000004
 31
0.0
  0
LINE
  5
EF
  8
0
 62
     7
 10
151.24000000000001
 20
104.556
 30
0.0
 11
151.24000000000001
 21
93.557699999999997
 31
0.0
  0
LINE
  5
F0
  8
0
 62
     7
 10
113.361
 20
102.34699999999999
 30
0.0
 11
112.76899999999991
 21
104.55799999999989
 31
0.0
  0
LINE
  5
F1
  8
0
 62
     7
 10
112.76899999999991
 20
104.55799999999989
 30
0.0
 11
112.176
 21
102.34699999999999
 31
0.0
  0
LINE
  5
F2
  8
0
 62
     7
 10
112.176
 20
102.34699999999999
 30
0.0
 11
113.361
 21
102.34699999999999
 31
0.0
  0
LINE
  5
F3
  8
0
 62
     7
 10
112.1909999999999
 20
89.567499999999995
 30
0.0
 11
112.7829999999999
 21
87.356499999999997
 31
0.0
  0
LINE
  5
F4
  8
0
 62
     7
 10
112.7829999999999
 20
87.356499999999997
 30
0.0
 11
113.376
 21
89.567499999999995
 31
0.0
  0
LINE
  5
F5
  8
0
 62
     7
 10
113.376
 20
89.567499999999995
 30
0.0
 11
112.1909999999999
 21
89.567499999999995
 31
0.0
  0
LINE
  5
F6
  8
0
 62
     7
 10
112.776
 20
104.557
 30
0.0
 11
112.776
 21
87.357100000000003
 31
0.0
  0
LINE
  5
F7
  8
0
 62
     7
 10
107.6969999999999
 20
102.34699999999999
 30
0.0
 11
107.105
 21
104.55799999999989
 31
0.0
  0
LINE
  5
F8
  8
0
 62
     7
 10
107.105
 20
104.55799999999989
 30
0.0
 11
106.512
 21
102.34699999999999
 31
0.0
  0
LINE
  5
F9
  8
0
 62
     7
 10
106.512
 20
102.34699999999999
 30
0.0
 11
107.6969999999999
 21
102.34699999999999
 31
0.0
  0
LINE
  5
FA
  8
0
 62
     7
 10
106.526
 20
92.767700000000005
 30
0.0
 11
107.119
 21
90.556600000000003
 31
0.0
  0
LINE
  5
FB
  8
0
 62
     7
 10
107.119
 20
90.556600000000003
 30
0.0
 11
107.712
 21
92.767700000000005
 31
0.0
  0
LINE
  5
FC
  8
0
 62
     7
 10
107.712
 20
92.767700000000005
 30
0.0
 11
106.526
 21
92.767700000000005
 31
0.0
  0
LINE
  5
FD
  8
0
 62
     7
 10
107.11199999999999
 20
104.557
 30
0.0
 11
107.11199999999999
 21
90.557299999999998
 31
0.0
  0
LINE
  5
FE
  8
0
 62
     7
 10
102.13200000000001
 20
102.41
 30
0.0
 11
101.539
 21
104.621
 31
0.0
  0
LINE
  5
FF
  8
0
 62
     7
 10
101.539
 20
104.621
 30
0.0
 11
100.946
 21
102.41
 31
0.0
  0
LINE
  5
100
  8
0
 62
     7
 10
100.946
 20
102.41
 30
0.0
 11
102.13200000000001
 21
102.41
 31
0.0
  0
LINE
  5
101
  8
0
 62
     7
 10
100.9609999999999
 20
101.8129999999999
 30
0.0
 11
101.553
 21
99.601399999999998
 31
0.0
  0
LINE
  5
102
  8
0
 62
     7
 10
101.553
 20
99.601399999999998
 30
0.0
 11
102.146
 21
101.8129999999999
 31
0.0
  0
LINE
  5
103
  8
0
 62
     7
 10
102.146
 20
101.8129999999999
 30
0.0
 11
100.9609999999999
 21
101.8129999999999
 31
0.0
  0
LINE
  5
104
  8
0
 62
     7
 10
101.54600000000001
 20
104.621
 30
0.0
 11
101.54600000000001
 21
99.601399999999998
 31
0.0
  0
LINE
  5
105
  8
0
 62
     7
 10
30.302199999999988
 20
102.34699999999999
 30
0.0
 11
29.709700000000002
 21
104.55799999999989
 31
0.0
  0
LINE
  5
106
  8
0
 62
     7
 10
29.709700000000002
 20
104.55799999999989
 30
0.0
 11
29.117100000000001
 21
102.34699999999999
 31
0.0
  0
LINE
  5
107
  8
0
 62
     7
 10
29.117100000000001
 20
102.34699999999999
 30
0.0
 11
30.302199999999988
 21
102.34699999999999
 31
0.0
  0
LINE
  5
108
  8
0
 62
     7
 10
29.131599999999992
 20
99.811599999999999
 30
0.0
 11
29.724099999999989
 21
97.600499999999997
 31
0.0
  0
LINE
  5
109
  8
0
 62
     7
 10
29.724099999999989
 20
97.600499999999997
 30
0.0
 11
30.316700000000001
 21
99.811599999999999
 31
0.0
  0
LINE
  5
10A
  8
0
 62
     7
 10
30.316700000000001
 20
99.811599999999999
 30
0.0
 11
29.131599999999992
 21
99.811599999999999
 31
0.0
  0
LINE
  5
10B
  8
0
 62
     7
 10
29.716899999999999
 20
104.557
 30
0.0
 11
29.716899999999999
 21
97.601200000000006
 31
0.0
  0
LINE
  5
10C
  8
0
 62
     7
 10
83.331500000000005
 20
89.856600000000014
 30
0.0
 11
83.331500000000005
 21
79.298699999999997
 31
0.0
  0
LINE
  5
10D
  8
0
 62
     7
 10
47.831299999999992
 20
89.856600000000014
 30
0.0
 11
47.831299999999992
 21
79.298699999999997
 31
0.0
  0
LINE
  5
10E
  8
0
  6
AIGENLINE001
 62
     7
 10
76.081500000000005
 20
210.483
 30
0.0
 11
76.081500000000005
 21
205.255
 31
0.0
  0
LINE
  5
10F
  8
0
  6
AIGENLINE001
 62
     7
 10
55.081099999999999
 20
210.483
 30
0.0
 11
55.081099999999999
 21
205.255
 31
0.0
  0
LINE
  5
110
  8
0
 62
     7
 10
76.081500000000005
 20
111.31100000000001
 30
0.0
 11
76.081500000000005
 21
99.507400000000004
 31
0.0
  0
LINE
  5
111
  8
0
 62
     7
 10
146.06100000000001
 20
84.650000000000006
 30
0.0
 11
146.06100000000001
 21
79.298699999999997
 31
0.0
  0
LINE
  5
112
  8
0
 62
     7
 10
168.06099999999989
 20
89.861699999999985
 30
0.0
 11
168.06099999999989
 21
79.298699999999997
 31
0.0
  0
LINE
  5
113
  8
0
 62
     7
 10
55.081099999999999
 20
111.31100000000001
 30
0.0
 11
55.081099999999999
 21
99.507400000000004
 31
0.0
  0
LINE
  5
114
  8
0
 62
     7
 10
69.797700000000006
 20
87.357100000000003
 30
0.0
 11
113.4759999999999
 21
87.357100000000003
 31
0.0
  0
LINE
  5
115
  8
0
 62
     7
 10
84.031599999999983
 20
90.557299999999998
 30
0.0
 11
107.812
 21
90.557299999999998
 31
0.0
  0
LINE
  5
116
  8
0
 62
     7
 10
96.782600000000016
 20
99.601399999999998
 30
0.0
 11
102.2389999999999
 21
99.601399999999998
 31
0.0
  0
LINE
  5
117
  8
0
 62
     7
 10
96.782600000000016
 20
104.601
 30
0.0
 11
113.4759999999999
 21
104.601
 31
0.0
  0
LINE
  5
118
  8
0
 62
     7
 10
29.024100000000001
 20
97.601200000000006
 30
0.0
 11
52.131300000000003
 21
97.601200000000006
 31
0.0
  0
LINE
  5
119
  8
0
 62
     7
 10
29.024100000000001
 20
104.601
 30
0.0
 11
34.3812
 21
104.601
 31
0.0
  0
LINE
  5
11A
  8
0
 62
     7
 10
50.042700000000004
 20
80.584400000000002
 30
0.0
 11
47.831299999999992
 21
79.991500000000002
 31
0.0
  0
LINE
  5
11B
  8
0
 62
     7
 10
47.831299999999992
 20
79.991500000000002
 30
0.0
 11
50.042700000000004
 21
79.398899999999998
 31
0.0
  0
LINE
  5
11C
  8
0
 62
     7
 10
50.042700000000004
 20
79.398899999999998
 30
0.0
 11
50.042700000000004
 21
80.584400000000002
 31
0.0
  0
LINE
  5
11D
  8
0
 62
     7
 10
81.121799999999993
 20
79.413399999999996
 30
0.0
 11
83.333600000000004
 21
80.006
 31
0.0
  0
LINE
  5
11E
  8
0
 62
     7
 10
83.333600000000004
 20
80.006
 30
0.0
 11
81.121799999999993
 21
80.598900000000015
 31
0.0
  0
LINE
  5
11F
  8
0
 62
     7
 10
81.121799999999993
 20
80.598900000000015
 30
0.0
 11
81.121799999999993
 21
79.413399999999996
 31
0.0
  0
LINE
  5
120
  8
0
 62
     7
 10
47.8324
 20
79.998699999999999
 30
0.0
 11
83.332599999999999
 21
79.998699999999999
 31
0.0
  0
LINE
  5
121
  8
0
 62
     7
 10
57.292099999999998
 20
111.197
 30
0.0
 11
55.080399999999997
 21
110.6039999999999
 31
0.0
  0
LINE
  5
122
  8
0
 62
     7
 10
55.080399999999997
 20
110.6039999999999
 30
0.0
 11
57.292099999999998
 21
110.0119999999999
 31
0.0
  0
LINE
  5
123
  8
0
 62
     7
 10
57.292099999999998
 20
110.0119999999999
 30
0.0
 11
57.292099999999998
 21
111.197
 31
0.0
  0
LINE
  5
124
  8
0
 62
     7
 10
73.870400000000004
 20
110.026
 30
0.0
 11
76.082099999999997
 21
110.619
 31
0.0
  0
LINE
  5
125
  8
0
 62
     7
 10
76.082099999999997
 20
110.619
 30
0.0
 11
73.870400000000004
 21
111.2109999999999
 31
0.0
  0
LINE
  5
126
  8
0
 62
     7
 10
73.870400000000004
 20
111.2109999999999
 30
0.0
 11
73.870400000000004
 21
110.026
 31
0.0
  0
LINE
  5
127
  8
0
 62
     7
 10
55.081099999999999
 20
110.611
 30
0.0
 11
76.081500000000005
 21
110.611
 31
0.0
  0
ARC
  5
128
  8
0
 62
     7
 10
79.01808299999999
 20
161.2704019999999
 30
0.0
 40
12.984408
 50
71.370214000000004
 51
83.426672999999994
  0
ARC
  5
129
  8
0
 62
     7
 10
78.083444
 20
158.125788
 30
0.0
 40
16.263259999999988
 50
60.635961999999992
 51
71.789059999999992
  0
ARC
  5
12A
  8
0
 62
     7
 10
76.860689000000008
 20
155.81070800000001
 30
0.0
 40
18.880617000000001
 50
33.080478999999997
 51
60.847042000000002
  0
ARC
  5
12B
  8
0
 62
     7
 10
79.072986999999998
 20
157.40347700000001
 30
0.0
 40
16.158061
 50
21.741144999999989
 51
32.629854999999999
  0
ARC
  5
12C
  8
0
 62
     7
 10
94.042674000000005
 20
163.48792399999999
 30
0.0
 40
1.0394909999999991
 50
272.150125
 51
357.86962499999998
  0
ARC
  5
12D
  8
0
 62
     7
 10
37.119436999999991
 20
163.48752999999999
 30
0.0
 40
1.0390829999999991
 50
182.10952499999991
 51
267.87076400000001
  0
ARC
  5
12E
  8
0
 62
     7
 10
94.042674000000005
 20
206.410527
 30
0.0
 40
1.0394909999999991
 50
2.130374999999999
 51
87.849874999999983
  0
ARC
  5
12F
  8
0
 62
     7
 10
37.119481
 20
206.41086299999989
 30
0.0
 40
1.039142
 50
92.131572000000006
 51
177.86839900000001
  0
ARC
  5
130
  8
0
  6
AIGENLINE002
 62
     7
 10
75.635763999999995
 20
97.546261000000015
 30
0.0
 40
1.055745999999999
 50
92.063036999999966
 51
177.01677499999991
  0
ARC
  5
131
  8
0
  6
AIGENLINE002
 62
     7
 10
75.620118999999988
 20
97.640608999999998
 30
0.0
 40
1.039417
 50
182.17257799999999
 51
268.76734699999997
  0
LINE
  5
132
  8
0
  6
AIGENLINE002
 62
     7
 10
75.597800000000007
 20
96.601399999999998
 30
0.0
 11
76.565100000000001
 21
96.601399999999998
 31
0.0
  0
ARC
  5
133
  8
0
  6
AIGENLINE002
 62
     7
 10
76.527164999999997
 20
97.656489000000022
 30
0.0
 40
1.055739999999999
 50
272.06176399999998
 51
356.99835000000002
  0
ARC
  5
134
  8
0
  6
AIGENLINE002
 62
     7
 10
76.542434
 20
97.561801000000017
 30
0.0
 40
1.0397700000000001
 50
2.171869
 51
88.748279000000011
  0
LINE
  5
135
  8
0
  6
AIGENLINE002
 62
     7
 10
76.565100000000001
 20
98.601299999999995
 30
0.0
 11
75.597800000000007
 21
98.601299999999995
 31
0.0
  0
LINE
  5
136
  8
0
  6
AIGENLINE001
 62
     7
 10
76.081500000000005
 20
96.307199999999995
 30
0.0
 11
76.081500000000005
 21
98.807299999999984
 31
0.0
  0
LINE
  5
137
  8
0
  6
AIGENLINE001
 62
     7
 10
73.831400000000002
 20
97.601200000000006
 30
0.0
 11
78.331100000000006
 21
97.601200000000006
 31
0.0
  0
ARC
  5
138
  8
0
  6
AIGENLINE002
 62
     7
 10
54.635376999999998
 20
97.546610000000001
 30
0.0
 40
1.0553980000000001
 50
92.064467000000022
 51
177.0347679999999
  0
ARC
  5
139
  8
0
  6
AIGENLINE002
 62
     7
 10
54.62004499999999
 20
97.64058399999999
 30
0.0
 40
1.0394000000000001
 50
182.171255
 51
268.74924800000002
  0
LINE
  5
13A
  8
0
  6
AIGENLINE002
 62
     7
 10
54.5974
 20
96.601399999999998
 30
0.0
 11
55.565399999999997
 21
96.601399999999998
 31
0.0
  0
ARC
  5
13B
  8
0
  6
AIGENLINE002
 62
     7
 10
55.527429000000012
 20
97.656149999999997
 30
0.0
 40
1.0554019999999991
 50
272.06372799999991
 51
357.01580899999999
  0
ARC
  5
13C
  8
0
  6
AIGENLINE002
 62
     7
 10
55.542394000000002
 20
97.561825999999996
 30
0.0
 40
1.0397529999999999
 50
2.170547
 51
88.730179000000007
  0
LINE
  5
13D
  8
0
  6
AIGENLINE002
 62
     7
 10
55.565399999999997
 20
98.601299999999995
 30
0.0
 11
54.5974
 21
98.601299999999995
 31
0.0
  0
LINE
  5
13E
  8
0
  6
AIGENLINE001
 62
     7
 10
55.081400000000002
 20
96.307199999999995
 30
0.0
 11
55.081400000000002
 21
98.807299999999984
 31
0.0
  0
LINE
  5
13F
  8
0
  6
AIGENLINE001
 62
     7
 10
52.831400000000002
 20
97.601200000000006
 30
0.0
 11
57.331400000000002
 21
97.601200000000006
 31
0.0
  0
ARC
  5
140
  8
0
 62
     7
 10
84.155404000000004
 20
92.915952000000004
 30
0.0
 40
0.8233919999999999
 50
103.7339069999999
 51
178.71268599999999
  0
ARC
  5
141
  8
0
 62
     7
 10
68.568908999999991
 20
87.885897000000014
 30
0.0
 40
0.5291360000000001
 50
272.19593099999997
 51
357.88166299999989
  0
LINE
  5
142
  8
0
 62
     7
 10
69.097700000000003
 20
90.557299999999998
 30
0.0
 11
69.097700000000003
 21
87.866299999999995
 31
0.0
  0
LINE
  5
143
  8
0
 62
     7
 10
65.581599999999995
 20
87.357100000000003
 30
0.0
 11
68.589200000000005
 21
87.357100000000003
 31
0.0
  0
ARC
  5
144
  8
0
 62
     7
 10
84.457172999999997
 20
104.3953139999999
 30
0.0
 40
9.4092539999999971
 50
316.88598300000001
 51
325.43793699999998
  0
ARC
  5
145
  8
0
 62
     7
 10
81.996412000000007
 20
106.59621299999991
 30
0.0
 40
12.710029
 50
307.63475699999992
 51
317.22483399999987
  0
ARC
  5
146
  8
0
 62
     7
 10
80.033467999999999
 20
108.98435000000001
 30
0.0
 40
15.800157999999991
 50
290.40491200000002
 51
307.98373599999991
  0
ARC
  5
147
  8
0
 62
     7
 10
81.368114000000006
 20
105.587103
 30
0.0
 40
12.150936
 50
282.31587400000001
 51
290.09161699999993
  0
ARC
  5
148
  8
0
 62
     7
 10
95.554192000000015
 20
99.585187000000005
 30
0.0
 40
0.5280800000000001
 50
272.08556900000002
 51
357.875609
  0
ARC
  5
149
  8
0
 62
     7
 10
82.804458999999994
 20
91.084429
 30
0.0
 40
0.527437
 50
272.01791800000001
 51
357.86551900000001
  0
LINE
  5
14A
  8
0
 62
     7
 10
83.331500000000005
 20
91.064800000000005
 30
0.0
 11
83.331500000000005
 21
92.934399999999997
 31
0.0
  0
LINE
  5
14B
  8
0
 62
     7
 10
96.081900000000005
 20
99.565600000000003
 30
0.0
 11
96.081900000000005
 21
104.04899999999989
 31
0.0
  0
LINE
  5
14C
  8
0
 62
     7
 10
65.581599999999995
 20
95.557199999999995
 30
0.0
 11
82.864400000000003
 21
95.557199999999995
 31
0.0
  0
ARC
  5
14D
  8
0
 62
     7
 10
95.553860999999984
 20
104.029167
 30
0.0
 40
0.5284360000000001
 50
2.1977099999999989
 51
87.879969000000017
  0
ARC
  5
14E
  8
0
 62
     7
 10
47.007065999999988
 20
92.915197000000006
 30
0.0
 40
0.8241329999999999
 50
1.338589
 51
76.276167000000001
  0
ARC
  5
14F
  8
0
 62
     7
 10
62.593594999999993
 20
87.885897000000014
 30
0.0
 40
0.5291360000000001
 50
182.118357
 51
267.80408899999998
  0
LINE
  5
150
  8
0
 62
     7
 10
62.064799999999991
 20
90.557299999999998
 30
0.0
 11
62.064799999999991
 21
87.866299999999995
 31
0.0
  0
LINE
  5
151
  8
0
 62
     7
 10
65.581599999999995
 20
87.357100000000003
 30
0.0
 11
62.573300000000003
 21
87.357100000000003
 31
0.0
  0
ARC
  5
152
  8
0
 62
     7
 10
46.703179999999989
 20
104.39205
 30
0.0
 40
9.4052050000000005
 50
214.5549289999999
 51
223.10988999999989
  0
ARC
  5
153
  8
0
 62
     7
 10
49.164671999999989
 20
106.593676
 30
0.0
 40
12.707013999999999
 50
222.772177
 51
232.36415799999989
  0
ARC
  5
154
  8
0
 62
     7
 10
51.129043000000003
 20
108.9837179999999
 30
0.0
 40
15.799524999999999
 50
232.01549999999989
 51
249.59470699999989
  0
ARC
  5
155
  8
0
 62
     7
 10
49.794753
 20
105.5872249999999
 30
0.0
 40
12.151132
 50
249.907545
 51
257.68260099999998
  0
ARC
  5
156
  8
0
 62
     7
 10
35.609001999999997
 20
99.585187000000005
 30
0.0
 40
0.5280800000000001
 50
182.12441100000001
 51
267.91445099999987
  0
ARC
  5
157
  8
0
 62
     7
 10
48.358378999999999
 20
91.084405000000004
 30
0.0
 40
0.5274250000000001
 50
182.131902
 51
267.94586900000002
  0
LINE
  5
158
  8
0
 62
     7
 10
47.831299999999992
 20
91.064800000000005
 30
0.0
 11
47.831299999999992
 21
92.934399999999997
 31
0.0
  0
LINE
  5
159
  8
0
 62
     7
 10
35.081299999999992
 20
99.565600000000003
 30
0.0
 11
35.081299999999992
 21
104.04899999999989
 31
0.0
  0
LINE
  5
15A
  8
0
 62
     7
 10
65.581599999999995
 20
95.557199999999995
 30
0.0
 11
48.298099999999998
 21
95.557199999999995
 31
0.0
  0
LINE
  5
15B
  8
0
 62
     7
 10
82.822999999999993
 20
90.557299999999998
 30
0.0
 11
48.339500000000001
 21
90.557299999999998
 31
0.0
  0
LINE
  5
15C
  8
0
 62
     7
 10
95.573400000000007
 20
99.057500000000005
 30
0.0
 11
35.589799999999997
 21
99.057500000000005
 31
0.0
  0
ARC
  5
15D
  8
0
 62
     7
 10
35.609332000000002
 20
104.029167
 30
0.0
 40
0.5284360000000001
 50
92.120011000000005
 51
177.80226999999999
  0
LINE
  5
15E
  8
0
 62
     7
 10
35.589799999999997
 20
104.557
 30
0.0
 11
95.573400000000007
 21
104.557
 31
0.0
  0
ARC
  5
15F
  8
0
 62
     7
 10
65.581079000000003
 20
186.44940199999999
 30
0.0
 40
3.7501829999999998
 50
269.99738799999989
 51
359.99735800000002
  0
ARC
  5
160
  8
0
 62
     7
 10
65.581079000000003
 20
186.44905700000001
 30
0.0
 40
3.7498369999999999
 50
179.9973379999999
 51
269.99738799999989
  0
ARC
  5
161
  8
0
 62
     7
 10
65.581081000000012
 20
186.44940099999991
 30
0.0
 40
3.7498390000000001
 50
90.002631999999991
 51
180.0026419999999
  0
ARC
  5
162
  8
0
 62
     7
 10
65.581079000000003
 20
186.44905700000001
 30
0.0
 40
3.7501829999999998
 50
0.002642
 51
90.002611999999985
  0
ARC
  5
163
  8
0
 62
     7
 10
65.494771999999998
 20
186.5353649999999
 30
0.0
 40
2.3377289999999991
 50
272.11159600000002
 51
357.8884139999999
  0
ARC
  5
164
  8
0
 62
     7
 10
65.667843000000005
 20
186.5361649999999
 30
0.0
 40
2.3385579999999999
 50
182.13045999999991
 51
267.86957000000001
  0
ARC
  5
165
  8
0
 62
     7
 10
65.667042000000009
 20
186.3630949999999
 30
0.0
 40
2.3377279999999989
 50
92.111559000000014
 51
177.88841099999999
  0
ARC
  5
166
  8
0
 62
     7
 10
65.493988000000002
 20
186.36231000000001
 30
0.0
 40
2.338541999999999
 50
2.130075999999999
 51
87.869913999999994
  0
ARC
  5
167
  8
0
 62
     7
 10
65.58108
 20
201.94932900000001
 30
0.0
 40
1.7499480000000001
 50
269.99437999999992
 51
359.99435
  0
ARC
  5
168
  8
0
 62
     7
 10
65.64850899999999
 20
202.0171149999999
 30
0.0
 40
1.8189900000000001
 50
182.14112900000001
 51
267.87018
  0
ARC
  5
169
  8
0
 62
     7
 10
65.648119999999992
 20
201.881945
 30
0.0
 40
1.8185739999999999
 50
92.118047000000004
 51
177.881923
  0
ARC
  5
16A
  8
0
 62
     7
 10
65.580906999999996
 20
201.94915599999999
 30
0.0
 40
1.7501199999999999
 50
0.00001
 51
89.999980000000008
  0
LINE
  5
16B
  8
0
  6
AIGENLINE001
 62
     7
 10
68.781400000000005
 20
201.9499999999999
 30
0.0
 11
62.381100000000004
 21
201.9499999999999
 31
0.0
  0
LINE
  5
16C
  8
0
  6
AIGENLINE001
 62
     7
 10
65.580899999999986
 20
106.1599999999999
 30
0.0
 11
65.580899999999986
 21
85.725200000000001
 31
0.0
  0
LINE
  5
16D
  8
0
  6
AIGENLINE001
 62
     7
 10
65.580899999999986
 20
210.22399999999999
 30
0.0
 11
65.580899999999986
 21
158.0149999999999
 31
0.0
  0
LINE
  5
16E
  8
0
  6
AIGENLINE001
 62
     7
 10
70.081599999999995
 20
186.44900000000001
 30
0.0
 11
61.081600000000002
 21
186.44900000000001
 31
0.0
  0
ARC
  5
16F
  8
0
 62
     7
 10
93.332746000000014
 20
192.94670400000001
 30
0.0
 40
1.803663999999999
 50
79.254080000000002
 51
87.943376999999984
  0
ARC
  5
170
  8
0
 62
     7
 10
93.181297000000001
 20
192.042889
 30
0.0
 40
2.7199390000000001
 50
56.265731999999993
 51
79.669646999999998
  0
ARC
  5
171
  8
0
 62
     7
 10
93.871437000000014
 20
193.13995299999999
 30
0.0
 40
1.4247709999999989
 50
43.966644999999993
 51
54.845616000000007
  0
ARC
  5
172
  8
0
 62
     7
 10
94.292671999999996
 20
193.555723
 30
0.0
 40
0.8329729999999999
 50
28.956578999999991
 51
43.498241
  0
ARC
  5
173
  8
0
 62
     7
 10
94.572956000000005
 20
193.71668099999991
 30
0.0
 40
0.5098270000000001
 50
4.1490349999999987
 51
28.379210999999991
  0
LINE
  5
174
  8
0
 62
     7
 10
80.504499999999993
 20
194.03399999999999
 30
0.0
 11
65.580899999999986
 21
194.03399999999999
 31
0.0
  0
ARC
  5
175
  8
0
 62
     7
 10
90.466266000000005
 20
214.62689499999999
 30
0.0
 40
20.09264799999999
 50
277.17352499999993
 51
278.38851499999993
  0
ARC
  5
176
  8
0
 62
     7
 10
88.835320999999993
 20
227.51377400000001
 30
0.0
 40
33.082320000000003
 50
276.09715899999998
 51
277.18900000000002
  0
ARC
  5
177
  8
0
 62
     7
 10
86.859212999999997
 20
245.91134099999999
 30
0.0
 40
51.585709000000001
 50
275.22181499999999
 51
276.10919799999988
  0
ARC
  5
178
  8
0
 62
     7
 10
83.747791000000007
 20
280.30300499999993
 30
0.0
 40
86.117822000000004
 50
273.69426900000002
 51
275.20083699999998
  0
ARC
  5
179
  8
0
 62
     7
 10
79.092061999999984
 20
349.0536029999999
 30
0.0
 40
155.0256929999999
 50
270.52202599999993
 51
273.77420899999993
  0
LINE
  5
17A
  8
0
 62
     7
 10
80.504499999999993
 20
174.16900000000001
 30
0.0
 11
80.504499999999993
 21
194.03399999999999
 31
0.0
  0
LINE
  5
17B
  8
0
 62
     7
 10
65.580899999999986
 20
174.16900000000001
 30
0.0
 11
80.504499999999993
 21
174.16900000000001
 31
0.0
  0
LINE
  5
17C
  8
0
 62
     7
 10
65.580899999999986
 20
207.4489999999999
 30
0.0
 11
94.081699999999998
 21
207.4489999999999
 31
0.0
  0
LINE
  5
17D
  8
0
 62
     7
 10
94.081699999999998
 20
162.4489999999999
 30
0.0
 11
65.580899999999986
 21
162.4489999999999
 31
0.0
  0
LINE
  5
17E
  8
0
 62
     7
 10
95.081400000000002
 20
163.4489999999999
 30
0.0
 11
95.081400000000002
 21
206.44900000000001
 31
0.0
  0
LINE
  5
17F
  8
0
 62
     7
 10
65.580899999999986
 20
194.749
 30
0.0
 11
93.397499999999994
 21
194.749
 31
0.0
  0
LINE
  5
180
  8
0
 62
     7
 10
65.580899999999986
 20
161.4489999999999
 30
0.0
 11
95.081400000000002
 21
161.4489999999999
 31
0.0
  0
ARC
  5
181
  8
0
 62
     7
 10
95.042468
 20
162.48778599999989
 30
0.0
 40
1.0394699999999999
 50
272.14903099999992
 51
357.87071900000001
  0
LINE
  5
182
  8
0
 62
     7
 10
96.081199999999995
 20
162.4489999999999
 30
0.0
 11
96.081199999999995
 21
207.44999999999999
 31
0.0
  0
ARC
  5
183
  8
0
 62
     7
 10
95.042795999999996
 20
207.41098
 30
0.0
 40
1.039142
 50
2.1315810000000002
 51
87.868408999999986
  0
LINE
  5
184
  8
0
 62
     7
 10
95.081400000000002
 20
208.44900000000001
 30
0.0
 11
65.580899999999986
 21
208.44900000000001
 31
0.0
  0
ARC
  5
185
  8
0
 62
     7
 10
37.829017999999991
 20
192.94942399999999
 30
0.0
 40
1.800943999999999
 50
92.058057999999974
 51
100.75401599999999
  0
ARC
  5
186
  8
0
 62
     7
 10
37.981082999999991
 20
192.042528
 30
0.0
 40
2.7203580000000001
 50
100.33644200000001
 51
123.73380299999999
  0
ARC
  5
187
  8
0
 62
     7
 10
37.290185000000001
 20
193.14080699999991
 30
0.0
 40
1.4237599999999999
 50
125.1562679999999
 51
136.04183399999999
  0
ARC
  5
188
  8
0
 62
     7
 10
36.869532
 20
193.55611399999989
 30
0.0
 40
0.8327049999999999
 50
136.52132700000001
 51
151.06394399999999
  0
ARC
  5
189
  8
0
 62
     7
 10
36.588850999999998
 20
193.717342
 30
0.0
 40
0.509084
 50
151.660189
 51
175.9194719999999
  0
LINE
  5
18A
  8
0
 62
     7
 10
50.658000000000001
 20
194.03399999999999
 30
0.0
 11
65.580899999999986
 21
194.03399999999999
 31
0.0
  0
ARC
  5
18B
  8
0
 62
     7
 10
40.701532
 20
214.67537400000001
 30
0.0
 40
20.141480000000001
 50
261.61478599999992
 51
262.82713399999989
  0
ARC
  5
18C
  8
0
 62
     7
 10
42.327704999999987
 20
227.52920800000001
 30
0.0
 40
33.097771000000002
 50
262.81246900000002
 51
263.90401400000002
  0
ARC
  5
18D
  8
0
 62
     7
 10
44.303292999999989
 20
245.92269300000001
 30
0.0
 40
51.597045000000001
 50
263.89165700000001
 51
264.77897000000002
  0
ARC
  5
18E
  8
0
 62
     7
 10
47.416108999999999
 20
280.33133399999991
 30
0.0
 40
86.146193000000011
 50
264.79973799999999
 51
266.30593499999998
  0
ARC
  5
18F
  8
0
 62
     7
 10
52.071044999999991
 20
349.07447999999988
 30
0.0
 40
155.04657399999991
 50
266.22603900000001
 51
269.47784100000001
  0
LINE
  5
190
  8
0
 62
     7
 10
50.658000000000001
 20
174.16900000000001
 30
0.0
 11
50.658000000000001
 21
194.03399999999999
 31
0.0
  0
LINE
  5
191
  8
0
 62
     7
 10
65.580899999999986
 20
174.16900000000001
 30
0.0
 11
50.658000000000001
 21
174.16900000000001
 31
0.0
  0
ARC
  5
192
  8
0
 62
     7
 10
52.144489999999998
 20
161.26811000000001
 30
0.0
 40
12.986694
 50
96.572445999999999
 51
108.628012
  0
ARC
  5
193
  8
0
 62
     7
 10
53.078487000000003
 20
158.12532899999999
 30
0.0
 40
16.263604999999991
 50
108.209452
 51
119.362889
  0
ARC
  5
194
  8
0
 62
     7
 10
54.299147999999988
 20
155.813524
 30
0.0
 40
18.877084
 50
119.1512579999999
 51
146.9227149999999
  0
ARC
  5
195
  8
0
 62
     7
 10
52.086086000000002
 20
157.4066629999999
 30
0.0
 40
16.153694000000002
 50
147.37362300000001
 51
158.26482200000001
  0
LINE
  5
196
  8
0
 62
     7
 10
65.580899999999986
 20
207.4489999999999
 30
0.0
 11
37.080800000000004
 21
207.4489999999999
 31
0.0
  0
LINE
  5
197
  8
0
 62
     7
 10
37.080800000000004
 20
162.4489999999999
 30
0.0
 11
65.580899999999986
 21
162.4489999999999
 31
0.0
  0
LINE
  5
198
  8
0
 62
     7
 10
36.081099999999992
 20
163.4489999999999
 30
0.0
 11
36.081099999999992
 21
206.4499999999999
 31
0.0
  0
LINE
  5
199
  8
0
 62
     7
 10
65.580899999999986
 20
194.749
 30
0.0
 11
37.764299999999992
 21
194.749
 31
0.0
  0
LINE
  5
19A
  8
0
 62
     7
 10
65.580899999999986
 20
161.4489999999999
 30
0.0
 11
36.081099999999992
 21
161.4489999999999
 31
0.0
  0
ARC
  5
19B
  8
0
 62
     7
 10
36.119368999999992
 20
162.48783399999999
 30
0.0
 40
1.039493
 50
182.131936
 51
267.88782700000002
  0
LINE
  5
19C
  8
0
 62
     7
 10
35.08059999999999
 20
162.4489999999999
 30
0.0
 11
35.08059999999999
 21
207.44999999999999
 31
0.0
  0
ARC
  5
19D
  8
0
 62
     7
 10
36.119689999999999
 20
207.41028199999991
 30
0.0
 40
1.0398389999999991
 50
92.129159000000001
 51
177.8313379999999
  0
LINE
  5
19E
  8
0
 62
     7
 10
36.081099999999992
 20
208.44900000000001
 30
0.0
 11
65.580899999999986
 21
208.44900000000001
 31
0.0
  0
TEXT
  5
19F
  8
_________2
 62
     7
 10
136.17421583333331
 20
9.1082000000000001
 30
0.0
 40
4.6583899999999989
  1
SB3004R
 41
0.5
 72
     1
 11
143.55000000000001
 21
9.1082000000000001
 31
0.0
  0
TEXT
  5
1A0
  8
_________2
 62
     7
 10
136.17421583333331
 20
-0.8926299999999999
 30
0.0
 40
4.6583899999999989
  1
SB3004R
 41
0.5
 72
     1
 11
143.55000000000001
 21
-0.8926299999999999
 31
0.0
  0
TEXT
  5
1A1
  8
_________2
 62
     7
 10
24.586600000000001
 20
0.707627
 30
0.0
 40
4.6583899999999989
  1
実容量：4.7L、重量：17kg、オーバーフロー付
 41
0.5
  0
LINE
  5
1A2
  8
_________2
 62
     7
 10
205.30099999999999
 20
127.411
 30
0.0
 11
183.55099999999999
 21
127.411
 31
0.0
  0
LINE
  5
1A3
  8
_________2
 62
     7
 10
100.2999999999999
 20
-4.0910799999999998
 30
0.0
 11
100.2999999999999
 21
-21.070999999999991
 31
0.0
  0
LINE
  5
1A4
  8
_________2
 62
     7
 10
100.2999999999999
 20
275.93099999999993
 30
0.0
 11
100.2999999999999
 21
258.911
 31
0.0
  0
LINE
  5
1A5
  8
_________2
 62
     7
 10
17.049399999999991
 20
127.411
 30
0.0
 11
-4.7010300000000003
 21
127.411
 31
0.0
  0
LINE
  5
1A6
  8
_________2
 62
     7
 10
76.740799999999993
 20
29.8047
 30
0.0
 11
74.554599999999994
 21
29.8047
 31
0.0
  0
LINE
  5
1A7
  8
_________2
 62
     7
 10
77.233500000000006
 20
29.8047
 30
0.0
 11
76.981300000000005
 21
29.8047
 31
0.0
  0
LINE
  5
1A8
  8
_________2
 62
     7
 10
77.726200000000006
 20
29.8047
 30
0.0
 11
80.6511
 21
29.8047
 31
0.0
  0
LINE
  5
1A9
  8
_________2
 62
     7
 10
77.233500000000006
 20
29.8047
 30
0.0
 11
77.485699999999994
 21
29.8047
 31
0.0
  0
LINE
  5
1AA
  8
_________2
 62
     7
 10
70.837299999999999
 20
29.8047
 30
0.0
 11
68.650300000000001
 21
29.8047
 31
0.0
  0
LINE
  5
1AB
  8
_________2
 62
     7
 10
71.329300000000003
 20
29.8047
 30
0.0
 11
71.077799999999996
 21
29.8047
 31
0.0
  0
LINE
  5
1AC
  8
_________2
 62
     7
 10
71.329300000000003
 20
30.2974
 30
0.0
 11
71.329300000000003
 21
32.484400000000001
 31
0.0
  0
LINE
  5
1AD
  8
_________2
 62
     7
 10
71.329300000000003
 20
29.8047
 30
0.0
 11
71.329300000000003
 21
30.057300000000001
 31
0.0
  0
LINE
  5
1AE
  8
_________2
 62
     7
 10
71.821899999999999
 20
29.8047
 30
0.0
 11
74.008899999999997
 21
29.8047
 31
0.0
  0
LINE
  5
1AF
  8
_________2
 62
     7
 10
71.329300000000003
 20
29.8047
 30
0.0
 11
71.581400000000002
 21
29.8047
 31
0.0
  0
LINE
  5
1B0
  8
_________2
 62
     7
 10
71.329300000000003
 20
29.312799999999999
 30
0.0
 11
71.329300000000003
 21
27.126200000000001
 31
0.0
  0
LINE
  5
1B1
  8
_________2
 62
     7
 10
71.329300000000003
 20
29.8047
 30
0.0
 11
71.329300000000003
 21
29.5532
 31
0.0
  0
LINE
  5
1B2
  8
_________2
 62
     7
 10
75.040300000000002
 20
28.5852
 30
0.0
 11
80.218299999999985
 21
27.720400000000001
 31
0.0
  0
LINE
  5
1B3
  8
_________2
 62
     7
 10
75.040300000000002
 20
31.024699999999999
 30
0.0
 11
80.218299999999985
 21
31.8901
 31
0.0
  0
LINE
  5
1B4
  8
_________2
 62
     7
 10
80.218299999999985
 20
27.720400000000001
 30
0.0
 11
80.218299999999985
 21
31.8901
 31
0.0
  0
LINE
  5
1B5
  8
_________2
 62
     7
 10
75.040300000000002
 20
28.5852
 30
0.0
 11
75.040300000000002
 21
31.024699999999999
 31
0.0
  0
ARC
  5
1B6
  8
_________2
 62
     7
 10
71.282674
 20
29.757801000000001
 30
0.0
 40
1.267714
 50
2.1220840000000001
 51
87.894083999999992
  0
ARC
  5
1B7
  8
_________2
 62
     7
 10
71.375812999999994
 20
29.758545999999999
 30
0.0
 40
1.2669680000000001
 50
92.105782999999988
 51
177.91037
  0
ARC
  5
1B8
  8
_________2
 62
     7
 10
71.376186000000004
 20
29.851671
 30
0.0
 40
1.2673680000000001
 50
182.12203600000001
 51
267.877993
  0
ARC
  5
1B9
  8
_________2
 62
     7
 10
71.282368999999989
 20
29.852347999999999
 30
0.0
 40
1.2680439999999991
 50
272.11916400000001
 51
357.84848499999993
  0
ARC
  5
1BA
  8
_________2
 62
     7
 10
71.248890000000003
 20
29.724731999999989
 30
0.0
 40
2.1668310000000002
 50
2.1161439999999989
 51
87.874379000000005
  0
ARC
  5
1BB
  8
_________2
 62
     7
 10
71.408928000000003
 20
29.726146
 30
0.0
 40
2.165392999999999
 50
92.108508999999998
 51
177.91986499999999
  0
ARC
  5
1BC
  8
_________2
 62
     7
 10
71.409267
 20
29.884751999999999
 30
0.0
 40
2.1657829999999998
 50
182.117133
 51
267.88289700000001
  0
ARC
  5
1BD
  8
_________2
 62
     7
 10
71.249286999999995
 20
29.885429999999989
 30
0.0
 40
2.1664590000000001
 50
272.11546800000002
 51
357.86560400000002
  0
TEXT
  5
1BE
  8
_________2
 62
     7
 10
104.605
 20
1.6794899999999999
 30
0.0
 40
3.660169999999999
  1
図番
 41
0.5
  0
LINE
  5
1BF
  8
_________2
 62
     7
 10
103.55
 20
5.9087199999999989
 30
0.0
 11
183.55099999999999
 21
5.9087199999999989
 31
0.0
  0
TEXT
  5
1C0
  8
_________2
 62
     7
 10
104.605
 20
11.679299999999991
 30
0.0
 40
3.660169999999999
  1
品番
 41
0.5
  0
TEXT
  5
1C1
  8
_________2
 62
     7
 10
104.605
 20
31.8184
 30
0.0
 40
3.660169999999999
  1
名称
 41
0.5
  0
TEXT
  5
1C2
  8
_________2
 62
     7
 10
91.565345833333339
 20
26.822299999999998
 30
0.0
 40
4.3256500000000004
  1
mm
 41
0.5
 72
     1
 11
93.367699999999985
 21
26.822299999999998
 31
0.0
  0
TEXT
  5
1C3
  8
_________2
 62
     7
 10
85.642999999999986
 20
31.8184
 30
0.0
 40
3.660169999999999
  1
単位
 41
0.5
  0
TEXT
  5
1C4
  8
_________2
 62
     7
 10
85.642999999999986
 20
19.410799999999991
 30
0.0
 40
3.660169999999999
  1
尺度
 41
0.5
  0
TEXT
  5
1C5
  8
_________2
 62
     7
 10
89.381520416666675
 20
13.218199999999991
 30
0.0
 40
4.3256500000000004
  1
1 ： 10
 41
0.5
 72
     1
 11
93.959500000000006
 21
13.218199999999991
 31
0.0
  0
TEXT
  5
1C6
  8
_________2
 62
     7
 10
109.179
 20
24.226099999999999
 30
0.0
 40
4.6583899999999989
  1
ML 洗面器
 41
0.5
  0
TEXT
  5
1C7
  8
_________2
 62
     7
 10
39.078380833333327
 20
13.603400000000001
 30
0.0
 40
4.3256500000000004
  1
早川
 41
0.5
 72
     1
 11
41.313299999999998
 21
13.603400000000001
 31
0.0
  0
TEXT
  5
1C8
  8
_________2
 62
     7
 10
20.432286666666659
 20
13.603400000000001
 30
0.0
 40
4.3256500000000004
  1
菅原
 41
0.5
 72
     1
 11
22.7393
 21
13.603400000000001
 31
0.0
  0
TEXT
  5
1C9
  8
_________2
 62
     7
 10
67.785600000000002
 20
13.218199999999991
 30
0.0
 40
4.3256500000000004
  1
15.01.16
 41
0.5
  0
TEXT
  5
1CA
  8
_________2
 62
     7
 10
66.5929
 20
19.410799999999991
 30
0.0
 40
3.660169999999999
  1
日付
 41
0.5
  0
TEXT
  5
1CB
  8
_________2
 62
     7
 10
29.639199999999992
 20
19.410799999999991
 30
0.0
 40
3.660169999999999
  1
検図
 41
0.5
  0
TEXT
  5
1CC
  8
_________2
 62
     7
 10
18.020900000000001
 20
5.21143
 30
0.0
 40
3.660169999999999
  1
備考
 41
0.5
  0
TEXT
  5
1CD
  8
_________2
 62
     7
 10
18.020900000000001
 20
19.410799999999991
 30
0.0
 40
3.660169999999999
  1
製図
 41
0.5
  0
TEXT
  5
1CE
  8
_________2
 62
     7
 10
20.594630666666689
 20
27.936800000000002
 30
0.0
 40
5.3238799999999991
  1
セラトレーディング株式会社
 41
0.5
 72
     1
 11
41.180300000000003
 21
27.936800000000002
 31
0.0
  0
LINE
  5
1CF
  8
_________2
 62
     7
 10
183.55099999999999
 20
-4.0910799999999998
 30
0.0
 11
17.049399999999991
 21
-4.0910799999999998
 31
0.0
  0
LINE
  5
1D0
  8
_________2
 62
     7
 10
17.049399999999991
 20
-4.0910799999999998
 30
0.0
 11
17.049399999999991
 21
258.911
 31
0.0
  0
LINE
  5
1D1
  8
_________2
 62
     7
 10
17.049399999999991
 20
258.911
 30
0.0
 11
183.55099999999999
 21
258.911
 31
0.0
  0
LINE
  5
1D2
  8
_________2
 62
     7
 10
183.55099999999999
 20
258.911
 30
0.0
 11
183.55099999999999
 21
-4.0910799999999998
 31
0.0
  0
LINE
  5
1D3
  8
_________2
 62
     7
 10
65.549700000000001
 20
9.4092999999999982
 30
0.0
 11
65.549700000000001
 21
35.909100000000002
 31
0.0
  0
LINE
  5
1D4
  8
_________2
 62
     7
 10
84.549599999999984
 20
9.4092999999999982
 30
0.0
 11
84.549599999999984
 21
35.909100000000002
 31
0.0
  0
LINE
  5
1D5
  8
_________2
 62
     7
 10
103.55
 20
-4.0910799999999998
 30
0.0
 11
103.55
 21
35.909100000000002
 31
0.0
  0
LINE
  5
1D6
  8
_________2
 62
     7
 10
28.549199999999988
 20
9.4092999999999982
 30
0.0
 11
28.549199999999988
 21
23.409199999999998
 31
0.0
  0
LINE
  5
1D7
  8
_________2
 62
     7
 10
17.049399999999991
 20
9.4092999999999982
 30
0.0
 11
103.55
 21
9.4092999999999982
 31
0.0
  0
LINE
  5
1D8
  8
_________2
 62
     7
 10
17.049399999999991
 20
23.409199999999998
 30
0.0
 11
103.55
 21
23.409199999999998
 31
0.0
  0
LINE
  5
1D9
  8
_________2
 62
     7
 10
103.55
 20
15.9085
 30
0.0
 11
183.55099999999999
 21
15.9085
 31
0.0
  0
LINE
  5
1DA
  8
_________2
 62
     7
 10
17.049399999999991
 20
35.909100000000002
 30
0.0
 11
183.55099999999999
 21
35.909100000000002
 31
0.0
  0
ENDSEC
  0
EOF
