  0
SECTION
  2
HEADER
  9
$ACADVER
  1
AC1009
  9
$INSBASE
 10
0.0
 20
0.0
 30
0.0
  9
$EXTMIN
 10
0.0614953
 20
0.272164
 30
0.0
  9
$EXTMAX
 10
210.06399999999999
 20
297.274
 30
0.0
  9
$LIMMIN
 10
0.0
 20
0.0
  9
$LIMMAX
 10
12.0
 20
9.0
  9
$ORTHOMODE
 70
     0
  9
$REGENMODE
 70
     1
  9
$FILLMODE
 70
     1
  9
$QTEXTMODE
 70
     0
  9
$MIRRTEXT
 70
     1
  9
$DRAGMODE
 70
     2
  9
$LTSCALE
 40
1.0
  9
$OSMODE
 70
    37
  9
$ATTMODE
 70
     1
  9
$TEXTSIZE
 40
0.0
  9
$TRACEWID
 40
0.05
  9
$TEXTSTYLE
  7
STANDARD
  9
$CLAYER
  8
0
  9
$CELTYPE
  6
CONTINUOUS
  9
$CECOLOR
 62
   256
  9
$DIMSCALE
 40
1.0
  9
$DIMASZ
 40
0.18
  9
$DIMEXO
 40
0.0625
  9
$DIMDLI
 40
0.38
  9
$DIMRND
 40
0.0
  9
$DIMDLE
 40
0.0
  9
$DIMEXE
 40
0.18
  9
$DIMTP
 40
0.0
  9
$DIMTM
 40
0.0
  9
$DIMTXT
 40
0.18
  9
$DIMCEN
 40
0.09
  9
$DIMTSZ
 40
0.0
  9
$DIMTOL
 70
     0
  9
$DIMLIM
 70
     0
  9
$DIMTIH
 70
     1
  9
$DIMTOH
 70
     1
  9
$DIMSE1
 70
     0
  9
$DIMSE2
 70
     0
  9
$DIMTAD
 70
     0
  9
$DIMZIN
 70
     0
  9
$DIMBLK
  1

  9
$DIMASO
 70
     1
  9
$DIMSHO
 70
     1
  9
$DIMPOST
  1

  9
$DIMAPOST
  1

  9
$DIMALT
 70
     0
  9
$DIMALTD
 70
     2
  9
$DIMALTF
 40
25.399999999999999
  9
$DIMLFAC
 40
1.0
  9
$DIMTOFL
 70
     0
  9
$DIMTVP
 40
0.0
  9
$DIMTIX
 70
     0
  9
$DIMSOXD
 70
     0
  9
$DIMSAH
 70
     0
  9
$DIMBLK1
  1

  9
$DIMBLK2
  1

  9
$DIMSTYLE
  2
STANDARD
  9
$DIMCLRD
 70
     0
  9
$DIMCLRE
 70
     0
  9
$DIMCLRT
 70
     0
  9
$DIMTFAC
 40
1.0
  9
$DIMGAP
 40
0.09
  9
$LUNITS
 70
     2
  9
$LUPREC
 70
     4
  9
$SKETCHINC
 40
0.1
  9
$FILLETRAD
 40
0.0
  9
$AUNITS
 70
     0
  9
$AUPREC
 70
     0
  9
$MENU
  1
.
  9
$ELEVATION
 40
0.0
  9
$PELEVATION
 40
0.0
  9
$THICKNESS
 40
0.0
  9
$LIMCHECK
 70
     0
  9
$BLIPMODE
 70
     0
  9
$CHAMFERA
 40
0.0
  9
$CHAMFERB
 40
0.0
  9
$SKPOLY
 70
     0
  9
$TDCREATE
 40
2444972.375
  9
$TDUPDATE
 40
2457969.2478633448
  9
$TDINDWG
 40
0.0000340509
  9
$TDUSRTIMER
 40
0.0000340509
  9
$USRTIMER
 70
     1
  9
$ANGBASE
 50
0.0
  9
$ANGDIR
 70
     0
  9
$PDMODE
 70
     0
  9
$PDSIZE
 40
0.0
  9
$PLINEWID
 40
0.0
  9
$COORDS
 70
     1
  9
$SPLFRAME
 70
     0
  9
$SPLINETYPE
 70
     6
  9
$SPLINESEGS
 70
     8
  9
$ATTDIA
 70
     1
  9
$ATTREQ
 70
     1
  9
$HANDLING
 70
     1
  9
$HANDSEED
  5
455
  9
$SURFTAB1
 70
     6
  9
$SURFTAB2
 70
     6
  9
$SURFTYPE
 70
     6
  9
$SURFU
 70
     6
  9
$SURFV
 70
     6
  9
$UCSNAME
  2

  9
$UCSORG
 10
0.0
 20
0.0
 30
0.0
  9
$UCSXDIR
 10
1.0
 20
0.0
 30
0.0
  9
$UCSYDIR
 10
0.0
 20
1.0
 30
0.0
  9
$PUCSNAME
  2

  9
$PUCSORG
 10
0.0
 20
0.0
 30
0.0
  9
$PUCSXDIR
 10
1.0
 20
0.0
 30
0.0
  9
$PUCSYDIR
 10
0.0
 20
1.0
 30
0.0
  9
$USERI1
 70
     0
  9
$USERI2
 70
     0
  9
$USERI3
 70
     0
  9
$USERI4
 70
     0
  9
$USERI5
 70
     0
  9
$USERR1
 40
0.0
  9
$USERR2
 40
0.0
  9
$USERR3
 40
0.0
  9
$USERR4
 40
0.0
  9
$USERR5
 40
0.0
  9
$WORLDVIEW
 70
     1
  9
$SHADEDGE
 70
     3
  9
$SHADEDIF
 70
    70
  9
$TILEMODE
 70
     1
  9
$MAXACTVP
 70
    48
  9
$PLIMCHECK
 70
     0
  9
$PEXTMIN
 10
1.0000000000000000E+020
 20
1.0000000000000000E+020
 30
1.0000000000000000E+020
  9
$PEXTMAX
 10
-1.0000000000000000E+020
 20
-1.0000000000000000E+020
 30
-1.0000000000000000E+020
  9
$PLIMMIN
 10
0.0
 20
0.0
  9
$PLIMMAX
 10
12.0
 20
9.0
  9
$UNITMODE
 70
     0
  9
$VISRETAIN
 70
     1
  9
$PLINEGEN
 70
     0
  9
$PSLTSCALE
 70
     1
  0
ENDSEC
  0
SECTION
  2
TABLES
  0
TABLE
  2
VPORT
 70
     1
  0
VPORT
  2
*ACTIVE
 70
     0
 10
0.0
 20
0.0
 11
1.0
 21
1.0
 12
161.07356150818541
 22
148.637
 13
0.0
 23
0.0
 14
1.0
 24
1.0
 15
0.0
 25
0.0
 16
0.0
 26
0.0
 36
1.0
 17
0.0
 27
0.0
 37
0.0
 40
283.29838953074278
 41
1.357429718875502
 42
50.0
 43
0.0
 44
0.0
 50
0.0
 51
0.0
 71
     0
 72
   100
 73
     1
 74
     1
 75
     0
 76
     0
 77
     0
 78
     0
  0
ENDTAB
  0
TABLE
  2
LTYPE
 70
     4
  0
LTYPE
  2
CONTINUOUS
 70
     0
  3
Solid line
 72
    65
 73
     0
 40
0.0
  0
LTYPE
  2
AIGENLINE001
 70
     0
  3
generate AI->DXF Converter
 72
    65
 73
     4
 40
5.8561449999999988
 49
3.5278
 49
-0.776115
 49
0.776115
 49
-0.776115
  0
LTYPE
  2
AIGENLINE002
 70
     0
  3
generate AI->DXF Converter
 72
    65
 73
     2
 40
1.5522299999999991
 49
0.776115
 49
-0.776115
  0
LTYPE
  2
AIGENLINE003
 70
     0
  3
generate AI->DXF Converter
 72
    65
 73
     6
 40
7.4083750000000004
 49
3.5278
 49
-0.776115
 49
0.776115
 49
-0.776115
 49
0.776115
 49
-0.776115
  0
ENDTAB
  0
TABLE
  2
LAYER
 70
     4
  0
LAYER
  2
0
 70
     0
 62
     7
  6
CONTINUOUS
  0
LAYER
  2
____
 70
     0
 62
     7
  6
CONTINUOUS
  0
LAYER
  2
_________1
 70
     0
 62
     7
  6
CONTINUOUS
  0
LAYER
  2
_________2
 70
     0
 62
     7
  6
CONTINUOUS
  0
ENDTAB
  0
TABLE
  2
STYLE
 70
     1
  0
STYLE
  2
STANDARD
 70
     0
 40
0.0
 41
0.0
 50
0.0
 71
     0
 42
0.0
  3
TXT
  4
EXTFONT.SHX
  0
ENDTAB
  0
TABLE
  2
VIEW
 70
     0
  0
ENDTAB
  0
TABLE
  2
UCS
 70
     0
  0
ENDTAB
  0
TABLE
  2
APPID
 70
     3
  0
APPID
  2
ACAD
 70
     0
  0
APPID
  2
ACAD_NAV_VCDISPLAY
 70
     0
  0
APPID
  2
ACAD_MLEADERVER
 70
     0
  0
ENDTAB
  0
TABLE
  2
DIMSTYLE
 70
     1
  0
DIMSTYLE
  2
STANDARD
 70
     0
  3

  4

  5

  6

  7

 40
1.0
 41
0.18
 42
0.0625
 43
0.38
 44
0.18
 45
0.0
 46
0.0
 47
0.0
 48
0.0
140
0.18
141
0.09
142
0.0
143
25.399999999999999
144
1.0
145
0.0
146
1.0
147
0.09
 71
     0
 72
     0
 73
     1
 74
     1
 75
     0
 76
     0
 77
     0
 78
     0
170
     0
171
     2
172
     0
173
     0
174
     0
175
     0
176
     0
177
     0
178
     0
  0
ENDTAB
  0
ENDSEC
  0
SECTION
  2
BLOCKS
  0
BLOCK
  8
0
  2
$MODEL_SPACE
 70
     0
 10
0.0
 20
0.0
 30
0.0
  3
$MODEL_SPACE
  1

  0
ENDBLK
  5
1A
  8
0
  0
BLOCK
 67
     1
  8
0
  2
$PAPER_SPACE
 70
     0
 10
0.0
 20
0.0
 30
0.0
  3
$PAPER_SPACE
  1

  0
ENDBLK
  5
17
 67
     1
  8
0
  0
BLOCK
  8
_________1
  2
AIGNBL02010002
 70
     0
 10
0.0
 20
0.0
 30
0.0
  3
AIGNBL02010002
  1

  0
LINE
  5
28
  8
_________1
 62
     7
 10
156.911
 20
128.196
 30
0.0
 11
156.31899999999999
 21
130.40600000000001
 31
0.0
  0
LINE
  5
29
  8
_________1
 62
     7
 10
156.31899999999999
 20
130.40600000000001
 30
0.0
 11
155.727
 21
128.196
 31
0.0
  0
LINE
  5
2A
  8
_________1
 62
     7
 10
155.727
 20
128.196
 30
0.0
 11
156.911
 21
128.196
 31
0.0
  0
LINE
  5
2B
  8
_________1
 62
     7
 10
155.738
 20
133.28399999999999
 30
0.0
 11
156.33000000000001
 21
131.07299999999989
 31
0.0
  0
LINE
  5
2C
  8
_________1
 62
     7
 10
156.33000000000001
 20
131.07299999999989
 30
0.0
 11
156.923
 21
133.28399999999999
 31
0.0
  0
LINE
  5
2D
  8
_________1
 62
     7
 10
156.923
 20
133.28399999999999
 30
0.0
 11
155.738
 21
133.28399999999999
 31
0.0
  0
ENDBLK
  5
2E
  8
_________1
  0
BLOCK
  8
_________1
  2
AIGNBL02010003
 70
     0
 10
0.0
 20
0.0
 30
0.0
  3
AIGNBL02010003
  1

  0
LINE
  5
31
  8
_________1
 62
     7
 10
144.02099999999999
 20
128.863
 30
0.0
 11
143.429
 21
131.07299999999989
 31
0.0
  0
LINE
  5
32
  8
_________1
 62
     7
 10
143.429
 20
131.07299999999989
 30
0.0
 11
142.83600000000001
 21
128.863
 31
0.0
  0
LINE
  5
33
  8
_________1
 62
     7
 10
142.83600000000001
 20
128.863
 30
0.0
 11
144.02099999999999
 21
128.863
 31
0.0
  0
LINE
  5
34
  8
_________1
 62
     7
 10
142.84800000000001
 20
124.952
 30
0.0
 11
143.44
 21
122.741
 31
0.0
  0
LINE
  5
35
  8
_________1
 62
     7
 10
143.44
 20
122.741
 30
0.0
 11
144.03299999999999
 21
124.952
 31
0.0
  0
LINE
  5
36
  8
_________1
 62
     7
 10
144.03299999999999
 20
124.952
 30
0.0
 11
142.84800000000001
 21
124.952
 31
0.0
  0
LINE
  5
37
  8
_________1
 62
     7
 10
143.435
 20
136.41900000000001
 30
0.0
 11
143.435
 21
122.741
 31
0.0
  0
ENDBLK
  5
38
  8
_________1
  0
BLOCK
  8
_________1
  2
AIGNBL02010004
 70
     0
 10
0.0
 20
0.0
 30
0.0
  3
AIGNBL02010004
  1

  0
LINE
  5
3B
  8
_________1
 62
     7
 10
150.50200000000001
 20
111.65300000000001
 30
0.0
 11
148.291
 21
111.06100000000001
 31
0.0
  0
LINE
  5
3C
  8
_________1
 62
     7
 10
148.291
 20
111.06100000000001
 30
0.0
 11
150.50200000000001
 21
110.468
 31
0.0
  0
LINE
  5
3D
  8
_________1
 62
     7
 10
150.50200000000001
 20
110.468
 30
0.0
 11
150.50200000000001
 21
111.65300000000001
 31
0.0
  0
LINE
  5
3E
  8
_________1
 62
     7
 10
160.74600000000001
 20
110.48
 30
0.0
 11
162.95699999999999
 21
111.072
 31
0.0
  0
LINE
  5
3F
  8
_________1
 62
     7
 10
162.95699999999999
 20
111.072
 30
0.0
 11
160.74600000000001
 21
111.66500000000001
 31
0.0
  0
LINE
  5
40
  8
_________1
 62
     7
 10
160.74600000000001
 20
111.66500000000001
 30
0.0
 11
160.74600000000001
 21
110.48
 31
0.0
  0
LINE
  5
41
  8
_________1
 62
     7
 10
148.291
 20
111.066
 30
0.0
 11
162.95699999999999
 21
111.066
 31
0.0
  0
ENDBLK
  5
42
  8
_________1
  0
BLOCK
  8
_________1
  2
AIGNBL02010005
 70
     0
 10
0.0
 20
0.0
 30
0.0
  3
AIGNBL02010005
  1

  0
LINE
  5
45
  8
_________1
 62
     7
 10
151.727
 20
128.07300000000001
 30
0.0
 11
155.72300000000001
 21
128.07300000000001
 31
0.0
  0
ENDBLK
  5
46
  8
_________1
  0
BLOCK
  8
_________1
  2
AIGNBL02010006
 70
     0
 10
0.0
 20
0.0
 30
0.0
  3
AIGNBL02010006
  1

  0
LINE
  5
49
  8
_________1
  6
AIGENLINE001
 62
     7
 10
158.624
 20
132.44399999999999
 30
0.0
 11
158.624
 21
128.44399999999999
 31
0.0
  0
ENDBLK
  5
4A
  8
_________1
  0
BLOCK
  8
_________1
  2
AIGNBL02010007
 70
     0
 10
0.0
 20
0.0
 30
0.0
  3
AIGNBL02010007
  1

  0
LINE
  5
4D
  8
_________1
  6
AIGENLINE001
 62
     7
 10
148.291
 20
118.069
 30
0.0
 11
148.291
 21
132.31399999999999
 31
0.0
  0
ENDBLK
  5
4E
  8
_________1
  0
BLOCK
  8
_________1
  2
AIGNBL02010008
 70
     0
 10
0.0
 20
0.0
 30
0.0
  3
AIGNBL02010008
  1

  0
LINE
  5
51
  8
_________1
  6
AIGENLINE001
 62
     7
 10
160.31399999999999
 20
126.407
 30
0.0
 11
164.31399999999999
 21
126.407
 31
0.0
  0
ENDBLK
  5
52
  8
_________1
  0
BLOCK
  8
_________1
  2
AIGNBL02010009
 70
     0
 10
0.0
 20
0.0
 30
0.0
  3
AIGNBL02010009
  1

  0
ARC
  5
55
  8
_________1
  6
AIGENLINE002
 62
     7
 10
154.24394799999999
 20
129.69447500000001
 30
0.0
 40
0.7116400000000001
 50
91.208188000000007
 51
173.79718600000001
  0
ENDBLK
  5
56
  8
_________1
  0
BLOCK
  8
_________1
  2
AIGNBL0201000A
 70
     0
 10
0.0
 20
0.0
 30
0.0
  3
AIGNBL0201000A
  1

  0
LINE
  5
59
  8
_________1
 62
     7
 10
139.292
 20
120.66500000000001
 30
0.0
 11
138.64500000000001
 21
122.684
 31
0.0
  0
ENDBLK
  5
5A
  8
_________1
  0
BLOCK
  8
_________1
  2
AIGNBL0201000B
 70
     0
 10
0.0
 20
0.0
 30
0.0
  3
AIGNBL0201000B
  1

  0
ARC
  5
5D
  8
_________1
 62
     7
 10
139.635683
 20
120.764551
 30
0.0
 40
0.357797
 50
196.11619300000001
 51
268.68981600000001
  0
ENDBLK
  5
5E
  8
_________1
  0
BLOCK
  8
_________1
  2
AIGNBL0201000C
 70
     0
 10
0.0
 20
0.0
 30
0.0
  3
AIGNBL0201000C
  1

  0
LINE
  5
61
  8
_________1
  6
AIGENLINE002
 62
     7
 10
161.95699999999999
 20
130.40600000000001
 30
0.0
 11
159.476
 21
130.40600000000001
 31
0.0
  0
ENDBLK
  5
62
  8
_________1
  0
BLOCK
  8
_________1
  2
AIGNBL0201000D
 70
     0
 10
0.0
 20
0.0
 30
0.0
  3
AIGNBL0201000D
  1

  0
LINE
  5
65
  8
_________1
 62
     7
 10
162.60900000000001
 20
131.07299999999989
 30
0.0
 11
162.63499999999999
 21
131.07299999999989
 31
0.0
  0
ENDBLK
  5
66
  8
_________1
  0
BLOCK
  8
_________1
  2
AIGNBL0201000E
 70
     0
 10
0.0
 20
0.0
 30
0.0
  3
AIGNBL0201000E
  1

  0
ARC
  5
69
  8
_________1
 62
     7
 10
162.59553299999999
 20
130.71170100000001
 30
0.0
 40
0.361488
 50
1.9950279999999989
 51
87.834861000000004
  0
ENDBLK
  5
6A
  8
_________1
  0
BLOCK
  8
_________1
  2
AIGNBL0201000F
 70
     0
 10
0.0
 20
0.0
 30
0.0
  3
AIGNBL0201000F
  1

  0
LINE
  5
6D
  8
_________1
 62
     7
 10
162.95699999999999
 20
125.767
 30
0.0
 11
162.95699999999999
 21
130.72399999999999
 31
0.0
  0
ENDBLK
  5
6E
  8
_________1
  0
BLOCK
  8
_________1
  2
AIGNBL02010010
 70
     0
 10
0.0
 20
0.0
 30
0.0
  3
AIGNBL02010010
  1

  0
LINE
  5
71
  8
_________1
  6
AIGENLINE002
 62
     7
 10
156.447
 20
130.40600000000001
 30
0.0
 11
154.22900000000001
 21
130.40600000000001
 31
0.0
  0
ENDBLK
  5
72
  8
_________1
  0
BLOCK
  8
_________1
  2
AIGNBL02010011
 70
     0
 10
0.0
 20
0.0
 30
0.0
  3
AIGNBL02010011
  1

  0
ARC
  5
75
  8
_________1
  6
AIGENLINE002
 62
     7
 10
152.39792299999999
 20
123.45148500000001
 30
0.0
 40
0.7110610000000001
 50
271.16115200000002
 51
353.78225600000002
  0
ENDBLK
  5
76
  8
_________1
  0
BLOCK
  8
_________1
  2
AIGNBL02010012
 70
     0
 10
0.0
 20
0.0
 30
0.0
  3
AIGNBL02010012
  1

  0
LINE
  5
79
  8
_________1
 62
     7
 10
145.292
 20
120.407
 30
0.0
 11
145.292
 21
119.754
 31
0.0
  0
ENDBLK
  5
7A
  8
_________1
  0
BLOCK
  8
_________1
  2
AIGNBL02010013
 70
     0
 10
0.0
 20
0.0
 30
0.0
  3
AIGNBL02010013
  1

  0
ARC
  5
7D
  8
_________1
 62
     7
 10
145.65313599999999
 20
119.768261
 30
0.0
 40
0.36144
 50
182.20680899999999
 51
267.85003399999999
  0
ENDBLK
  5
7E
  8
_________1
  0
BLOCK
  8
_________1
  2
AIGNBL02010014
 70
     0
 10
0.0
 20
0.0
 30
0.0
  3
AIGNBL02010014
  1

  0
ARC
  5
81
  8
_________1
  6
AIGENLINE002
 62
     7
 10
141.56506300000001
 20
123.202708
 30
0.0
 40
0.462936
 50
255.776219
 51
273.367098
  0
ARC
  5
82
  8
_________1
  6
AIGENLINE002
 62
     7
 10
141.60853800000001
 20
123.462508
 30
0.0
 40
0.725778
 50
230.45583300000001
 51
257.489036
  0
ENDBLK
  5
83
  8
_________1
  0
BLOCK
  8
_________1
  2
AIGNBL02010015
 70
     0
 10
0.0
 20
0.0
 30
0.0
  3
AIGNBL02010015
  1

  0
LINE
  5
86
  8
_________1
  6
AIGENLINE002
 62
     7
 10
141.14599999999999
 20
122.90300000000001
 30
0.0
 11
132.68299999999999
 21
130.37700000000001
 31
0.0
  0
ENDBLK
  5
87
  8
_________1
  0
BLOCK
  8
_________1
  2
AIGNBL02010016
 70
     0
 10
0.0
 20
0.0
 30
0.0
  3
AIGNBL02010016
  1

  0
LINE
  5
8A
  8
_________1
 62
     7
 10
135.12100000000001
 20
127.40600000000001
 30
0.0
 11
132.15899999999999
 21
127.40600000000001
 31
0.0
  0
ENDBLK
  5
8B
  8
_________1
  0
BLOCK
  8
_________1
  2
AIGNBL02010017
 70
     0
 10
0.0
 20
0.0
 30
0.0
  3
AIGNBL02010017
  1

  0
LINE
  5
8E
  8
_________1
  6
AIGENLINE002
 62
     7
 10
132.626
 20
130.72399999999999
 30
0.0
 11
132.626
 21
130.37700000000001
 31
0.0
  0
ENDBLK
  5
8F
  8
_________1
  0
BLOCK
  8
_________1
  2
AIGNBL02010018
 70
     0
 10
0.0
 20
0.0
 30
0.0
  3
AIGNBL02010018
  1

  0
ARC
  5
92
  8
_________1
 62
     7
 10
132.32125099999999
 20
130.71075200000001
 30
0.0
 40
0.362488
 50
92.366529000000014
 51
177.860355
  0
ENDBLK
  5
93
  8
_________1
  0
BLOCK
  8
_________1
  2
AIGNBL02010019
 70
     0
 10
0.0
 20
0.0
 30
0.0
  3
AIGNBL02010019
  1

  0
ARC
  5
96
  8
_________1
  6
AIGENLINE002
 62
     7
 10
132.265027
 20
130.71237600000001
 30
0.0
 40
0.360816
 50
1.891586
 51
87.824621999999991
  0
ENDBLK
  5
97
  8
_________1
  0
BLOCK
  8
_________1
  2
AIGNBL0201001A
 70
     0
 10
0.0
 20
0.0
 30
0.0
  3
AIGNBL0201001A
  1

  0
LINE
  5
9A
  8
_________1
 62
     7
 10
132.279
 20
131.07299999999989
 30
0.0
 11
132.30600000000001
 21
131.07299999999989
 31
0.0
  0
ENDBLK
  5
9B
  8
_________1
  0
BLOCK
  8
_________1
  2
AIGNBL0201001B
 70
     0
 10
0.0
 20
0.0
 30
0.0
  3
AIGNBL0201001B
  1

  0
ARC
  5
9E
  8
_________1
 62
     7
 10
162.595585
 20
120.76772099999999
 30
0.0
 40
0.3614739999999999
 50
272.15703600000001
 51
357.84297400000003
  0
ENDBLK
  5
9F
  8
_________1
  0
BLOCK
  8
_________1
  2
AIGNBL0201001C
 70
     0
 10
0.0
 20
0.0
 30
0.0
  3
AIGNBL0201001C
  1

  0
LINE
  5
A2
  8
_________1
  6
AIGENLINE002
 62
     7
 10
153.536
 20
129.77099999999999
 30
0.0
 11
153.10499999999999
 21
123.374
 31
0.0
  0
ENDBLK
  5
A3
  8
_________1
  0
BLOCK
  8
_________1
  2
AIGNBL0201001D
 70
     0
 10
0.0
 20
0.0
 30
0.0
  3
AIGNBL0201001D
  1

  0
LINE
  5
A6
  8
_________1
 62
     7
 10
135.12100000000001
 20
127.40600000000001
 30
0.0
 11
162.95699999999999
 21
127.40600000000001
 31
0.0
  0
ENDBLK
  5
A7
  8
_________1
  0
BLOCK
  8
_________1
  2
AIGNBL0201001E
 70
     0
 10
0.0
 20
0.0
 30
0.0
  3
AIGNBL0201001E
  1

  0
LINE
  5
AA
  8
_________1
 62
     7
 10
161.624
 20
122.741
 30
0.0
 11
161.624
 21
127.40600000000001
 31
0.0
  0
ENDBLK
  5
AB
  8
_________1
  0
BLOCK
  8
_________1
  2
AIGNBL0201001F
 70
     0
 10
0.0
 20
0.0
 30
0.0
  3
AIGNBL0201001F
  1

  0
LINE
  5
AE
  8
_________1
 62
     7
 10
162.60900000000001
 20
131.07299999999989
 30
0.0
 11
132.279
 21
131.07299999999989
 31
0.0
  0
ENDBLK
  5
AF
  8
_________1
  0
BLOCK
  8
_________1
  2
AIGNBL02010020
 70
     0
 10
0.0
 20
0.0
 30
0.0
  3
AIGNBL02010020
  1

  0
LINE
  5
B2
  8
_________1
 62
     7
 10
162.95699999999999
 20
120.754
 30
0.0
 11
162.95699999999999
 21
125.767
 31
0.0
  0
ENDBLK
  5
B3
  8
_________1
  0
BLOCK
  8
_________1
  2
AIGNBL02010021
 70
     0
 10
0.0
 20
0.0
 30
0.0
  3
AIGNBL02010021
  1

  0
LINE
  5
B6
  8
_________1
 62
     7
 10
138.596
 20
122.741
 30
0.0
 11
162.95699999999999
 21
122.741
 31
0.0
  0
ENDBLK
  5
B7
  8
_________1
  0
BLOCK
  8
_________1
  2
AIGNBL02010022
 70
     0
 10
0.0
 20
0.0
 30
0.0
  3
AIGNBL02010022
  1

  0
LINE
  5
BA
  8
_________1
 62
     7
 10
139.62799999999999
 20
120.407
 30
0.0
 11
145.292
 21
120.407
 31
0.0
  0
ENDBLK
  5
BB
  8
_________1
  0
BLOCK
  8
_________1
  2
AIGNBL02010023
 70
     0
 10
0.0
 20
0.0
 30
0.0
  3
AIGNBL02010023
  1

  0
LINE
  5
BE
  8
_________1
  6
AIGENLINE002
 62
     7
 10
159.47399999999999
 20
130.40600000000001
 30
0.0
 11
156.447
 21
130.40600000000001
 31
0.0
  0
ENDBLK
  5
BF
  8
_________1
  0
BLOCK
  8
_________1
  2
AIGNBL02010024
 70
     0
 10
0.0
 20
0.0
 30
0.0
  3
AIGNBL02010024
  1

  0
LINE
  5
C2
  8
_________1
  6
AIGENLINE001
 62
     7
 10
151.791
 20
202.345
 30
0.0
 11
144.791
 21
202.345
 31
0.0
  0
ENDBLK
  5
C3
  8
_________1
  0
BLOCK
  8
_________1
  2
AIGNBL02010025
 70
     0
 10
0.0
 20
0.0
 30
0.0
  3
AIGNBL02010025
  1

  0
LINE
  5
C6
  8
_________1
  6
AIGENLINE001
 62
     7
 10
148.291
 20
218.714
 30
0.0
 11
148.291
 21
186.102
 31
0.0
  0
ENDBLK
  5
C7
  8
_________1
  0
BLOCK
  8
_________1
  2
AIGNBL02010026
 70
     0
 10
0.0
 20
0.0
 30
0.0
  3
AIGNBL02010026
  1

  0
ARC
  5
CA
  8
_________1
  6
AIGENLINE002
 62
     7
 10
148.29102399999999
 20
202.34508700000001
 30
0.0
 40
1.5329909999999991
 50
359.99035300000003
 51
89.990323000000004
  0
ARC
  5
CB
  8
_________1
  6
AIGENLINE002
 62
     7
 10
148.350303
 20
202.285629
 30
0.0
 40
1.593542
 50
92.122545999999986
 51
177.87098700000001
  0
ARC
  5
CC
  8
_________1
  6
AIGENLINE002
 62
     7
 10
148.350131
 20
202.40385499999999
 30
0.0
 40
1.593362999999999
 50
182.12304700000001
 51
267.883419
  0
ARC
  5
CD
  8
_________1
  6
AIGENLINE002
 62
     7
 10
148.232235
 20
202.40333999999999
 30
0.0
 40
1.592856
 50
272.12449400000003
 51
357.8948299999999
  0
ENDBLK
  5
CE
  8
_________1
  0
BLOCK
  8
_________1
  2
AIGNBL02010027
 70
     0
 10
0.0
 20
0.0
 30
0.0
  3
AIGNBL02010027
  1

  0
ARC
  5
D1
  8
_________1
  6
AIGENLINE002
 62
     7
 10
148.195144
 20
202.24904699999999
 30
0.0
 40
2.5973380000000001
 50
2.1133509999999989
 51
87.878742000000003
  0
ARC
  5
D2
  8
_________1
  6
AIGENLINE002
 62
     7
 10
148.387843
 20
202.24790999999999
 30
0.0
 40
2.5984899999999991
 50
92.129602000000006
 51
177.862472
  0
ARC
  5
D3
  8
_________1
  6
AIGENLINE002
 62
     7
 10
148.29111
 20
202.345
 30
0.0
 40
2.4999489999999991
 50
180.00395800000001
 51
270.0039680000001
  0
ARC
  5
D4
  8
_________1
  6
AIGENLINE002
 62
     7
 10
148.29111
 20
202.34465700000001
 30
0.0
 40
2.499604999999999
 50
270.0039680000001
 51
0.003939
  0
ENDBLK
  5
D5
  8
_________1
  0
BLOCK
  8
_________1
  2
AIGNBL02010028
 70
     0
 10
0.0
 20
0.0
 30
0.0
  3
AIGNBL02010028
  1

  0
ARC
  5
D8
  8
_________1
 62
     7
 10
66.502172999999999
 20
119.935833
 30
0.0
 40
0.529146
 50
272.19699400000002
 51
357.88060000000002
  0
ENDBLK
  5
D9
  8
_________1
  0
BLOCK
  8
_________1
  2
AIGNBL02010029
 70
     0
 10
0.0
 20
0.0
 30
0.0
  3
AIGNBL02010029
  1

  0
LINE
  5
DC
  8
_________1
 62
     7
 10
67.031000000000006
 20
120.407
 30
0.0
 11
67.031000000000006
 21
119.916
 31
0.0
  0
ENDBLK
  5
DD
  8
_________1
  0
BLOCK
  8
_________1
  2
AIGNBL0201002A
 70
     0
 10
0.0
 20
0.0
 30
0.0
  3
AIGNBL0201002A
  1

  0
LINE
  5
E0
  8
_________1
 62
     7
 10
63.514499999999991
 20
119.407
 30
0.0
 11
66.522499999999994
 21
119.407
 31
0.0
  0
ENDBLK
  5
E1
  8
_________1
  0
BLOCK
  8
_________1
  2
AIGNBL0201002B
 70
     0
 10
0.0
 20
0.0
 30
0.0
  3
AIGNBL0201002B
  1

  0
ARC
  5
E4
  8
_________1
 62
     7
 10
88.310360000000003
 20
128.66028899999989
 30
0.0
 40
2.483306999999999
 50
315.30210099999999
 51
329.67062299999998
  0
ARC
  5
E5
  8
_________1
 62
     7
 10
87.261364999999998
 20
129.622409
 30
0.0
 40
3.9060559999999991
 50
307.13475099999999
 51
316.09321199999999
  0
ARC
  5
E6
  8
_________1
 62
     7
 10
85.866701000000006
 20
131.38909200000001
 30
0.0
 40
6.1566010000000002
 50
299.33188799999999
 51
307.55651899999998
  0
ARC
  5
E7
  8
_________1
 62
     7
 10
84.115719999999996
 20
134.32254699999999
 30
0.0
 40
9.572144999999999
 50
295.98552599999999
 51
299.86758500000002
  0
ARC
  5
E8
  8
_________1
 62
     7
 10
82.392116000000001
 20
137.80884699999999
 30
0.0
 40
13.461202
 50
292.11586
 51
296.07854700000001
  0
ARC
  5
E9
  8
_________1
 62
     7
 10
79.844492000000002
 20
143.97198599999999
 30
0.0
 40
20.130054999999999
 50
287.92552999999998
 51
292.22936700000002
  0
ARC
  5
EA
  8
_________1
 62
     7
 10
76.565506999999997
 20
153.69923899999989
 30
0.0
 40
30.394590000000001
 50
285.90441499999997
 51
288.1629660000001
  0
ARC
  5
EB
  8
_________1
 62
     7
 10
72.545947999999996
 20
167.701528
 30
0.0
 40
44.962376999999996
 50
282.80807199999998
 51
285.94085899999999
  0
ARC
  5
EC
  8
_________1
 62
     7
 10
65.432271999999998
 20
197.882172
 30
0.0
 40
75.969470000000001
 50
281.49042200000002
 51
282.99364700000001
  0
ARC
  5
ED
  8
_________1
 62
     7
 10
53.39189300000001
 20
256.41390200000001
 30
0.0
 40
135.72667200000001
 50
280.97695199999998
 51
281.54923200000002
  0
ARC
  5
EE
  8
_________1
 62
     7
 10
125.23515500000001
 20
-117.77064
 30
0.0
 40
245.292768
 50
100.808485
 51
101.386252
  0
ENDBLK
  5
EF
  8
_________1
  0
BLOCK
  8
_________1
  2
AIGNBL0201002C
 70
     0
 10
0.0
 20
0.0
 30
0.0
  3
AIGNBL0201002C
  1

  0
ARC
  5
F2
  8
_________1
 62
     7
 10
93.484714999999994
 20
127.934011
 30
0.0
 40
0.528074
 50
272.10368399999999
 51
357.87690700000002
  0
ENDBLK
  5
F3
  8
_________1
  0
BLOCK
  8
_________1
  2
AIGNBL0201002D
 70
     0
 10
0.0
 20
0.0
 30
0.0
  3
AIGNBL0201002D
  1

  0
ARC
  5
F6
  8
_________1
 62
     7
 10
75.653789000000003
 20
120.933599
 30
0.0
 40
0.5270770000000001
 50
272.01762500000001
 51
357.86573299999998
  0
ENDBLK
  5
F7
  8
_________1
  0
BLOCK
  8
_________1
  2
AIGNBL0201002E
 70
     0
 10
0.0
 20
0.0
 30
0.0
  3
AIGNBL0201002E
  1

  0
LINE
  5
FA
  8
_________1
 62
     7
 10
76.180499999999995
 20
120.914
 30
0.0
 11
76.180499999999995
 21
121.913
 31
0.0
  0
ENDBLK
  5
FB
  8
_________1
  0
BLOCK
  8
_________1
  2
AIGNBL0201002F
 70
     0
 10
0.0
 20
0.0
 30
0.0
  3
AIGNBL0201002F
  1

  0
LINE
  5
FE
  8
_________1
 62
     7
 10
94.012399999999985
 20
127.914
 30
0.0
 11
94.012399999999985
 21
130.56399999999999
 31
0.0
  0
ENDBLK
  5
FF
  8
_________1
  0
BLOCK
  8
_________1
  2
AIGNBL02010030
 70
     0
 10
0.0
 20
0.0
 30
0.0
  3
AIGNBL02010030
  1

  0
LINE
  5
102
  8
_________1
 62
     7
 10
63.514499999999991
 20
120.407
 30
0.0
 11
75.672300000000007
 21
120.407
 31
0.0
  0
ENDBLK
  5
103
  8
_________1
  0
BLOCK
  8
_________1
  2
AIGNBL02010031
 70
     0
 10
0.0
 20
0.0
 30
0.0
  3
AIGNBL02010031
  1

  0
LINE
  5
106
  8
_________1
 62
     7
 10
63.514499999999991
 20
127.40600000000001
 30
0.0
 11
93.504099999999994
 21
127.40600000000001
 31
0.0
  0
ENDBLK
  5
107
  8
_________1
  0
BLOCK
  8
_________1
  2
AIGNBL02010032
 70
     0
 10
0.0
 20
0.0
 30
0.0
  3
AIGNBL02010032
  1

  0
ARC
  5
10A
  8
_________1
 62
     7
 10
93.484498000000002
 20
130.54500899999999
 30
0.0
 40
0.528286
 50
2.1069810000000002
 51
87.873597000000004
  0
ENDBLK
  5
10B
  8
_________1
  0
BLOCK
  8
_________1
  2
AIGNBL02010033
 70
     0
 10
0.0
 20
0.0
 30
0.0
  3
AIGNBL02010033
  1

  0
LINE
  5
10E
  8
_________1
 62
     7
 10
93.504099999999994
 20
131.07299999999989
 30
0.0
 11
63.514499999999991
 21
131.07299999999989
 31
0.0
  0
ENDBLK
  5
10F
  8
_________1
  0
BLOCK
  8
_________1
  2
AIGNBL02010034
 70
     0
 10
0.0
 20
0.0
 30
0.0
  3
AIGNBL02010034
  1

  0
ARC
  5
112
  8
_________1
 62
     7
 10
60.527213000000003
 20
119.93580799999999
 30
0.0
 40
0.5291350000000001
 50
182.11683199999999
 51
267.76678299999998
  0
ENDBLK
  5
113
  8
_________1
  0
BLOCK
  8
_________1
  2
AIGNBL02010035
 70
     0
 10
0.0
 20
0.0
 30
0.0
  3
AIGNBL02010035
  1

  0
LINE
  5
116
  8
_________1
 62
     7
 10
59.99839999999999
 20
120.407
 30
0.0
 11
59.99839999999999
 21
119.916
 31
0.0
  0
ENDBLK
  5
117
  8
_________1
  0
BLOCK
  8
_________1
  2
AIGNBL02010036
 70
     0
 10
0.0
 20
0.0
 30
0.0
  3
AIGNBL02010036
  1

  0
LINE
  5
11A
  8
_________1
 62
     7
 10
63.514499999999991
 20
119.407
 30
0.0
 11
60.506599999999999
 21
119.407
 31
0.0
  0
ENDBLK
  5
11B
  8
_________1
  0
BLOCK
  8
_________1
  2
AIGNBL02010037
 70
     0
 10
0.0
 20
0.0
 30
0.0
  3
AIGNBL02010037
  1

  0
ARC
  5
11E
  8
_________1
 62
     7
 10
38.719338999999998
 20
128.661529
 30
0.0
 40
2.4849369999999991
 50
210.34053800000001
 51
224.70095599999999
  0
ARC
  5
11F
  8
_________1
 62
     7
 10
39.766385999999997
 20
129.621792
 30
0.0
 40
3.9049930000000002
 50
223.90925899999999
 51
232.87087500000001
  0
ARC
  5
120
  8
_________1
 62
     7
 10
41.163243000000001
 20
131.391446
 30
0.0
 40
6.1592269999999987
 50
232.44765899999999
 51
240.669363
  0
ARC
  5
121
  8
_________1
 62
     7
 10
42.916129999999988
 20
134.328948
 30
0.0
 40
9.5792280000000005
 50
240.13553899999999
 51
244.0149540000001
  0
ARC
  5
122
  8
_________1
 62
     7
 10
44.636592
 20
137.80925099999999
 30
0.0
 40
13.461517000000001
 50
243.92264299999999
 51
247.885425
  0
ARC
  5
123
  8
_________1
 62
     7
 10
47.185324999999999
 20
143.975236
 30
0.0
 40
20.133424000000002
 50
247.77164200000001
 51
252.07490200000001
  0
ARC
  5
124
  8
_________1
 62
     7
 10
50.464019999999998
 20
153.70173500000001
 30
0.0
 40
30.397151999999998
 50
251.83743100000001
 51
254.09583000000001
  0
ARC
  5
125
  8
_________1
 62
     7
 10
54.484454999999997
 20
167.707323
 30
0.0
 40
44.968349999999987
 50
254.05939599999999
 51
257.19177400000001
  0
ARC
  5
126
  8
_________1
 62
     7
 10
61.598708000000002
 20
197.89039500000001
 30
0.0
 40
75.977939000000006
 50
257.00627200000002
 51
258.50930499999998
  0
ARC
  5
127
  8
_________1
 62
     7
 10
73.631581999999995
 20
256.38239700000003
 30
0.0
 40
135.694717
 50
258.45037400000001
 51
259.02277099999998
  0
ARC
  5
128
  8
_________1
 62
     7
 10
1.8481959999999991
 20
-117.476473
 30
0.0
 40
244.99360200000001
 50
78.612673999999998
 51
79.191109999999995
  0
ENDBLK
  5
129
  8
_________1
  0
BLOCK
  8
_________1
  2
AIGNBL02010038
 70
     0
 10
0.0
 20
0.0
 30
0.0
  3
AIGNBL02010038
  1

  0
ARC
  5
12C
  8
_________1
 62
     7
 10
33.54401
 20
127.934048
 30
0.0
 40
0.528092
 50
182.12700599999999
 51
267.95066000000003
  0
ENDBLK
  5
12D
  8
_________1
  0
BLOCK
  8
_________1
  2
AIGNBL02010039
 70
     0
 10
0.0
 20
0.0
 30
0.0
  3
AIGNBL02010039
  1

  0
ARC
  5
130
  8
_________1
 62
     7
 10
51.375253000000001
 20
120.93357399999999
 30
0.0
 40
0.527065
 50
182.131687
 51
267.94613700000002
  0
ENDBLK
  5
131
  8
_________1
  0
BLOCK
  8
_________1
  2
AIGNBL0201003A
 70
     0
 10
0.0
 20
0.0
 30
0.0
  3
AIGNBL0201003A
  1

  0
LINE
  5
134
  8
_________1
 62
     7
 10
50.84859999999999
 20
120.914
 30
0.0
 11
50.84859999999999
 21
121.913
 31
0.0
  0
ENDBLK
  5
135
  8
_________1
  0
BLOCK
  8
_________1
  2
AIGNBL0201003B
 70
     0
 10
0.0
 20
0.0
 30
0.0
  3
AIGNBL0201003B
  1

  0
LINE
  5
138
  8
_________1
 62
     7
 10
33.016300000000001
 20
127.914
 30
0.0
 11
33.016300000000001
 21
130.56399999999999
 31
0.0
  0
ENDBLK
  5
139
  8
_________1
  0
BLOCK
  8
_________1
  2
AIGNBL0201003C
 70
     0
 10
0.0
 20
0.0
 30
0.0
  3
AIGNBL0201003C
  1

  0
LINE
  5
13C
  8
_________1
 62
     7
 10
63.514499999999991
 20
120.407
 30
0.0
 11
51.356400000000001
 21
120.407
 31
0.0
  0
ENDBLK
  5
13D
  8
_________1
  0
BLOCK
  8
_________1
  2
AIGNBL0201003D
 70
     0
 10
0.0
 20
0.0
 30
0.0
  3
AIGNBL0201003D
  1

  0
LINE
  5
140
  8
_________1
 62
     7
 10
63.514499999999991
 20
127.40600000000001
 30
0.0
 11
33.525100000000002
 21
127.40600000000001
 31
0.0
  0
ENDBLK
  5
141
  8
_________1
  0
BLOCK
  8
_________1
  2
AIGNBL0201003E
 70
     0
 10
0.0
 20
0.0
 30
0.0
  3
AIGNBL0201003E
  1

  0
ARC
  5
144
  8
_________1
 62
     7
 10
33.544703000000013
 20
130.54449600000001
 30
0.0
 40
0.5287980000000001
 50
92.121758999999997
 51
177.839406
  0
ENDBLK
  5
145
  8
_________1
  0
BLOCK
  8
_________1
  2
AIGNBL0201003F
 70
     0
 10
0.0
 20
0.0
 30
0.0
  3
AIGNBL0201003F
  1

  0
LINE
  5
148
  8
_________1
 62
     7
 10
33.525100000000002
 20
131.07299999999989
 30
0.0
 11
63.514499999999991
 21
131.07299999999989
 31
0.0
  0
ENDBLK
  5
149
  8
_________1
  0
BLOCK
  8
_________1
  2
AIGNBL02010040
 70
     0
 10
0.0
 20
0.0
 30
0.0
  3
AIGNBL02010040
  1

  0
LINE
  5
14C
  8
_________1
  6
AIGENLINE001
 62
     7
 10
63.514499999999991
 20
132.14099999999999
 30
0.0
 11
63.514499999999991
 21
118.51900000000001
 31
0.0
  0
ENDBLK
  5
14D
  8
_________1
  0
BLOCK
  8
_________1
  2
AIGNBL02010041
 70
     0
 10
0.0
 20
0.0
 30
0.0
  3
AIGNBL02010041
  1

  0
LINE
  5
150
  8
_________1
 62
     7
 10
105.637
 20
183.83500000000001
 30
0.0
 11
106.229
 21
186.047
 31
0.0
  0
LINE
  5
151
  8
_________1
 62
     7
 10
106.229
 20
186.047
 30
0.0
 11
106.821
 21
183.83500000000001
 31
0.0
  0
LINE
  5
152
  8
_________1
 62
     7
 10
106.821
 20
183.83500000000001
 30
0.0
 11
105.637
 21
183.83500000000001
 31
0.0
  0
ENDBLK
  5
153
  8
_________1
  0
BLOCK
  8
_________1
  2
AIGNBL02010042
 70
     0
 10
0.0
 20
0.0
 30
0.0
  3
AIGNBL02010042
  1

  0
LINE
  5
156
  8
_________1
 62
     7
 10
73.461299999999994
 20
194.49199999999999
 30
0.0
 11
73.461299999999994
 21
207.678
 31
0.0
  0
ENDBLK
  5
157
  8
_________1
  0
BLOCK
  8
_________1
  2
AIGNBL02010043
 70
     0
 10
0.0
 20
0.0
 30
0.0
  3
AIGNBL02010043
  1

  0
LINE
  5
15A
  8
_________1
 62
     7
 10
63.513500000000001
 20
194.49199999999999
 30
0.0
 11
73.461299999999994
 21
194.49199999999999
 31
0.0
  0
ENDBLK
  5
15B
  8
_________1
  0
BLOCK
  8
_________1
  2
AIGNBL02010044
 70
     0
 10
0.0
 20
0.0
 30
0.0
  3
AIGNBL02010044
  1

  0
LINE
  5
15E
  8
_________1
 62
     7
 10
84.346100000000007
 20
207.678
 30
0.0
 11
84.346100000000007
 21
186.679
 31
0.0
  0
ENDBLK
  5
15F
  8
_________1
  0
BLOCK
  8
_________1
  2
AIGNBL02010045
 70
     0
 10
0.0
 20
0.0
 30
0.0
  3
AIGNBL02010045
  1

  0
LINE
  5
162
  8
_________1
 62
     7
 10
63.513500000000001
 20
207.678
 30
0.0
 11
84.346100000000007
 21
207.678
 31
0.0
  0
ENDBLK
  5
163
  8
_________1
  0
BLOCK
  8
_________1
  2
AIGNBL02010046
 70
     0
 10
0.0
 20
0.0
 30
0.0
  3
AIGNBL02010046
  1

  0
LINE
  5
166
  8
_________1
 62
     7
 10
63.513500000000001
 20
186.679
 30
0.0
 11
93.345600000000005
 21
186.679
 31
0.0
  0
ENDBLK
  5
167
  8
_________1
  0
BLOCK
  8
_________1
  2
AIGNBL02010047
 70
     0
 10
0.0
 20
0.0
 30
0.0
  3
AIGNBL02010047
  1

  0
LINE
  5
16A
  8
_________1
 62
     7
 10
63.513500000000001
 20
186.012
 30
0.0
 11
93.345600000000005
 21
186.012
 31
0.0
  0
ENDBLK
  5
16B
  8
_________1
  0
BLOCK
  8
_________1
  2
AIGNBL02010048
 70
     0
 10
0.0
 20
0.0
 30
0.0
  3
AIGNBL02010048
  1

  0
ARC
  5
16E
  8
_________1
 62
     7
 10
93.320119999999974
 20
186.70400699999999
 30
0.0
 40
0.6927770000000001
 50
272.10982000000001
 51
357.89019000000002
  0
ENDBLK
  5
16F
  8
_________1
  0
BLOCK
  8
_________1
  2
AIGNBL02010049
 70
     0
 10
0.0
 20
0.0
 30
0.0
  3
AIGNBL02010049
  1

  0
LINE
  5
172
  8
_________1
 62
     7
 10
93.345600000000005
 20
186.679
 30
0.0
 11
93.345600000000005
 21
215.678
 31
0.0
  0
ENDBLK
  5
173
  8
_________1
  0
BLOCK
  8
_________1
  2
AIGNBL0201004A
 70
     0
 10
0.0
 20
0.0
 30
0.0
  3
AIGNBL0201004A
  1

  0
ARC
  5
176
  8
_________1
 62
     7
 10
92.652557999999999
 20
215.651319
 30
0.0
 40
0.6935850000000001
 50
2.2146020000000002
 51
87.829808999999997
  0
ENDBLK
  5
177
  8
_________1
  0
BLOCK
  8
_________1
  2
AIGNBL0201004B
 70
     0
 10
0.0
 20
0.0
 30
0.0
  3
AIGNBL0201004B
  1

  0
LINE
  5
17A
  8
_________1
 62
     7
 10
92.678799999999995
 20
216.34399999999999
 30
0.0
 11
63.513500000000001
 21
216.34399999999999
 31
0.0
  0
ENDBLK
  5
17B
  8
_________1
  0
BLOCK
  8
_________1
  2
AIGNBL0201004C
 70
     0
 10
0.0
 20
0.0
 30
0.0
  3
AIGNBL0201004C
  1

  0
LINE
  5
17E
  8
_________1
 62
     7
 10
94.012399999999985
 20
186.679
 30
0.0
 11
94.012399999999985
 21
216.345
 31
0.0
  0
ENDBLK
  5
17F
  8
_________1
  0
BLOCK
  8
_________1
  2
AIGNBL0201004D
 70
     0
 10
0.0
 20
0.0
 30
0.0
  3
AIGNBL0201004D
  1

  0
ARC
  5
182
  8
_________1
 62
     7
 10
93.31937099999999
 20
216.317961
 30
0.0
 40
0.693574
 50
2.2137299999999991
 51
87.830681999999996
  0
ENDBLK
  5
183
  8
_________1
  0
BLOCK
  8
_________1
  2
AIGNBL0201004E
 70
     0
 10
0.0
 20
0.0
 30
0.0
  3
AIGNBL0201004E
  1

  0
LINE
  5
186
  8
_________1
 62
     7
 10
93.345600000000005
 20
217.011
 30
0.0
 11
63.513500000000001
 21
217.011
 31
0.0
  0
ENDBLK
  5
187
  8
_________1
  0
BLOCK
  8
_________1
  2
AIGNBL0201004F
 70
     0
 10
0.0
 20
0.0
 30
0.0
  3
AIGNBL0201004F
  1

  0
LINE
  5
18A
  8
_________1
  6
AIGENLINE001
 62
     7
 10
65.647400000000005
 20
212.678
 30
0.0
 11
61.380299999999998
 21
212.678
 31
0.0
  0
ENDBLK
  5
18B
  8
_________1
  0
BLOCK
  8
_________1
  2
AIGNBL02010050
 70
     0
 10
0.0
 20
0.0
 30
0.0
  3
AIGNBL02010050
  1

  0
LINE
  5
18E
  8
_________1
  6
AIGENLINE001
 62
     7
 10
71.179900000000004
 20
219.12799999999999
 30
0.0
 11
71.179900000000004
 21
213.85300000000001
 31
0.0
  0
ENDBLK
  5
18F
  8
_________1
  0
BLOCK
  8
_________1
  2
AIGNBL02010051
 70
     0
 10
0.0
 20
0.0
 30
0.0
  3
AIGNBL02010051
  1

  0
LINE
  5
192
  8
_________1
  6
AIGENLINE001
 62
     7
 10
55.847099999999998
 20
219.12799999999999
 30
0.0
 11
55.847099999999998
 21
213.85300000000001
 31
0.0
  0
ENDBLK
  5
193
  8
_________1
  0
BLOCK
  8
_________1
  2
AIGNBL02010052
 70
     0
 10
0.0
 20
0.0
 30
0.0
  3
AIGNBL02010052
  1

  0
LINE
  5
196
  8
_________1
  6
AIGENLINE001
 62
     7
 10
63.513500000000001
 20
219.12799999999999
 30
0.0
 11
63.513500000000001
 21
183.38900000000001
 31
0.0
  0
ENDBLK
  5
197
  8
_________1
  0
BLOCK
  8
_________1
  2
AIGNBL02010053
 70
     0
 10
0.0
 20
0.0
 30
0.0
  3
AIGNBL02010053
  1

  0
LINE
  5
19A
  8
_________1
  6
AIGENLINE001
 62
     7
 10
66.513800000000003
 20
202.345
 30
0.0
 11
60.513800000000003
 21
202.345
 31
0.0
  0
ENDBLK
  5
19B
  8
_________1
  0
BLOCK
  8
_________1
  2
AIGNBL02010054
 70
     0
 10
0.0
 20
0.0
 30
0.0
  3
AIGNBL02010054
  1

  0
LINE
  5
19E
  8
_________1
 62
     7
 10
53.564999999999998
 20
194.49199999999999
 30
0.0
 11
53.564999999999998
 21
207.678
 31
0.0
  0
ENDBLK
  5
19F
  8
_________1
  0
BLOCK
  8
_________1
  2
AIGNBL02010055
 70
     0
 10
0.0
 20
0.0
 30
0.0
  3
AIGNBL02010055
  1

  0
LINE
  5
1A2
  8
_________1
 62
     7
 10
63.513500000000001
 20
194.49199999999999
 30
0.0
 11
53.564999999999998
 21
194.49199999999999
 31
0.0
  0
ENDBLK
  5
1A3
  8
_________1
  0
BLOCK
  8
_________1
  2
AIGNBL02010056
 70
     0
 10
0.0
 20
0.0
 30
0.0
  3
AIGNBL02010056
  1

  0
LINE
  5
1A6
  8
_________1
 62
     7
 10
42.680899999999987
 20
207.678
 30
0.0
 11
42.680899999999987
 21
186.679
 31
0.0
  0
ENDBLK
  5
1A7
  8
_________1
  0
BLOCK
  8
_________1
  2
AIGNBL02010057
 70
     0
 10
0.0
 20
0.0
 30
0.0
  3
AIGNBL02010057
  1

  0
LINE
  5
1AA
  8
_________1
 62
     7
 10
63.513500000000001
 20
207.678
 30
0.0
 11
42.680899999999987
 21
207.678
 31
0.0
  0
ENDBLK
  5
1AB
  8
_________1
  0
BLOCK
  8
_________1
  2
AIGNBL02010058
 70
     0
 10
0.0
 20
0.0
 30
0.0
  3
AIGNBL02010058
  1

  0
LINE
  5
1AE
  8
_________1
 62
     7
 10
63.513500000000001
 20
186.679
 30
0.0
 11
33.680799999999998
 21
186.679
 31
0.0
  0
ENDBLK
  5
1AF
  8
_________1
  0
BLOCK
  8
_________1
  2
AIGNBL02010059
 70
     0
 10
0.0
 20
0.0
 30
0.0
  3
AIGNBL02010059
  1

  0
LINE
  5
1B2
  8
_________1
 62
     7
 10
63.513500000000001
 20
186.012
 30
0.0
 11
33.680799999999998
 21
186.012
 31
0.0
  0
ENDBLK
  5
1B3
  8
_________1
  0
BLOCK
  8
_________1
  2
AIGNBL0201005A
 70
     0
 10
0.0
 20
0.0
 30
0.0
  3
AIGNBL0201005A
  1

  0
ARC
  5
1B6
  8
_________1
 62
     7
 10
33.706181999999998
 20
186.70401899999999
 30
0.0
 40
0.6927820000000001
 50
182.11080200000001
 51
267.90402699999999
  0
ENDBLK
  5
1B7
  8
_________1
  0
BLOCK
  8
_________1
  2
AIGNBL0201005B
 70
     0
 10
0.0
 20
0.0
 30
0.0
  3
AIGNBL0201005B
  1

  0
LINE
  5
1BA
  8
_________1
 62
     7
 10
33.680799999999998
 20
186.679
 30
0.0
 11
33.680799999999998
 21
215.678
 31
0.0
  0
ENDBLK
  5
1BB
  8
_________1
  0
BLOCK
  8
_________1
  2
AIGNBL0201005C
 70
     0
 10
0.0
 20
0.0
 30
0.0
  3
AIGNBL0201005C
  1

  0
ARC
  5
1BE
  8
_________1
 62
     7
 10
34.373753999999998
 20
215.65148300000001
 30
0.0
 40
0.693422
 50
92.171947000000003
 51
177.798405
  0
ENDBLK
  5
1BF
  8
_________1
  0
BLOCK
  8
_________1
  2
AIGNBL0201005D
 70
     0
 10
0.0
 20
0.0
 30
0.0
  3
AIGNBL0201005D
  1

  0
LINE
  5
1C2
  8
_________1
 62
     7
 10
34.347499999999997
 20
216.34399999999999
 30
0.0
 11
63.513500000000001
 21
216.34399999999999
 31
0.0
  0
ENDBLK
  5
1C3
  8
_________1
  0
BLOCK
  8
_________1
  2
AIGNBL0201005E
 70
     0
 10
0.0
 20
0.0
 30
0.0
  3
AIGNBL0201005E
  1

  0
LINE
  5
1C6
  8
_________1
 62
     7
 10
33.0139
 20
186.679
 30
0.0
 11
33.0139
 21
216.345
 31
0.0
  0
ENDBLK
  5
1C7
  8
_________1
  0
BLOCK
  8
_________1
  2
AIGNBL0201005F
 70
     0
 10
0.0
 20
0.0
 30
0.0
  3
AIGNBL0201005F
  1

  0
ARC
  5
1CA
  8
_________1
 62
     7
 10
33.707121000000001
 20
216.317758
 30
0.0
 40
0.6937770000000001
 50
92.170579000000018
 51
177.77017000000001
  0
ENDBLK
  5
1CB
  8
_________1
  0
BLOCK
  8
_________1
  2
AIGNBL02010060
 70
     0
 10
0.0
 20
0.0
 30
0.0
  3
AIGNBL02010060
  1

  0
LINE
  5
1CE
  8
_________1
 62
     7
 10
33.680799999999998
 20
217.011
 30
0.0
 11
63.513500000000001
 21
217.011
 31
0.0
  0
ENDBLK
  5
1CF
  8
_________1
  0
BLOCK
  8
_________2
  2
AIGNBL03010002
 70
     0
 10
0.0
 20
0.0
 30
0.0
  3
AIGNBL03010002
  1

  0
LINE
  5
1D2
  8
_________2
 62
     7
 10
81.503399999999985
 20
51.1479
 30
0.0
 11
79.317099999999996
 21
51.1479
 31
0.0
  0
LINE
  5
1D3
  8
_________2
 62
     7
 10
81.996000000000009
 20
51.1479
 30
0.0
 11
81.743799999999993
 21
51.1479
 31
0.0
  0
LINE
  5
1D4
  8
_________2
 62
     7
 10
82.488699999999994
 20
51.1479
 30
0.0
 11
85.413600000000002
 21
51.1479
 31
0.0
  0
LINE
  5
1D5
  8
_________2
 62
     7
 10
81.996000000000009
 20
51.1479
 30
0.0
 11
82.248199999999997
 21
51.1479
 31
0.0
  0
LINE
  5
1D6
  8
_________2
 62
     7
 10
75.599800000000002
 20
51.1479
 30
0.0
 11
73.412899999999993
 21
51.1479
 31
0.0
  0
LINE
  5
1D7
  8
_________2
 62
     7
 10
76.091800000000006
 20
51.1479
 30
0.0
 11
75.840299999999999
 21
51.1479
 31
0.0
  0
LINE
  5
1D8
  8
_________2
 62
     7
 10
76.091800000000006
 20
51.640599999999999
 30
0.0
 11
76.091800000000006
 21
53.827500000000001
 31
0.0
  0
LINE
  5
1D9
  8
_________2
 62
     7
 10
76.091800000000006
 20
51.1479
 30
0.0
 11
76.091800000000006
 21
51.400500000000001
 31
0.0
  0
LINE
  5
1DA
  8
_________2
 62
     7
 10
76.584400000000002
 20
51.1479
 30
0.0
 11
78.7714
 21
51.1479
 31
0.0
  0
LINE
  5
1DB
  8
_________2
 62
     7
 10
76.091800000000006
 20
51.1479
 30
0.0
 11
76.343999999999994
 21
51.1479
 31
0.0
  0
LINE
  5
1DC
  8
_________2
 62
     7
 10
76.091800000000006
 20
50.655999999999999
 30
0.0
 11
76.091800000000006
 21
48.4694
 31
0.0
  0
LINE
  5
1DD
  8
_________2
 62
     7
 10
76.091800000000006
 20
51.1479
 30
0.0
 11
76.091800000000006
 21
50.8964
 31
0.0
  0
LINE
  5
1DE
  8
_________2
 62
     7
 10
79.802899999999994
 20
49.928400000000011
 30
0.0
 11
84.980900000000005
 21
49.063600000000001
 31
0.0
  0
LINE
  5
1DF
  8
_________2
 62
     7
 10
79.802899999999994
 20
52.367800000000003
 30
0.0
 11
84.980900000000005
 21
53.2333
 31
0.0
  0
LINE
  5
1E0
  8
_________2
 62
     7
 10
84.980900000000005
 20
49.063600000000001
 30
0.0
 11
84.980900000000005
 21
53.2333
 31
0.0
  0
LINE
  5
1E1
  8
_________2
 62
     7
 10
79.802899999999994
 20
49.928400000000011
 30
0.0
 11
79.802899999999994
 21
52.367800000000003
 31
0.0
  0
ARC
  5
1E2
  8
_________2
 62
     7
 10
76.045203999999998
 20
51.100991
 30
0.0
 40
1.267714
 50
2.1220840000000001
 51
87.894083999999992
  0
ARC
  5
1E3
  8
_________2
 62
     7
 10
76.138734999999997
 20
51.101345000000002
 30
0.0
 40
1.267374999999999
 50
92.122849999999985
 51
177.893304
  0
ARC
  5
1E4
  8
_________2
 62
     7
 10
76.138711000000001
 20
51.194856000000001
 30
0.0
 40
1.267363
 50
182.121815
 51
267.87821400000001
  0
ARC
  5
1E5
  8
_________2
 62
     7
 10
76.044899000000001
 20
51.195538999999997
 30
0.0
 40
1.2680439999999991
 50
272.11916400000001
 51
357.84848499999998
  0
ARC
  5
1E6
  8
_________2
 62
     7
 10
76.011420000000001
 20
51.067923
 30
0.0
 40
2.1668310000000002
 50
2.1161439999999989
 51
87.874379000000005
  0
ARC
  5
1E7
  8
_________2
 62
     7
 10
76.171850000000006
 20
51.068944999999999
 30
0.0
 40
2.1657980000000001
 50
92.118487999999999
 51
177.909886
  0
ARC
  5
1E8
  8
_________2
 62
     7
 10
76.171792000000011
 20
51.22793699999999
 30
0.0
 40
2.1657779999999991
 50
182.11700400000001
 51
267.88302499999998
  0
ARC
  5
1E9
  8
_________2
 62
     7
 10
76.011817000000008
 20
51.228619999999999
 30
0.0
 40
2.1664590000000001
 50
272.11546800000002
 51
357.86560400000002
  0
ENDBLK
  5
1EA
  8
_________2
  0
ENDSEC
  0
SECTION
  2
ENTITIES
  0
TEXT
  5
1EB
  8
____
 62
     7
 10
155.63900000000001
 20
135.02713499999999
 30
0.0
 40
3.0923400000000001
  1
10
 50
90.0
 41
0.5
 72
     2
 11
155.63900000000001
 21
136.83099999999999
 31
0.0
  0
TEXT
  5
1EC
  8
____
 62
     7
 10
167.57599999999999
 20
192.17699999999999
 30
0.0
 40
3.0923400000000001
  1
R10
 41
0.5
  0
TEXT
  5
1ED
  8
____
 62
     7
 10
125.115965
 20
192.17699999999999
 30
0.0
 40
3.0923400000000001
  1
R10
 41
0.5
 72
     2
 11
128.46600000000001
 21
192.17699999999999
 31
0.0
  0
TEXT
  5
1EE
  8
____
 62
     7
 10
49.297400000000003
 20
220.852
 30
0.0
 40
3.0923400000000001
  1
%%c35
 41
0.5
  0
TEXT
  5
1EF
  8
____
 62
     7
 10
72.251379999999997
 20
209.66399999999999
 30
0.0
 40
3.0923400000000001
  1
%%c45
 41
0.5
 72
     2
 11
76.374499999999998
 21
209.66399999999999
 31
0.0
  0
TEXT
  5
1F0
  8
____
 62
     7
 10
142.73500000000001
 20
132.81127000000001
 30
0.0
 40
3.0923400000000001
  1
125
 50
90.0
 41
0.5
 72
     2
 11
142.73500000000001
 21
136.41900000000001
 31
0.0
  0
TEXT
  5
1F1
  8
____
 62
     7
 10
140.04476
 20
169.13800000000001
 30
0.0
 40
3.0923400000000001
  1
カウンター切込寸法
 41
0.5
 72
     1
 11
148.291
 21
169.13800000000001
 31
0.0
  0
TEXT
  5
1F2
  8
____
 62
     7
 10
162.877646
 20
221.23599999999999
 30
0.0
 40
3.0923400000000001
  1
洗面器後端
 41
0.5
 72
     1
 11
167.31
 21
221.23599999999999
 31
0.0
  0
TEXT
  5
1F3
  8
____
 62
     7
 10
153.69128749999999
 20
111.70699999999999
 30
0.0
 40
3.0923400000000001
  1
220
 41
0.5
 72
     1
 11
155.624
 21
111.70699999999999
 31
0.0
  0
TEXT
  5
1F4
  8
____
 62
     7
 10
61.582487499999999
 20
111.70699999999999
 30
0.0
 40
3.0923400000000001
  1
380
 41
0.5
 72
     1
 11
63.5152
 21
111.70699999999999
 31
0.0
  0
TEXT
  5
1F5
  8
____
 62
     7
 10
61.5807875
 20
138.20599999999999
 30
0.0
 40
3.0923400000000001
  1
230
 41
0.5
 72
     1
 11
63.513500000000001
 21
138.20599999999999
 31
0.0
  0
TEXT
  5
1F6
  8
____
 62
     7
 10
27.0276
 20
179.98099999999999
 30
0.0
 40
3.0923400000000001
  1
10
 41
0.5
  0
TEXT
  5
1F7
  8
____
 62
     7
 10
36.043134999999999
 20
175.21100000000001
 30
0.0
 40
3.0923400000000001
  1
145
 41
0.5
 72
     1
 11
37.847000000000001
 21
175.21100000000001
 31
0.0
  0
TEXT
  5
1F8
  8
____
 62
     7
 10
87.376135000000005
 20
175.21100000000001
 30
0.0
 40
3.0923400000000001
  1
145
 41
0.5
 72
     1
 11
89.180000000000007
 21
175.21100000000001
 31
0.0
  0
TEXT
  5
1F9
  8
____
 62
     7
 10
27.450700000000001
 20
207.74528749999999
 30
0.0
 40
3.0923400000000001
  1
220
 50
90.0
 41
0.5
 72
     1
 11
27.450700000000001
 21
209.678
 31
0.0
  0
TEXT
  5
1FA
  8
____
 62
     7
 10
158.965
 20
207.74528749999999
 30
0.0
 40
3.0923400000000001
  1
220
 50
90.0
 41
0.5
 72
     1
 11
158.965
 21
209.678
 31
0.0
  0
TEXT
  5
1FB
  8
____
 62
     7
 10
183.95099999999999
 20
200.41128749999999
 30
0.0
 40
3.0923400000000001
  1
440
 50
90.0
 41
0.5
 72
     1
 11
183.95099999999999
 21
202.34399999999999
 31
0.0
  0
TEXT
  5
1FC
  8
____
 62
     7
 10
146.3842875
 20
179.33699999999999
 30
0.0
 40
3.0923400000000001
  1
870
 41
0.5
 72
     1
 11
148.31700000000001
 21
179.33699999999999
 31
0.0
  0
TEXT
  5
1FD
  8
____
 62
     7
 10
61.45194
 20
175.21100000000001
 30
0.0
 40
3.0923400000000001
  1
625
 41
0.5
 72
     1
 11
63.513500000000001
 21
175.21100000000001
 31
0.0
  0
TEXT
  5
1FE
  8
____
 62
     7
 10
61.709634999999999
 20
167.19200000000001
 30
0.0
 40
3.0923400000000001
  1
915
 41
0.5
 72
     1
 11
63.513500000000001
 21
167.19200000000001
 31
0.0
  0
TEXT
  5
1FF
  8
____
 62
     7
 10
105.529
 20
124.0649825
 30
0.0
 40
3.0923400000000001
  1
160
 50
90.0
 41
0.5
 72
     1
 11
105.529
 21
125.73999999999999
 31
0.0
  0
TEXT
  5
200
  8
____
 62
     7
 10
99.043999999999997
 20
133.81604999999999
 30
0.0
 40
3.0923400000000001
  1
55
 50
90.0
 41
0.5
 72
     2
 11
99.043999999999997
 21
136.393
 31
0.0
  0
TEXT
  5
201
  8
____
 62
     7
 10
112.139
 20
123.435135
 30
0.0
 40
3.0923400000000001
  1
175
 50
90.0
 41
0.5
 72
     1
 11
112.139
 21
125.239
 31
0.0
  0
TEXT
  5
202
  8
____
 62
     7
 10
105.529
 20
180.5379999999999
 30
0.0
 40
3.0923400000000001
  1
10
 50
90.0
 41
0.5
  0
TEXT
  5
203
  8
____
 62
     7
 10
29.0716
 20
127.5803725
 30
0.0
 40
3.0923400000000001
  1
70
 50
90.0
 41
0.5
 72
     1
 11
29.0716
 21
128.74000000000001
 31
0.0
  0
TEXT
  5
204
  8
____
 62
     7
 10
105.529
 20
195.041135
 30
0.0
 40
3.0923400000000001
  1
315
 50
90.0
 41
0.5
 72
     1
 11
105.529
 21
196.845
 31
0.0
  0
TEXT
  5
205
  8
____
 62
     7
 10
105.529
 20
210.6699825
 30
0.0
 40
3.0923400000000001
  1
140
 50
90.0
 41
0.5
 72
     1
 11
105.529
 21
212.345
 31
0.0
  0
TEXT
  5
206
  8
____
 62
     7
 10
99.043800000000005
 20
213.55652499999999
 30
0.0
 40
3.0923400000000001
  1
65
 50
90.0
 41
0.5
 72
     1
 11
99.043800000000005
 21
214.845
 31
0.0
  0
TEXT
  5
207
  8
____
 62
     7
 10
99.043800000000005
 20
208.88952499999999
 30
0.0
 40
3.0923400000000001
  1
75
 50
90.0
 41
0.5
 72
     1
 11
99.043800000000005
 21
210.178
 31
0.0
  0
TEXT
  5
208
  8
____
 62
     7
 10
112.139
 20
199.45043999999999
 30
0.0
 40
3.0923400000000001
  1
465
 50
90.0
 41
0.5
 72
     1
 11
112.139
 21
201.512
 31
0.0
  0
INSERT
  5
209
  8
_________1
 62
     7
  2
AIGNBL02010002
 10
0.0
 20
0.0
 30
0.0
  0
LINE
  5
20A
  8
_________1
 62
     7
 10
175.81299999999999
 20
189.85599999999999
 30
0.0
 11
176.95699999999999
 21
187.87299999999999
 31
0.0
  0
LINE
  5
20B
  8
_________1
 62
     7
 10
176.95699999999999
 20
187.87299999999999
 30
0.0
 11
174.97399999999999
 21
189.018
 31
0.0
  0
LINE
  5
20C
  8
_________1
 62
     7
 10
174.97399999999999
 20
189.018
 30
0.0
 11
175.81299999999999
 21
189.85599999999999
 31
0.0
  0
LINE
  5
20D
  8
_________1
 62
     7
 10
176.95699999999999
 20
187.87299999999999
 30
0.0
 11
173.31800000000001
 21
191.512
 31
0.0
  0
LINE
  5
20E
  8
_________1
 62
     7
 10
173.31800000000001
 20
191.512
 30
0.0
 11
167.57599999999999
 21
191.512
 31
0.0
  0
LINE
  5
20F
  8
_________1
 62
     7
 10
120.58
 20
189.85599999999999
 30
0.0
 11
119.435
 21
187.87299999999999
 31
0.0
  0
LINE
  5
210
  8
_________1
 62
     7
 10
119.435
 20
187.87299999999999
 30
0.0
 11
121.41800000000001
 21
189.018
 31
0.0
  0
LINE
  5
211
  8
_________1
 62
     7
 10
121.41800000000001
 20
189.018
 30
0.0
 11
120.58
 21
189.85599999999999
 31
0.0
  0
LINE
  5
212
  8
_________1
 62
     7
 10
119.435
 20
187.87299999999999
 30
0.0
 11
123.074
 21
191.512
 31
0.0
  0
LINE
  5
213
  8
_________1
 62
     7
 10
123.074
 20
191.512
 30
0.0
 11
128.46600000000001
 21
191.512
 31
0.0
  0
LINE
  5
214
  8
_________1
 62
     7
 10
49.297400000000003
 20
220.15199999999999
 30
0.0
 11
56.039700000000003
 21
220.15199999999999
 31
0.0
  0
LINE
  5
215
  8
_________1
 62
     7
 10
70.132300000000001
 20
208.964
 30
0.0
 11
76.374499999999998
 21
208.964
 31
0.0
  0
INSERT
  5
216
  8
_________1
 62
     7
  2
AIGNBL02010003
 10
0.0
 20
0.0
 30
0.0
  0
LINE
  5
217
  8
_________1
 62
     7
 10
61.3078
 20
199.30099999999999
 30
0.0
 11
62.45239999999999
 21
201.28399999999999
 31
0.0
  0
LINE
  5
218
  8
_________1
 62
     7
 10
62.45239999999999
 20
201.28399999999999
 30
0.0
 11
60.4694
 21
200.13999999999999
 31
0.0
  0
LINE
  5
219
  8
_________1
 62
     7
 10
60.4694
 20
200.13999999999999
 30
0.0
 11
61.3078
 21
199.30099999999999
 31
0.0
  0
LINE
  5
21A
  8
_________1
 62
     7
 10
65.718699999999998
 20
205.38900000000001
 30
0.0
 11
64.573599999999999
 21
203.405
 31
0.0
  0
LINE
  5
21B
  8
_________1
 62
     7
 10
64.573599999999999
 20
203.405
 30
0.0
 11
66.557100000000005
 21
204.55000000000001
 31
0.0
  0
LINE
  5
21C
  8
_________1
 62
     7
 10
66.557100000000005
 20
204.55000000000001
 30
0.0
 11
65.718699999999998
 21
205.38900000000001
 31
0.0
  0
LINE
  5
21D
  8
_________1
 62
     7
 10
66.320899999999995
 20
210.708
 30
0.0
 11
64.338300000000004
 21
211.85300000000001
 31
0.0
  0
LINE
  5
21E
  8
_________1
 62
     7
 10
64.338300000000004
 20
211.85300000000001
 30
0.0
 11
65.482399999999984
 21
209.87
 31
0.0
  0
LINE
  5
21F
  8
_________1
 62
     7
 10
65.482399999999984
 20
209.87
 30
0.0
 11
66.320899999999995
 21
210.708
 31
0.0
  0
LINE
  5
220
  8
_________1
 62
     7
 10
60.7057
 20
214.64699999999999
 30
0.0
 11
62.68869999999999
 21
213.50299999999999
 31
0.0
  0
LINE
  5
221
  8
_________1
 62
     7
 10
62.68869999999999
 20
213.50299999999999
 30
0.0
 11
61.5441
 21
215.48599999999999
 31
0.0
  0
LINE
  5
222
  8
_________1
 62
     7
 10
61.5441
 20
215.48599999999999
 30
0.0
 11
60.7057
 21
214.64699999999999
 31
0.0
  0
INSERT
  5
223
  8
_________1
 62
     7
  2
AIGNBL02010004
 10
0.0
 20
0.0
 30
0.0
  0
LINE
  5
224
  8
_________1
 62
     7
 10
169.21199999999999
 20
220.30699999999999
 30
0.0
 11
167.31
 21
217.011
 31
0.0
  0
LINE
  5
225
  8
_________1
 62
     7
 10
167.31
 20
217.011
 30
0.0
 11
165.40700000000001
 21
220.30699999999999
 31
0.0
  0
LINE
  5
226
  8
_________1
 62
     7
 10
165.40700000000001
 20
220.30699999999999
 30
0.0
 11
169.21199999999999
 21
220.30699999999999
 31
0.0
  0
LINE
  5
227
  8
_________1
 62
     7
 10
156.339
 20
136.83099999999999
 30
0.0
 11
156.339
 21
127.761
 31
0.0
  0
LINE
  5
228
  8
_________1
 62
     7
 10
162.95699999999999
 20
119.754
 30
0.0
 11
162.95699999999999
 21
110.512
 31
0.0
  0
LINE
  5
229
  8
_________1
 62
     7
 10
148.291
 20
117.41500000000001
 30
0.0
 11
148.291
 21
110.512
 31
0.0
  0
INSERT
  5
22A
  8
_________1
 62
     7
  2
AIGNBL02010005
 10
0.0
 20
0.0
 30
0.0
  0
INSERT
  5
22B
  8
_________1
 62
     7
  2
AIGNBL02010006
 10
0.0
 20
0.0
 30
0.0
  0
INSERT
  5
22C
  8
_________1
 62
     7
  2
AIGNBL02010007
 10
0.0
 20
0.0
 30
0.0
  0
INSERT
  5
22D
  8
_________1
 62
     7
  2
AIGNBL02010008
 10
0.0
 20
0.0
 30
0.0
  0
INSERT
  5
22E
  8
_________1
 62
     7
  2
AIGNBL02010009
 10
0.0
 20
0.0
 30
0.0
  0
ARC
  5
22F
  8
_________1
  6
AIGENLINE002
 62
     7
 10
161.94386499999999
 20
130.75260900000001
 30
0.0
 40
0.347246
 50
272.17269299999998
 51
357.827316
  0
ARC
  5
230
  8
_________1
  6
AIGENLINE002
 62
     7
 10
162.63682600000001
 20
130.72699399999999
 30
0.0
 40
0.346188
 50
92.179563999999985
 51
177.938909
  0
ARC
  5
231
  8
_________1
 62
     7
 10
138.31852000000001
 20
122.58183200000001
 30
0.0
 40
0.3424
 50
17.373232999999999
 51
35.756863000000003
  0
ARC
  5
232
  8
_________1
 62
     7
 10
135.11817199999999
 20
127.066714
 30
0.0
 40
0.339588
 50
36.237335999999999
 51
89.590309000000005
  0
ARC
  5
233
  8
_________1
  6
AIGENLINE002
 62
     7
 10
145.27318
 20
122.055527
 30
0.0
 40
0.6855120000000001
 50
2.0577689999999991
 51
87.882413999999997
  0
LINE
  5
234
  8
_________1
  6
AIGENLINE002
 62
     7
 10
145.958
 20
122.08
 30
0.0
 11
145.958
 21
119.42700000000001
 31
0.0
  0
LINE
  5
235
  8
_________1
  6
AIGENLINE002
 62
     7
 10
151.28399999999999
 20
122.741
 30
0.0
 11
152.41200000000001
 21
122.741
 31
0.0
  0
ARC
  5
236
  8
_________1
  6
AIGENLINE002
 62
     7
 10
151.31036900000001
 20
122.054889
 30
0.0
 40
0.686173
 50
92.168894000000009
 51
177.890884
  0
LINE
  5
237
  8
_________1
  6
AIGENLINE002
 62
     7
 10
150.625
 20
119.42700000000001
 30
0.0
 11
150.625
 21
122.08
 31
0.0
  0
LINE
  5
238
  8
_________1
 62
     7
 10
150.95500000000001
 20
119.407
 30
0.0
 11
150.625
 21
119.407
 31
0.0
  0
ARC
  5
239
  8
_________1
 62
     7
 10
150.95586800000001
 20
119.735186
 30
0.0
 40
0.328112
 50
269.85676699999999
 51
344.69488999999999
  0
ARC
  5
23A
  8
_________1
 62
     7
 10
151.867288
 20
119.50016100000001
 30
0.0
 40
0.613178
 50
125.166455
 51
165.99264199999999
  0
ARC
  5
23B
  8
_________1
 62
     7
 10
151.907679
 20
119.473274
 30
0.0
 40
0.658654
 50
90.004886999999997
 51
126.69183700000001
  0
LINE
  5
23C
  8
_________1
 62
     7
 10
151.90799999999999
 20
120.13200000000001
 30
0.0
 11
152.76400000000001
 21
120.13200000000001
 31
0.0
  0
ARC
  5
23D
  8
_________1
 62
     7
 10
152.95396400000001
 20
124.934213
 30
0.0
 40
4.7943100000000003
 50
274.35755899999998
 51
289.20977499999998
  0
ARC
  5
23E
  8
_________1
 62
     7
 10
152.808807
 20
126.04088400000001
 30
0.0
 40
5.9091219999999991
 50
269.56965600000001
 51
274.94565999999998
  0
LINE
  5
23F
  8
_________1
 62
     7
 10
150.625
 20
119.407
 30
0.0
 11
145.63999999999999
 21
119.407
 31
0.0
  0
LINE
  5
240
  8
_________1
 62
     7
 10
154.53100000000001
 20
120.407
 30
0.0
 11
162.60900000000001
 21
120.407
 31
0.0
  0
LINE
  5
241
  8
_________1
  6
AIGENLINE002
 62
     7
 10
151.28399999999999
 20
122.741
 30
0.0
 11
141.59200000000001
 21
122.741
 31
0.0
  0
LINE
  5
242
  8
_________1
  6
AIGENLINE002
 62
     7
 10
145.958
 20
122.08
 30
0.0
 11
150.625
 21
122.08
 31
0.0
  0
INSERT
  5
243
  8
_________1
 62
     7
  2
AIGNBL0201000A
 10
0.0
 20
0.0
 30
0.0
  0
INSERT
  5
244
  8
_________1
 62
     7
  2
AIGNBL0201000B
 10
0.0
 20
0.0
 30
0.0
  0
ARC
  5
245
  8
_________1
 62
     7
 10
132.16756799999999
 20
127.614816
 30
0.0
 40
0.208706
 50
182.201596
 51
267.601203
  0
LINE
  5
246
  8
_________1
 62
     7
 10
131.959
 20
130.72399999999999
 30
0.0
 11
131.959
 21
127.607
 31
0.0
  0
LINE
  5
247
  8
_________1
 62
     7
 10
138.596
 20
122.782
 30
0.0
 11
135.392
 21
127.267
 31
0.0
  0
INSERT
  5
248
  8
_________1
 62
     7
  2
AIGNBL0201000C
 10
0.0
 20
0.0
 30
0.0
  0
INSERT
  5
249
  8
_________1
 62
     7
  2
AIGNBL0201000D
 10
0.0
 20
0.0
 30
0.0
  0
INSERT
  5
24A
  8
_________1
 62
     7
  2
AIGNBL0201000E
 10
0.0
 20
0.0
 30
0.0
  0
INSERT
  5
24B
  8
_________1
 62
     7
  2
AIGNBL0201000F
 10
0.0
 20
0.0
 30
0.0
  0
INSERT
  5
24C
  8
_________1
 62
     7
  2
AIGNBL02010010
 10
0.0
 20
0.0
 30
0.0
  0
INSERT
  5
24D
  8
_________1
 62
     7
  2
AIGNBL02010011
 10
0.0
 20
0.0
 30
0.0
  0
INSERT
  5
24E
  8
_________1
 62
     7
  2
AIGNBL02010012
 10
0.0
 20
0.0
 30
0.0
  0
INSERT
  5
24F
  8
_________1
 62
     7
  2
AIGNBL02010013
 10
0.0
 20
0.0
 30
0.0
  0
INSERT
  5
250
  8
_________1
 62
     7
  2
AIGNBL02010014
 10
0.0
 20
0.0
 30
0.0
  0
INSERT
  5
251
  8
_________1
 62
     7
  2
AIGNBL02010015
 10
0.0
 20
0.0
 30
0.0
  0
INSERT
  5
252
  8
_________1
 62
     7
  2
AIGNBL02010016
 10
0.0
 20
0.0
 30
0.0
  0
INSERT
  5
253
  8
_________1
 62
     7
  2
AIGNBL02010017
 10
0.0
 20
0.0
 30
0.0
  0
INSERT
  5
254
  8
_________1
 62
     7
  2
AIGNBL02010018
 10
0.0
 20
0.0
 30
0.0
  0
INSERT
  5
255
  8
_________1
 62
     7
  2
AIGNBL02010019
 10
0.0
 20
0.0
 30
0.0
  0
INSERT
  5
256
  8
_________1
 62
     7
  2
AIGNBL0201001A
 10
0.0
 20
0.0
 30
0.0
  0
INSERT
  5
257
  8
_________1
 62
     7
  2
AIGNBL0201001B
 10
0.0
 20
0.0
 30
0.0
  0
INSERT
  5
258
  8
_________1
 62
     7
  2
AIGNBL0201001C
 10
0.0
 20
0.0
 30
0.0
  0
INSERT
  5
259
  8
_________1
 62
     7
  2
AIGNBL0201001D
 10
0.0
 20
0.0
 30
0.0
  0
INSERT
  5
25A
  8
_________1
 62
     7
  2
AIGNBL0201001E
 10
0.0
 20
0.0
 30
0.0
  0
INSERT
  5
25B
  8
_________1
 62
     7
  2
AIGNBL0201001F
 10
0.0
 20
0.0
 30
0.0
  0
INSERT
  5
25C
  8
_________1
 62
     7
  2
AIGNBL02010020
 10
0.0
 20
0.0
 30
0.0
  0
INSERT
  5
25D
  8
_________1
 62
     7
  2
AIGNBL02010021
 10
0.0
 20
0.0
 30
0.0
  0
INSERT
  5
25E
  8
_________1
 62
     7
  2
AIGNBL02010022
 10
0.0
 20
0.0
 30
0.0
  0
INSERT
  5
25F
  8
_________1
 62
     7
  2
AIGNBL02010023
 10
0.0
 20
0.0
 30
0.0
  0
LINE
  5
260
  8
_________1
 62
     7
 10
28.742999999999999
 20
214.798
 30
0.0
 11
28.150700000000001
 21
217.00999999999999
 31
0.0
  0
LINE
  5
261
  8
_________1
 62
     7
 10
28.150700000000001
 20
217.00999999999999
 30
0.0
 11
27.558199999999999
 21
214.798
 31
0.0
  0
LINE
  5
262
  8
_________1
 62
     7
 10
27.558199999999999
 20
214.798
 30
0.0
 11
28.742999999999999
 21
214.798
 31
0.0
  0
LINE
  5
263
  8
_________1
 62
     7
 10
27.566099999999999
 20
204.55500000000001
 30
0.0
 11
28.1587
 21
202.34299999999999
 31
0.0
  0
LINE
  5
264
  8
_________1
 62
     7
 10
28.1587
 20
202.34299999999999
 30
0.0
 11
28.751200000000001
 21
204.55500000000001
 31
0.0
  0
LINE
  5
265
  8
_________1
 62
     7
 10
28.751200000000001
 20
204.55500000000001
 30
0.0
 11
27.566099999999999
 21
204.55500000000001
 31
0.0
  0
LINE
  5
266
  8
_________1
 62
     7
 10
28.150700000000001
 20
217.00999999999999
 30
0.0
 11
28.150700000000001
 21
202.345
 31
0.0
  0
LINE
  5
267
  8
_________1
 62
     7
 10
27.598500000000001
 20
217.011
 30
0.0
 11
32.129199999999997
 21
217.011
 31
0.0
  0
LINE
  5
268
  8
_________1
 62
     7
 10
27.598500000000001
 20
202.345
 30
0.0
 11
59.643900000000002
 21
202.345
 31
0.0
  0
LINE
  5
269
  8
_________1
 62
     7
 10
160.25700000000001
 20
214.798
 30
0.0
 11
159.66499999999999
 21
217.00999999999999
 31
0.0
  0
LINE
  5
26A
  8
_________1
 62
     7
 10
159.66499999999999
 20
217.00999999999999
 30
0.0
 11
159.072
 21
214.798
 31
0.0
  0
LINE
  5
26B
  8
_________1
 62
     7
 10
159.072
 20
214.798
 30
0.0
 11
160.25700000000001
 21
214.798
 31
0.0
  0
LINE
  5
26C
  8
_________1
 62
     7
 10
159.08000000000001
 20
204.55500000000001
 30
0.0
 11
159.673
 21
202.34299999999999
 31
0.0
  0
LINE
  5
26D
  8
_________1
 62
     7
 10
159.673
 20
202.34299999999999
 30
0.0
 11
160.26499999999999
 21
204.55500000000001
 31
0.0
  0
LINE
  5
26E
  8
_________1
 62
     7
 10
160.26499999999999
 20
204.55500000000001
 30
0.0
 11
159.08000000000001
 21
204.55500000000001
 31
0.0
  0
LINE
  5
26F
  8
_________1
 62
     7
 10
159.66499999999999
 20
217.00999999999999
 30
0.0
 11
159.66499999999999
 21
202.345
 31
0.0
  0
LINE
  5
270
  8
_________1
 62
     7
 10
152.44399999999999
 20
202.345
 30
0.0
 11
160.32599999999999
 21
202.345
 31
0.0
  0
LINE
  5
271
  8
_________1
 62
     7
 10
185.23500000000001
 20
214.80000000000001
 30
0.0
 11
184.642
 21
217.012
 31
0.0
  0
LINE
  5
272
  8
_________1
 62
     7
 10
184.642
 20
217.012
 30
0.0
 11
184.05000000000001
 21
214.80000000000001
 31
0.0
  0
LINE
  5
273
  8
_________1
 62
     7
 10
184.05000000000001
 20
214.80000000000001
 30
0.0
 11
185.23500000000001
 21
214.80000000000001
 31
0.0
  0
LINE
  5
274
  8
_________1
 62
     7
 10
184.06599999999989
 20
189.88800000000001
 30
0.0
 11
184.65799999999999
 21
187.67599999999999
 31
0.0
  0
LINE
  5
275
  8
_________1
 62
     7
 10
184.65799999999999
 20
187.67599999999999
 30
0.0
 11
185.251
 21
189.88800000000001
 31
0.0
  0
LINE
  5
276
  8
_________1
 62
     7
 10
185.251
 20
189.88800000000001
 30
0.0
 11
184.06599999999989
 21
189.88800000000001
 31
0.0
  0
LINE
  5
277
  8
_________1
 62
     7
 10
184.65000000000001
 20
217.011
 30
0.0
 11
184.65000000000001
 21
187.678
 31
0.0
  0
LINE
  5
278
  8
_________1
 62
     7
 10
180.86199999999999
 20
217.011
 30
0.0
 11
185.4429999999999
 21
217.011
 31
0.0
  0
LINE
  5
279
  8
_________1
 62
     7
 10
177.94399999999999
 20
187.678
 30
0.0
 11
185.4429999999999
 21
187.678
 31
0.0
  0
LINE
  5
27A
  8
_________1
 62
     7
 10
121.501
 20
179.36099999999999
 30
0.0
 11
119.29000000000001
 21
178.76900000000001
 31
0.0
  0
LINE
  5
27B
  8
_________1
 62
     7
 10
119.29000000000001
 20
178.76900000000001
 30
0.0
 11
121.501
 21
178.17599999999999
 31
0.0
  0
LINE
  5
27C
  8
_________1
 62
     7
 10
121.501
 20
178.17599999999999
 30
0.0
 11
121.501
 21
179.36099999999999
 31
0.0
  0
LINE
  5
27D
  8
_________1
 62
     7
 10
175.07900000000001
 20
178.19200000000001
 30
0.0
 11
177.291
 21
178.78399999999999
 31
0.0
  0
LINE
  5
27E
  8
_________1
 62
     7
 10
177.291
 20
178.78399999999999
 30
0.0
 11
175.07900000000001
 21
179.37700000000001
 31
0.0
  0
LINE
  5
27F
  8
_________1
 62
     7
 10
175.07900000000001
 20
179.37700000000001
 30
0.0
 11
175.07900000000001
 21
178.19200000000001
 31
0.0
  0
LINE
  5
280
  8
_________1
 62
     7
 10
119.291
 20
178.77699999999999
 30
0.0
 11
177.28999999999999
 21
178.77699999999999
 31
0.0
  0
LINE
  5
281
  8
_________1
 62
     7
 10
177.291
 20
187.02500000000001
 30
0.0
 11
177.291
 21
178.11500000000001
 31
0.0
  0
LINE
  5
282
  8
_________1
 62
     7
 10
119.292
 20
187.02500000000001
 30
0.0
 11
119.292
 21
178.11500000000001
 31
0.0
  0
ARC
  5
283
  8
_________1
 62
     7
 10
176.59768099999999
 20
188.370994
 30
0.0
 40
0.6933880000000001
 50
272.16935000000001
 51
357.801042
  0
LINE
  5
284
  8
_________1
 62
     7
 10
180.209
 20
217.011
 30
0.0
 11
177.291
 21
217.011
 31
0.0
  0
LINE
  5
285
  8
_________1
 62
     7
 10
176.624
 20
187.678
 30
0.0
 11
148.291
 21
187.678
 31
0.0
  0
LINE
  5
286
  8
_________1
 62
     7
 10
177.291
 20
217.011
 30
0.0
 11
177.291
 21
188.34399999999999
 31
0.0
  0
ARC
  5
287
  8
_________1
 62
     7
 10
119.93220599999999
 20
188.370666
 30
0.0
 40
0.693061
 50
182.17291
 51
267.82712000000009
  0
LINE
  5
288
  8
_________1
  6
AIGENLINE003
 62
     7
 10
119.23999999999999
 20
217.011
 30
0.0
 11
177.291
 21
217.011
 31
0.0
  0
LINE
  5
289
  8
_________1
 62
     7
 10
116.321
 20
217.011
 30
0.0
 11
119.23999999999999
 21
217.011
 31
0.0
  0
INSERT
  5
28A
  8
_________1
 62
     7
  2
AIGNBL02010024
 10
0.0
 20
0.0
 30
0.0
  0
INSERT
  5
28B
  8
_________1
 62
     7
  2
AIGNBL02010025
 10
0.0
 20
0.0
 30
0.0
  0
INSERT
  5
28C
  8
_________1
 62
     7
  2
AIGNBL02010026
 10
0.0
 20
0.0
 30
0.0
  0
LINE
  5
28D
  8
_________1
 62
     7
 10
119.90600000000001
 20
187.678
 30
0.0
 11
148.291
 21
187.678
 31
0.0
  0
LINE
  5
28E
  8
_________1
 62
     7
 10
119.23999999999999
 20
217.011
 30
0.0
 11
119.23999999999999
 21
188.34399999999999
 31
0.0
  0
INSERT
  5
28F
  8
_________1
 62
     7
  2
AIGNBL02010027
 10
0.0
 20
0.0
 30
0.0
  0
LINE
  5
290
  8
_________1
 62
     7
 10
53.059600000000003
 20
111.73099999999999
 30
0.0
 11
50.848199999999999
 21
111.13800000000001
 31
0.0
  0
LINE
  5
291
  8
_________1
 62
     7
 10
50.848199999999999
 20
111.13800000000001
 30
0.0
 11
53.059600000000003
 21
110.54600000000001
 31
0.0
  0
LINE
  5
292
  8
_________1
 62
     7
 10
53.059600000000003
 20
110.54600000000001
 30
0.0
 11
53.059600000000003
 21
111.73099999999999
 31
0.0
  0
LINE
  5
293
  8
_________1
 62
     7
 10
73.971100000000007
 20
110.56100000000001
 30
0.0
 11
76.182599999999994
 21
111.154
 31
0.0
  0
LINE
  5
294
  8
_________1
 62
     7
 10
76.182599999999994
 20
111.154
 30
0.0
 11
73.971100000000007
 21
111.747
 31
0.0
  0
LINE
  5
295
  8
_________1
 62
     7
 10
73.971100000000007
 20
111.747
 30
0.0
 11
73.971100000000007
 21
110.56100000000001
 31
0.0
  0
LINE
  5
296
  8
_________1
 62
     7
 10
50.849200000000003
 20
111.146
 30
0.0
 11
76.181499999999986
 21
111.146
 31
0.0
  0
LINE
  5
297
  8
_________1
 62
     7
 10
58.057600000000001
 20
138.23099999999999
 30
0.0
 11
55.846699999999998
 21
137.63800000000001
 31
0.0
  0
LINE
  5
298
  8
_________1
 62
     7
 10
55.846699999999998
 20
137.63800000000001
 30
0.0
 11
58.057600000000001
 21
137.04499999999999
 31
0.0
  0
LINE
  5
299
  8
_________1
 62
     7
 10
58.057600000000001
 20
137.04499999999999
 30
0.0
 11
58.057600000000001
 21
138.23099999999999
 31
0.0
  0
LINE
  5
29A
  8
_________1
 62
     7
 10
68.970600000000005
 20
137.06100000000001
 30
0.0
 11
71.180899999999994
 21
137.654
 31
0.0
  0
LINE
  5
29B
  8
_________1
 62
     7
 10
71.180899999999994
 20
137.654
 30
0.0
 11
68.970600000000005
 21
138.24600000000001
 31
0.0
  0
LINE
  5
29C
  8
_________1
 62
     7
 10
68.970600000000005
 20
138.24600000000001
 30
0.0
 11
68.970600000000005
 21
137.06100000000001
 31
0.0
  0
LINE
  5
29D
  8
_________1
 62
     7
 10
55.847799999999999
 20
137.64599999999999
 30
0.0
 11
71.179900000000004
 21
137.64599999999999
 31
0.0
  0
ARC
  5
29E
  8
_________1
 62
     7
 10
77.005421999999996
 20
121.893722
 30
0.0
 40
0.8244520000000001
 50
103.790943
 51
178.68031199999999
  0
INSERT
  5
29F
  8
_________1
 62
     7
  2
AIGNBL02010028
 10
0.0
 20
0.0
 30
0.0
  0
INSERT
  5
2A0
  8
_________1
 62
     7
  2
AIGNBL02010029
 10
0.0
 20
0.0
 30
0.0
  0
INSERT
  5
2A1
  8
_________1
 62
     7
  2
AIGNBL0201002A
 10
0.0
 20
0.0
 30
0.0
  0
INSERT
  5
2A2
  8
_________1
 62
     7
  2
AIGNBL0201002B
 10
0.0
 20
0.0
 30
0.0
  0
INSERT
  5
2A3
  8
_________1
 62
     7
  2
AIGNBL0201002C
 10
0.0
 20
0.0
 30
0.0
  0
INSERT
  5
2A4
  8
_________1
 62
     7
  2
AIGNBL0201002D
 10
0.0
 20
0.0
 30
0.0
  0
INSERT
  5
2A5
  8
_________1
 62
     7
  2
AIGNBL0201002E
 10
0.0
 20
0.0
 30
0.0
  0
INSERT
  5
2A6
  8
_________1
 62
     7
  2
AIGNBL0201002F
 10
0.0
 20
0.0
 30
0.0
  0
INSERT
  5
2A7
  8
_________1
 62
     7
  2
AIGNBL02010030
 10
0.0
 20
0.0
 30
0.0
  0
INSERT
  5
2A8
  8
_________1
 62
     7
  2
AIGNBL02010031
 10
0.0
 20
0.0
 30
0.0
  0
INSERT
  5
2A9
  8
_________1
 62
     7
  2
AIGNBL02010032
 10
0.0
 20
0.0
 30
0.0
  0
INSERT
  5
2AA
  8
_________1
 62
     7
  2
AIGNBL02010033
 10
0.0
 20
0.0
 30
0.0
  0
ARC
  5
2AB
  8
_________1
 62
     7
 10
72.725927999999996
 20
89.229219000000001
 30
0.0
 40
33.924917999999998
 50
86.054027000000005
 51
87.230658999999989
  0
ARC
  5
2AC
  8
_________1
 62
     7
 10
63.663604999999997
 20
-72.800807999999989
 30
0.0
 40
196.20737700000001
 50
86.873452000000015
 51
90.043524000000005
  0
ARC
  5
2AD
  8
_________1
  6
AIGENLINE002
 62
     7
 10
71.477668000000008
 20
126.369939
 30
0.0
 40
0.703658
 50
2.9800219999999991
 51
87.959703999999988
  0
ARC
  5
2AE
  8
_________1
  6
AIGENLINE002
 62
     7
 10
71.487468000000007
 20
126.432782
 30
0.0
 40
0.6934040000000001
 50
271.26038
 51
357.82949300000001
  0
LINE
  5
2AF
  8
_________1
  6
AIGENLINE002
 62
     7
 10
71.502700000000004
 20
125.73999999999999
 30
0.0
 11
70.857799999999983
 21
125.73999999999999
 31
0.0
  0
ARC
  5
2B0
  8
_________1
  6
AIGENLINE002
 62
     7
 10
70.882902999999999
 20
126.44243400000001
 30
0.0
 40
0.703337
 50
182.92693700000001
 51
267.9540970000001
  0
ARC
  5
2B1
  8
_________1
  6
AIGENLINE002
 62
     7
 10
70.873040000000003
 20
126.380264
 30
0.0
 40
0.693054
 50
91.260532999999995
 51
177.828834
  0
LINE
  5
2B2
  8
_________1
  6
AIGENLINE002
 62
     7
 10
70.857799999999983
 20
127.07299999999999
 30
0.0
 11
71.502700000000004
 21
127.07299999999999
 31
0.0
  0
LINE
  5
2B3
  8
_________1
  6
AIGENLINE001
 62
     7
 10
71.180300000000003
 20
125.02800000000001
 30
0.0
 11
71.180300000000003
 21
127.78400000000001
 31
0.0
  0
LINE
  5
2B4
  8
_________1
  6
AIGENLINE001
 62
     7
 10
73.224900000000005
 20
126.407
 30
0.0
 11
69.136600000000001
 21
126.407
 31
0.0
  0
ARC
  5
2B5
  8
_________1
 62
     7
 10
50.023115999999987
 20
121.892858
 30
0.0
 40
0.8253309999999999
 50
1.3782149999999991
 51
76.211872999999997
  0
INSERT
  5
2B6
  8
_________1
 62
     7
  2
AIGNBL02010034
 10
0.0
 20
0.0
 30
0.0
  0
INSERT
  5
2B7
  8
_________1
 62
     7
  2
AIGNBL02010035
 10
0.0
 20
0.0
 30
0.0
  0
INSERT
  5
2B8
  8
_________1
 62
     7
  2
AIGNBL02010036
 10
0.0
 20
0.0
 30
0.0
  0
INSERT
  5
2B9
  8
_________1
 62
     7
  2
AIGNBL02010037
 10
0.0
 20
0.0
 30
0.0
  0
INSERT
  5
2BA
  8
_________1
 62
     7
  2
AIGNBL02010038
 10
0.0
 20
0.0
 30
0.0
  0
INSERT
  5
2BB
  8
_________1
 62
     7
  2
AIGNBL02010039
 10
0.0
 20
0.0
 30
0.0
  0
INSERT
  5
2BC
  8
_________1
 62
     7
  2
AIGNBL0201003A
 10
0.0
 20
0.0
 30
0.0
  0
INSERT
  5
2BD
  8
_________1
 62
     7
  2
AIGNBL0201003B
 10
0.0
 20
0.0
 30
0.0
  0
INSERT
  5
2BE
  8
_________1
 62
     7
  2
AIGNBL0201003C
 10
0.0
 20
0.0
 30
0.0
  0
INSERT
  5
2BF
  8
_________1
 62
     7
  2
AIGNBL0201003D
 10
0.0
 20
0.0
 30
0.0
  0
INSERT
  5
2C0
  8
_________1
 62
     7
  2
AIGNBL0201003E
 10
0.0
 20
0.0
 30
0.0
  0
INSERT
  5
2C1
  8
_________1
 62
     7
  2
AIGNBL0201003F
 10
0.0
 20
0.0
 30
0.0
  0
ARC
  5
2C2
  8
_________1
 62
     7
 10
54.30474499999999
 20
89.210722000000004
 30
0.0
 40
33.943458
 50
92.770099999999999
 51
93.945953000000003
  0
ARC
  5
2C3
  8
_________1
 62
     7
 10
63.364716999999999
 20
-72.764015999999984
 30
0.0
 40
196.17058599999999
 50
89.956235000000007
 51
93.126824999999997
  0
ARC
  5
2C4
  8
_________1
  6
AIGENLINE002
 62
     7
 10
55.550713999999999
 20
126.370283
 30
0.0
 40
0.703315
 50
92.042796999999979
 51
177.04657
  0
ARC
  5
2C5
  8
_________1
  6
AIGENLINE002
 62
     7
 10
55.541224
 20
126.432757
 30
0.0
 40
0.693386
 50
182.16852600000001
 51
268.71250800000001
  0
LINE
  5
2C6
  8
_________1
  6
AIGENLINE002
 62
     7
 10
55.52559999999999
 20
125.73999999999999
 30
0.0
 11
56.1706
 21
125.73999999999999
 31
0.0
  0
ARC
  5
2C7
  8
_________1
  6
AIGENLINE002
 62
     7
 10
56.145474
 20
126.44278300000001
 30
0.0
 40
0.7036850000000001
 50
272.04378800000001
 51
357.046086
  0
ARC
  5
2C8
  8
_________1
  6
AIGENLINE002
 62
     7
 10
56.155650999999999
 20
126.380239
 30
0.0
 40
0.693072
 50
2.173147999999999
 51
88.766578000000024
  0
LINE
  5
2C9
  8
_________1
  6
AIGENLINE002
 62
     7
 10
56.1706
 20
127.07299999999999
 30
0.0
 11
55.52559999999999
 21
127.07299999999999
 31
0.0
  0
LINE
  5
2CA
  8
_________1
  6
AIGENLINE001
 62
     7
 10
55.848100000000002
 20
125.02800000000001
 30
0.0
 11
55.848100000000002
 21
127.78400000000001
 31
0.0
  0
LINE
  5
2CB
  8
_________1
  6
AIGENLINE001
 62
     7
 10
53.80449999999999
 20
126.407
 30
0.0
 11
57.892800000000001
 21
126.407
 31
0.0
  0
INSERT
  5
2CC
  8
_________1
 62
     7
  2
AIGNBL02010040
 10
0.0
 20
0.0
 30
0.0
  0
LINE
  5
2CD
  8
_________1
 62
     7
 10
76.181499999999986
 20
119.754
 30
0.0
 11
76.181499999999986
 21
110.578
 31
0.0
  0
LINE
  5
2CE
  8
_________1
 62
     7
 10
50.84859999999999
 20
119.754
 30
0.0
 11
50.84859999999999
 21
110.578
 31
0.0
  0
LINE
  5
2CF
  8
_________1
 62
     7
 10
71.179900000000004
 20
138.214
 30
0.0
 11
71.179900000000004
 21
128.54599999999999
 31
0.0
  0
LINE
  5
2D0
  8
_________1
 62
     7
 10
55.846699999999998
 20
138.214
 30
0.0
 11
55.846699999999998
 21
128.54599999999999
 31
0.0
  0
LINE
  5
2D1
  8
_________1
 62
     7
 10
56.039700000000003
 20
220.15199999999999
 30
0.0
 11
66.637200000000007
 21
209.554
 31
0.0
  0
LINE
  5
2D2
  8
_________1
 62
     7
 10
70.132300000000001
 20
208.964
 30
0.0
 11
60.130000000000003
 21
198.96199999999999
 31
0.0
  0
ARC
  5
2D3
  8
_________1
 62
     7
 10
63.417665
 20
202.44068200000001
 30
0.0
 40
2.5973739999999998
 50
272.099153
 51
357.88506599999999
  0
ARC
  5
2D4
  8
_________1
 62
     7
 10
63.609408999999999
 20
202.44143399999999
 30
0.0
 40
2.598179
 50
182.13087999999999
 51
267.86914999999999
  0
ARC
  5
2D5
  8
_________1
 62
     7
 10
63.608936999999997
 20
202.249053
 30
0.0
 40
2.597675999999999
 50
92.12083800000002
 51
177.88702799999999
  0
ARC
  5
2D6
  8
_________1
 62
     7
 10
63.417805999999999
 20
202.24947299999999
 30
0.0
 40
2.5972149999999998
 50
2.1040610000000002
 51
87.903824
  0
ARC
  5
2D7
  8
_________1
 62
     7
 10
63.455902999999999
 20
202.402445
 30
0.0
 40
1.558659
 50
272.09213999999997
 51
357.88155799999998
  0
ARC
  5
2D8
  8
_________1
 62
     7
 10
63.570793000000002
 20
202.40245999999999
 30
0.0
 40
1.5587150000000001
 50
182.11893699999999
 51
267.867932
  0
ARC
  5
2D9
  8
_________1
 62
     7
 10
63.570878999999998
 20
202.28729000000001
 30
0.0
 40
1.558797
 50
92.135114999999999
 51
177.88459499999999
  0
ARC
  5
2DA
  8
_________1
 62
     7
 10
63.454875000000001
 20
202.28636299999999
 30
0.0
 40
1.559717999999999
 50
2.1482160000000001
 51
87.871507999999992
  0
ARC
  5
2DB
  8
_________1
 62
     7
 10
63.513061999999991
 20
212.67819900000001
 30
0.0
 40
1.166947999999999
 50
269.98733399999998
 51
359.98730400000011
  0
ARC
  5
2DC
  8
_________1
 62
     7
 10
63.556871999999998
 20
212.721473
 30
0.0
 40
1.2110229999999991
 50
182.060035
 51
267.91460999999998
  0
ARC
  5
2DD
  8
_________1
 62
     7
 10
63.557774000000002
 20
212.633149
 30
0.0
 40
1.211970999999999
 50
92.126445999999987
 51
177.88198700000001
  0
ARC
  5
2DE
  8
_________1
 62
     7
 10
63.468815999999997
 20
212.633059
 30
0.0
 40
1.212024999999999
 50
2.1221649999999999
 51
87.920119
  0
LINE
  5
2DF
  8
_________1
 62
     7
 10
30.356000000000002
 20
128.86199999999999
 30
0.0
 11
29.764299999999999
 21
131.07299999999989
 31
0.0
  0
LINE
  5
2E0
  8
_________1
 62
     7
 10
29.764299999999999
 20
131.07299999999989
 30
0.0
 11
29.1708
 21
128.86199999999999
 31
0.0
  0
LINE
  5
2E1
  8
_________1
 62
     7
 10
29.1708
 20
128.86199999999999
 30
0.0
 11
30.356000000000002
 21
128.86199999999999
 31
0.0
  0
LINE
  5
2E2
  8
_________1
 62
     7
 10
29.187000000000001
 20
128.61799999999999
 30
0.0
 11
29.779599999999999
 21
126.407
 31
0.0
  0
LINE
  5
2E3
  8
_________1
 62
     7
 10
29.779599999999999
 20
126.407
 30
0.0
 11
30.372199999999999
 21
128.61799999999999
 31
0.0
  0
LINE
  5
2E4
  8
_________1
 62
     7
 10
30.372199999999999
 20
128.61799999999999
 30
0.0
 11
29.187000000000001
 21
128.61799999999999
 31
0.0
  0
LINE
  5
2E5
  8
_________1
 62
     7
 10
29.7713
 20
131.07299999999989
 30
0.0
 11
29.7713
 21
126.407
 31
0.0
  0
LINE
  5
2E6
  8
_________1
 62
     7
 10
29.2194
 20
126.407
 30
0.0
 11
53.15059999999999
 21
126.407
 31
0.0
  0
LINE
  5
2E7
  8
_________1
 62
     7
 10
29.133299999999998
 20
131.07299999999989
 30
0.0
 11
32.363100000000003
 21
131.07299999999989
 31
0.0
  0
LINE
  5
2E8
  8
_________1
 62
     7
 10
100.328
 20
125.19499999999999
 30
0.0
 11
99.735600000000005
 21
127.407
 31
0.0
  0
LINE
  5
2E9
  8
_________1
 62
     7
 10
99.735600000000005
 20
127.407
 30
0.0
 11
99.143100000000004
 21
125.19499999999999
 31
0.0
  0
LINE
  5
2EA
  8
_________1
 62
     7
 10
99.143100000000004
 20
125.19499999999999
 30
0.0
 11
100.328
 21
125.19499999999999
 31
0.0
  0
LINE
  5
2EB
  8
_________1
 62
     7
 10
99.159099999999995
 20
133.285
 30
0.0
 11
99.751599999999996
 21
131.07299999999989
 31
0.0
  0
LINE
  5
2EC
  8
_________1
 62
     7
 10
99.751599999999996
 20
131.07299999999989
 30
0.0
 11
100.34399999999999
 21
133.285
 31
0.0
  0
LINE
  5
2ED
  8
_________1
 62
     7
 10
100.34399999999999
 20
133.285
 30
0.0
 11
99.159099999999995
 21
133.285
 31
0.0
  0
LINE
  5
2EE
  8
_________1
 62
     7
 10
99.743899999999996
 20
136.393
 30
0.0
 11
99.743899999999996
 21
124.066
 31
0.0
  0
LINE
  5
2EF
  8
_________1
 62
     7
 10
106.81399999999999
 20
128.86199999999999
 30
0.0
 11
106.221
 21
131.07299999999989
 31
0.0
  0
LINE
  5
2F0
  8
_________1
 62
     7
 10
106.221
 20
131.07299999999989
 30
0.0
 11
105.629
 21
128.86199999999999
 31
0.0
  0
LINE
  5
2F1
  8
_________1
 62
     7
 10
105.629
 20
128.86199999999999
 30
0.0
 11
106.81399999999999
 21
128.86199999999999
 31
0.0
  0
LINE
  5
2F2
  8
_________1
 62
     7
 10
105.645
 20
122.621
 30
0.0
 11
106.23699999999999
 21
120.40900000000001
 31
0.0
  0
LINE
  5
2F3
  8
_________1
 62
     7
 10
106.23699999999999
 20
120.40900000000001
 30
0.0
 11
106.83
 21
122.621
 31
0.0
  0
LINE
  5
2F4
  8
_________1
 62
     7
 10
106.83
 20
122.621
 30
0.0
 11
105.645
 21
122.621
 31
0.0
  0
LINE
  5
2F5
  8
_________1
 62
     7
 10
106.229
 20
131.072
 30
0.0
 11
106.229
 21
120.411
 31
0.0
  0
LINE
  5
2F6
  8
_________1
 62
     7
 10
113.423
 20
128.863
 30
0.0
 11
112.831
 21
131.07499999999999
 31
0.0
  0
LINE
  5
2F7
  8
_________1
 62
     7
 10
112.831
 20
131.07499999999999
 30
0.0
 11
112.238
 21
128.863
 31
0.0
  0
LINE
  5
2F8
  8
_________1
 62
     7
 10
112.238
 20
128.863
 30
0.0
 11
113.423
 21
128.863
 31
0.0
  0
LINE
  5
2F9
  8
_________1
 62
     7
 10
112.254
 20
121.619
 30
0.0
 11
112.84699999999999
 21
119.408
 31
0.0
  0
LINE
  5
2FA
  8
_________1
 62
     7
 10
112.84699999999999
 20
119.408
 30
0.0
 11
113.43899999999999
 21
121.619
 31
0.0
  0
LINE
  5
2FB
  8
_________1
 62
     7
 10
113.43899999999999
 20
121.619
 30
0.0
 11
112.254
 21
121.619
 31
0.0
  0
LINE
  5
2FC
  8
_________1
 62
     7
 10
112.839
 20
131.07299999999989
 30
0.0
 11
112.839
 21
119.40900000000001
 31
0.0
  0
LINE
  5
2FD
  8
_________1
 62
     7
 10
76.833699999999993
 20
120.407
 30
0.0
 11
106.798
 21
120.407
 31
0.0
  0
LINE
  5
2FE
  8
_________1
 62
     7
 10
67.6845
 20
119.407
 30
0.0
 11
113.407
 21
119.407
 31
0.0
  0
LINE
  5
2FF
  8
_________1
 62
     7
 10
94.665599999999984
 20
127.40600000000001
 30
0.0
 11
100.29600000000001
 21
127.40600000000001
 31
0.0
  0
LINE
  5
300
  8
_________1
 62
     7
 10
94.665599999999984
 20
131.07299999999989
 30
0.0
 11
113.39100000000001
 21
131.07299999999989
 31
0.0
  0
INSERT
  5
301
  8
_________1
 62
     7
  2
AIGNBL02010041
 10
0.0
 20
0.0
 30
0.0
  0
LINE
  5
302
  8
_________1
 62
     7
 10
100.328
 20
210.46700000000001
 30
0.0
 11
99.736299999999986
 21
212.678
 31
0.0
  0
LINE
  5
303
  8
_________1
 62
     7
 10
99.736299999999986
 20
212.678
 30
0.0
 11
99.143100000000004
 21
210.46700000000001
 31
0.0
  0
LINE
  5
304
  8
_________1
 62
     7
 10
99.143100000000004
 20
210.46700000000001
 30
0.0
 11
100.328
 21
210.46700000000001
 31
0.0
  0
LINE
  5
305
  8
_________1
 62
     7
 10
99.159099999999995
 20
209.88900000000001
 30
0.0
 11
99.751099999999994
 21
207.678
 31
0.0
  0
LINE
  5
306
  8
_________1
 62
     7
 10
99.751099999999994
 20
207.678
 30
0.0
 11
100.345
 21
209.88900000000001
 31
0.0
  0
LINE
  5
307
  8
_________1
 62
     7
 10
100.345
 20
209.88900000000001
 30
0.0
 11
99.159099999999995
 21
209.88900000000001
 31
0.0
  0
LINE
  5
308
  8
_________1
 62
     7
 10
99.743899999999996
 20
212.67699999999999
 30
0.0
 11
99.743899999999996
 21
207.679
 31
0.0
  0
LINE
  5
309
  8
_________1
 62
     7
 10
99.151899999999998
 20
219.22300000000001
 30
0.0
 11
99.743899999999996
 21
217.011
 31
0.0
  0
LINE
  5
30A
  8
_________1
 62
     7
 10
99.743899999999996
 20
217.011
 30
0.0
 11
100.337
 21
219.22300000000001
 31
0.0
  0
LINE
  5
30B
  8
_________1
 62
     7
 10
100.337
 20
219.22300000000001
 30
0.0
 11
99.151899999999998
 21
219.22300000000001
 31
0.0
  0
LINE
  5
30C
  8
_________1
 62
     7
 10
99.743899999999996
 20
220.44399999999999
 30
0.0
 11
99.743899999999996
 21
212.678
 31
0.0
  0
LINE
  5
30D
  8
_________1
 62
     7
 10
106.81399999999999
 20
205.46600000000001
 30
0.0
 11
106.221
 21
207.678
 31
0.0
  0
LINE
  5
30E
  8
_________1
 62
     7
 10
106.221
 20
207.678
 30
0.0
 11
105.628
 21
205.46600000000001
 31
0.0
  0
LINE
  5
30F
  8
_________1
 62
     7
 10
105.628
 20
205.46600000000001
 30
0.0
 11
106.81399999999999
 21
205.46600000000001
 31
0.0
  0
LINE
  5
310
  8
_________1
 62
     7
 10
105.645
 20
188.8899999999999
 30
0.0
 11
106.23699999999999
 21
186.679
 31
0.0
  0
LINE
  5
311
  8
_________1
 62
     7
 10
106.23699999999999
 20
186.679
 30
0.0
 11
106.83
 21
188.8899999999999
 31
0.0
  0
LINE
  5
312
  8
_________1
 62
     7
 10
106.83
 20
188.8899999999999
 30
0.0
 11
105.645
 21
188.8899999999999
 31
0.0
  0
LINE
  5
313
  8
_________1
 62
     7
 10
106.229
 20
207.67599999999999
 30
0.0
 11
106.229
 21
180.5379999999999
 31
0.0
  0
LINE
  5
314
  8
_________1
 62
     7
 10
106.81399999999999
 20
214.80000000000001
 30
0.0
 11
106.221
 21
217.012
 31
0.0
  0
LINE
  5
315
  8
_________1
 62
     7
 10
106.221
 20
217.012
 30
0.0
 11
105.628
 21
214.80000000000001
 31
0.0
  0
LINE
  5
316
  8
_________1
 62
     7
 10
105.628
 20
214.80000000000001
 30
0.0
 11
106.81399999999999
 21
214.80000000000001
 31
0.0
  0
LINE
  5
317
  8
_________1
 62
     7
 10
105.645
 20
209.88900000000001
 30
0.0
 11
106.23699999999999
 21
207.678
 31
0.0
  0
LINE
  5
318
  8
_________1
 62
     7
 10
106.23699999999999
 20
207.678
 30
0.0
 11
106.83
 21
209.88900000000001
 31
0.0
  0
LINE
  5
319
  8
_________1
 62
     7
 10
106.83
 20
209.88900000000001
 30
0.0
 11
105.645
 21
209.88900000000001
 31
0.0
  0
LINE
  5
31A
  8
_________1
 62
     7
 10
106.229
 20
217.011
 30
0.0
 11
106.229
 21
207.679
 31
0.0
  0
LINE
  5
31B
  8
_________1
 62
     7
 10
113.42400000000001
 20
214.80099999999999
 30
0.0
 11
112.831
 21
217.012
 31
0.0
  0
LINE
  5
31C
  8
_________1
 62
     7
 10
112.831
 20
217.012
 30
0.0
 11
112.238
 21
214.80099999999999
 31
0.0
  0
LINE
  5
31D
  8
_________1
 62
     7
 10
112.238
 20
214.80099999999999
 30
0.0
 11
113.42400000000001
 21
214.80099999999999
 31
0.0
  0
LINE
  5
31E
  8
_________1
 62
     7
 10
112.254
 20
188.22200000000001
 30
0.0
 11
112.84699999999999
 21
186.00999999999999
 31
0.0
  0
LINE
  5
31F
  8
_________1
 62
     7
 10
112.84699999999999
 20
186.00999999999999
 30
0.0
 11
113.43899999999999
 21
188.22200000000001
 31
0.0
  0
LINE
  5
320
  8
_________1
 62
     7
 10
113.43899999999999
 20
188.22200000000001
 30
0.0
 11
112.254
 21
188.22200000000001
 31
0.0
  0
LINE
  5
321
  8
_________1
 62
     7
 10
112.839
 20
217.011
 30
0.0
 11
112.839
 21
186.012
 31
0.0
  0
LINE
  5
322
  8
_________1
 62
     7
 10
84.999300000000005
 20
207.678
 30
0.0
 11
106.78100000000001
 21
207.678
 31
0.0
  0
LINE
  5
323
  8
_________1
 62
     7
 10
94.665599999999984
 20
186.012
 30
0.0
 11
113.407
 21
186.012
 31
0.0
  0
LINE
  5
324
  8
_________1
 62
     7
 10
94.665599999999984
 20
186.679
 30
0.0
 11
106.797
 21
186.679
 31
0.0
  0
LINE
  5
325
  8
_________1
 62
     7
 10
94.665599999999984
 20
212.678
 30
0.0
 11
100.29600000000001
 21
212.678
 31
0.0
  0
LINE
  5
326
  8
_________1
 62
     7
 10
94.665599999999984
 20
217.011
 30
0.0
 11
113.402
 21
217.011
 31
0.0
  0
LINE
  5
327
  8
_________1
 62
     7
 10
91.802899999999994
 20
173.761
 30
0.0
 11
94.013999999999996
 21
174.35299999999989
 31
0.0
  0
LINE
  5
328
  8
_________1
 62
     7
 10
94.013999999999996
 20
174.35299999999989
 30
0.0
 11
91.802899999999994
 21
174.946
 31
0.0
  0
LINE
  5
329
  8
_________1
 62
     7
 10
91.802899999999994
 20
174.946
 30
0.0
 11
91.802899999999994
 21
173.761
 31
0.0
  0
LINE
  5
32A
  8
_________1
 62
     7
 10
86.556200000000004
 20
174.93000000000001
 30
0.0
 11
84.345100000000016
 21
174.33799999999999
 31
0.0
  0
LINE
  5
32B
  8
_________1
 62
     7
 10
84.345100000000016
 20
174.33799999999999
 30
0.0
 11
86.556200000000004
 21
173.745
 31
0.0
  0
LINE
  5
32C
  8
_________1
 62
     7
 10
86.556200000000004
 20
173.745
 30
0.0
 11
86.556200000000004
 21
174.93000000000001
 31
0.0
  0
LINE
  5
32D
  8
_________1
 62
     7
 10
94.012600000000006
 20
174.345
 30
0.0
 11
84.346100000000007
 21
174.345
 31
0.0
  0
LINE
  5
32E
  8
_________1
 62
     7
 10
30.8035
 20
178.56700000000001
 30
0.0
 11
33.0139
 21
179.16
 31
0.0
  0
LINE
  5
32F
  8
_________1
 62
     7
 10
33.0139
 20
179.16
 30
0.0
 11
30.8035
 21
179.75200000000001
 31
0.0
  0
LINE
  5
330
  8
_________1
 62
     7
 10
30.8035
 20
179.75200000000001
 30
0.0
 11
30.8035
 21
178.56700000000001
 31
0.0
  0
LINE
  5
331
  8
_________1
 62
     7
 10
35.892299999999999
 20
179.73699999999999
 30
0.0
 11
33.680799999999998
 21
179.14400000000001
 31
0.0
  0
LINE
  5
332
  8
_________1
 62
     7
 10
33.680799999999998
 20
179.14400000000001
 30
0.0
 11
35.892299999999999
 21
178.55199999999999
 31
0.0
  0
LINE
  5
333
  8
_________1
 62
     7
 10
35.892299999999999
 20
178.55199999999999
 30
0.0
 11
35.892299999999999
 21
179.73699999999999
 31
0.0
  0
LINE
  5
334
  8
_________1
 62
     7
 10
37.116700000000002
 20
179.15199999999999
 30
0.0
 11
27.0276
 21
179.15199999999999
 31
0.0
  0
LINE
  5
335
  8
_________1
 62
     7
 10
40.471499999999999
 20
173.761
 30
0.0
 11
42.681899999999992
 21
174.35299999999989
 31
0.0
  0
LINE
  5
336
  8
_________1
 62
     7
 10
42.681899999999992
 20
174.35299999999989
 30
0.0
 11
40.471499999999999
 21
174.946
 31
0.0
  0
LINE
  5
337
  8
_________1
 62
     7
 10
40.471499999999999
 20
174.946
 30
0.0
 11
40.471499999999999
 21
173.761
 31
0.0
  0
LINE
  5
338
  8
_________1
 62
     7
 10
35.224299999999999
 20
174.93000000000001
 30
0.0
 11
33.012799999999999
 21
174.33799999999999
 31
0.0
  0
LINE
  5
339
  8
_________1
 62
     7
 10
33.012799999999999
 20
174.33799999999999
 30
0.0
 11
35.224299999999999
 21
173.745
 31
0.0
  0
LINE
  5
33A
  8
_________1
 62
     7
 10
35.224299999999999
 20
173.745
 30
0.0
 11
35.224299999999999
 21
174.93000000000001
 31
0.0
  0
LINE
  5
33B
  8
_________1
 62
     7
 10
42.680899999999987
 20
174.345
 30
0.0
 11
33.0139
 21
174.345
 31
0.0
  0
LINE
  5
33C
  8
_________1
 62
     7
 10
82.136600000000001
 20
173.761
 30
0.0
 11
84.347499999999997
 21
174.35299999999989
 31
0.0
  0
LINE
  5
33D
  8
_________1
 62
     7
 10
84.347499999999997
 20
174.35299999999989
 30
0.0
 11
82.136600000000001
 21
174.946
 31
0.0
  0
LINE
  5
33E
  8
_________1
 62
     7
 10
82.136600000000001
 20
174.946
 30
0.0
 11
82.136600000000001
 21
173.761
 31
0.0
  0
LINE
  5
33F
  8
_________1
 62
     7
 10
44.890599999999999
 20
174.93000000000001
 30
0.0
 11
42.679099999999991
 21
174.33799999999999
 31
0.0
  0
LINE
  5
340
  8
_________1
 62
     7
 10
42.679099999999991
 20
174.33799999999999
 30
0.0
 11
44.890599999999999
 21
173.745
 31
0.0
  0
LINE
  5
341
  8
_________1
 62
     7
 10
44.890599999999999
 20
173.745
 30
0.0
 11
44.890599999999999
 21
174.93000000000001
 31
0.0
  0
LINE
  5
342
  8
_________1
 62
     7
 10
84.346100000000007
 20
174.345
 30
0.0
 11
42.680899999999987
 21
174.345
 31
0.0
  0
LINE
  5
343
  8
_________1
 62
     7
 10
84.346100000000007
 20
185.358
 30
0.0
 11
84.346100000000007
 21
173.77799999999999
 31
0.0
  0
LINE
  5
344
  8
_________1
 62
     7
 10
94.012399999999985
 20
185.358
 30
0.0
 11
94.012399999999985
 21
165.77500000000001
 31
0.0
  0
LINE
  5
345
  8
_________1
 62
     7
 10
42.680899999999987
 20
185.358
 30
0.0
 11
42.680899999999987
 21
173.79300000000001
 31
0.0
  0
LINE
  5
346
  8
_________1
 62
     7
 10
33.680799999999998
 20
185.358
 30
0.0
 11
33.680799999999998
 21
178.584
 31
0.0
  0
LINE
  5
347
  8
_________1
 62
     7
 10
33.0139
 20
185.91800000000001
 30
0.0
 11
33.0139
 21
165.852
 31
0.0
  0
LINE
  5
348
  8
_________1
 62
     7
 10
91.802899999999994
 20
165.74299999999999
 30
0.0
 11
94.013999999999996
 21
166.33500000000001
 31
0.0
  0
LINE
  5
349
  8
_________1
 62
     7
 10
94.013999999999996
 20
166.33500000000001
 30
0.0
 11
91.802899999999994
 21
166.928
 31
0.0
  0
LINE
  5
34A
  8
_________1
 62
     7
 10
91.802899999999994
 20
166.928
 30
0.0
 11
91.802899999999994
 21
165.74299999999999
 31
0.0
  0
LINE
  5
34B
  8
_________1
 62
     7
 10
35.224299999999999
 20
166.91200000000001
 30
0.0
 11
33.012799999999999
 21
166.31899999999999
 31
0.0
  0
LINE
  5
34C
  8
_________1
 62
     7
 10
33.012799999999999
 20
166.31899999999999
 30
0.0
 11
35.224299999999999
 21
165.726
 31
0.0
  0
LINE
  5
34D
  8
_________1
 62
     7
 10
35.224299999999999
 20
165.726
 30
0.0
 11
35.224299999999999
 21
166.91200000000001
 31
0.0
  0
LINE
  5
34E
  8
_________1
 62
     7
 10
94.012600000000006
 20
166.327
 30
0.0
 11
33.0139
 21
166.327
 31
0.0
  0
ARC
  5
34F
  8
_________1
 62
     7
 10
73.455566000000005
 20
187.96331499999999
 30
0.0
 40
6.5285429999999991
 50
79.099032999999991
 51
89.949938000000003
  0
ARC
  5
350
  8
_________1
 62
     7
 10
73.046664000000007
 20
185.47790000000001
 30
0.0
 40
9.0466969999999982
 50
69.859961999999996
 51
79.532859000000016
  0
ARC
  5
351
  8
_________1
 62
     7
 10
72.053657000000001
 20
182.54486800000001
 30
0.0
 40
12.142543
 50
60.540938999999987
 51
70.226129
  0
ARC
  5
352
  8
_________1
 62
     7
 10
70.715615
 20
180.01685000000001
 30
0.0
 40
15.001961
 50
39.419023000000003
 51
60.839756999999977
  0
ARC
  5
353
  8
_________1
 62
     7
 10
73.275024000000002
 20
182.223454
 30
0.0
 40
11.623866
 50
28.870988000000001
 51
39.027349999999998
  0
ARC
  5
354
  8
_________1
 62
     7
 10
75.416301000000004
 20
183.486368
 30
0.0
 40
9.1392299999999995
 50
24.698740000000001
 51
28.419269
  0
INSERT
  5
355
  8
_________1
 62
     7
  2
AIGNBL02010042
 10
0.0
 20
0.0
 30
0.0
  0
INSERT
  5
356
  8
_________1
 62
     7
  2
AIGNBL02010043
 10
0.0
 20
0.0
 30
0.0
  0
INSERT
  5
357
  8
_________1
 62
     7
  2
AIGNBL02010044
 10
0.0
 20
0.0
 30
0.0
  0
INSERT
  5
358
  8
_________1
 62
     7
  2
AIGNBL02010045
 10
0.0
 20
0.0
 30
0.0
  0
INSERT
  5
359
  8
_________1
 62
     7
  2
AIGNBL02010046
 10
0.0
 20
0.0
 30
0.0
  0
INSERT
  5
35A
  8
_________1
 62
     7
  2
AIGNBL02010047
 10
0.0
 20
0.0
 30
0.0
  0
INSERT
  5
35B
  8
_________1
 62
     7
  2
AIGNBL02010048
 10
0.0
 20
0.0
 30
0.0
  0
INSERT
  5
35C
  8
_________1
 62
     7
  2
AIGNBL02010049
 10
0.0
 20
0.0
 30
0.0
  0
INSERT
  5
35D
  8
_________1
 62
     7
  2
AIGNBL0201004A
 10
0.0
 20
0.0
 30
0.0
  0
INSERT
  5
35E
  8
_________1
 62
     7
  2
AIGNBL0201004B
 10
0.0
 20
0.0
 30
0.0
  0
INSERT
  5
35F
  8
_________1
 62
     7
  2
AIGNBL0201004C
 10
0.0
 20
0.0
 30
0.0
  0
INSERT
  5
360
  8
_________1
 62
     7
  2
AIGNBL0201004D
 10
0.0
 20
0.0
 30
0.0
  0
INSERT
  5
361
  8
_________1
 62
     7
  2
AIGNBL0201004E
 10
0.0
 20
0.0
 30
0.0
  0
ARC
  5
362
  8
_________1
 62
     7
 10
53.57073299999999
 20
187.96531999999999
 30
0.0
 40
6.5265379999999986
 50
90.050080000000008
 51
100.902626
  0
ARC
  5
363
  8
_________1
 62
     7
 10
53.979685000000003
 20
185.47945799999999
 30
0.0
 40
9.0451399999999982
 50
100.46803300000001
 51
110.141774
  0
ARC
  5
364
  8
_________1
 62
     7
 10
54.97331299999999
 20
182.54460499999999
 30
0.0
 40
12.142906999999999
 50
109.774963
 51
119.459559
  0
ARC
  5
365
  8
_________1
 62
     7
 10
56.312181000000002
 20
180.014904
 30
0.0
 40
15.004197
 50
119.160273
 51
140.57835600000001
  0
ARC
  5
366
  8
_________1
 62
     7
 10
53.751764999999999
 20
182.22233
 30
0.0
 40
11.624796999999999
 50
140.96921699999999
 51
151.12519399999999
  0
ARC
  5
367
  8
_________1
 62
     7
 10
51.610510999999988
 20
183.485377
 30
0.0
 40
9.1401120000000002
 50
151.576639
 51
155.296944
  0
INSERT
  5
368
  8
_________1
 62
     7
  2
AIGNBL0201004F
 10
0.0
 20
0.0
 30
0.0
  0
INSERT
  5
369
  8
_________1
 62
     7
  2
AIGNBL02010050
 10
0.0
 20
0.0
 30
0.0
  0
INSERT
  5
36A
  8
_________1
 62
     7
  2
AIGNBL02010051
 10
0.0
 20
0.0
 30
0.0
  0
INSERT
  5
36B
  8
_________1
 62
     7
  2
AIGNBL02010052
 10
0.0
 20
0.0
 30
0.0
  0
INSERT
  5
36C
  8
_________1
 62
     7
  2
AIGNBL02010053
 10
0.0
 20
0.0
 30
0.0
  0
INSERT
  5
36D
  8
_________1
 62
     7
  2
AIGNBL02010054
 10
0.0
 20
0.0
 30
0.0
  0
INSERT
  5
36E
  8
_________1
 62
     7
  2
AIGNBL02010055
 10
0.0
 20
0.0
 30
0.0
  0
INSERT
  5
36F
  8
_________1
 62
     7
  2
AIGNBL02010056
 10
0.0
 20
0.0
 30
0.0
  0
INSERT
  5
370
  8
_________1
 62
     7
  2
AIGNBL02010057
 10
0.0
 20
0.0
 30
0.0
  0
INSERT
  5
371
  8
_________1
 62
     7
  2
AIGNBL02010058
 10
0.0
 20
0.0
 30
0.0
  0
INSERT
  5
372
  8
_________1
 62
     7
  2
AIGNBL02010059
 10
0.0
 20
0.0
 30
0.0
  0
INSERT
  5
373
  8
_________1
 62
     7
  2
AIGNBL0201005A
 10
0.0
 20
0.0
 30
0.0
  0
INSERT
  5
374
  8
_________1
 62
     7
  2
AIGNBL0201005B
 10
0.0
 20
0.0
 30
0.0
  0
INSERT
  5
375
  8
_________1
 62
     7
  2
AIGNBL0201005C
 10
0.0
 20
0.0
 30
0.0
  0
INSERT
  5
376
  8
_________1
 62
     7
  2
AIGNBL0201005D
 10
0.0
 20
0.0
 30
0.0
  0
INSERT
  5
377
  8
_________1
 62
     7
  2
AIGNBL0201005E
 10
0.0
 20
0.0
 30
0.0
  0
INSERT
  5
378
  8
_________1
 62
     7
  2
AIGNBL0201005F
 10
0.0
 20
0.0
 30
0.0
  0
INSERT
  5
379
  8
_________1
 62
     7
  2
AIGNBL02010060
 10
0.0
 20
0.0
 30
0.0
  0
TEXT
  5
37A
  8
_________2
 62
     7
 10
26.512799999999999
 20
61.42369999999999
 30
0.0
 40
3.9357000000000002
  1
※壁取付部には厚さ30mm以上の補強木を入れてください。
 41
0.5
  0
TEXT
  5
37B
  8
_________2
 62
     7
 10
141.09755000000001
 20
30.4514
 30
0.0
 40
3.9357000000000002
  1
SB3005GR
 41
0.5
 72
     1
 11
148.31299999999999
 21
30.4514
 31
0.0
  0
TEXT
  5
37C
  8
_________2
 62
     7
 10
141.09755000000001
 20
20.450600000000001
 30
0.0
 40
3.9357000000000002
  1
SB3005GR
 41
0.5
 72
     1
 11
148.31299999999999
 21
20.450600000000001
 31
0.0
  0
TEXT
  5
37D
  8
_________2
 62
     7
 10
29.3491
 20
22.050799999999999
 30
0.0
 40
3.9357000000000002
  1
実容量：5.4L、重量：22kg、オーバーフロー付
 41
0.5
  0
LINE
  5
37E
  8
_________2
 62
     7
 10
210.06399999999999
 20
148.75399999999999
 30
0.0
 11
188.31299999999999
 21
148.75399999999999
 31
0.0
  0
LINE
  5
37F
  8
_________2
 62
     7
 10
105.062
 20
17.252099999999999
 30
0.0
 11
105.062
 21
0.272164
 31
0.0
  0
LINE
  5
380
  8
_________2
 62
     7
 10
105.062
 20
297.274
 30
0.0
 11
105.062
 21
280.25400000000002
 31
0.0
  0
LINE
  5
381
  8
_________2
 62
     7
 10
21.811900000000001
 20
148.75399999999999
 30
0.0
 11
0.0614953
 21
148.75399999999999
 31
0.0
  0
INSERT
  5
382
  8
_________2
 62
     7
  2
AIGNBL03010002
 10
0.0
 20
0.0
 30
0.0
  0
TEXT
  5
383
  8
_________2
 62
     7
 10
109.367
 20
23.0227
 30
0.0
 40
3.0923400000000001
  1
図番
 41
0.5
  0
LINE
  5
384
  8
_________2
 62
     7
 10
108.313
 20
27.251899999999999
 30
0.0
 11
188.31299999999999
 21
27.251899999999999
 31
0.0
  0
TEXT
  5
385
  8
_________2
 62
     7
 10
109.367
 20
33.022500000000001
 30
0.0
 40
3.0923400000000001
  1
品番
 41
0.5
  0
TEXT
  5
386
  8
_________2
 62
     7
 10
109.367
 20
53.161599999999993
 30
0.0
 40
3.0923400000000001
  1
名称
 41
0.5
  0
TEXT
  5
387
  8
_________2
 62
     7
 10
96.607458333333355
 20
48.165500000000002
 30
0.0
 40
3.6545800000000002
  1
mm
 41
0.5
 72
     1
 11
98.130200000000016
 21
48.165500000000002
 31
0.0
  0
TEXT
  5
388
  8
_________2
 62
     7
 10
90.405600000000007
 20
53.161599999999993
 30
0.0
 40
3.0923400000000001
  1
単位
 41
0.5
  0
TEXT
  5
389
  8
_________2
 62
     7
 10
90.405600000000007
 20
40.753999999999998
 30
0.0
 40
3.0923400000000001
  1
尺度
 41
0.5
  0
TEXT
  5
38A
  8
_________2
 62
     7
 10
94.702061999999984
 20
34.561399999999999
 30
0.0
 40
3.6545800000000002
  1
1 ： 15
 41
0.5
 72
     1
 11
98.722099999999998
 21
34.561399999999999
 31
0.0
  0
TEXT
  5
38B
  8
_________2
 62
     7
 10
113.941
 20
45.569299999999998
 30
0.0
 40
3.9357000000000002
  1
ML 洗面器
 41
0.5
  0
TEXT
  5
38C
  8
_________2
 62
     7
 10
44.06588099999999
 20
34.946599999999997
 30
0.0
 40
3.6545800000000002
  1
中村
 41
0.5
 72
     1
 11
46.075899999999997
 21
34.946599999999997
 31
0.0
  0
TEXT
  5
38D
  8
_________2
 62
     7
 10
25.613700333333341
 20
34.946599999999997
 30
0.0
 40
3.6545800000000002
  1
福田
 41
0.5
 72
     1
 11
27.501899999999999
 21
34.946599999999997
 31
0.0
  0
TEXT
  5
38E
  8
_________2
 62
     7
 10
72.548100000000005
 20
34.561399999999999
 30
0.0
 40
3.6545800000000002
  1
17.08.02
 41
0.5
  0
TEXT
  5
38F
  8
_________2
 62
     7
 10
71.355400000000003
 20
40.753999999999998
 30
0.0
 40
3.0923400000000001
  1
日付
 41
0.5
  0
TEXT
  5
390
  8
_________2
 62
     7
 10
34.401699999999998
 20
40.753999999999998
 30
0.0
 40
3.0923400000000001
  1
検図
 41
0.5
  0
TEXT
  5
391
  8
_________2
 62
     7
 10
22.7834
 20
26.554600000000001
 30
0.0
 40
3.0923400000000001
  1
備考
 41
0.5
  0
TEXT
  5
392
  8
_________2
 62
     7
 10
22.7834
 20
40.753999999999998
 30
0.0
 40
3.0923400000000001
  1
製図
 41
0.5
  0
TEXT
  5
393
  8
_________2
 62
     7
 10
28.550865333333341
 20
49.280000000000001
 30
0.0
 40
4.4979399999999989
  1
セラトレーディング株式会社
 41
0.5
 72
     1
 11
45.942899999999987
 21
49.280000000000001
 31
0.0
  0
LINE
  5
394
  8
_________2
 62
     7
 10
188.31299999999999
 20
17.252099999999999
 30
0.0
 11
21.811900000000001
 21
17.252099999999999
 31
0.0
  0
LINE
  5
395
  8
_________2
 62
     7
 10
21.811900000000001
 20
17.252099999999999
 30
0.0
 11
21.811900000000001
 21
280.25400000000002
 31
0.0
  0
LINE
  5
396
  8
_________2
 62
     7
 10
21.811900000000001
 20
280.25400000000002
 30
0.0
 11
188.31299999999999
 21
280.25400000000002
 31
0.0
  0
LINE
  5
397
  8
_________2
 62
     7
 10
188.31299999999999
 20
280.25400000000002
 30
0.0
 11
188.31299999999999
 21
17.252099999999999
 31
0.0
  0
LINE
  5
398
  8
_________2
 62
     7
 10
70.312299999999993
 20
30.752500000000001
 30
0.0
 11
70.312299999999993
 21
57.252299999999991
 31
0.0
  0
LINE
  5
399
  8
_________2
 62
     7
 10
89.312100000000001
 20
30.752500000000001
 30
0.0
 11
89.312100000000001
 21
57.252299999999991
 31
0.0
  0
LINE
  5
39A
  8
_________2
 62
     7
 10
108.313
 20
17.252099999999999
 30
0.0
 11
108.313
 21
57.252299999999991
 31
0.0
  0
LINE
  5
39B
  8
_________2
 62
     7
 10
33.311700000000002
 20
30.752500000000001
 30
0.0
 11
33.311700000000002
 21
44.752400000000002
 31
0.0
  0
LINE
  5
39C
  8
_________2
 62
     7
 10
21.811900000000001
 20
30.752500000000001
 30
0.0
 11
108.313
 21
30.752500000000001
 31
0.0
  0
LINE
  5
39D
  8
_________2
 62
     7
 10
21.811900000000001
 20
44.752400000000002
 30
0.0
 11
108.313
 21
44.752400000000002
 31
0.0
  0
LINE
  5
39E
  8
_________2
 62
     7
 10
108.313
 20
37.2517
 30
0.0
 11
188.31299999999999
 21
37.2517
 31
0.0
  0
LINE
  5
39F
  8
_________2
 62
     7
 10
21.811900000000001
 20
57.252299999999991
 30
0.0
 11
188.31299999999999
 21
57.252299999999991
 31
0.0
  0
ENDSEC
  0
EOF
