  0
SECTION
  2
HEADER
  9
$ACADVER
  1
AC1009
  9
$INSBASE
 10
0.0
 20
0.0
 30
0.0
  9
$EXTMIN
 10
0.0614953
 20
0.272164
 30
0.0
  9
$EXTMAX
 10
210.06399999999999
 20
297.274
 30
0.0
  9
$LIMMIN
 10
0.0
 20
0.0
  9
$LIMMAX
 10
12.0
 20
9.0
  9
$ORTHOMODE
 70
     0
  9
$REGENMODE
 70
     1
  9
$FILLMODE
 70
     1
  9
$QTEXTMODE
 70
     0
  9
$MIRRTEXT
 70
     1
  9
$DRAGMODE
 70
     2
  9
$LTSCALE
 40
1.0
  9
$OSMODE
 70
    37
  9
$ATTMODE
 70
     1
  9
$TEXTSIZE
 40
0.0
  9
$TRACEWID
 40
0.05
  9
$TEXTSTYLE
  7
STANDARD
  9
$CLAYER
  8
0
  9
$CELTYPE
  6
CONTINUOUS
  9
$CECOLOR
 62
   256
  9
$DIMSCALE
 40
1.0
  9
$DIMASZ
 40
0.18
  9
$DIMEXO
 40
0.0625
  9
$DIMDLI
 40
0.38
  9
$DIMRND
 40
0.0
  9
$DIMDLE
 40
0.0
  9
$DIMEXE
 40
0.18
  9
$DIMTP
 40
0.0
  9
$DIMTM
 40
0.0
  9
$DIMTXT
 40
0.18
  9
$DIMCEN
 40
0.09
  9
$DIMTSZ
 40
0.0
  9
$DIMTOL
 70
     0
  9
$DIMLIM
 70
     0
  9
$DIMTIH
 70
     1
  9
$DIMTOH
 70
     1
  9
$DIMSE1
 70
     0
  9
$DIMSE2
 70
     0
  9
$DIMTAD
 70
     0
  9
$DIMZIN
 70
     0
  9
$DIMBLK
  1

  9
$DIMASO
 70
     1
  9
$DIMSHO
 70
     1
  9
$DIMPOST
  1

  9
$DIMAPOST
  1

  9
$DIMALT
 70
     0
  9
$DIMALTD
 70
     2
  9
$DIMALTF
 40
25.399999999999999
  9
$DIMLFAC
 40
1.0
  9
$DIMTOFL
 70
     0
  9
$DIMTVP
 40
0.0
  9
$DIMTIX
 70
     0
  9
$DIMSOXD
 70
     0
  9
$DIMSAH
 70
     0
  9
$DIMBLK1
  1

  9
$DIMBLK2
  1

  9
$DIMSTYLE
  2
STANDARD
  9
$DIMCLRD
 70
     0
  9
$DIMCLRE
 70
     0
  9
$DIMCLRT
 70
     0
  9
$DIMTFAC
 40
1.0
  9
$DIMGAP
 40
0.09
  9
$LUNITS
 70
     2
  9
$LUPREC
 70
     4
  9
$SKETCHINC
 40
0.1
  9
$FILLETRAD
 40
0.0
  9
$AUNITS
 70
     0
  9
$AUPREC
 70
     0
  9
$MENU
  1
.
  9
$ELEVATION
 40
0.0
  9
$PELEVATION
 40
0.0
  9
$THICKNESS
 40
0.0
  9
$LIMCHECK
 70
     0
  9
$BLIPMODE
 70
     0
  9
$CHAMFERA
 40
0.0
  9
$CHAMFERB
 40
0.0
  9
$SKPOLY
 70
     0
  9
$TDCREATE
 40
2444972.375
  9
$TDUPDATE
 40
2457969.249213241
  9
$TDINDWG
 40
0.0000302778
  9
$TDUSRTIMER
 40
0.0000302778
  9
$USRTIMER
 70
     1
  9
$ANGBASE
 50
0.0
  9
$ANGDIR
 70
     0
  9
$PDMODE
 70
     0
  9
$PDSIZE
 40
0.0
  9
$PLINEWID
 40
0.0
  9
$COORDS
 70
     1
  9
$SPLFRAME
 70
     0
  9
$SPLINETYPE
 70
     6
  9
$SPLINESEGS
 70
     8
  9
$ATTDIA
 70
     1
  9
$ATTREQ
 70
     1
  9
$HANDLING
 70
     1
  9
$HANDSEED
  5
407
  9
$SURFTAB1
 70
     6
  9
$SURFTAB2
 70
     6
  9
$SURFTYPE
 70
     6
  9
$SURFU
 70
     6
  9
$SURFV
 70
     6
  9
$UCSNAME
  2

  9
$UCSORG
 10
0.0
 20
0.0
 30
0.0
  9
$UCSXDIR
 10
1.0
 20
0.0
 30
0.0
  9
$UCSYDIR
 10
0.0
 20
1.0
 30
0.0
  9
$PUCSNAME
  2

  9
$PUCSORG
 10
0.0
 20
0.0
 30
0.0
  9
$PUCSXDIR
 10
1.0
 20
0.0
 30
0.0
  9
$PUCSYDIR
 10
0.0
 20
1.0
 30
0.0
  9
$USERI1
 70
     0
  9
$USERI2
 70
     0
  9
$USERI3
 70
     0
  9
$USERI4
 70
     0
  9
$USERI5
 70
     0
  9
$USERR1
 40
0.0
  9
$USERR2
 40
0.0
  9
$USERR3
 40
0.0
  9
$USERR4
 40
0.0
  9
$USERR5
 40
0.0
  9
$WORLDVIEW
 70
     1
  9
$SHADEDGE
 70
     3
  9
$SHADEDIF
 70
    70
  9
$TILEMODE
 70
     1
  9
$MAXACTVP
 70
    48
  9
$PLIMCHECK
 70
     0
  9
$PEXTMIN
 10
1.0000000000000000E+020
 20
1.0000000000000000E+020
 30
1.0000000000000000E+020
  9
$PEXTMAX
 10
-1.0000000000000000E+020
 20
-1.0000000000000000E+020
 30
-1.0000000000000000E+020
  9
$PLIMMIN
 10
0.0
 20
0.0
  9
$PLIMMAX
 10
12.0
 20
9.0
  9
$UNITMODE
 70
     0
  9
$VISRETAIN
 70
     1
  9
$PLINEGEN
 70
     0
  9
$PSLTSCALE
 70
     1
  0
ENDSEC
  0
SECTION
  2
TABLES
  0
TABLE
  2
VPORT
 70
     1
  0
VPORT
  2
*ACTIVE
 70
     0
 10
0.0
 20
0.0
 11
1.0
 21
1.0
 12
170.51964874323659
 22
148.637
 13
0.0
 23
0.0
 14
1.0
 24
1.0
 15
0.0
 25
0.0
 16
0.0
 26
0.0
 36
1.0
 17
0.0
 27
0.0
 37
0.0
 40
283.7880963240251
 41
2.1001926782273599
 42
50.0
 43
0.0
 44
0.0
 50
0.0
 51
0.0
 71
     0
 72
   100
 73
     1
 74
     1
 75
     0
 76
     0
 77
     0
 78
     0
  0
ENDTAB
  0
TABLE
  2
LTYPE
 70
     3
  0
LTYPE
  2
CONTINUOUS
 70
     0
  3
Solid line
 72
    65
 73
     0
 40
0.0
  0
LTYPE
  2
AIGENLINE001
 70
     0
  3
generate AI->DXF Converter
 72
    65
 73
     4
 40
5.8561449999999988
 49
3.5278
 49
-0.776115
 49
0.776115
 49
-0.776115
  0
LTYPE
  2
AIGENLINE002
 70
     0
  3
generate AI->DXF Converter
 72
    65
 73
     2
 40
1.5522299999999991
 49
0.776115
 49
-0.776115
  0
ENDTAB
  0
TABLE
  2
LAYER
 70
     4
  0
LAYER
  2
0
 70
     0
 62
     7
  6
CONTINUOUS
  0
LAYER
  2
____
 70
     0
 62
     7
  6
CONTINUOUS
  0
LAYER
  2
_________1
 70
     0
 62
     7
  6
CONTINUOUS
  0
LAYER
  2
_________2
 70
     0
 62
     7
  6
CONTINUOUS
  0
ENDTAB
  0
TABLE
  2
STYLE
 70
     1
  0
STYLE
  2
STANDARD
 70
     0
 40
0.0
 41
0.0
 50
0.0
 71
     0
 42
0.0
  3
TXT
  4
EXTFONT.SHX
  0
ENDTAB
  0
TABLE
  2
VIEW
 70
     0
  0
ENDTAB
  0
TABLE
  2
UCS
 70
     0
  0
ENDTAB
  0
TABLE
  2
APPID
 70
     3
  0
APPID
  2
ACAD
 70
     0
  0
APPID
  2
ACAD_NAV_VCDISPLAY
 70
     0
  0
APPID
  2
ACAD_MLEADERVER
 70
     0
  0
ENDTAB
  0
TABLE
  2
DIMSTYLE
 70
     1
  0
DIMSTYLE
  2
STANDARD
 70
     0
  3

  4

  5

  6

  7

 40
1.0
 41
0.18
 42
0.0625
 43
0.38
 44
0.18
 45
0.0
 46
0.0
 47
0.0
 48
0.0
140
0.18
141
0.09
142
0.0
143
25.399999999999999
144
1.0
145
0.0
146
1.0
147
0.09
 71
     0
 72
     0
 73
     1
 74
     1
 75
     0
 76
     0
 77
     0
 78
     0
170
     0
171
     2
172
     0
173
     0
174
     0
175
     0
176
     0
177
     0
178
     0
  0
ENDTAB
  0
ENDSEC
  0
SECTION
  2
BLOCKS
  0
BLOCK
  8
0
  2
$MODEL_SPACE
 70
     0
 10
0.0
 20
0.0
 30
0.0
  3
$MODEL_SPACE
  1

  0
ENDBLK
  5
1A
  8
0
  0
BLOCK
 67
     1
  8
0
  2
$PAPER_SPACE
 70
     0
 10
0.0
 20
0.0
 30
0.0
  3
$PAPER_SPACE
  1

  0
ENDBLK
  5
17
 67
     1
  8
0
  0
BLOCK
  8
_________1
  2
AIGNBL02010002
 70
     0
 10
0.0
 20
0.0
 30
0.0
  3
AIGNBL02010002
  1

  0
LINE
  5
27
  8
_________1
 62
     7
 10
174.84
 20
125.821
 30
0.0
 11
174.249
 21
128.03
 31
0.0
  0
LINE
  5
28
  8
_________1
 62
     7
 10
174.249
 20
128.03
 30
0.0
 11
173.65600000000001
 21
125.821
 31
0.0
  0
LINE
  5
29
  8
_________1
 62
     7
 10
173.65600000000001
 20
125.821
 30
0.0
 11
174.84
 21
125.821
 31
0.0
  0
LINE
  5
2A
  8
_________1
 62
     7
 10
173.67400000000001
 20
131.24100000000001
 30
0.0
 11
174.26599999999999
 21
129.03
 31
0.0
  0
LINE
  5
2B
  8
_________1
 62
     7
 10
174.26599999999999
 20
129.03
 30
0.0
 11
174.858
 21
131.24100000000001
 31
0.0
  0
LINE
  5
2C
  8
_________1
 62
     7
 10
174.858
 20
131.24100000000001
 30
0.0
 11
173.67400000000001
 21
131.24100000000001
 31
0.0
  0
ENDBLK
  5
2D
  8
_________1
  0
BLOCK
  8
_________1
  2
AIGNBL02010003
 70
     0
 10
0.0
 20
0.0
 30
0.0
  3
AIGNBL02010003
  1

  0
LINE
  5
30
  8
_________1
 62
     7
 10
155.505
 20
126.821
 30
0.0
 11
154.91300000000001
 21
129.03
 31
0.0
  0
LINE
  5
31
  8
_________1
 62
     7
 10
154.91300000000001
 20
129.03
 30
0.0
 11
154.321
 21
126.821
 31
0.0
  0
LINE
  5
32
  8
_________1
 62
     7
 10
154.321
 20
126.821
 30
0.0
 11
155.505
 21
126.821
 31
0.0
  0
LINE
  5
33
  8
_________1
 62
     7
 10
154.33799999999999
 20
118.741
 30
0.0
 11
154.93000000000001
 21
116.53100000000001
 31
0.0
  0
LINE
  5
34
  8
_________1
 62
     7
 10
154.93000000000001
 20
116.53100000000001
 30
0.0
 11
155.523
 21
118.741
 31
0.0
  0
LINE
  5
35
  8
_________1
 62
     7
 10
155.523
 20
118.741
 30
0.0
 11
154.33799999999999
 21
118.741
 31
0.0
  0
LINE
  5
36
  8
_________1
 62
     7
 10
154.922
 20
134.94900000000001
 30
0.0
 11
154.922
 21
116.53100000000001
 31
0.0
  0
ENDBLK
  5
37
  8
_________1
  0
BLOCK
  8
_________1
  2
AIGNBL02010004
 70
     0
 10
0.0
 20
0.0
 30
0.0
  3
AIGNBL02010004
  1

  0
LINE
  5
3A
  8
_________1
 62
     7
 10
164.416
 20
99.603499999999997
 30
0.0
 11
162.20599999999999
 21
99.011600000000001
 31
0.0
  0
LINE
  5
3B
  8
_________1
 62
     7
 10
162.20599999999999
 20
99.011600000000001
 30
0.0
 11
164.416
 21
98.41940000000001
 31
0.0
  0
LINE
  5
3C
  8
_________1
 62
     7
 10
164.416
 20
98.41940000000001
 30
0.0
 11
164.416
 21
99.603499999999997
 31
0.0
  0
LINE
  5
3D
  8
_________1
 62
     7
 10
181.995
 20
98.437000000000012
 30
0.0
 11
184.20500000000001
 21
99.028899999999993
 31
0.0
  0
LINE
  5
3E
  8
_________1
 62
     7
 10
184.20500000000001
 20
99.028899999999993
 30
0.0
 11
181.995
 21
99.621099999999998
 31
0.0
  0
LINE
  5
3F
  8
_________1
 62
     7
 10
181.995
 20
99.621099999999998
 30
0.0
 11
181.995
 21
98.437000000000012
 31
0.0
  0
LINE
  5
40
  8
_________1
 62
     7
 10
162.20599999999999
 20
99.020600000000002
 30
0.0
 11
184.20500000000001
 21
99.020600000000002
 31
0.0
  0
ENDBLK
  5
41
  8
_________1
  0
BLOCK
  8
_________1
  2
AIGNBL02010005
 70
     0
 10
0.0
 20
0.0
 30
0.0
  3
AIGNBL02010005
  1

  0
LINE
  5
44
  8
_________1
 62
     7
 10
167.36000000000001
 20
124.53
 30
0.0
 11
173.35400000000001
 21
124.53
 31
0.0
  0
ENDBLK
  5
45
  8
_________1
  0
BLOCK
  8
_________1
  2
AIGNBL02010006
 70
     0
 10
0.0
 20
0.0
 30
0.0
  3
AIGNBL02010006
  1

  0
LINE
  5
48
  8
_________1
  6
AIGENLINE001
 62
     7
 10
177.70599999999999
 20
131.08699999999999
 30
0.0
 11
177.70599999999999
 21
125.087
 31
0.0
  0
ENDBLK
  5
49
  8
_________1
  0
BLOCK
  8
_________1
  2
AIGNBL02010007
 70
     0
 10
0.0
 20
0.0
 30
0.0
  3
AIGNBL02010007
  1

  0
LINE
  5
4C
  8
_________1
  6
AIGENLINE001
 62
     7
 10
162.20599999999999
 20
109.523
 30
0.0
 11
162.20599999999999
 21
130.892
 31
0.0
  0
ENDBLK
  5
4D
  8
_________1
  0
BLOCK
  8
_________1
  2
AIGNBL02010008
 70
     0
 10
0.0
 20
0.0
 30
0.0
  3
AIGNBL02010008
  1

  0
LINE
  5
50
  8
_________1
  6
AIGENLINE001
 62
     7
 10
180.24100000000001
 20
122.03100000000001
 30
0.0
 11
186.24100000000001
 21
122.03100000000001
 31
0.0
  0
ENDBLK
  5
51
  8
_________1
  0
BLOCK
  8
_________1
  2
AIGNBL02010009
 70
     0
 10
0.0
 20
0.0
 30
0.0
  3
AIGNBL02010009
  1

  0
ARC
  5
54
  8
_________1
  6
AIGENLINE002
 62
     7
 10
171.136866
 20
126.96128299999999
 30
0.0
 40
1.06884
 50
91.273143000000005
 51
173.73223100000001
  0
ENDBLK
  5
55
  8
_________1
  0
BLOCK
  8
_________1
  2
AIGNBL0201000A
 70
     0
 10
0.0
 20
0.0
 30
0.0
  3
AIGNBL0201000A
  1

  0
LINE
  5
58
  8
_________1
 62
     7
 10
148.708
 20
113.419
 30
0.0
 11
147.73699999999999
 21
116.447
 31
0.0
  0
ENDBLK
  5
59
  8
_________1
  0
BLOCK
  8
_________1
  2
AIGNBL0201000B
 70
     0
 10
0.0
 20
0.0
 30
0.0
  3
AIGNBL0201000B
  1

  0
ARC
  5
5C
  8
_________1
 62
     7
 10
149.22275200000001
 20
113.566411
 30
0.0
 40
0.535701
 50
195.997773
 51
268.68310200000002
  0
ENDBLK
  5
5D
  8
_________1
  0
BLOCK
  8
_________1
  2
AIGNBL0201000C
 70
     0
 10
0.0
 20
0.0
 30
0.0
  3
AIGNBL0201000C
  1

  0
LINE
  5
60
  8
_________1
  6
AIGENLINE002
 62
     7
 10
182.70500000000001
 20
128.03
 30
0.0
 11
178.98400000000001
 21
128.03
 31
0.0
  0
ENDBLK
  5
61
  8
_________1
  0
BLOCK
  8
_________1
  2
AIGNBL0201000D
 70
     0
 10
0.0
 20
0.0
 30
0.0
  3
AIGNBL0201000D
  1

  0
LINE
  5
64
  8
_________1
 62
     7
 10
183.684
 20
129.03
 30
0.0
 11
183.72300000000001
 21
129.03
 31
0.0
  0
ENDBLK
  5
65
  8
_________1
  0
BLOCK
  8
_________1
  2
AIGNBL0201000E
 70
     0
 10
0.0
 20
0.0
 30
0.0
  3
AIGNBL0201000E
  1

  0
ARC
  5
68
  8
_________1
 62
     7
 10
183.663522
 20
128.488654
 30
0.0
 40
0.5420410000000001
 50
1.940418999999999
 51
87.870663000000008
  0
ENDBLK
  5
69
  8
_________1
  0
BLOCK
  8
_________1
  2
AIGNBL0201000F
 70
     0
 10
0.0
 20
0.0
 30
0.0
  3
AIGNBL0201000F
  1

  0
LINE
  5
6C
  8
_________1
 62
     7
 10
184.20500000000001
 20
121.072
 30
0.0
 11
184.20500000000001
 21
128.50700000000001
 31
0.0
  0
ENDBLK
  5
6D
  8
_________1
  0
BLOCK
  8
_________1
  2
AIGNBL02010010
 70
     0
 10
0.0
 20
0.0
 30
0.0
  3
AIGNBL02010010
  1

  0
LINE
  5
70
  8
_________1
  6
AIGENLINE002
 62
     7
 10
174.44
 20
128.03
 30
0.0
 11
171.113
 21
128.03
 31
0.0
  0
ENDBLK
  5
71
  8
_________1
  0
BLOCK
  8
_________1
  2
AIGNBL02010011
 70
     0
 10
0.0
 20
0.0
 30
0.0
  3
AIGNBL02010011
  1

  0
ARC
  5
74
  8
_________1
  6
AIGENLINE002
 62
     7
 10
168.36732499999999
 20
117.59643199999999
 30
0.0
 40
1.0651969999999991
 50
271.11380300000002
 51
353.84853800000002
  0
ENDBLK
  5
75
  8
_________1
  0
BLOCK
  8
_________1
  2
AIGNBL02010012
 70
     0
 10
0.0
 20
0.0
 30
0.0
  3
AIGNBL02010012
  1

  0
LINE
  5
78
  8
_________1
 62
     7
 10
157.708
 20
113.03100000000001
 30
0.0
 11
157.708
 21
112.05200000000001
 31
0.0
  0
ENDBLK
  5
79
  8
_________1
  0
BLOCK
  8
_________1
  2
AIGNBL02010013
 70
     0
 10
0.0
 20
0.0
 30
0.0
  3
AIGNBL02010013
  1

  0
ARC
  5
7C
  8
_________1
 62
     7
 10
158.24936099999999
 20
112.072056
 30
0.0
 40
0.541575
 50
182.14876699999999
 51
267.88914399999999
  0
ENDBLK
  5
7D
  8
_________1
  0
BLOCK
  8
_________1
  2
AIGNBL02010014
 70
     0
 10
0.0
 20
0.0
 30
0.0
  3
AIGNBL02010014
  1

  0
ARC
  5
80
  8
_________1
  6
AIGENLINE002
 62
     7
 10
152.12006500000001
 20
117.192238
 30
0.0
 40
0.661914
 50
258.88946299999998
 51
273.32252299999999
  0
ARC
  5
81
  8
_________1
  6
AIGENLINE002
 62
     7
 10
152.187242
 20
117.643799
 30
0.0
 40
1.1181570000000001
 50
235.21001400000009
 51
259.97067900000002
  0
ARC
  5
82
  8
_________1
  6
AIGENLINE002
 62
     7
 10
151.90803299999999
 20
117.21740800000001
 30
0.0
 40
0.608836
 50
226.55802499999999
 51
233.893722
  0
ENDBLK
  5
83
  8
_________1
  0
BLOCK
  8
_________1
  2
AIGNBL02010015
 70
     0
 10
0.0
 20
0.0
 30
0.0
  3
AIGNBL02010015
  1

  0
LINE
  5
86
  8
_________1
  6
AIGENLINE002
 62
     7
 10
151.489
 20
116.77500000000001
 30
0.0
 11
138.79400000000001
 21
127.98699999999999
 31
0.0
  0
ENDBLK
  5
87
  8
_________1
  0
BLOCK
  8
_________1
  2
AIGNBL02010016
 70
     0
 10
0.0
 20
0.0
 30
0.0
  3
AIGNBL02010016
  1

  0
LINE
  5
8A
  8
_________1
 62
     7
 10
142.45099999999999
 20
123.53
 30
0.0
 11
138.0079999999999
 21
123.53
 31
0.0
  0
ENDBLK
  5
8B
  8
_________1
  0
BLOCK
  8
_________1
  2
AIGNBL02010017
 70
     0
 10
0.0
 20
0.0
 30
0.0
  3
AIGNBL02010017
  1

  0
LINE
  5
8E
  8
_________1
  6
AIGENLINE002
 62
     7
 10
138.708
 20
128.50700000000001
 30
0.0
 11
138.708
 21
127.98699999999999
 31
0.0
  0
ENDBLK
  5
8F
  8
_________1
  0
BLOCK
  8
_________1
  2
AIGNBL02010018
 70
     0
 10
0.0
 20
0.0
 30
0.0
  3
AIGNBL02010018
  1

  0
ARC
  5
92
  8
_________1
 62
     7
 10
138.25222099999999
 20
128.48711399999999
 30
0.0
 40
0.543669
 50
92.361660999999998
 51
177.90295499999999
  0
ENDBLK
  5
93
  8
_________1
  0
BLOCK
  8
_________1
  2
AIGNBL02010019
 70
     0
 10
0.0
 20
0.0
 30
0.0
  3
AIGNBL02010019
  1

  0
ARC
  5
96
  8
_________1
  6
AIGENLINE002
 62
     7
 10
138.168272
 20
128.490726
 30
0.0
 40
0.539974
 50
1.727948
 51
87.855621999999997
  0
ENDBLK
  5
97
  8
_________1
  0
BLOCK
  8
_________1
  2
AIGNBL0201001A
 70
     0
 10
0.0
 20
0.0
 30
0.0
  3
AIGNBL0201001A
  1

  0
LINE
  5
9A
  8
_________1
 62
     7
 10
138.18799999999999
 20
129.03
 30
0.0
 11
138.22999999999999
 21
129.03
 31
0.0
  0
ENDBLK
  5
9B
  8
_________1
  0
BLOCK
  8
_________1
  2
AIGNBL0201001B
 70
     0
 10
0.0
 20
0.0
 30
0.0
  3
AIGNBL0201001B
  1

  0
ARC
  5
9E
  8
_________1
 62
     7
 10
183.663982
 20
113.571791
 30
0.0
 40
0.5416410000000002
 50
272.082177
 51
357.879976
  0
ENDBLK
  5
9F
  8
_________1
  0
BLOCK
  8
_________1
  2
AIGNBL0201001C
 70
     0
 10
0.0
 20
0.0
 30
0.0
  3
AIGNBL0201001C
  1

  0
LINE
  5
A2
  8
_________1
  6
AIGENLINE002
 62
     7
 10
170.07400000000001
 20
127.078
 30
0.0
 11
169.42599999999999
 21
117.482
 31
0.0
  0
ENDBLK
  5
A3
  8
_________1
  0
BLOCK
  8
_________1
  2
AIGNBL0201001D
 70
     0
 10
0.0
 20
0.0
 30
0.0
  3
AIGNBL0201001D
  1

  0
LINE
  5
A6
  8
_________1
 62
     7
 10
142.45099999999999
 20
123.53
 30
0.0
 11
184.20500000000001
 21
123.53
 31
0.0
  0
ENDBLK
  5
A7
  8
_________1
  0
BLOCK
  8
_________1
  2
AIGNBL0201001E
 70
     0
 10
0.0
 20
0.0
 30
0.0
  3
AIGNBL0201001E
  1

  0
LINE
  5
AA
  8
_________1
 62
     7
 10
182.20500000000001
 20
116.53100000000001
 30
0.0
 11
182.20500000000001
 21
123.53
 31
0.0
  0
ENDBLK
  5
AB
  8
_________1
  0
BLOCK
  8
_________1
  2
AIGNBL0201001F
 70
     0
 10
0.0
 20
0.0
 30
0.0
  3
AIGNBL0201001F
  1

  0
LINE
  5
AE
  8
_________1
 62
     7
 10
183.684
 20
129.03
 30
0.0
 11
138.18799999999999
 21
129.03
 31
0.0
  0
ENDBLK
  5
AF
  8
_________1
  0
BLOCK
  8
_________1
  2
AIGNBL02010020
 70
     0
 10
0.0
 20
0.0
 30
0.0
  3
AIGNBL02010020
  1

  0
LINE
  5
B2
  8
_________1
 62
     7
 10
184.20500000000001
 20
113.55200000000001
 30
0.0
 11
184.20500000000001
 21
121.072
 31
0.0
  0
ENDBLK
  5
B3
  8
_________1
  0
BLOCK
  8
_________1
  2
AIGNBL02010021
 70
     0
 10
0.0
 20
0.0
 30
0.0
  3
AIGNBL02010021
  1

  0
LINE
  5
B6
  8
_________1
 62
     7
 10
147.66399999999999
 20
116.53100000000001
 30
0.0
 11
184.20500000000001
 21
116.53100000000001
 31
0.0
  0
ENDBLK
  5
B7
  8
_________1
  0
BLOCK
  8
_________1
  2
AIGNBL02010022
 70
     0
 10
0.0
 20
0.0
 30
0.0
  3
AIGNBL02010022
  1

  0
LINE
  5
BA
  8
_________1
 62
     7
 10
149.21000000000001
 20
113.03100000000001
 30
0.0
 11
157.708
 21
113.03100000000001
 31
0.0
  0
ENDBLK
  5
BB
  8
_________1
  0
BLOCK
  8
_________1
  2
AIGNBL02010023
 70
     0
 10
0.0
 20
0.0
 30
0.0
  3
AIGNBL02010023
  1

  0
LINE
  5
BE
  8
_________1
  6
AIGENLINE002
 62
     7
 10
178.98099999999999
 20
128.03
 30
0.0
 11
174.44
 21
128.03
 31
0.0
  0
ENDBLK
  5
BF
  8
_________1
  0
BLOCK
  8
_________1
  2
AIGNBL02010024
 70
     0
 10
0.0
 20
0.0
 30
0.0
  3
AIGNBL02010024
  1

  0
ARC
  5
C2
  8
_________1
 62
     7
 10
77.630794999999992
 20
112.32429
 30
0.0
 40
0.7940520000000002
 50
272.24506100000002
 51
357.88425599999999
  0
ENDBLK
  5
C3
  8
_________1
  0
BLOCK
  8
_________1
  2
AIGNBL02010025
 70
     0
 10
0.0
 20
0.0
 30
0.0
  3
AIGNBL02010025
  1

  0
LINE
  5
C6
  8
_________1
 62
     7
 10
78.424300000000002
 20
113.03100000000001
 30
0.0
 11
78.424300000000002
 21
112.295
 31
0.0
  0
ENDBLK
  5
C7
  8
_________1
  0
BLOCK
  8
_________1
  2
AIGNBL02010026
 70
     0
 10
0.0
 20
0.0
 30
0.0
  3
AIGNBL02010026
  1

  0
LINE
  5
CA
  8
_________1
 62
     7
 10
73.150199999999998
 20
111.53100000000001
 30
0.0
 11
77.661900000000003
 21
111.53100000000001
 31
0.0
  0
ENDBLK
  5
CB
  8
_________1
  0
BLOCK
  8
_________1
  2
AIGNBL02010027
 70
     0
 10
0.0
 20
0.0
 30
0.0
  3
AIGNBL02010027
  1

  0
ARC
  5
CE
  8
_________1
 62
     7
 10
110.46116600000001
 20
125.33928299999999
 30
0.0
 40
3.5869620000000002
 50
318.684348
 51
329.70528100000013
  0
ARC
  5
CF
  8
_________1
 62
     7
 10
109.315006
 20
126.299847
 30
0.0
 40
5.0821170000000002
 50
310.56802299999998
 51
319.08163999999999
  0
ARC
  5
D0
  8
_________1
 62
     7
 10
107.649545
 20
128.179295
 30
0.0
 40
7.5930649999999993
 50
302.4344549999999
 51
310.891299
  0
ARC
  5
D1
  8
_________1
 62
     7
 10
105.425009
 20
131.49198100000001
 30
0.0
 40
11.582523999999999
 50
298.35158899999999
 51
302.93316099999998
  0
ARC
  5
D2
  8
_________1
 62
     7
 10
102.970152
 20
135.949342
 30
0.0
 40
16.671047000000002
 50
293.28949799999998
 51
298.50171899999998
  0
ARC
  5
D3
  8
_________1
 62
     7
 10
99.449866
 20
143.810159
 30
0.0
 40
25.283508000000001
 50
289.84016200000002
 51
293.57381400000003
  0
ARC
  5
D4
  8
_________1
 62
     7
 10
95.007995999999977
 20
155.82586499999999
 30
0.0
 40
38.093689000000012
 50
286.459226
 51
289.990746
  0
ARC
  5
D5
  8
_________1
 62
     7
 10
89.353701000000001
 20
174.360151
 30
0.0
 40
57.47077199999999
 50
284.19122700000003
 51
286.62992500000001
  0
ARC
  5
D6
  8
_________1
 62
     7
 10
81.868781000000013
 20
203.4297
 30
0.0
 40
87.488293999999996
 50
282.00792899999999
 51
284.27626299999997
  0
ARC
  5
D7
  8
_________1
 62
     7
 10
68.605533999999992
 20
264.21487000000002
 30
0.0
 40
149.70314999999999
 50
281.03454900000003
 51
282.13302999999991
  0
ARC
  5
D8
  8
_________1
 62
     7
 10
328.37491299999999
 20
-1072.2046640000001
 30
0.0
 40
1211.728959
 50
100.995524
 51
101.196316
  0
ENDBLK
  5
D9
  8
_________1
  0
BLOCK
  8
_________1
  2
AIGNBL02010028
 70
     0
 10
0.0
 20
0.0
 30
0.0
  3
AIGNBL02010028
  1

  0
ARC
  5
DC
  8
_________1
 62
     7
 10
118.10476
 20
124.321941
 30
0.0
 40
0.7926370000000002
 50
272.1216720000001
 51
357.87833799999999
  0
ENDBLK
  5
DD
  8
_________1
  0
BLOCK
  8
_________1
  2
AIGNBL02010029
 70
     0
 10
0.0
 20
0.0
 30
0.0
  3
AIGNBL02010029
  1

  0
ARC
  5
E0
  8
_________1
 62
     7
 10
91.359061999999994
 20
113.82098999999999
 30
0.0
 40
0.7906220000000001
 50
272.00554499999998
 51
357.86486600000001
  0
ENDBLK
  5
E1
  8
_________1
  0
BLOCK
  8
_________1
  2
AIGNBL0201002A
 70
     0
 10
0.0
 20
0.0
 30
0.0
  3
AIGNBL0201002A
  1

  0
LINE
  5
E4
  8
_________1
 62
     7
 10
92.149100000000004
 20
113.792
 30
0.0
 11
92.149100000000004
 21
115.29000000000001
 31
0.0
  0
ENDBLK
  5
E5
  8
_________1
  0
BLOCK
  8
_________1
  2
AIGNBL0201002B
 70
     0
 10
0.0
 20
0.0
 30
0.0
  3
AIGNBL0201002B
  1

  0
LINE
  5
E8
  8
_________1
 62
     7
 10
118.89700000000001
 20
124.29300000000001
 30
0.0
 11
118.89700000000001
 21
128.267
 31
0.0
  0
ENDBLK
  5
E9
  8
_________1
  0
BLOCK
  8
_________1
  2
AIGNBL0201002C
 70
     0
 10
0.0
 20
0.0
 30
0.0
  3
AIGNBL0201002C
  1

  0
LINE
  5
EC
  8
_________1
 62
     7
 10
73.150199999999998
 20
113.03100000000001
 30
0.0
 11
91.386700000000005
 21
113.03100000000001
 31
0.0
  0
ENDBLK
  5
ED
  8
_________1
  0
BLOCK
  8
_________1
  2
AIGNBL0201002D
 70
     0
 10
0.0
 20
0.0
 30
0.0
  3
AIGNBL0201002D
  1

  0
LINE
  5
F0
  8
_________1
 62
     7
 10
73.150199999999998
 20
123.53
 30
0.0
 11
118.134
 21
123.53
 31
0.0
  0
ENDBLK
  5
F1
  8
_________1
  0
BLOCK
  8
_________1
  2
AIGNBL0201002E
 70
     0
 10
0.0
 20
0.0
 30
0.0
  3
AIGNBL0201002E
  1

  0
ARC
  5
F4
  8
_________1
 62
     7
 10
118.104685
 20
128.23816599999989
 30
0.0
 40
0.7927020000000001
 50
2.1010610000000001
 51
87.873056000000005
  0
ENDBLK
  5
F5
  8
_________1
  0
BLOCK
  8
_________1
  2
AIGNBL0201002F
 70
     0
 10
0.0
 20
0.0
 30
0.0
  3
AIGNBL0201002F
  1

  0
LINE
  5
F8
  8
_________1
 62
     7
 10
118.134
 20
129.03
 30
0.0
 11
73.150199999999998
 21
129.03
 31
0.0
  0
ENDBLK
  5
F9
  8
_________1
  0
BLOCK
  8
_________1
  2
AIGNBL02010030
 70
     0
 10
0.0
 20
0.0
 30
0.0
  3
AIGNBL02010030
  1

  0
ARC
  5
FC
  8
_________1
 62
     7
 10
68.669038
 20
112.32429
 30
0.0
 40
0.7940520000000002
 50
182.1157639999999
 51
267.75495899999999
  0
ENDBLK
  5
FD
  8
_________1
  0
BLOCK
  8
_________1
  2
AIGNBL02010031
 70
     0
 10
0.0
 20
0.0
 30
0.0
  3
AIGNBL02010031
  1

  0
LINE
  5
100
  8
_________1
 62
     7
 10
67.875500000000002
 20
113.03100000000001
 30
0.0
 11
67.875500000000002
 21
112.295
 31
0.0
  0
ENDBLK
  5
101
  8
_________1
  0
BLOCK
  8
_________1
  2
AIGNBL02010032
 70
     0
 10
0.0
 20
0.0
 30
0.0
  3
AIGNBL02010032
  1

  0
LINE
  5
104
  8
_________1
 62
     7
 10
73.150199999999998
 20
111.53100000000001
 30
0.0
 11
68.637900000000002
 21
111.53100000000001
 31
0.0
  0
ENDBLK
  5
105
  8
_________1
  0
BLOCK
  8
_________1
  2
AIGNBL02010033
 70
     0
 10
0.0
 20
0.0
 30
0.0
  3
AIGNBL02010033
  1

  0
ARC
  5
108
  8
_________1
 62
     7
 10
35.838757000000001
 20
125.34110099999999
 30
0.0
 40
3.5889980000000001
 50
210.30935899999989
 51
221.325739
  0
ARC
  5
109
  8
_________1
 62
     7
 10
36.986381999999999
 20
126.303477
 30
0.0
 40
5.086443
 50
220.93027000000001
 51
229.437971
  0
ARC
  5
10A
  8
_________1
 62
     7
 10
38.652887999999997
 20
128.18518499999999
 30
0.0
 40
7.5997789999999981
 50
229.11809199999999
 51
237.568692
  0
ARC
  5
10B
  8
_________1
 62
     7
 10
40.869647999999991
 20
131.48572200000001
 30
0.0
 40
11.574809999999999
 50
237.068814
 51
241.65394499999999
  0
ARC
  5
10C
  8
_________1
 62
     7
 10
43.331918999999999
 20
135.95671100000001
 30
0.0
 40
16.678844999999999
 50
241.502016
 51
246.71231499999999
  0
ARC
  5
10D
  8
_________1
 62
     7
 10
46.852724000000002
 20
143.81967299999999
 30
0.0
 40
25.293475999999998
 50
246.42833999999999
 51
250.16077000000001
  0
ARC
  5
10E
  8
_________1
 62
     7
 10
51.295318000000002
 20
155.83893
 30
0.0
 40
38.107241000000002
 50
250.01072199999999
 51
253.54115400000001
  0
ARC
  5
10F
  8
_________1
 62
     7
 10
56.950688
 20
174.37831499999999
 30
0.0
 40
57.489517999999997
 50
253.370802
 51
255.80875700000001
  0
ARC
  5
110
  8
_________1
 62
     7
 10
64.434381000000002
 20
203.44403199999999
 30
0.0
 40
87.503022999999985
 50
255.72391099999999
 51
257.99185599999998
  0
ARC
  5
111
  8
_________1
 62
     7
 10
77.716313999999997
 20
264.31867699999998
 30
0.0
 40
149.80928299999999
 50
257.86707000000001
 51
258.964743
  0
ARC
  5
112
  8
_________1
 62
     7
 10
-180.99381399999999
 20
-1066.590209
 30
0.0
 40
1206.011309
 50
78.802288000000004
 51
79.004016000000007
  0
ENDBLK
  5
113
  8
_________1
  0
BLOCK
  8
_________1
  2
AIGNBL02010034
 70
     0
 10
0.0
 20
0.0
 30
0.0
  3
AIGNBL02010034
  1

  0
ARC
  5
116
  8
_________1
 62
     7
 10
28.194407000000002
 20
124.321989
 30
0.0
 40
0.792661
 50
182.12513999999999
 51
267.926624
  0
ENDBLK
  5
117
  8
_________1
  0
BLOCK
  8
_________1
  2
AIGNBL02010035
 70
     0
 10
0.0
 20
0.0
 30
0.0
  3
AIGNBL02010035
  1

  0
ARC
  5
11A
  8
_________1
 62
     7
 10
54.941418999999989
 20
113.820905
 30
0.0
 40
0.790578
 50
182.129087
 51
267.909853
  0
ENDBLK
  5
11B
  8
_________1
  0
BLOCK
  8
_________1
  2
AIGNBL02010036
 70
     0
 10
0.0
 20
0.0
 30
0.0
  3
AIGNBL02010036
  1

  0
LINE
  5
11E
  8
_________1
 62
     7
 10
54.151400000000002
 20
113.792
 30
0.0
 11
54.151400000000002
 21
115.29000000000001
 31
0.0
  0
ENDBLK
  5
11F
  8
_________1
  0
BLOCK
  8
_________1
  2
AIGNBL02010037
 70
     0
 10
0.0
 20
0.0
 30
0.0
  3
AIGNBL02010037
  1

  0
LINE
  5
122
  8
_________1
 62
     7
 10
27.4023
 20
124.29300000000001
 30
0.0
 11
27.4023
 21
128.267
 31
0.0
  0
ENDBLK
  5
123
  8
_________1
  0
BLOCK
  8
_________1
  2
AIGNBL02010038
 70
     0
 10
0.0
 20
0.0
 30
0.0
  3
AIGNBL02010038
  1

  0
LINE
  5
126
  8
_________1
 62
     7
 10
73.150199999999998
 20
113.03100000000001
 30
0.0
 11
54.912599999999998
 21
113.03100000000001
 31
0.0
  0
ENDBLK
  5
127
  8
_________1
  0
BLOCK
  8
_________1
  2
AIGNBL02010039
 70
     0
 10
0.0
 20
0.0
 30
0.0
  3
AIGNBL02010039
  1

  0
LINE
  5
12A
  8
_________1
 62
     7
 10
73.150199999999998
 20
123.53
 30
0.0
 11
28.165700000000001
 21
123.53
 31
0.0
  0
ENDBLK
  5
12B
  8
_________1
  0
BLOCK
  8
_________1
  2
AIGNBL0201003A
 70
     0
 10
0.0
 20
0.0
 30
0.0
  3
AIGNBL0201003A
  1

  0
ARC
  5
12E
  8
_________1
 62
     7
 10
28.195115000000001
 20
128.237483
 30
0.0
 40
0.7933819999999999
 50
92.122695999999976
 51
177.85141300000001
  0
ENDBLK
  5
12F
  8
_________1
  0
BLOCK
  8
_________1
  2
AIGNBL0201003B
 70
     0
 10
0.0
 20
0.0
 30
0.0
  3
AIGNBL0201003B
  1

  0
LINE
  5
132
  8
_________1
 62
     7
 10
28.165700000000001
 20
129.03
 30
0.0
 11
73.150199999999998
 21
129.03
 31
0.0
  0
ENDBLK
  5
133
  8
_________1
  0
BLOCK
  8
_________1
  2
AIGNBL0201003C
 70
     0
 10
0.0
 20
0.0
 30
0.0
  3
AIGNBL0201003C
  1

  0
LINE
  5
136
  8
_________1
  6
AIGENLINE001
 62
     7
 10
73.150199999999998
 20
130.63200000000001
 30
0.0
 11
73.150199999999998
 21
110.199
 31
0.0
  0
ENDBLK
  5
137
  8
_________1
  0
BLOCK
  8
_________1
  2
AIGNBL0201003D
 70
     0
 10
0.0
 20
0.0
 30
0.0
  3
AIGNBL0201003D
  1

  0
LINE
  5
13A
  8
_________1
 62
     7
 10
133.47900000000001
 20
189.62
 30
0.0
 11
134.071
 21
191.83099999999999
 31
0.0
  0
LINE
  5
13B
  8
_________1
 62
     7
 10
134.071
 20
191.83099999999999
 30
0.0
 11
134.6629999999999
 21
189.62
 31
0.0
  0
LINE
  5
13C
  8
_________1
 62
     7
 10
134.6629999999999
 20
189.62
 30
0.0
 11
133.47900000000001
 21
189.62
 31
0.0
  0
ENDBLK
  5
13D
  8
_________1
  0
BLOCK
  8
_________1
  2
AIGNBL0201003E
 70
     0
 10
0.0
 20
0.0
 30
0.0
  3
AIGNBL0201003E
  1

  0
LINE
  5
140
  8
_________1
 62
     7
 10
88.070099999999996
 20
204.499
 30
0.0
 11
88.070099999999996
 21
224.27799999999999
 31
0.0
  0
ENDBLK
  5
141
  8
_________1
  0
BLOCK
  8
_________1
  2
AIGNBL0201003F
 70
     0
 10
0.0
 20
0.0
 30
0.0
  3
AIGNBL0201003F
  1

  0
LINE
  5
144
  8
_________1
 62
     7
 10
73.148600000000002
 20
204.499
 30
0.0
 11
88.070099999999996
 21
204.499
 31
0.0
  0
ENDBLK
  5
145
  8
_________1
  0
BLOCK
  8
_________1
  2
AIGNBL02010040
 70
     0
 10
0.0
 20
0.0
 30
0.0
  3
AIGNBL02010040
  1

  0
LINE
  5
148
  8
_________1
 62
     7
 10
104.39700000000001
 20
224.27799999999999
 30
0.0
 11
104.39700000000001
 21
192.779
 31
0.0
  0
ENDBLK
  5
149
  8
_________1
  0
BLOCK
  8
_________1
  2
AIGNBL02010041
 70
     0
 10
0.0
 20
0.0
 30
0.0
  3
AIGNBL02010041
  1

  0
LINE
  5
14C
  8
_________1
 62
     7
 10
73.148600000000002
 20
224.27799999999999
 30
0.0
 11
104.39700000000001
 21
224.27799999999999
 31
0.0
  0
ENDBLK
  5
14D
  8
_________1
  0
BLOCK
  8
_________1
  2
AIGNBL02010042
 70
     0
 10
0.0
 20
0.0
 30
0.0
  3
AIGNBL02010042
  1

  0
LINE
  5
150
  8
_________1
 62
     7
 10
73.148600000000002
 20
192.779
 30
0.0
 11
117.896
 21
192.779
 31
0.0
  0
ENDBLK
  5
151
  8
_________1
  0
BLOCK
  8
_________1
  2
AIGNBL02010043
 70
     0
 10
0.0
 20
0.0
 30
0.0
  3
AIGNBL02010043
  1

  0
LINE
  5
154
  8
_________1
 62
     7
 10
73.148600000000002
 20
191.77799999999999
 30
0.0
 11
117.896
 21
191.77799999999999
 31
0.0
  0
ENDBLK
  5
155
  8
_________1
  0
BLOCK
  8
_________1
  2
AIGNBL02010044
 70
     0
 10
0.0
 20
0.0
 30
0.0
  3
AIGNBL02010044
  1

  0
ARC
  5
158
  8
_________1
 62
     7
 10
117.857731
 20
192.817432
 30
0.0
 40
1.039841999999999
 50
272.13072
 51
357.86928999999998
  0
ENDBLK
  5
159
  8
_________1
  0
BLOCK
  8
_________1
  2
AIGNBL02010045
 70
     0
 10
0.0
 20
0.0
 30
0.0
  3
AIGNBL02010045
  1

  0
LINE
  5
15C
  8
_________1
 62
     7
 10
117.896
 20
192.779
 30
0.0
 11
117.896
 21
236.27799999999999
 31
0.0
  0
ENDBLK
  5
15D
  8
_________1
  0
BLOCK
  8
_________1
  2
AIGNBL02010046
 70
     0
 10
0.0
 20
0.0
 30
0.0
  3
AIGNBL02010046
  1

  0
ARC
  5
160
  8
_________1
 62
     7
 10
116.85765499999999
 20
236.23887199999999
 30
0.0
 40
1.039474
 50
2.1587809999999998
 51
87.870820999999992
  0
ENDBLK
  5
161
  8
_________1
  0
BLOCK
  8
_________1
  2
AIGNBL02010047
 70
     0
 10
0.0
 20
0.0
 30
0.0
  3
AIGNBL02010047
  1

  0
LINE
  5
164
  8
_________1
 62
     7
 10
116.896
 20
237.27799999999999
 30
0.0
 11
73.148600000000002
 21
237.27799999999999
 31
0.0
  0
ENDBLK
  5
165
  8
_________1
  0
BLOCK
  8
_________1
  2
AIGNBL02010048
 70
     0
 10
0.0
 20
0.0
 30
0.0
  3
AIGNBL02010048
  1

  0
LINE
  5
168
  8
_________1
 62
     7
 10
118.89700000000001
 20
192.779
 30
0.0
 11
118.89700000000001
 21
237.27799999999999
 31
0.0
  0
ENDBLK
  5
169
  8
_________1
  0
BLOCK
  8
_________1
  2
AIGNBL02010049
 70
     0
 10
0.0
 20
0.0
 30
0.0
  3
AIGNBL02010049
  1

  0
ARC
  5
16C
  8
_________1
 62
     7
 10
117.857783
 20
237.238463
 30
0.0
 40
1.0398279999999991
 50
2.1870720000000001
 51
87.872138000000007
  0
ENDBLK
  5
16D
  8
_________1
  0
BLOCK
  8
_________1
  2
AIGNBL0201004A
 70
     0
 10
0.0
 20
0.0
 30
0.0
  3
AIGNBL0201004A
  1

  0
LINE
  5
170
  8
_________1
 62
     7
 10
117.896
 20
238.27799999999999
 30
0.0
 11
73.148600000000002
 21
238.27799999999999
 31
0.0
  0
ENDBLK
  5
171
  8
_________1
  0
BLOCK
  8
_________1
  2
AIGNBL0201004B
 70
     0
 10
0.0
 20
0.0
 30
0.0
  3
AIGNBL0201004B
  1

  0
LINE
  5
174
  8
_________1
  6
AIGENLINE001
 62
     7
 10
76.34899999999999
 20
231.77799999999999
 30
0.0
 11
69.948800000000006
 21
231.77799999999999
 31
0.0
  0
ENDBLK
  5
175
  8
_________1
  0
BLOCK
  8
_________1
  2
AIGNBL0201004C
 70
     0
 10
0.0
 20
0.0
 30
0.0
  3
AIGNBL0201004C
  1

  0
LINE
  5
178
  8
_________1
  6
AIGENLINE001
 62
     7
 10
84.648099999999985
 20
241.452
 30
0.0
 11
84.648099999999985
 21
233.541
 31
0.0
  0
ENDBLK
  5
179
  8
_________1
  0
BLOCK
  8
_________1
  2
AIGNBL0201004D
 70
     0
 10
0.0
 20
0.0
 30
0.0
  3
AIGNBL0201004D
  1

  0
LINE
  5
17C
  8
_________1
  6
AIGENLINE001
 62
     7
 10
61.648999999999987
 20
241.452
 30
0.0
 11
61.648999999999987
 21
233.541
 31
0.0
  0
ENDBLK
  5
17D
  8
_________1
  0
BLOCK
  8
_________1
  2
AIGNBL0201004E
 70
     0
 10
0.0
 20
0.0
 30
0.0
  3
AIGNBL0201004E
  1

  0
LINE
  5
180
  8
_________1
  6
AIGENLINE001
 62
     7
 10
73.148600000000002
 20
241.452
 30
0.0
 11
73.148600000000002
 21
187.845
 31
0.0
  0
ENDBLK
  5
181
  8
_________1
  0
BLOCK
  8
_________1
  2
AIGNBL0201004F
 70
     0
 10
0.0
 20
0.0
 30
0.0
  3
AIGNBL0201004F
  1

  0
LINE
  5
184
  8
_________1
  6
AIGENLINE001
 62
     7
 10
77.648600000000002
 20
216.27799999999999
 30
0.0
 11
68.649000000000001
 21
216.27799999999999
 31
0.0
  0
ENDBLK
  5
185
  8
_________1
  0
BLOCK
  8
_________1
  2
AIGNBL02010050
 70
     0
 10
0.0
 20
0.0
 30
0.0
  3
AIGNBL02010050
  1

  0
LINE
  5
188
  8
_________1
 62
     7
 10
58.225900000000003
 20
204.499
 30
0.0
 11
58.225900000000003
 21
224.27799999999999
 31
0.0
  0
ENDBLK
  5
189
  8
_________1
  0
BLOCK
  8
_________1
  2
AIGNBL02010051
 70
     0
 10
0.0
 20
0.0
 30
0.0
  3
AIGNBL02010051
  1

  0
LINE
  5
18C
  8
_________1
 62
     7
 10
73.148600000000002
 20
204.499
 30
0.0
 11
58.225900000000003
 21
204.499
 31
0.0
  0
ENDBLK
  5
18D
  8
_________1
  0
BLOCK
  8
_________1
  2
AIGNBL02010052
 70
     0
 10
0.0
 20
0.0
 30
0.0
  3
AIGNBL02010052
  1

  0
LINE
  5
190
  8
_________1
 62
     7
 10
41.89929999999999
 20
224.27799999999999
 30
0.0
 11
41.89929999999999
 21
192.779
 31
0.0
  0
ENDBLK
  5
191
  8
_________1
  0
BLOCK
  8
_________1
  2
AIGNBL02010053
 70
     0
 10
0.0
 20
0.0
 30
0.0
  3
AIGNBL02010053
  1

  0
LINE
  5
194
  8
_________1
 62
     7
 10
73.148600000000002
 20
224.27799999999999
 30
0.0
 11
41.89929999999999
 21
224.27799999999999
 31
0.0
  0
ENDBLK
  5
195
  8
_________1
  0
BLOCK
  8
_________1
  2
AIGNBL02010054
 70
     0
 10
0.0
 20
0.0
 30
0.0
  3
AIGNBL02010054
  1

  0
LINE
  5
198
  8
_________1
 62
     7
 10
73.148600000000002
 20
192.779
 30
0.0
 11
28.3995
 21
192.779
 31
0.0
  0
ENDBLK
  5
199
  8
_________1
  0
BLOCK
  8
_________1
  2
AIGNBL02010055
 70
     0
 10
0.0
 20
0.0
 30
0.0
  3
AIGNBL02010055
  1

  0
LINE
  5
19C
  8
_________1
 62
     7
 10
73.148600000000002
 20
191.77799999999999
 30
0.0
 11
28.3995
 21
191.77799999999999
 31
0.0
  0
ENDBLK
  5
19D
  8
_________1
  0
BLOCK
  8
_________1
  2
AIGNBL02010056
 70
     0
 10
0.0
 20
0.0
 30
0.0
  3
AIGNBL02010056
  1

  0
ARC
  5
1A0
  8
_________1
 62
     7
 10
28.438140000000001
 20
192.817432
 30
0.0
 40
1.039841999999999
 50
182.13073
 51
267.86930000000001
  0
ENDBLK
  5
1A1
  8
_________1
  0
BLOCK
  8
_________1
  2
AIGNBL02010057
 70
     0
 10
0.0
 20
0.0
 30
0.0
  3
AIGNBL02010057
  1

  0
LINE
  5
1A4
  8
_________1
 62
     7
 10
28.3995
 20
192.779
 30
0.0
 11
28.3995
 21
236.27799999999999
 31
0.0
  0
ENDBLK
  5
1A5
  8
_________1
  0
BLOCK
  8
_________1
  2
AIGNBL02010058
 70
     0
 10
0.0
 20
0.0
 30
0.0
  3
AIGNBL02010058
  1

  0
ARC
  5
1A8
  8
_________1
 62
     7
 10
29.438068999999999
 20
236.239026
 30
0.0
 40
1.0393209999999991
 50
92.130856999999978
 51
177.84936999999999
  0
ENDBLK
  5
1A9
  8
_________1
  0
BLOCK
  8
_________1
  2
AIGNBL02010059
 70
     0
 10
0.0
 20
0.0
 30
0.0
  3
AIGNBL02010059
  1

  0
LINE
  5
1AC
  8
_________1
 62
     7
 10
29.3994
 20
237.27799999999999
 30
0.0
 11
73.148600000000002
 21
237.27799999999999
 31
0.0
  0
ENDBLK
  5
1AD
  8
_________1
  0
BLOCK
  8
_________1
  2
AIGNBL0201005A
 70
     0
 10
0.0
 20
0.0
 30
0.0
  3
AIGNBL0201005A
  1

  0
LINE
  5
1B0
  8
_________1
 62
     7
 10
27.399000000000001
 20
192.779
 30
0.0
 11
27.399000000000001
 21
237.27799999999999
 31
0.0
  0
ENDBLK
  5
1B1
  8
_________1
  0
BLOCK
  8
_________1
  2
AIGNBL0201005B
 70
     0
 10
0.0
 20
0.0
 30
0.0
  3
AIGNBL0201005B
  1

  0
ARC
  5
1B4
  8
_________1
 62
     7
 10
28.438098
 20
237.23845299999999
 30
0.0
 40
1.0398389999999991
 50
92.128388999999984
 51
177.81236000000001
  0
ENDBLK
  5
1B5
  8
_________1
  0
BLOCK
  8
_________1
  2
AIGNBL0201005C
 70
     0
 10
0.0
 20
0.0
 30
0.0
  3
AIGNBL0201005C
  1

  0
LINE
  5
1B8
  8
_________1
 62
     7
 10
28.3995
 20
238.27799999999999
 30
0.0
 11
73.148600000000002
 21
238.27799999999999
 31
0.0
  0
ENDBLK
  5
1B9
  8
_________1
  0
BLOCK
  8
_________2
  2
AIGNBL03010002
 70
     0
 10
0.0
 20
0.0
 30
0.0
  3
AIGNBL03010002
  1

  0
LINE
  5
1BC
  8
_________2
 62
     7
 10
81.503399999999985
 20
51.1479
 30
0.0
 11
79.317099999999996
 21
51.1479
 31
0.0
  0
LINE
  5
1BD
  8
_________2
 62
     7
 10
81.996000000000009
 20
51.1479
 30
0.0
 11
81.743799999999993
 21
51.1479
 31
0.0
  0
LINE
  5
1BE
  8
_________2
 62
     7
 10
82.488699999999994
 20
51.1479
 30
0.0
 11
85.413600000000002
 21
51.1479
 31
0.0
  0
LINE
  5
1BF
  8
_________2
 62
     7
 10
81.996000000000009
 20
51.1479
 30
0.0
 11
82.248199999999997
 21
51.1479
 31
0.0
  0
LINE
  5
1C0
  8
_________2
 62
     7
 10
75.599800000000002
 20
51.1479
 30
0.0
 11
73.412899999999993
 21
51.1479
 31
0.0
  0
LINE
  5
1C1
  8
_________2
 62
     7
 10
76.091800000000006
 20
51.1479
 30
0.0
 11
75.840299999999999
 21
51.1479
 31
0.0
  0
LINE
  5
1C2
  8
_________2
 62
     7
 10
76.091800000000006
 20
51.640599999999999
 30
0.0
 11
76.091800000000006
 21
53.827500000000001
 31
0.0
  0
LINE
  5
1C3
  8
_________2
 62
     7
 10
76.091800000000006
 20
51.1479
 30
0.0
 11
76.091800000000006
 21
51.400500000000001
 31
0.0
  0
LINE
  5
1C4
  8
_________2
 62
     7
 10
76.584400000000002
 20
51.1479
 30
0.0
 11
78.7714
 21
51.1479
 31
0.0
  0
LINE
  5
1C5
  8
_________2
 62
     7
 10
76.091800000000006
 20
51.1479
 30
0.0
 11
76.343999999999994
 21
51.1479
 31
0.0
  0
LINE
  5
1C6
  8
_________2
 62
     7
 10
76.091800000000006
 20
50.655999999999999
 30
0.0
 11
76.091800000000006
 21
48.4694
 31
0.0
  0
LINE
  5
1C7
  8
_________2
 62
     7
 10
76.091800000000006
 20
51.1479
 30
0.0
 11
76.091800000000006
 21
50.8964
 31
0.0
  0
LINE
  5
1C8
  8
_________2
 62
     7
 10
79.802899999999994
 20
49.928400000000011
 30
0.0
 11
84.980900000000005
 21
49.063600000000001
 31
0.0
  0
LINE
  5
1C9
  8
_________2
 62
     7
 10
79.802899999999994
 20
52.367800000000003
 30
0.0
 11
84.980900000000005
 21
53.2333
 31
0.0
  0
LINE
  5
1CA
  8
_________2
 62
     7
 10
84.980900000000005
 20
49.063600000000001
 30
0.0
 11
84.980900000000005
 21
53.2333
 31
0.0
  0
LINE
  5
1CB
  8
_________2
 62
     7
 10
79.802899999999994
 20
49.928400000000011
 30
0.0
 11
79.802899999999994
 21
52.367800000000003
 31
0.0
  0
ARC
  5
1CC
  8
_________2
 62
     7
 10
76.045203999999998
 20
51.100991
 30
0.0
 40
1.267714
 50
2.1220840000000001
 51
87.894083999999992
  0
ARC
  5
1CD
  8
_________2
 62
     7
 10
76.138734999999997
 20
51.101345000000002
 30
0.0
 40
1.267374999999999
 50
92.122849999999985
 51
177.893304
  0
ARC
  5
1CE
  8
_________2
 62
     7
 10
76.138711000000001
 20
51.194856000000001
 30
0.0
 40
1.267363
 50
182.121815
 51
267.87821400000001
  0
ARC
  5
1CF
  8
_________2
 62
     7
 10
76.044899000000001
 20
51.195538999999997
 30
0.0
 40
1.2680439999999991
 50
272.11916400000001
 51
357.84848499999998
  0
ARC
  5
1D0
  8
_________2
 62
     7
 10
76.011420000000001
 20
51.067923
 30
0.0
 40
2.1668310000000002
 50
2.1161439999999989
 51
87.874379000000005
  0
ARC
  5
1D1
  8
_________2
 62
     7
 10
76.171850000000006
 20
51.068944999999999
 30
0.0
 40
2.1657980000000001
 50
92.118487999999999
 51
177.909886
  0
ARC
  5
1D2
  8
_________2
 62
     7
 10
76.171792000000011
 20
51.22793699999999
 30
0.0
 40
2.1657779999999991
 50
182.11700400000001
 51
267.88302499999998
  0
ARC
  5
1D3
  8
_________2
 62
     7
 10
76.011817000000008
 20
51.228619999999999
 30
0.0
 40
2.1664590000000001
 50
272.11546800000002
 51
357.86560400000002
  0
ENDBLK
  5
1D4
  8
_________2
  0
ENDSEC
  0
SECTION
  2
ENTITIES
  0
TEXT
  5
1D5
  8
____
 62
     7
 10
173.577
 20
133.06413499999999
 30
0.0
 40
3.0923400000000001
  1
10
 50
90.0
 41
0.5
 72
     2
 11
173.577
 21
134.86799999999999
 31
0.0
  0
TEXT
  5
1D6
  8
____
 62
     7
 10
82.068880000000007
 20
226.18799999999999
 30
0.0
 40
3.0923400000000001
  1
%%c35
 41
0.5
 72
     2
 11
86.192000000000007
 21
226.18799999999999
 31
0.0
  0
TEXT
  5
1D7
  8
____
 62
     7
 10
59.685600000000001
 20
210.327
 30
0.0
 40
3.0923400000000001
  1
%%c45
 41
0.5
  0
TEXT
  5
1D8
  8
____
 62
     7
 10
154.221
 20
131.34126999999989
 30
0.0
 40
3.0923400000000001
  1
125
 50
90.0
 41
0.5
 72
     2
 11
154.221
 21
134.94900000000001
 31
0.0
  0
TEXT
  5
1D9
  8
____
 62
     7
 10
171.27328750000001
 20
99.720600000000005
 30
0.0
 40
3.0923400000000001
  1
220
 41
0.5
 72
     1
 11
173.20599999999999
 21
99.720600000000005
 31
0.0
  0
TEXT
  5
1DA
  8
____
 62
     7
 10
71.217987500000007
 20
99.720600000000005
 30
0.0
 40
3.0923400000000001
  1
380
 41
0.5
 72
     1
 11
73.150700000000001
 21
99.720600000000005
 31
0.0
  0
TEXT
  5
1DB
  8
____
 62
     7
 10
71.215887499999994
 20
136.68899999999999
 30
0.0
 40
3.0923400000000001
  1
230
 41
0.5
 72
     1
 11
73.148600000000002
 21
136.68899999999999
 31
0.0
  0
TEXT
  5
1DC
  8
____
 62
     7
 10
32.782535000000003
 20
184.81399999999999
 30
0.0
 40
3.0923400000000001
  1
10
 41
0.5
 72
     2
 11
34.586399999999998
 21
184.81399999999999
 31
0.0
  0
TEXT
  5
1DD
  8
____
 62
     7
 10
32.844935
 20
178.655
 30
0.0
 40
3.0923400000000001
  1
145
 41
0.5
 72
     1
 11
34.648800000000001
 21
178.655
 31
0.0
  0
TEXT
  5
1DE
  8
____
 62
     7
 10
109.84413499999999
 20
178.655
 30
0.0
 40
3.0923400000000001
  1
145
 41
0.5
 72
     1
 11
111.648
 21
178.655
 31
0.0
  0
TEXT
  5
1DF
  8
____
 62
     7
 10
51.114699999999999
 20
226.39528749999999
 30
0.0
 40
3.0923400000000001
  1
220
 50
90.0
 41
0.5
 72
     1
 11
51.114699999999999
 21
228.328
 31
0.0
  0
TEXT
  5
1E0
  8
____
 62
     7
 10
71.087040000000002
 20
178.655
 30
0.0
 40
3.0923400000000001
  1
625
 41
0.5
 72
     1
 11
73.148600000000002
 21
178.655
 31
0.0
  0
TEXT
  5
1E1
  8
____
 62
     7
 10
71.344735
 20
168.37700000000001
 30
0.0
 40
3.0923400000000001
  1
915
 41
0.5
 72
     1
 11
73.148600000000002
 21
168.37700000000001
 31
0.0
  0
TEXT
  5
1E2
  8
____
 62
     7
 10
127.94499999999999
 20
119.35498250000001
 30
0.0
 40
3.0923400000000001
  1
160
 50
90.0
 41
0.5
 72
     1
 11
127.94499999999999
 21
121.03
 31
0.0
  0
TEXT
  5
1E3
  8
____
 62
     7
 10
121.98099999999999
 20
132.50704999999999
 30
0.0
 40
3.0923400000000001
  1
55
 50
90.0
 41
0.5
 72
     2
 11
121.98099999999999
 21
135.084
 31
0.0
  0
TEXT
  5
1E4
  8
____
 62
     7
 10
134.09700000000001
 20
118.476135
 30
0.0
 40
3.0923400000000001
  1
175
 50
90.0
 41
0.5
 72
     1
 11
134.09700000000001
 21
120.28
 31
0.0
  0
TEXT
  5
1E5
  8
____
 62
     7
 10
133.35900000000001
 20
185.62599999999989
 30
0.0
 40
3.0923400000000001
  1
10
 50
90.0
 41
0.5
  0
TEXT
  5
1E6
  8
____
 62
     7
 10
41.418199999999999
 20
124.37137250000001
 30
0.0
 40
3.0923400000000001
  1
70
 50
90.0
 41
0.5
 72
     1
 11
41.418199999999999
 21
125.53100000000001
 31
0.0
  0
TEXT
  5
1E7
  8
____
 62
     7
 10
133.37100000000001
 20
206.22413499999999
 30
0.0
 40
3.0923400000000001
  1
315
 50
90.0
 41
0.5
 72
     1
 11
133.37100000000001
 21
208.02799999999999
 31
0.0
  0
TEXT
  5
1E8
  8
____
 62
     7
 10
133.37100000000001
 20
229.6029825
 30
0.0
 40
3.0923400000000001
  1
140
 50
90.0
 41
0.5
 72
     1
 11
133.37100000000001
 21
231.27799999999999
 31
0.0
  0
TEXT
  5
1E9
  8
____
 62
     7
 10
125.60299999999999
 20
233.73952499999999
 30
0.0
 40
3.0923400000000001
  1
65
 50
90.0
 41
0.5
 72
     1
 11
125.60299999999999
 21
235.02799999999999
 31
0.0
  0
TEXT
  5
1EA
  8
____
 62
     7
 10
125.60299999999999
 20
226.73952499999999
 30
0.0
 40
3.0923400000000001
  1
75
 50
90.0
 41
0.5
 72
     1
 11
125.60299999999999
 21
228.02799999999999
 31
0.0
  0
TEXT
  5
1EB
  8
____
 62
     7
 10
141.536
 20
212.96644000000001
 30
0.0
 40
3.0923400000000001
  1
465
 50
90.0
 41
0.5
 72
     1
 11
141.536
 21
215.02799999999999
 31
0.0
  0
INSERT
  5
1EC
  8
_________1
 62
     7
  2
AIGNBL02010002
 10
0.0
 20
0.0
 30
0.0
  0
LINE
  5
1ED
  8
_________1
 62
     7
 10
79.439099999999996
 20
225.488
 30
0.0
 11
86.192000000000007
 21
225.488
 31
0.0
  0
LINE
  5
1EE
  8
_________1
 62
     7
 10
59.685600000000001
 20
209.62700000000001
 30
0.0
 11
66.496399999999994
 21
209.62700000000001
 31
0.0
  0
INSERT
  5
1EF
  8
_________1
 62
     7
  2
AIGNBL02010003
 10
0.0
 20
0.0
 30
0.0
  0
LINE
  5
1F0
  8
_________1
 62
     7
 10
70.413499999999999
 20
212.70599999999999
 30
0.0
 11
71.557199999999995
 21
214.68700000000001
 31
0.0
  0
LINE
  5
1F1
  8
_________1
 62
     7
 10
71.557199999999995
 20
214.68700000000001
 30
0.0
 11
69.575000000000003
 21
213.54400000000001
 31
0.0
  0
LINE
  5
1F2
  8
_________1
 62
     7
 10
69.575000000000003
 20
213.54400000000001
 30
0.0
 11
70.413499999999999
 21
212.70599999999999
 31
0.0
  0
LINE
  5
1F3
  8
_________1
 62
     7
 10
75.883700000000005
 20
219.852
 30
0.0
 11
74.738900000000001
 21
217.869
 31
0.0
  0
LINE
  5
1F4
  8
_________1
 62
     7
 10
74.738900000000001
 20
217.869
 30
0.0
 11
76.722099999999983
 21
219.01300000000001
 31
0.0
  0
LINE
  5
1F5
  8
_________1
 62
     7
 10
76.722099999999983
 20
219.01300000000001
 30
0.0
 11
75.883700000000005
 21
219.852
 31
0.0
  0
LINE
  5
1F6
  8
_________1
 62
     7
 10
76.366900000000001
 20
229.39599999999999
 30
0.0
 11
74.385599999999997
 21
230.541
 31
0.0
  0
LINE
  5
1F7
  8
_________1
 62
     7
 10
74.385599999999997
 20
230.541
 30
0.0
 11
75.529499999999999
 21
228.55799999999999
 31
0.0
  0
LINE
  5
1F8
  8
_________1
 62
     7
 10
75.529499999999999
 20
228.55799999999999
 30
0.0
 11
76.366900000000001
 21
229.39599999999999
 31
0.0
  0
LINE
  5
1F9
  8
_________1
 62
     7
 10
69.928799999999995
 20
234.16
 30
0.0
 11
71.911000000000001
 21
233.01499999999999
 31
0.0
  0
LINE
  5
1FA
  8
_________1
 62
     7
 10
71.911000000000001
 20
233.01499999999999
 30
0.0
 11
70.767399999999995
 21
234.99799999999999
 31
0.0
  0
LINE
  5
1FB
  8
_________1
 62
     7
 10
70.767399999999995
 20
234.99799999999999
 30
0.0
 11
69.928799999999995
 21
234.16
 31
0.0
  0
INSERT
  5
1FC
  8
_________1
 62
     7
  2
AIGNBL02010004
 10
0.0
 20
0.0
 30
0.0
  0
LINE
  5
1FD
  8
_________1
 62
     7
 10
174.27799999999999
 20
134.86799999999999
 30
0.0
 11
174.27799999999999
 21
124.063
 31
0.0
  0
LINE
  5
1FE
  8
_________1
 62
     7
 10
184.20500000000001
 20
112.051
 30
0.0
 11
184.20500000000001
 21
98.188900000000004
 31
0.0
  0
LINE
  5
1FF
  8
_________1
 62
     7
 10
162.20599999999999
 20
108.54300000000001
 30
0.0
 11
162.20599999999999
 21
98.188900000000004
 31
0.0
  0
INSERT
  5
200
  8
_________1
 62
     7
  2
AIGNBL02010005
 10
0.0
 20
0.0
 30
0.0
  0
INSERT
  5
201
  8
_________1
 62
     7
  2
AIGNBL02010006
 10
0.0
 20
0.0
 30
0.0
  0
INSERT
  5
202
  8
_________1
 62
     7
  2
AIGNBL02010007
 10
0.0
 20
0.0
 30
0.0
  0
INSERT
  5
203
  8
_________1
 62
     7
  2
AIGNBL02010008
 10
0.0
 20
0.0
 30
0.0
  0
INSERT
  5
204
  8
_________1
 62
     7
  2
AIGNBL02010009
 10
0.0
 20
0.0
 30
0.0
  0
ARC
  5
205
  8
_________1
  6
AIGENLINE002
 62
     7
 10
182.68588700000001
 20
128.549452
 30
0.0
 40
0.520641
 50
272.13116300000002
 51
357.86884700000002
  0
ARC
  5
206
  8
_________1
  6
AIGENLINE002
 62
     7
 10
183.72472300000001
 20
128.51180600000001
 30
0.0
 40
0.518877
 50
92.137937000000008
 51
177.980535
  0
ARC
  5
207
  8
_________1
 62
     7
 10
147.264194
 20
116.30458299999999
 30
0.0
 40
0.493665
 50
16.729545000000002
 51
35.862566999999999
  0
ARC
  5
208
  8
_________1
 62
     7
 10
142.445953
 20
123.01773900000001
 30
0.0
 40
0.5121310000000001
 50
36.368122999999997
 51
89.460398999999995
  0
ARC
  5
209
  8
_________1
  6
AIGENLINE002
 62
     7
 10
157.67973900000001
 20
115.50399
 30
0.0
 40
1.028163999999999
 50
2.041706
 51
87.858587
  0
LINE
  5
20A
  8
_________1
  6
AIGENLINE002
 62
     7
 10
158.70699999999999
 20
115.541
 30
0.0
 11
158.70699999999999
 21
111.562
 31
0.0
  0
LINE
  5
20B
  8
_________1
  6
AIGENLINE002
 62
     7
 10
166.696
 20
116.53100000000001
 30
0.0
 11
168.38800000000001
 21
116.53100000000001
 31
0.0
  0
ARC
  5
20C
  8
_________1
  6
AIGENLINE002
 62
     7
 10
166.73582099999999
 20
115.502365
 30
0.0
 40
1.0298359999999991
 50
92.20860500000002
 51
177.87110899999999
  0
LINE
  5
20D
  8
_________1
  6
AIGENLINE002
 62
     7
 10
165.70699999999999
 20
111.562
 30
0.0
 11
165.70699999999999
 21
115.541
 31
0.0
  0
LINE
  5
20E
  8
_________1
 62
     7
 10
166.202
 20
111.53100000000001
 30
0.0
 11
165.70699999999999
 21
111.53100000000001
 31
0.0
  0
ARC
  5
20F
  8
_________1
 62
     7
 10
166.225256
 20
112.008206
 30
0.0
 40
0.467232
 50
299.41942799999998
 51
345.80354599999998
  0
ARC
  5
210
  8
_________1
 62
     7
 10
166.202595
 20
112.01779000000001
 30
0.0
 40
0.4869430000000001
 50
269.901635
 51
301.18834700000002
  0
ARC
  5
211
  8
_________1
 62
     7
 10
167.554835
 20
111.67607599999999
 30
0.0
 40
0.9032069999999999
 50
131.594449
 51
166.062917
  0
ARC
  5
212
  8
_________1
 62
     7
 10
167.63867200000001
 20
111.610156
 30
0.0
 40
1.008338999999999
 50
90.388941999999986
 51
132.670523
  0
LINE
  5
213
  8
_________1
 62
     7
 10
167.63200000000001
 20
112.61799999999999
 30
0.0
 11
168.917
 21
112.61799999999999
 31
0.0
  0
ARC
  5
214
  8
_________1
 62
     7
 10
169.246531
 20
119.68269600000001
 30
0.0
 40
7.0451439999999996
 50
277.027984
 51
289.235186
  0
ARC
  5
215
  8
_________1
 62
     7
 10
168.99457100000001
 20
121.227966
 30
0.0
 40
8.6098479999999995
 50
269.48054100000002
 51
277.43390699999998
  0
LINE
  5
216
  8
_________1
 62
     7
 10
165.70699999999999
 20
111.53100000000001
 30
0.0
 11
158.22900000000001
 21
111.53100000000001
 31
0.0
  0
LINE
  5
217
  8
_________1
 62
     7
 10
171.56599999999989
 20
113.03100000000001
 30
0.0
 11
183.684
 21
113.03100000000001
 31
0.0
  0
LINE
  5
218
  8
_________1
  6
AIGENLINE002
 62
     7
 10
166.696
 20
116.53100000000001
 30
0.0
 11
152.15799999999999
 21
116.53100000000001
 31
0.0
  0
LINE
  5
219
  8
_________1
  6
AIGENLINE002
 62
     7
 10
158.70699999999999
 20
115.541
 30
0.0
 11
165.70699999999999
 21
115.541
 31
0.0
  0
INSERT
  5
21A
  8
_________1
 62
     7
  2
AIGNBL0201000A
 10
0.0
 20
0.0
 30
0.0
  0
INSERT
  5
21B
  8
_________1
 62
     7
  2
AIGNBL0201000B
 10
0.0
 20
0.0
 30
0.0
  0
ARC
  5
21C
  8
_________1
 62
     7
 10
138.02094399999999
 20
123.84180499999999
 30
0.0
 40
0.312228
 50
182.055589
 51
267.61534499999999
  0
LINE
  5
21D
  8
_________1
 62
     7
 10
137.709
 20
128.50700000000001
 30
0.0
 11
137.709
 21
123.831
 31
0.0
  0
LINE
  5
21E
  8
_________1
 62
     7
 10
147.66399999999999
 20
116.59399999999999
 30
0.0
 11
142.858
 21
123.321
 31
0.0
  0
INSERT
  5
21F
  8
_________1
 62
     7
  2
AIGNBL0201000C
 10
0.0
 20
0.0
 30
0.0
  0
INSERT
  5
220
  8
_________1
 62
     7
  2
AIGNBL0201000D
 10
0.0
 20
0.0
 30
0.0
  0
INSERT
  5
221
  8
_________1
 62
     7
  2
AIGNBL0201000E
 10
0.0
 20
0.0
 30
0.0
  0
INSERT
  5
222
  8
_________1
 62
     7
  2
AIGNBL0201000F
 10
0.0
 20
0.0
 30
0.0
  0
INSERT
  5
223
  8
_________1
 62
     7
  2
AIGNBL02010010
 10
0.0
 20
0.0
 30
0.0
  0
INSERT
  5
224
  8
_________1
 62
     7
  2
AIGNBL02010011
 10
0.0
 20
0.0
 30
0.0
  0
INSERT
  5
225
  8
_________1
 62
     7
  2
AIGNBL02010012
 10
0.0
 20
0.0
 30
0.0
  0
INSERT
  5
226
  8
_________1
 62
     7
  2
AIGNBL02010013
 10
0.0
 20
0.0
 30
0.0
  0
INSERT
  5
227
  8
_________1
 62
     7
  2
AIGNBL02010014
 10
0.0
 20
0.0
 30
0.0
  0
INSERT
  5
228
  8
_________1
 62
     7
  2
AIGNBL02010015
 10
0.0
 20
0.0
 30
0.0
  0
INSERT
  5
229
  8
_________1
 62
     7
  2
AIGNBL02010016
 10
0.0
 20
0.0
 30
0.0
  0
INSERT
  5
22A
  8
_________1
 62
     7
  2
AIGNBL02010017
 10
0.0
 20
0.0
 30
0.0
  0
INSERT
  5
22B
  8
_________1
 62
     7
  2
AIGNBL02010018
 10
0.0
 20
0.0
 30
0.0
  0
INSERT
  5
22C
  8
_________1
 62
     7
  2
AIGNBL02010019
 10
0.0
 20
0.0
 30
0.0
  0
INSERT
  5
22D
  8
_________1
 62
     7
  2
AIGNBL0201001A
 10
0.0
 20
0.0
 30
0.0
  0
INSERT
  5
22E
  8
_________1
 62
     7
  2
AIGNBL0201001B
 10
0.0
 20
0.0
 30
0.0
  0
INSERT
  5
22F
  8
_________1
 62
     7
  2
AIGNBL0201001C
 10
0.0
 20
0.0
 30
0.0
  0
INSERT
  5
230
  8
_________1
 62
     7
  2
AIGNBL0201001D
 10
0.0
 20
0.0
 30
0.0
  0
INSERT
  5
231
  8
_________1
 62
     7
  2
AIGNBL0201001E
 10
0.0
 20
0.0
 30
0.0
  0
INSERT
  5
232
  8
_________1
 62
     7
  2
AIGNBL0201001F
 10
0.0
 20
0.0
 30
0.0
  0
INSERT
  5
233
  8
_________1
 62
     7
  2
AIGNBL02010020
 10
0.0
 20
0.0
 30
0.0
  0
INSERT
  5
234
  8
_________1
 62
     7
  2
AIGNBL02010021
 10
0.0
 20
0.0
 30
0.0
  0
INSERT
  5
235
  8
_________1
 62
     7
  2
AIGNBL02010022
 10
0.0
 20
0.0
 30
0.0
  0
INSERT
  5
236
  8
_________1
 62
     7
  2
AIGNBL02010023
 10
0.0
 20
0.0
 30
0.0
  0
LINE
  5
237
  8
_________1
 62
     7
 10
52.406100000000002
 20
236.065
 30
0.0
 11
51.814700000000002
 21
238.27600000000001
 31
0.0
  0
LINE
  5
238
  8
_________1
 62
     7
 10
51.814700000000002
 20
238.27600000000001
 30
0.0
 11
51.222299999999997
 21
236.065
 31
0.0
  0
LINE
  5
239
  8
_________1
 62
     7
 10
51.222299999999997
 20
236.065
 30
0.0
 11
52.406100000000002
 21
236.065
 31
0.0
  0
LINE
  5
23A
  8
_________1
 62
     7
 10
51.234099999999991
 20
218.48699999999999
 30
0.0
 11
51.8264
 21
216.27600000000001
 31
0.0
  0
LINE
  5
23B
  8
_________1
 62
     7
 10
51.8264
 20
216.27600000000001
 30
0.0
 11
52.418799999999997
 21
218.48699999999999
 31
0.0
  0
LINE
  5
23C
  8
_________1
 62
     7
 10
52.418799999999997
 20
218.48699999999999
 30
0.0
 11
51.234099999999991
 21
218.48699999999999
 31
0.0
  0
LINE
  5
23D
  8
_________1
 62
     7
 10
51.814700000000002
 20
238.27600000000001
 30
0.0
 11
51.814700000000002
 21
216.27799999999999
 31
0.0
  0
LINE
  5
23E
  8
_________1
 62
     7
 10
50.986400000000003
 20
216.27799999999999
 30
0.0
 11
67.343100000000007
 21
216.27799999999999
 31
0.0
  0
LINE
  5
23F
  8
_________1
 62
     7
 10
56.360599999999998
 20
99.720299999999995
 30
0.0
 11
54.150199999999998
 21
99.128100000000003
 31
0.0
  0
LINE
  5
240
  8
_________1
 62
     7
 10
54.150199999999998
 20
99.128100000000003
 30
0.0
 11
56.360599999999998
 21
98.535899999999998
 31
0.0
  0
LINE
  5
241
  8
_________1
 62
     7
 10
56.360599999999998
 20
98.535899999999998
 30
0.0
 11
56.360599999999998
 21
99.720299999999995
 31
0.0
  0
LINE
  5
242
  8
_________1
 62
     7
 10
89.941500000000005
 20
98.558899999999994
 30
0.0
 11
92.152399999999986
 21
99.151499999999999
 31
0.0
  0
LINE
  5
243
  8
_________1
 62
     7
 10
92.152399999999986
 20
99.151499999999999
 30
0.0
 11
89.941500000000005
 21
99.743700000000004
 31
0.0
  0
LINE
  5
244
  8
_________1
 62
     7
 10
89.941500000000005
 20
99.743700000000004
 30
0.0
 11
89.941500000000005
 21
98.558899999999994
 31
0.0
  0
LINE
  5
245
  8
_________1
 62
     7
 10
54.151899999999991
 20
99.140100000000004
 30
0.0
 11
92.150700000000001
 21
99.140100000000004
 31
0.0
  0
LINE
  5
246
  8
_________1
 62
     7
 10
63.857500000000002
 20
136.68799999999999
 30
0.0
 11
61.648000000000003
 21
136.096
 31
0.0
  0
LINE
  5
247
  8
_________1
 62
     7
 10
61.648000000000003
 20
136.096
 30
0.0
 11
63.857500000000002
 21
135.50399999999999
 31
0.0
  0
LINE
  5
248
  8
_________1
 62
     7
 10
63.857500000000002
 20
135.50399999999999
 30
0.0
 11
63.857500000000002
 21
136.68799999999999
 31
0.0
  0
LINE
  5
249
  8
_________1
 62
     7
 10
82.439400000000006
 20
135.52699999999999
 30
0.0
 11
84.649799999999999
 21
136.12
 31
0.0
  0
LINE
  5
24A
  8
_________1
 62
     7
 10
84.649799999999999
 20
136.12
 30
0.0
 11
82.439400000000006
 21
136.71199999999999
 31
0.0
  0
LINE
  5
24B
  8
_________1
 62
     7
 10
82.439400000000006
 20
136.71199999999999
 30
0.0
 11
82.439400000000006
 21
135.52699999999999
 31
0.0
  0
LINE
  5
24C
  8
_________1
 62
     7
 10
61.64950000000001
 20
136.10900000000001
 30
0.0
 11
84.648099999999985
 21
136.10900000000001
 31
0.0
  0
ARC
  5
24D
  8
_________1
 62
     7
 10
93.385405999999989
 20
115.26150699999999
 30
0.0
 40
1.236078
 50
103.744663
 51
178.68767299999999
  0
INSERT
  5
24E
  8
_________1
 62
     7
  2
AIGNBL02010024
 10
0.0
 20
0.0
 30
0.0
  0
INSERT
  5
24F
  8
_________1
 62
     7
  2
AIGNBL02010025
 10
0.0
 20
0.0
 30
0.0
  0
INSERT
  5
250
  8
_________1
 62
     7
  2
AIGNBL02010026
 10
0.0
 20
0.0
 30
0.0
  0
INSERT
  5
251
  8
_________1
 62
     7
  2
AIGNBL02010027
 10
0.0
 20
0.0
 30
0.0
  0
INSERT
  5
252
  8
_________1
 62
     7
  2
AIGNBL02010028
 10
0.0
 20
0.0
 30
0.0
  0
INSERT
  5
253
  8
_________1
 62
     7
  2
AIGNBL02010029
 10
0.0
 20
0.0
 30
0.0
  0
INSERT
  5
254
  8
_________1
 62
     7
  2
AIGNBL0201002A
 10
0.0
 20
0.0
 30
0.0
  0
INSERT
  5
255
  8
_________1
 62
     7
  2
AIGNBL0201002B
 10
0.0
 20
0.0
 30
0.0
  0
INSERT
  5
256
  8
_________1
 62
     7
  2
AIGNBL0201002C
 10
0.0
 20
0.0
 30
0.0
  0
INSERT
  5
257
  8
_________1
 62
     7
  2
AIGNBL0201002D
 10
0.0
 20
0.0
 30
0.0
  0
INSERT
  5
258
  8
_________1
 62
     7
  2
AIGNBL0201002E
 10
0.0
 20
0.0
 30
0.0
  0
INSERT
  5
259
  8
_________1
 62
     7
  2
AIGNBL0201002F
 10
0.0
 20
0.0
 30
0.0
  0
ARC
  5
25A
  8
_________1
 62
     7
 10
79.205084999999997
 20
-65.996021999999996
 30
0.0
 40
183.37327300000001
 50
86.478329000000002
 51
87.191738999999984
  0
ARC
  5
25B
  8
_________1
 62
     7
 10
73.092566000000005
 20
-187.76404700000001
 30
0.0
 40
305.29457200000002
 50
87.165592000000004
 51
89.989177999999995
  0
ARC
  5
25C
  8
_________1
  6
AIGENLINE002
 62
     7
 10
85.094651999999996
 20
121.975791
 30
0.0
 40
1.055197999999999
 50
2.9737230000000001
 51
87.937026000000003
  0
ARC
  5
25D
  8
_________1
  6
AIGENLINE002
 62
     7
 10
85.109088000000014
 20
122.06989
 30
0.0
 40
1.0400869999999991
 50
271.29737299999999
 51
357.83134699999999
  0
LINE
  5
25E
  8
_________1
  6
AIGENLINE002
 62
     7
 10
85.132599999999996
 20
121.03
 30
0.0
 11
84.165199999999999
 21
121.03
 31
0.0
  0
ARC
  5
25F
  8
_________1
  6
AIGENLINE002
 62
     7
 10
84.203283999999996
 20
122.085325
 30
0.0
 40
1.055939999999999
 50
182.97444899999999
 51
267.93571700000001
  0
ARC
  5
260
  8
_________1
  6
AIGENLINE002
 62
     7
 10
84.187454999999986
 20
121.991106
 30
0.0
 40
1.039436
 50
91.224132999999995
 51
177.826233
  0
LINE
  5
261
  8
_________1
  6
AIGENLINE002
 62
     7
 10
84.165199999999999
 20
123.03
 30
0.0
 11
85.132599999999996
 21
123.03
 31
0.0
  0
LINE
  5
262
  8
_________1
  6
AIGENLINE001
 62
     7
 10
84.648599999999988
 20
119.96299999999999
 30
0.0
 11
84.648599999999988
 21
124.09699999999999
 31
0.0
  0
LINE
  5
263
  8
_________1
  6
AIGENLINE001
 62
     7
 10
87.715599999999995
 20
122.03100000000001
 30
0.0
 11
81.582800000000006
 21
122.03100000000001
 31
0.0
  0
ARC
  5
264
  8
_________1
 62
     7
 10
52.913917000000012
 20
115.26096800000001
 30
0.0
 40
1.2366010000000001
 50
1.3367459999999991
 51
76.261562999999995
  0
INSERT
  5
265
  8
_________1
 62
     7
  2
AIGNBL02010030
 10
0.0
 20
0.0
 30
0.0
  0
INSERT
  5
266
  8
_________1
 62
     7
  2
AIGNBL02010031
 10
0.0
 20
0.0
 30
0.0
  0
INSERT
  5
267
  8
_________1
 62
     7
  2
AIGNBL02010032
 10
0.0
 20
0.0
 30
0.0
  0
INSERT
  5
268
  8
_________1
 62
     7
  2
AIGNBL02010033
 10
0.0
 20
0.0
 30
0.0
  0
INSERT
  5
269
  8
_________1
 62
     7
  2
AIGNBL02010034
 10
0.0
 20
0.0
 30
0.0
  0
INSERT
  5
26A
  8
_________1
 62
     7
  2
AIGNBL02010035
 10
0.0
 20
0.0
 30
0.0
  0
INSERT
  5
26B
  8
_________1
 62
     7
  2
AIGNBL02010036
 10
0.0
 20
0.0
 30
0.0
  0
INSERT
  5
26C
  8
_________1
 62
     7
  2
AIGNBL02010037
 10
0.0
 20
0.0
 30
0.0
  0
INSERT
  5
26D
  8
_________1
 62
     7
  2
AIGNBL02010038
 10
0.0
 20
0.0
 30
0.0
  0
INSERT
  5
26E
  8
_________1
 62
     7
  2
AIGNBL02010039
 10
0.0
 20
0.0
 30
0.0
  0
INSERT
  5
26F
  8
_________1
 62
     7
  2
AIGNBL0201003A
 10
0.0
 20
0.0
 30
0.0
  0
INSERT
  5
270
  8
_________1
 62
     7
  2
AIGNBL0201003B
 10
0.0
 20
0.0
 30
0.0
  0
ARC
  5
271
  8
_________1
 62
     7
 10
72.879372000000004
 20
-161.05337499999999
 30
0.0
 40
278.606426
 50
93.373808999999994
 51
93.508118999999994
  0
ARC
  5
272
  8
_________1
 62
     7
 10
69.879906999999989
 20
-117.743002
 30
0.0
 40
235.195021
 50
92.399904000000006
 51
93.265296000000006
  0
ARC
  5
273
  8
_________1
 62
     7
 10
73.375748999999985
 20
-195.160326
 30
0.0
 40
312.69092699999999
 50
90.041323000000006
 51
92.445893999999996
  0
ARC
  5
274
  8
_________1
  6
AIGENLINE002
 62
     7
 10
61.20467399999999
 20
121.97578
 30
0.0
 40
1.0552090000000001
 50
92.063488000000007
 51
177.025723
  0
ARC
  5
275
  8
_________1
  6
AIGENLINE002
 62
     7
 10
61.190227999999998
 20
122.06989
 30
0.0
 40
1.0400860000000001
 50
182.168656
 51
268.70266400000003
  0
LINE
  5
276
  8
_________1
  6
AIGENLINE002
 62
     7
 10
61.166699999999999
 20
121.03
 30
0.0
 11
62.134099999999989
 21
121.03
 31
0.0
  0
ARC
  5
277
  8
_________1
  6
AIGENLINE002
 62
     7
 10
62.096032000000001
 20
122.085325
 30
0.0
 40
1.055939999999999
 50
272.064303
 51
357.02557100000001
  0
ARC
  5
278
  8
_________1
  6
AIGENLINE002
 62
     7
 10
62.11186099999999
 20
121.991106
 30
0.0
 40
1.039436
 50
2.1737649999999991
 51
88.775829999999985
  0
LINE
  5
279
  8
_________1
  6
AIGENLINE002
 62
     7
 10
62.134099999999989
 20
123.03
 30
0.0
 11
61.166699999999999
 21
123.03
 31
0.0
  0
LINE
  5
27A
  8
_________1
  6
AIGENLINE001
 62
     7
 10
61.650700000000001
 20
119.96299999999999
 30
0.0
 11
61.650700000000001
 21
124.09699999999999
 31
0.0
  0
LINE
  5
27B
  8
_________1
  6
AIGENLINE001
 62
     7
 10
58.584699999999998
 20
122.03100000000001
 30
0.0
 11
64.716999999999999
 21
122.03100000000001
 31
0.0
  0
INSERT
  5
27C
  8
_________1
 62
     7
  2
AIGNBL0201003C
 10
0.0
 20
0.0
 30
0.0
  0
LINE
  5
27D
  8
_________1
 62
     7
 10
92.150700000000001
 20
112.051
 30
0.0
 11
92.150700000000001
 21
98.287800000000004
 31
0.0
  0
LINE
  5
27E
  8
_________1
 62
     7
 10
54.151400000000002
 20
112.051
 30
0.0
 11
54.151400000000002
 21
98.287800000000004
 31
0.0
  0
LINE
  5
27F
  8
_________1
 62
     7
 10
84.648099999999985
 20
136.96000000000001
 30
0.0
 11
84.648099999999985
 21
125.23999999999999
 31
0.0
  0
LINE
  5
280
  8
_________1
 62
     7
 10
61.648000000000003
 20
136.96000000000001
 30
0.0
 11
61.648000000000003
 21
125.23999999999999
 31
0.0
  0
LINE
  5
281
  8
_________1
 62
     7
 10
69.063199999999995
 20
235.863
 30
0.0
 11
79.439099999999996
 21
225.488
 31
0.0
  0
LINE
  5
282
  8
_________1
 62
     7
 10
79.073499999999996
 20
222.20400000000001
 30
0.0
 11
66.496399999999994
 21
209.62700000000001
 31
0.0
  0
ARC
  5
283
  8
_________1
 62
     7
 10
73.004369999999994
 20
216.421853
 30
0.0
 40
3.8962289999999991
 50
272.1040799999999
 51
357.885403
  0
ARC
  5
284
  8
_________1
 62
     7
 10
73.290774999999996
 20
216.420908
 30
0.0
 40
3.8952960000000001
 50
182.101214
 51
267.890919
  0
ARC
  5
285
  8
_________1
 62
     7
 10
73.291961999999998
 20
216.13444000000001
 30
0.0
 40
3.8965129999999988
 50
92.125893000000005
 51
177.887238
  0
ARC
  5
286
  8
_________1
 62
     7
 10
73.004129000000006
 20
216.13444100000001
 30
0.0
 40
3.8964650000000001
 50
2.1127509999999989
 51
87.892503000000005
  0
ARC
  5
287
  8
_________1
 62
     7
 10
73.062123999999983
 20
216.36427699999999
 30
0.0
 40
2.3375789999999999
 50
272.09110800000002
 51
357.88697300000013
  0
ARC
  5
288
  8
_________1
 62
     7
 10
73.234391000000002
 20
216.36470299999999
 30
0.0
 40
2.3380669999999988
 50
182.12304800000001
 51
267.86820699999998
  0
ARC
  5
289
  8
_________1
 62
     7
 10
73.234228000000002
 20
216.19199499999999
 30
0.0
 40
2.337883999999999
 50
92.127958000000007
 51
177.88955899999999
  0
ARC
  5
28A
  8
_________1
 62
     7
 10
73.060515000000009
 20
216.19064800000001
 30
0.0
 40
2.3392339999999989
 50
2.1422110000000001
 51
87.870936
  0
ARC
  5
28B
  8
_________1
 62
     7
 10
73.147677000000002
 20
231.77810199999999
 30
0.0
 40
1.7503779999999991
 50
269.99156199999999
 51
359.99153200000001
  0
ARC
  5
28C
  8
_________1
 62
     7
 10
73.215087999999994
 20
231.844976
 30
0.0
 40
1.8185109999999991
 50
182.11563699999999
 51
267.86747200000002
  0
ARC
  5
28D
  8
_________1
 62
     7
 10
73.214628000000005
 20
231.710634
 30
0.0
 40
1.818055
 50
92.118565000000004
 51
177.881405
  0
ARC
  5
28E
  8
_________1
 62
     7
 10
73.147935000000004
 20
231.77732599999999
 30
0.0
 40
1.7501199999999999
 50
0.016928
 51
90.016898000000012
  0
LINE
  5
28F
  8
_________1
 62
     7
 10
42.838999999999999
 20
126.81999999999999
 30
0.0
 11
42.247100000000003
 21
129.03
 31
0.0
  0
LINE
  5
290
  8
_________1
 62
     7
 10
42.247100000000003
 20
129.03
 30
0.0
 11
41.654200000000003
 21
126.81999999999999
 31
0.0
  0
LINE
  5
291
  8
_________1
 62
     7
 10
41.654200000000003
 20
126.81999999999999
 30
0.0
 11
42.838999999999999
 21
126.81999999999999
 31
0.0
  0
LINE
  5
292
  8
_________1
 62
     7
 10
41.677999999999997
 20
124.241
 30
0.0
 11
42.270400000000002
 21
122.03100000000001
 31
0.0
  0
LINE
  5
293
  8
_________1
 62
     7
 10
42.270400000000002
 20
122.03100000000001
 30
0.0
 11
42.8628
 21
124.241
 31
0.0
  0
LINE
  5
294
  8
_________1
 62
     7
 10
42.8628
 20
124.241
 30
0.0
 11
41.677999999999997
 21
124.241
 31
0.0
  0
LINE
  5
295
  8
_________1
 62
     7
 10
42.258200000000002
 20
129.03
 30
0.0
 11
42.258200000000002
 21
122.03100000000001
 31
0.0
  0
LINE
  5
296
  8
_________1
 62
     7
 10
41.430300000000003
 20
122.03100000000001
 30
0.0
 11
57.604300000000002
 21
122.03100000000001
 31
0.0
  0
LINE
  5
297
  8
_________1
 62
     7
 10
123.261
 20
121.31999999999999
 30
0.0
 11
122.66800000000001
 21
123.53100000000001
 31
0.0
  0
LINE
  5
298
  8
_________1
 62
     7
 10
122.66800000000001
 20
123.53100000000001
 30
0.0
 11
122.07599999999999
 21
121.31999999999999
 31
0.0
  0
LINE
  5
299
  8
_________1
 62
     7
 10
122.07599999999999
 20
121.31999999999999
 30
0.0
 11
123.261
 21
121.31999999999999
 31
0.0
  0
LINE
  5
29A
  8
_________1
 62
     7
 10
122.09999999999999
 20
131.24100000000001
 30
0.0
 11
122.69199999999999
 21
129.03
 31
0.0
  0
LINE
  5
29B
  8
_________1
 62
     7
 10
122.69199999999999
 20
129.03
 30
0.0
 11
123.28400000000001
 21
131.24100000000001
 31
0.0
  0
LINE
  5
29C
  8
_________1
 62
     7
 10
123.28400000000001
 20
131.24100000000001
 30
0.0
 11
122.09999999999999
 21
131.24100000000001
 31
0.0
  0
LINE
  5
29D
  8
_________1
 62
     7
 10
122.68000000000001
 20
135.084
 30
0.0
 11
122.68000000000001
 21
119.726
 31
0.0
  0
LINE
  5
29E
  8
_________1
 62
     7
 10
129.226
 20
126.81999999999999
 30
0.0
 11
128.6329999999999
 21
129.03
 31
0.0
  0
LINE
  5
29F
  8
_________1
 62
     7
 10
128.6329999999999
 20
129.03
 30
0.0
 11
128.042
 21
126.81999999999999
 31
0.0
  0
LINE
  5
2A0
  8
_________1
 62
     7
 10
128.042
 20
126.81999999999999
 30
0.0
 11
129.226
 21
126.81999999999999
 31
0.0
  0
LINE
  5
2A1
  8
_________1
 62
     7
 10
128.065
 20
115.245
 30
0.0
 11
128.65799999999999
 21
113.035
 31
0.0
  0
LINE
  5
2A2
  8
_________1
 62
     7
 10
128.65799999999999
 20
113.035
 30
0.0
 11
129.249
 21
115.245
 31
0.0
  0
LINE
  5
2A3
  8
_________1
 62
     7
 10
129.249
 20
115.245
 30
0.0
 11
128.065
 21
115.245
 31
0.0
  0
LINE
  5
2A4
  8
_________1
 62
     7
 10
128.64500000000001
 20
129.02799999999999
 30
0.0
 11
128.64500000000001
 21
113.03700000000001
 31
0.0
  0
LINE
  5
2A5
  8
_________1
 62
     7
 10
135.37700000000001
 20
126.822
 30
0.0
 11
134.785
 21
129.03299999999999
 31
0.0
  0
LINE
  5
2A6
  8
_________1
 62
     7
 10
134.785
 20
129.03299999999999
 30
0.0
 11
134.19200000000001
 21
126.822
 31
0.0
  0
LINE
  5
2A7
  8
_________1
 62
     7
 10
134.19200000000001
 20
126.822
 30
0.0
 11
135.37700000000001
 21
126.822
 31
0.0
  0
LINE
  5
2A8
  8
_________1
 62
     7
 10
134.21700000000001
 20
113.74299999999999
 30
0.0
 11
134.809
 21
111.532
 31
0.0
  0
LINE
  5
2A9
  8
_________1
 62
     7
 10
134.809
 20
111.532
 30
0.0
 11
135.40100000000001
 21
113.74299999999999
 31
0.0
  0
LINE
  5
2AA
  8
_________1
 62
     7
 10
135.40100000000001
 20
113.74299999999999
 30
0.0
 11
134.21700000000001
 21
113.74299999999999
 31
0.0
  0
LINE
  5
2AB
  8
_________1
 62
     7
 10
134.797
 20
129.03
 30
0.0
 11
134.797
 21
111.53400000000001
 31
0.0
  0
LINE
  5
2AC
  8
_________1
 62
     7
 10
93.128600000000006
 20
113.03100000000001
 30
0.0
 11
129.49799999999999
 21
113.03100000000001
 31
0.0
  0
LINE
  5
2AD
  8
_________1
 62
     7
 10
79.405000000000001
 20
111.53100000000001
 30
0.0
 11
135.649
 21
111.53100000000001
 31
0.0
  0
LINE
  5
2AE
  8
_________1
 62
     7
 10
119.877
 20
123.53
 30
0.0
 11
123.508
 21
123.53
 31
0.0
  0
LINE
  5
2AF
  8
_________1
 62
     7
 10
119.877
 20
129.03
 30
0.0
 11
135.626
 21
129.03
 31
0.0
  0
INSERT
  5
2B0
  8
_________1
 62
     7
  2
AIGNBL0201003D
 10
0.0
 20
0.0
 30
0.0
  0
LINE
  5
2B1
  8
_________1
 62
     7
 10
127.024
 20
236.06700000000001
 30
0.0
 11
126.432
 21
238.27799999999999
 31
0.0
  0
LINE
  5
2B2
  8
_________1
 62
     7
 10
126.432
 20
238.27799999999999
 30
0.0
 11
125.839
 21
236.06700000000001
 31
0.0
  0
LINE
  5
2B3
  8
_________1
 62
     7
 10
125.839
 20
236.06700000000001
 30
0.0
 11
127.024
 21
236.06700000000001
 31
0.0
  0
LINE
  5
2B4
  8
_________1
 62
     7
 10
127.024
 20
229.56800000000001
 30
0.0
 11
126.432
 21
231.779
 31
0.0
  0
LINE
  5
2B5
  8
_________1
 62
     7
 10
126.432
 20
231.779
 30
0.0
 11
125.839
 21
229.56800000000001
 31
0.0
  0
LINE
  5
2B6
  8
_________1
 62
     7
 10
125.839
 20
229.56800000000001
 30
0.0
 11
127.024
 21
229.56800000000001
 31
0.0
  0
LINE
  5
2B7
  8
_________1
 62
     7
 10
125.863
 20
226.488
 30
0.0
 11
126.455
 21
224.27699999999999
 31
0.0
  0
LINE
  5
2B8
  8
_________1
 62
     7
 10
126.455
 20
224.27699999999999
 30
0.0
 11
127.048
 21
226.488
 31
0.0
  0
LINE
  5
2B9
  8
_________1
 62
     7
 10
127.048
 20
226.488
 30
0.0
 11
125.863
 21
226.488
 31
0.0
  0
LINE
  5
2BA
  8
_________1
 62
     7
 10
126.443
 20
231.77699999999999
 30
0.0
 11
126.443
 21
224.279
 31
0.0
  0
LINE
  5
2BB
  8
_________1
 62
     7
 10
125.863
 20
233.989
 30
0.0
 11
126.455
 21
231.779
 31
0.0
  0
LINE
  5
2BC
  8
_________1
 62
     7
 10
126.455
 20
231.779
 30
0.0
 11
127.048
 21
233.989
 31
0.0
  0
LINE
  5
2BD
  8
_________1
 62
     7
 10
127.048
 20
233.989
 30
0.0
 11
125.863
 21
233.989
 31
0.0
  0
LINE
  5
2BE
  8
_________1
 62
     7
 10
126.443
 20
238.27799999999999
 30
0.0
 11
126.443
 21
231.779
 31
0.0
  0
LINE
  5
2BF
  8
_________1
 62
     7
 10
134.65199999999999
 20
222.06700000000001
 30
0.0
 11
134.06
 21
224.27699999999999
 31
0.0
  0
LINE
  5
2C0
  8
_________1
 62
     7
 10
134.06
 20
224.27699999999999
 30
0.0
 11
133.46700000000001
 21
222.06700000000001
 31
0.0
  0
LINE
  5
2C1
  8
_________1
 62
     7
 10
133.46700000000001
 20
222.06700000000001
 30
0.0
 11
134.65199999999999
 21
222.06700000000001
 31
0.0
  0
LINE
  5
2C2
  8
_________1
 62
     7
 10
133.49100000000001
 20
194.99000000000001
 30
0.0
 11
134.083
 21
192.779
 31
0.0
  0
LINE
  5
2C3
  8
_________1
 62
     7
 10
134.083
 20
192.779
 30
0.0
 11
134.67500000000001
 21
194.99000000000001
 31
0.0
  0
LINE
  5
2C4
  8
_________1
 62
     7
 10
134.67500000000001
 20
194.99000000000001
 30
0.0
 11
133.49100000000001
 21
194.99000000000001
 31
0.0
  0
LINE
  5
2C5
  8
_________1
 62
     7
 10
134.071
 20
224.27500000000001
 30
0.0
 11
134.071
 21
185.62599999999989
 31
0.0
  0
LINE
  5
2C6
  8
_________1
 62
     7
 10
134.65199999999999
 20
236.06800000000001
 30
0.0
 11
134.06
 21
238.279
 31
0.0
  0
LINE
  5
2C7
  8
_________1
 62
     7
 10
134.06
 20
238.279
 30
0.0
 11
133.46700000000001
 21
236.06800000000001
 31
0.0
  0
LINE
  5
2C8
  8
_________1
 62
     7
 10
133.46700000000001
 20
236.06800000000001
 30
0.0
 11
134.65199999999999
 21
236.06800000000001
 31
0.0
  0
LINE
  5
2C9
  8
_________1
 62
     7
 10
133.49100000000001
 20
226.488
 30
0.0
 11
134.083
 21
224.27699999999999
 31
0.0
  0
LINE
  5
2CA
  8
_________1
 62
     7
 10
134.083
 20
224.27699999999999
 30
0.0
 11
134.67500000000001
 21
226.488
 31
0.0
  0
LINE
  5
2CB
  8
_________1
 62
     7
 10
134.67500000000001
 20
226.488
 30
0.0
 11
133.49100000000001
 21
226.488
 31
0.0
  0
LINE
  5
2CC
  8
_________1
 62
     7
 10
134.071
 20
238.27699999999999
 30
0.0
 11
134.071
 21
224.279
 31
0.0
  0
LINE
  5
2CD
  8
_________1
 62
     7
 10
142.81700000000001
 20
236.06899999999999
 30
0.0
 11
142.22399999999999
 21
238.28
 31
0.0
  0
LINE
  5
2CE
  8
_________1
 62
     7
 10
142.22399999999999
 20
238.28
 30
0.0
 11
141.63200000000001
 21
236.06899999999999
 31
0.0
  0
LINE
  5
2CF
  8
_________1
 62
     7
 10
141.63200000000001
 20
236.06899999999999
 30
0.0
 11
142.81700000000001
 21
236.06899999999999
 31
0.0
  0
LINE
  5
2D0
  8
_________1
 62
     7
 10
141.65600000000001
 20
193.98699999999999
 30
0.0
 11
142.24799999999999
 21
191.77600000000001
 31
0.0
  0
LINE
  5
2D1
  8
_________1
 62
     7
 10
142.24799999999999
 20
191.77600000000001
 30
0.0
 11
142.84
 21
193.98699999999999
 31
0.0
  0
LINE
  5
2D2
  8
_________1
 62
     7
 10
142.84
 20
193.98699999999999
 30
0.0
 11
141.65600000000001
 21
193.98699999999999
 31
0.0
  0
LINE
  5
2D3
  8
_________1
 62
     7
 10
142.23599999999999
 20
238.27799999999999
 30
0.0
 11
142.23599999999999
 21
191.77799999999999
 31
0.0
  0
LINE
  5
2D4
  8
_________1
 62
     7
 10
105.377
 20
224.27799999999999
 30
0.0
 11
134.90000000000001
 21
224.27799999999999
 31
0.0
  0
LINE
  5
2D5
  8
_________1
 62
     7
 10
119.877
 20
191.77799999999999
 30
0.0
 11
143.08799999999999
 21
191.77799999999999
 31
0.0
  0
LINE
  5
2D6
  8
_________1
 62
     7
 10
119.877
 20
192.779
 30
0.0
 11
134.923
 21
192.779
 31
0.0
  0
LINE
  5
2D7
  8
_________1
 62
     7
 10
77.189099999999996
 20
231.77799999999999
 30
0.0
 11
127.27200000000001
 21
231.77799999999999
 31
0.0
  0
LINE
  5
2D8
  8
_________1
 62
     7
 10
119.877
 20
238.27799999999999
 30
0.0
 11
143.08000000000001
 21
238.27799999999999
 31
0.0
  0
LINE
  5
2D9
  8
_________1
 62
     7
 10
116.688
 20
177.374
 30
0.0
 11
118.899
 21
177.96599999999989
 31
0.0
  0
LINE
  5
2DA
  8
_________1
 62
     7
 10
118.899
 20
177.96599999999989
 30
0.0
 11
116.688
 21
178.559
 31
0.0
  0
LINE
  5
2DB
  8
_________1
 62
     7
 10
116.688
 20
178.559
 30
0.0
 11
116.688
 21
177.374
 31
0.0
  0
LINE
  5
2DC
  8
_________1
 62
     7
 10
106.60599999999999
 20
178.535
 30
0.0
 11
104.396
 21
177.94300000000001
 31
0.0
  0
LINE
  5
2DD
  8
_________1
 62
     7
 10
104.396
 20
177.94300000000001
 30
0.0
 11
106.60599999999999
 21
177.34999999999999
 31
0.0
  0
LINE
  5
2DE
  8
_________1
 62
     7
 10
106.60599999999999
 20
177.34999999999999
 30
0.0
 11
106.60599999999999
 21
178.535
 31
0.0
  0
LINE
  5
2DF
  8
_________1
 62
     7
 10
118.89700000000001
 20
177.95400000000001
 30
0.0
 11
104.39700000000001
 21
177.95400000000001
 31
0.0
  0
LINE
  5
2E0
  8
_________1
 62
     7
 10
25.1891
 20
183.53299999999999
 30
0.0
 11
27.399000000000001
 21
184.126
 31
0.0
  0
LINE
  5
2E1
  8
_________1
 62
     7
 10
27.399000000000001
 20
184.126
 30
0.0
 11
25.1891
 21
184.7179999999999
 31
0.0
  0
LINE
  5
2E2
  8
_________1
 62
     7
 10
25.1891
 20
184.7179999999999
 30
0.0
 11
25.1891
 21
183.53299999999999
 31
0.0
  0
LINE
  5
2E3
  8
_________1
 62
     7
 10
30.6099
 20
184.69399999999999
 30
0.0
 11
28.3995
 21
184.102
 31
0.0
  0
LINE
  5
2E4
  8
_________1
 62
     7
 10
28.3995
 20
184.102
 30
0.0
 11
30.6099
 21
183.50999999999999
 31
0.0
  0
LINE
  5
2E5
  8
_________1
 62
     7
 10
30.6099
 20
183.50999999999999
 30
0.0
 11
30.6099
 21
184.69399999999999
 31
0.0
  0
LINE
  5
2E6
  8
_________1
 62
     7
 10
34.586399999999998
 20
184.114
 30
0.0
 11
23.444400000000002
 21
184.114
 31
0.0
  0
LINE
  5
2E7
  8
_________1
 62
     7
 10
39.6907
 20
177.374
 30
0.0
 11
41.901099999999992
 21
177.96599999999989
 31
0.0
  0
LINE
  5
2E8
  8
_________1
 62
     7
 10
41.901099999999992
 20
177.96599999999989
 30
0.0
 11
39.6907
 21
178.559
 31
0.0
  0
LINE
  5
2E9
  8
_________1
 62
     7
 10
39.6907
 20
178.559
 30
0.0
 11
39.6907
 21
177.374
 31
0.0
  0
LINE
  5
2EA
  8
_________1
 62
     7
 10
29.607900000000001
 20
178.535
 30
0.0
 11
27.397500000000001
 21
177.94300000000001
 31
0.0
  0
LINE
  5
2EB
  8
_________1
 62
     7
 10
27.397500000000001
 20
177.94300000000001
 30
0.0
 11
29.607900000000001
 21
177.34999999999999
 31
0.0
  0
LINE
  5
2EC
  8
_________1
 62
     7
 10
29.607900000000001
 20
177.34999999999999
 30
0.0
 11
29.607900000000001
 21
178.535
 31
0.0
  0
LINE
  5
2ED
  8
_________1
 62
     7
 10
41.89929999999999
 20
177.95400000000001
 30
0.0
 11
27.399000000000001
 21
177.95400000000001
 31
0.0
  0
LINE
  5
2EE
  8
_________1
 62
     7
 10
102.18899999999999
 20
177.374
 30
0.0
 11
104.399
 21
177.96599999999989
 31
0.0
  0
LINE
  5
2EF
  8
_________1
 62
     7
 10
104.399
 20
177.96599999999989
 30
0.0
 11
102.18899999999999
 21
178.559
 31
0.0
  0
LINE
  5
2F0
  8
_________1
 62
     7
 10
102.18899999999999
 20
178.559
 30
0.0
 11
102.18899999999999
 21
177.374
 31
0.0
  0
LINE
  5
2F1
  8
_________1
 62
     7
 10
44.106999999999999
 20
178.535
 30
0.0
 11
41.896599999999992
 21
177.94300000000001
 31
0.0
  0
LINE
  5
2F2
  8
_________1
 62
     7
 10
41.896599999999992
 20
177.94300000000001
 30
0.0
 11
44.106999999999999
 21
177.34999999999999
 31
0.0
  0
LINE
  5
2F3
  8
_________1
 62
     7
 10
44.106999999999999
 20
177.34999999999999
 30
0.0
 11
44.106999999999999
 21
178.535
 31
0.0
  0
LINE
  5
2F4
  8
_________1
 62
     7
 10
104.39700000000001
 20
177.95400000000001
 30
0.0
 11
41.89929999999999
 21
177.95400000000001
 31
0.0
  0
LINE
  5
2F5
  8
_________1
 62
     7
 10
104.39700000000001
 20
190.798
 30
0.0
 11
104.39700000000001
 21
177.10300000000001
 31
0.0
  0
LINE
  5
2F6
  8
_________1
 62
     7
 10
118.89700000000001
 20
190.798
 30
0.0
 11
118.89700000000001
 21
166.84800000000001
 31
0.0
  0
LINE
  5
2F7
  8
_________1
 62
     7
 10
41.89929999999999
 20
190.798
 30
0.0
 11
41.89929999999999
 21
177.126
 31
0.0
  0
LINE
  5
2F8
  8
_________1
 62
     7
 10
28.3995
 20
190.798
 30
0.0
 11
28.3995
 21
183.262
 31
0.0
  0
LINE
  5
2F9
  8
_________1
 62
     7
 10
27.399000000000001
 20
191.63800000000001
 30
0.0
 11
27.399000000000001
 21
166.965
 31
0.0
  0
LINE
  5
2FA
  8
_________1
 62
     7
 10
116.688
 20
167.096
 30
0.0
 11
118.899
 21
167.68799999999999
 31
0.0
  0
LINE
  5
2FB
  8
_________1
 62
     7
 10
118.899
 20
167.68799999999999
 30
0.0
 11
116.688
 21
168.28100000000001
 31
0.0
  0
LINE
  5
2FC
  8
_________1
 62
     7
 10
116.688
 20
168.28100000000001
 30
0.0
 11
116.688
 21
167.096
 31
0.0
  0
LINE
  5
2FD
  8
_________1
 62
     7
 10
29.607900000000001
 20
168.25700000000001
 30
0.0
 11
27.397500000000001
 21
167.66499999999999
 31
0.0
  0
LINE
  5
2FE
  8
_________1
 62
     7
 10
27.397500000000001
 20
167.66499999999999
 30
0.0
 11
29.607900000000001
 21
167.07300000000001
 31
0.0
  0
LINE
  5
2FF
  8
_________1
 62
     7
 10
29.607900000000001
 20
167.07300000000001
 30
0.0
 11
29.607900000000001
 21
168.25700000000001
 31
0.0
  0
LINE
  5
300
  8
_________1
 62
     7
 10
118.89700000000001
 20
167.67699999999999
 30
0.0
 11
27.399000000000001
 21
167.67699999999999
 31
0.0
  0
ARC
  5
301
  8
_________1
 62
     7
 10
88.063124999999999
 20
194.789647
 30
0.0
 40
9.7088990000000006
 50
79.823825000000014
 51
89.958731
  0
ARC
  5
302
  8
_________1
 62
     7
 10
87.556655000000006
 20
191.43248800000001
 30
0.0
 40
13.103069
 50
70.913161000000002
 51
80.237592000000006
  0
ARC
  5
303
  8
_________1
 62
     7
 10
86.242818999999983
 20
187.27386899999999
 30
0.0
 40
17.463090000000001
 50
62.300082999999979
 51
71.301185000000004
  0
ARC
  5
304
  8
_________1
 62
     7
 10
84.109683999999987
 20
182.983878
 30
0.0
 40
22.253242
 50
38.468879999999999
 51
62.571709000000013
  0
ARC
  5
305
  8
_________1
 62
     7
 10
87.992362999999997
 20
186.22939700000001
 30
0.0
 40
17.194769999999998
 50
28.805821999999999
 51
38.050049999999999
  0
ARC
  5
306
  8
_________1
 62
     7
 10
90.936468999999988
 20
187.957033
 30
0.0
 40
13.782855
 50
24.709115000000001
 51
28.409824
  0
INSERT
  5
307
  8
_________1
 62
     7
  2
AIGNBL0201003E
 10
0.0
 20
0.0
 30
0.0
  0
INSERT
  5
308
  8
_________1
 62
     7
  2
AIGNBL0201003F
 10
0.0
 20
0.0
 30
0.0
  0
INSERT
  5
309
  8
_________1
 62
     7
  2
AIGNBL02010040
 10
0.0
 20
0.0
 30
0.0
  0
INSERT
  5
30A
  8
_________1
 62
     7
  2
AIGNBL02010041
 10
0.0
 20
0.0
 30
0.0
  0
INSERT
  5
30B
  8
_________1
 62
     7
  2
AIGNBL02010042
 10
0.0
 20
0.0
 30
0.0
  0
INSERT
  5
30C
  8
_________1
 62
     7
  2
AIGNBL02010043
 10
0.0
 20
0.0
 30
0.0
  0
INSERT
  5
30D
  8
_________1
 62
     7
  2
AIGNBL02010044
 10
0.0
 20
0.0
 30
0.0
  0
INSERT
  5
30E
  8
_________1
 62
     7
  2
AIGNBL02010045
 10
0.0
 20
0.0
 30
0.0
  0
INSERT
  5
30F
  8
_________1
 62
     7
  2
AIGNBL02010046
 10
0.0
 20
0.0
 30
0.0
  0
INSERT
  5
310
  8
_________1
 62
     7
  2
AIGNBL02010047
 10
0.0
 20
0.0
 30
0.0
  0
INSERT
  5
311
  8
_________1
 62
     7
  2
AIGNBL02010048
 10
0.0
 20
0.0
 30
0.0
  0
INSERT
  5
312
  8
_________1
 62
     7
  2
AIGNBL02010049
 10
0.0
 20
0.0
 30
0.0
  0
INSERT
  5
313
  8
_________1
 62
     7
  2
AIGNBL0201004A
 10
0.0
 20
0.0
 30
0.0
  0
ARC
  5
314
  8
_________1
 62
     7
 10
58.232926999999997
 20
194.792394
 30
0.0
 40
9.7061520000000012
 50
90.041309999999996
 51
100.177599
  0
ARC
  5
315
  8
_________1
 62
     7
 10
58.739624999999997
 20
191.433637
 30
0.0
 40
13.101934
 50
99.763170999999986
 51
109.08784
  0
ARC
  5
316
  8
_________1
 62
     7
 10
60.055413000000001
 20
187.26991100000001
 30
0.0
 40
17.467417000000001
 50
108.700227
 51
117.698998
  0
ARC
  5
317
  8
_________1
 62
     7
 10
62.186246999999987
 20
182.98336599999999
 30
0.0
 40
22.253451999999999
 50
117.426447
 51
141.529844
  0
ARC
  5
318
  8
_________1
 62
     7
 10
58.301037000000001
 20
186.23087799999999
 30
0.0
 40
17.191754
 50
141.94833499999999
 51
151.194267
  0
ARC
  5
319
  8
_________1
 62
     7
 10
55.366706000000001
 20
187.95371499999999
 30
0.0
 40
13.79072
 50
151.59215699999999
 51
155.29072500000001
  0
INSERT
  5
31A
  8
_________1
 62
     7
  2
AIGNBL0201004B
 10
0.0
 20
0.0
 30
0.0
  0
INSERT
  5
31B
  8
_________1
 62
     7
  2
AIGNBL0201004C
 10
0.0
 20
0.0
 30
0.0
  0
INSERT
  5
31C
  8
_________1
 62
     7
  2
AIGNBL0201004D
 10
0.0
 20
0.0
 30
0.0
  0
INSERT
  5
31D
  8
_________1
 62
     7
  2
AIGNBL0201004E
 10
0.0
 20
0.0
 30
0.0
  0
INSERT
  5
31E
  8
_________1
 62
     7
  2
AIGNBL0201004F
 10
0.0
 20
0.0
 30
0.0
  0
INSERT
  5
31F
  8
_________1
 62
     7
  2
AIGNBL02010050
 10
0.0
 20
0.0
 30
0.0
  0
INSERT
  5
320
  8
_________1
 62
     7
  2
AIGNBL02010051
 10
0.0
 20
0.0
 30
0.0
  0
INSERT
  5
321
  8
_________1
 62
     7
  2
AIGNBL02010052
 10
0.0
 20
0.0
 30
0.0
  0
INSERT
  5
322
  8
_________1
 62
     7
  2
AIGNBL02010053
 10
0.0
 20
0.0
 30
0.0
  0
INSERT
  5
323
  8
_________1
 62
     7
  2
AIGNBL02010054
 10
0.0
 20
0.0
 30
0.0
  0
INSERT
  5
324
  8
_________1
 62
     7
  2
AIGNBL02010055
 10
0.0
 20
0.0
 30
0.0
  0
INSERT
  5
325
  8
_________1
 62
     7
  2
AIGNBL02010056
 10
0.0
 20
0.0
 30
0.0
  0
INSERT
  5
326
  8
_________1
 62
     7
  2
AIGNBL02010057
 10
0.0
 20
0.0
 30
0.0
  0
INSERT
  5
327
  8
_________1
 62
     7
  2
AIGNBL02010058
 10
0.0
 20
0.0
 30
0.0
  0
INSERT
  5
328
  8
_________1
 62
     7
  2
AIGNBL02010059
 10
0.0
 20
0.0
 30
0.0
  0
INSERT
  5
329
  8
_________1
 62
     7
  2
AIGNBL0201005A
 10
0.0
 20
0.0
 30
0.0
  0
INSERT
  5
32A
  8
_________1
 62
     7
  2
AIGNBL0201005B
 10
0.0
 20
0.0
 30
0.0
  0
INSERT
  5
32B
  8
_________1
 62
     7
  2
AIGNBL0201005C
 10
0.0
 20
0.0
 30
0.0
  0
TEXT
  5
32C
  8
_________2
 62
     7
 10
26.512799999999999
 20
61.42369999999999
 30
0.0
 40
3.9357000000000002
  1
※壁取付部には厚さ30mm以上の補強木を入れてください。
 41
0.5
  0
TEXT
  5
32D
  8
_________2
 62
     7
 10
142.08147500000001
 20
30.4514
 30
0.0
 40
3.9357000000000002
  1
SB3005R
 41
0.5
 72
     1
 11
148.31299999999999
 21
30.4514
 31
0.0
  0
TEXT
  5
32E
  8
_________2
 62
     7
 10
142.08147500000001
 20
20.450600000000001
 30
0.0
 40
3.9357000000000002
  1
SB3005R
 41
0.5
 72
     1
 11
148.31299999999999
 21
20.450600000000001
 31
0.0
  0
TEXT
  5
32F
  8
_________2
 62
     7
 10
29.3491
 20
22.050799999999999
 30
0.0
 40
3.9357000000000002
  1
実容量：5.4L、重量：22kg、オーバーフロー付
 41
0.5
  0
LINE
  5
330
  8
_________2
 62
     7
 10
210.06399999999999
 20
148.75399999999999
 30
0.0
 11
188.31299999999999
 21
148.75399999999999
 31
0.0
  0
LINE
  5
331
  8
_________2
 62
     7
 10
105.062
 20
17.252099999999999
 30
0.0
 11
105.062
 21
0.272164
 31
0.0
  0
LINE
  5
332
  8
_________2
 62
     7
 10
105.062
 20
297.274
 30
0.0
 11
105.062
 21
280.25400000000002
 31
0.0
  0
LINE
  5
333
  8
_________2
 62
     7
 10
21.811900000000001
 20
148.75399999999999
 30
0.0
 11
0.0614953
 21
148.75399999999999
 31
0.0
  0
INSERT
  5
334
  8
_________2
 62
     7
  2
AIGNBL03010002
 10
0.0
 20
0.0
 30
0.0
  0
TEXT
  5
335
  8
_________2
 62
     7
 10
109.367
 20
23.0227
 30
0.0
 40
3.0923400000000001
  1
図番
 41
0.5
  0
LINE
  5
336
  8
_________2
 62
     7
 10
108.313
 20
27.251899999999999
 30
0.0
 11
188.31299999999999
 21
27.251899999999999
 31
0.0
  0
TEXT
  5
337
  8
_________2
 62
     7
 10
109.367
 20
33.022500000000001
 30
0.0
 40
3.0923400000000001
  1
品番
 41
0.5
  0
TEXT
  5
338
  8
_________2
 62
     7
 10
109.367
 20
53.161599999999993
 30
0.0
 40
3.0923400000000001
  1
名称
 41
0.5
  0
TEXT
  5
339
  8
_________2
 62
     7
 10
96.607458333333355
 20
48.165500000000002
 30
0.0
 40
3.6545800000000002
  1
mm
 41
0.5
 72
     1
 11
98.130200000000016
 21
48.165500000000002
 31
0.0
  0
TEXT
  5
33A
  8
_________2
 62
     7
 10
90.405600000000007
 20
53.161599999999993
 30
0.0
 40
3.0923400000000001
  1
単位
 41
0.5
  0
TEXT
  5
33B
  8
_________2
 62
     7
 10
90.405600000000007
 20
40.753999999999998
 30
0.0
 40
3.0923400000000001
  1
尺度
 41
0.5
  0
TEXT
  5
33C
  8
_________2
 62
     7
 10
94.854336166666656
 20
34.561399999999999
 30
0.0
 40
3.6545800000000002
  1
1 ： 10
 41
0.5
 72
     1
 11
98.722099999999998
 21
34.561399999999999
 31
0.0
  0
TEXT
  5
33D
  8
_________2
 62
     7
 10
113.941
 20
45.569299999999998
 30
0.0
 40
3.9357000000000002
  1
ML 洗面器
 41
0.5
  0
TEXT
  5
33E
  8
_________2
 62
     7
 10
44.06588099999999
 20
34.946599999999997
 30
0.0
 40
3.6545800000000002
  1
中村
 41
0.5
 72
     1
 11
46.075899999999997
 21
34.946599999999997
 31
0.0
  0
TEXT
  5
33F
  8
_________2
 62
     7
 10
25.613700333333341
 20
34.946599999999997
 30
0.0
 40
3.6545800000000002
  1
福田
 41
0.5
 72
     1
 11
27.501899999999999
 21
34.946599999999997
 31
0.0
  0
TEXT
  5
340
  8
_________2
 62
     7
 10
72.548100000000005
 20
34.561399999999999
 30
0.0
 40
3.6545800000000002
  1
17.08.02
 41
0.5
  0
TEXT
  5
341
  8
_________2
 62
     7
 10
71.355400000000003
 20
40.753999999999998
 30
0.0
 40
3.0923400000000001
  1
日付
 41
0.5
  0
TEXT
  5
342
  8
_________2
 62
     7
 10
34.401699999999998
 20
40.753999999999998
 30
0.0
 40
3.0923400000000001
  1
検図
 41
0.5
  0
TEXT
  5
343
  8
_________2
 62
     7
 10
22.7834
 20
26.554600000000001
 30
0.0
 40
3.0923400000000001
  1
備考
 41
0.5
  0
TEXT
  5
344
  8
_________2
 62
     7
 10
22.7834
 20
40.753999999999998
 30
0.0
 40
3.0923400000000001
  1
製図
 41
0.5
  0
TEXT
  5
345
  8
_________2
 62
     7
 10
28.550865333333341
 20
49.280000000000001
 30
0.0
 40
4.4979399999999989
  1
セラトレーディング株式会社
 41
0.5
 72
     1
 11
45.942899999999987
 21
49.280000000000001
 31
0.0
  0
LINE
  5
346
  8
_________2
 62
     7
 10
188.31299999999999
 20
17.252099999999999
 30
0.0
 11
21.811900000000001
 21
17.252099999999999
 31
0.0
  0
LINE
  5
347
  8
_________2
 62
     7
 10
21.811900000000001
 20
17.252099999999999
 30
0.0
 11
21.811900000000001
 21
280.25400000000002
 31
0.0
  0
LINE
  5
348
  8
_________2
 62
     7
 10
21.811900000000001
 20
280.25400000000002
 30
0.0
 11
188.31299999999999
 21
280.25400000000002
 31
0.0
  0
LINE
  5
349
  8
_________2
 62
     7
 10
188.31299999999999
 20
280.25400000000002
 30
0.0
 11
188.31299999999999
 21
17.252099999999999
 31
0.0
  0
LINE
  5
34A
  8
_________2
 62
     7
 10
70.312299999999993
 20
30.752500000000001
 30
0.0
 11
70.312299999999993
 21
57.252299999999991
 31
0.0
  0
LINE
  5
34B
  8
_________2
 62
     7
 10
89.312100000000001
 20
30.752500000000001
 30
0.0
 11
89.312100000000001
 21
57.252299999999991
 31
0.0
  0
LINE
  5
34C
  8
_________2
 62
     7
 10
108.313
 20
17.252099999999999
 30
0.0
 11
108.313
 21
57.252299999999991
 31
0.0
  0
LINE
  5
34D
  8
_________2
 62
     7
 10
33.311700000000002
 20
30.752500000000001
 30
0.0
 11
33.311700000000002
 21
44.752400000000002
 31
0.0
  0
LINE
  5
34E
  8
_________2
 62
     7
 10
21.811900000000001
 20
30.752500000000001
 30
0.0
 11
108.313
 21
30.752500000000001
 31
0.0
  0
LINE
  5
34F
  8
_________2
 62
     7
 10
21.811900000000001
 20
44.752400000000002
 30
0.0
 11
108.313
 21
44.752400000000002
 31
0.0
  0
LINE
  5
350
  8
_________2
 62
     7
 10
108.313
 20
37.2517
 30
0.0
 11
188.31299999999999
 21
37.2517
 31
0.0
  0
LINE
  5
351
  8
_________2
 62
     7
 10
21.811900000000001
 20
57.252299999999991
 30
0.0
 11
188.31299999999999
 21
57.252299999999991
 31
0.0
  0
ENDSEC
  0
EOF
