  0
SECTION
  2
HEADER
  9
$ACADVER
  1
AC1009
  9
$INSBASE
 10
0.0
 20
0.0
 30
0.0
  9
$EXTMIN
 10
0.0614953
 20
0.272164
 30
0.0
  9
$EXTMAX
 10
210.06399999999999
 20
297.27399999999989
 30
0.0
  9
$LIMMIN
 10
0.0
 20
0.0
  9
$LIMMAX
 10
12.0
 20
9.0
  9
$ORTHOMODE
 70
     0
  9
$REGENMODE
 70
     1
  9
$FILLMODE
 70
     1
  9
$QTEXTMODE
 70
     0
  9
$MIRRTEXT
 70
     1
  9
$DRAGMODE
 70
     2
  9
$LTSCALE
 40
1.0
  9
$OSMODE
 70
    37
  9
$ATTMODE
 70
     1
  9
$TEXTSIZE
 40
0.0
  9
$TRACEWID
 40
0.05
  9
$TEXTSTYLE
  7
STANDARD
  9
$CLAYER
  8
0
  9
$CELTYPE
  6
CONTINUOUS
  9
$CECOLOR
 62
   256
  9
$DIMSCALE
 40
1.0
  9
$DIMASZ
 40
0.18
  9
$DIMEXO
 40
0.0625
  9
$DIMDLI
 40
0.38
  9
$DIMRND
 40
0.0
  9
$DIMDLE
 40
0.0
  9
$DIMEXE
 40
0.18
  9
$DIMTP
 40
0.0
  9
$DIMTM
 40
0.0
  9
$DIMTXT
 40
0.18
  9
$DIMCEN
 40
0.09
  9
$DIMTSZ
 40
0.0
  9
$DIMTOL
 70
     0
  9
$DIMLIM
 70
     0
  9
$DIMTIH
 70
     1
  9
$DIMTOH
 70
     1
  9
$DIMSE1
 70
     0
  9
$DIMSE2
 70
     0
  9
$DIMTAD
 70
     0
  9
$DIMZIN
 70
     0
  9
$DIMBLK
  1

  9
$DIMASO
 70
     1
  9
$DIMSHO
 70
     1
  9
$DIMPOST
  1

  9
$DIMAPOST
  1

  9
$DIMALT
 70
     0
  9
$DIMALTD
 70
     2
  9
$DIMALTF
 40
25.399999999999999
  9
$DIMLFAC
 40
1.0
  9
$DIMTOFL
 70
     0
  9
$DIMTVP
 40
0.0
  9
$DIMTIX
 70
     0
  9
$DIMSOXD
 70
     0
  9
$DIMSAH
 70
     0
  9
$DIMBLK1
  1

  9
$DIMBLK2
  1

  9
$DIMSTYLE
  2
STANDARD
  9
$DIMCLRD
 70
     0
  9
$DIMCLRE
 70
     0
  9
$DIMCLRT
 70
     0
  9
$DIMTFAC
 40
1.0
  9
$DIMGAP
 40
0.09
  9
$LUNITS
 70
     2
  9
$LUPREC
 70
     4
  9
$SKETCHINC
 40
0.1
  9
$FILLETRAD
 40
0.0
  9
$AUNITS
 70
     0
  9
$AUPREC
 70
     0
  9
$MENU
  1
.
  9
$ELEVATION
 40
0.0
  9
$PELEVATION
 40
0.0
  9
$THICKNESS
 40
0.0
  9
$LIMCHECK
 70
     0
  9
$BLIPMODE
 70
     0
  9
$CHAMFERA
 40
0.0
  9
$CHAMFERB
 40
0.0
  9
$SKPOLY
 70
     0
  9
$TDCREATE
 40
2444972.375
  9
$TDUPDATE
 40
2456309.4444860299
  9
$TDINDWG
 40
0.0000068634
  9
$TDUSRTIMER
 40
0.0000068634
  9
$USRTIMER
 70
     1
  9
$ANGBASE
 50
0.0
  9
$ANGDIR
 70
     0
  9
$PDMODE
 70
     0
  9
$PDSIZE
 40
0.0
  9
$PLINEWID
 40
0.0
  9
$COORDS
 70
     1
  9
$SPLFRAME
 70
     0
  9
$SPLINETYPE
 70
     6
  9
$SPLINESEGS
 70
     8
  9
$ATTDIA
 70
     0
  9
$ATTREQ
 70
     1
  9
$HANDLING
 70
     1
  9
$HANDSEED
  5
1E5
  9
$SURFTAB1
 70
     6
  9
$SURFTAB2
 70
     6
  9
$SURFTYPE
 70
     6
  9
$SURFU
 70
     6
  9
$SURFV
 70
     6
  9
$UCSNAME
  2

  9
$UCSORG
 10
0.0
 20
0.0
 30
0.0
  9
$UCSXDIR
 10
1.0
 20
0.0
 30
0.0
  9
$UCSYDIR
 10
0.0
 20
1.0
 30
0.0
  9
$PUCSNAME
  2

  9
$PUCSORG
 10
0.0
 20
0.0
 30
0.0
  9
$PUCSXDIR
 10
1.0
 20
0.0
 30
0.0
  9
$PUCSYDIR
 10
0.0
 20
1.0
 30
0.0
  9
$USERI1
 70
     0
  9
$USERI2
 70
     0
  9
$USERI3
 70
     0
  9
$USERI4
 70
     0
  9
$USERI5
 70
     0
  9
$USERR1
 40
0.0
  9
$USERR2
 40
0.0
  9
$USERR3
 40
0.0
  9
$USERR4
 40
0.0
  9
$USERR5
 40
0.0
  9
$WORLDVIEW
 70
     1
  9
$SHADEDGE
 70
     3
  9
$SHADEDIF
 70
    70
  9
$TILEMODE
 70
     1
  9
$MAXACTVP
 70
    48
  9
$PLIMCHECK
 70
     0
  9
$PEXTMIN
 10
1.0000000000000000E+020
 20
1.0000000000000000E+020
 30
1.0000000000000000E+020
  9
$PEXTMAX
 10
-1.0000000000000000E+020
 20
-1.0000000000000000E+020
 30
-1.0000000000000000E+020
  9
$PLIMMIN
 10
0.0
 20
0.0
  9
$PLIMMAX
 10
12.0
 20
9.0
  9
$UNITMODE
 70
     0
  9
$VISRETAIN
 70
     1
  9
$PLINEGEN
 70
     0
  9
$PSLTSCALE
 70
     1
  0
ENDSEC
  0
SECTION
  2
TABLES
  0
TABLE
  2
VPORT
 70
     2
  0
VPORT
  2
*ACTIVE
 70
     0
 10
0.0
 20
0.0
 11
1.0
 21
1.0
 12
210.13847447279559
 22
148.63699999999989
 13
0.0
 23
0.0
 14
1.0
 24
1.0
 15
0.0
 25
0.0
 16
0.0
 26
0.0
 36
1.0
 17
0.0
 27
0.0
 37
0.0
 40
299.52040302267
 41
2.2894736842105261
 42
50.0
 43
0.0
 44
0.0
 50
0.0
 51
0.0
 71
     0
 72
   100
 73
     1
 74
     1
 75
     0
 76
     0
 77
     0
 78
     0
  0
ENDTAB
  0
TABLE
  2
LTYPE
 70
     3
  0
LTYPE
  2
CONTINUOUS
 70
     0
  3
Solid line
 72
    65
 73
     0
 40
0.0
  0
LTYPE
  2
AIGENLINE001
 70
     0
  3
generate AI->DXF Converter
 72
    65
 73
     4
 40
5.8561449999999988
 49
3.5278
 49
-0.776115
 49
0.776115
 49
-0.776115
  0
LTYPE
  2
AIGENLINE002
 70
     0
  3
generate AI->DXF Converter
 72
    65
 73
     2
 40
1.5522299999999991
 49
0.776115
 49
-0.776115
  0
ENDTAB
  0
TABLE
  2
LAYER
 70
     2
  0
LAYER
  2
0
 70
     0
 62
     7
  6
CONTINUOUS
  0
LAYER
  2
_________2
 70
     0
 62
     7
  6
CONTINUOUS
  0
ENDTAB
  0
TABLE
  2
STYLE
 70
     1
  0
STYLE
  2
STANDARD
 70
     0
 40
0.0
 41
0.0
 50
0.0
 71
     0
 42
0.0
  3
TXT
  4
EXTFONT.SHX
  0
ENDTAB
  0
TABLE
  2
VIEW
 70
     0
  0
ENDTAB
  0
TABLE
  2
UCS
 70
     0
  0
ENDTAB
  0
TABLE
  2
APPID
 70
     1
  0
APPID
  2
ACAD
 70
     0
  0
ENDTAB
  0
TABLE
  2
DIMSTYLE
 70
     1
  0
DIMSTYLE
  2
STANDARD
 70
     0
  3

  4

  5

  6

  7

 40
1.0
 41
0.18
 42
0.0625
 43
0.38
 44
0.18
 45
0.0
 46
0.0
 47
0.0
 48
0.0
140
0.18
141
0.09
142
0.0
143
25.399999999999999
144
1.0
145
0.0
146
1.0
147
0.09
 71
     0
 72
     0
 73
     1
 74
     1
 75
     0
 76
     0
 77
     0
 78
     0
170
     0
171
     2
172
     0
173
     0
174
     0
175
     0
176
     0
177
     0
178
     0
  0
ENDTAB
  0
ENDSEC
  0
SECTION
  2
BLOCKS
  0
BLOCK
  8
0
  2
$MODEL_SPACE
 70
     0
 10
0.0
 20
0.0
 30
0.0
  3
$MODEL_SPACE
  1

  0
ENDBLK
  5
1A
  8
0
  0
BLOCK
 67
     1
  8
0
  2
$PAPER_SPACE
 70
     0
 10
0.0
 20
0.0
 30
0.0
  3
$PAPER_SPACE
  1

  0
ENDBLK
  5
17
 67
     1
  8
0
  0
ENDSEC
  0
SECTION
  2
ENTITIES
  0
TEXT
  5
23
  8
0
 62
     7
 10
173.577
 20
133.06413499999999
 30
0.0
 40
3.0923400000000001
  1
10
 50
90.0
 41
0.5
 72
     2
 11
173.577
 21
134.86799999999991
 31
0.0
  0
TEXT
  5
24
  8
0
 62
     7
 10
82.068880000000007
 20
226.87299999999999
 30
0.0
 40
3.0923400000000001
  1
%%c35
 41
0.5
 72
     2
 11
86.192000000000007
 21
226.87299999999999
 31
0.0
  0
TEXT
  5
25
  8
0
 62
     7
 10
59.685600000000001
 20
211.01300000000001
 30
0.0
 40
3.0923400000000001
  1
%%c45
 41
0.5
  0
TEXT
  5
26
  8
0
 62
     7
 10
154.221
 20
131.34126999999989
 30
0.0
 40
3.0923400000000001
  1
125
 50
90.0
 41
0.5
 72
     2
 11
154.221
 21
134.9489999999999
 31
0.0
  0
TEXT
  5
27
  8
0
 62
     7
 10
171.2732874999999
 20
99.720600000000005
 30
0.0
 40
3.0923400000000001
  1
220
 41
0.5
 72
     1
 11
173.2059999999999
 21
99.720600000000005
 31
0.0
  0
TEXT
  5
28
  8
0
 62
     7
 10
71.217987500000007
 20
99.720600000000005
 30
0.0
 40
3.0923400000000001
  1
380
 41
0.5
 72
     1
 11
73.150700000000001
 21
99.720600000000005
 31
0.0
  0
TEXT
  5
29
  8
0
 62
     7
 10
71.215887499999994
 20
136.68899999999991
 30
0.0
 40
3.0923400000000001
  1
230
 41
0.5
 72
     1
 11
73.148600000000002
 21
136.68899999999991
 31
0.0
  0
TEXT
  5
2A
  8
0
 62
     7
 10
32.782534999999989
 20
184.81399999999999
 30
0.0
 40
3.0923400000000001
  1
10
 41
0.5
 72
     2
 11
34.58639999999999
 21
184.81399999999999
 31
0.0
  0
TEXT
  5
2B
  8
0
 62
     7
 10
32.844934999999992
 20
178.655
 30
0.0
 40
3.0923400000000001
  1
145
 41
0.5
 72
     1
 11
34.648800000000001
 21
178.655
 31
0.0
  0
TEXT
  5
2C
  8
0
 62
     7
 10
109.84413499999989
 20
178.655
 30
0.0
 40
3.0923400000000001
  1
145
 41
0.5
 72
     1
 11
111.6479999999999
 21
178.655
 31
0.0
  0
TEXT
  5
2D
  8
0
 62
     7
 10
51.114699999999999
 20
226.39528749999999
 30
0.0
 40
3.0923400000000001
  1
220
 50
90.0
 41
0.5
 72
     1
 11
51.114699999999999
 21
228.32799999999989
 31
0.0
  0
TEXT
  5
2E
  8
0
 62
     7
 10
71.087040000000002
 20
178.655
 30
0.0
 40
3.0923400000000001
  1
625
 41
0.5
 72
     1
 11
73.148600000000002
 21
178.655
 31
0.0
  0
TEXT
  5
2F
  8
0
 62
     7
 10
71.344735
 20
168.37700000000001
 30
0.0
 40
3.0923400000000001
  1
915
 41
0.5
 72
     1
 11
73.148600000000002
 21
168.37700000000001
 31
0.0
  0
TEXT
  5
30
  8
0
 62
     7
 10
127.94499999999989
 20
119.35498250000001
 30
0.0
 40
3.0923400000000001
  1
160
 50
90.0
 41
0.5
 72
     1
 11
127.94499999999989
 21
121.0299999999999
 31
0.0
  0
TEXT
  5
31
  8
0
 62
     7
 10
121.98099999999999
 20
132.50704999999999
 30
0.0
 40
3.0923400000000001
  1
55
 50
90.0
 41
0.5
 72
     2
 11
121.98099999999999
 21
135.084
 31
0.0
  0
TEXT
  5
32
  8
0
 62
     7
 10
134.09700000000001
 20
118.476135
 30
0.0
 40
3.0923400000000001
  1
175
 50
90.0
 41
0.5
 72
     1
 11
134.09700000000001
 21
120.28
 31
0.0
  0
TEXT
  5
33
  8
0
 62
     7
 10
133.35900000000001
 20
185.62599999999989
 30
0.0
 40
3.0923400000000001
  1
10
 50
90.0
 41
0.5
  0
TEXT
  5
34
  8
0
 62
     7
 10
41.418199999999999
 20
124.37137250000001
 30
0.0
 40
3.0923400000000001
  1
70
 50
90.0
 41
0.5
 72
     1
 11
41.418199999999999
 21
125.53100000000001
 31
0.0
  0
TEXT
  5
35
  8
0
 62
     7
 10
133.37100000000001
 20
206.2241349999999
 30
0.0
 40
3.0923400000000001
  1
315
 50
90.0
 41
0.5
 72
     1
 11
133.37100000000001
 21
208.02799999999999
 31
0.0
  0
TEXT
  5
36
  8
0
 62
     7
 10
133.37100000000001
 20
229.6029825
 30
0.0
 40
3.0923400000000001
  1
140
 50
90.0
 41
0.5
 72
     1
 11
133.37100000000001
 21
231.27799999999999
 31
0.0
  0
TEXT
  5
37
  8
0
 62
     7
 10
125.60299999999989
 20
233.7395249999999
 30
0.0
 40
3.0923400000000001
  1
65
 50
90.0
 41
0.5
 72
     1
 11
125.60299999999989
 21
235.02799999999999
 31
0.0
  0
TEXT
  5
38
  8
0
 62
     7
 10
125.60299999999989
 20
226.7395249999999
 30
0.0
 40
3.0923400000000001
  1
75
 50
90.0
 41
0.5
 72
     1
 11
125.60299999999989
 21
228.02799999999991
 31
0.0
  0
TEXT
  5
39
  8
0
 62
     7
 10
141.53599999999989
 20
212.96643999999989
 30
0.0
 40
3.0923400000000001
  1
465
 50
90.0
 41
0.5
 72
     1
 11
141.53599999999989
 21
215.02799999999991
 31
0.0
  0
LINE
  5
3A
  8
0
 62
     7
 10
174.84
 20
125.821
 30
0.0
 11
174.249
 21
128.02999999999989
 31
0.0
  0
LINE
  5
3B
  8
0
 62
     7
 10
174.249
 20
128.02999999999989
 30
0.0
 11
173.65599999999989
 21
125.821
 31
0.0
  0
LINE
  5
3C
  8
0
 62
     7
 10
173.65599999999989
 20
125.821
 30
0.0
 11
174.84
 21
125.821
 31
0.0
  0
LINE
  5
3D
  8
0
 62
     7
 10
173.67400000000001
 20
131.24100000000001
 30
0.0
 11
174.26599999999991
 21
129.03
 31
0.0
  0
LINE
  5
3E
  8
0
 62
     7
 10
174.26599999999991
 20
129.03
 30
0.0
 11
174.858
 21
131.24100000000001
 31
0.0
  0
LINE
  5
3F
  8
0
 62
     7
 10
174.858
 20
131.24100000000001
 30
0.0
 11
173.67400000000001
 21
131.24100000000001
 31
0.0
  0
LINE
  5
40
  8
0
 62
     7
 10
79.439099999999996
 20
225.48799999999989
 30
0.0
 11
86.192000000000007
 21
225.48799999999989
 31
0.0
  0
LINE
  5
41
  8
0
 62
     7
 10
59.685600000000001
 20
209.62700000000001
 30
0.0
 11
66.496399999999994
 21
209.62700000000001
 31
0.0
  0
LINE
  5
42
  8
0
 62
     7
 10
155.505
 20
126.821
 30
0.0
 11
154.9129999999999
 21
129.03
 31
0.0
  0
LINE
  5
43
  8
0
 62
     7
 10
154.9129999999999
 20
129.03
 30
0.0
 11
154.321
 21
126.821
 31
0.0
  0
LINE
  5
44
  8
0
 62
     7
 10
154.321
 20
126.821
 30
0.0
 11
155.505
 21
126.821
 31
0.0
  0
LINE
  5
45
  8
0
 62
     7
 10
154.33799999999991
 20
118.741
 30
0.0
 11
154.93000000000001
 21
116.53100000000001
 31
0.0
  0
LINE
  5
46
  8
0
 62
     7
 10
154.93000000000001
 20
116.53100000000001
 30
0.0
 11
155.52299999999991
 21
118.741
 31
0.0
  0
LINE
  5
47
  8
0
 62
     7
 10
155.52299999999991
 20
118.741
 30
0.0
 11
154.33799999999991
 21
118.741
 31
0.0
  0
LINE
  5
48
  8
0
 62
     7
 10
154.922
 20
134.9489999999999
 30
0.0
 11
154.922
 21
116.53100000000001
 31
0.0
  0
LINE
  5
49
  8
0
 62
     7
 10
70.413499999999999
 20
212.7059999999999
 30
0.0
 11
71.557199999999995
 21
214.68700000000001
 31
0.0
  0
LINE
  5
4A
  8
0
 62
     7
 10
71.557199999999995
 20
214.68700000000001
 30
0.0
 11
69.575000000000003
 21
213.54400000000001
 31
0.0
  0
LINE
  5
4B
  8
0
 62
     7
 10
69.575000000000003
 20
213.54400000000001
 30
0.0
 11
70.413499999999999
 21
212.7059999999999
 31
0.0
  0
LINE
  5
4C
  8
0
 62
     7
 10
75.883700000000005
 20
219.852
 30
0.0
 11
74.738900000000001
 21
217.869
 31
0.0
  0
LINE
  5
4D
  8
0
 62
     7
 10
74.738900000000001
 20
217.869
 30
0.0
 11
76.722099999999983
 21
219.01299999999989
 31
0.0
  0
LINE
  5
4E
  8
0
 62
     7
 10
76.722099999999983
 20
219.01299999999989
 30
0.0
 11
75.883700000000005
 21
219.852
 31
0.0
  0
LINE
  5
4F
  8
0
 62
     7
 10
76.366900000000001
 20
229.3959999999999
 30
0.0
 11
74.385599999999997
 21
230.541
 31
0.0
  0
LINE
  5
50
  8
0
 62
     7
 10
74.385599999999997
 20
230.541
 30
0.0
 11
75.529499999999999
 21
228.55799999999991
 31
0.0
  0
LINE
  5
51
  8
0
 62
     7
 10
75.529499999999999
 20
228.55799999999991
 30
0.0
 11
76.366900000000001
 21
229.3959999999999
 31
0.0
  0
LINE
  5
52
  8
0
 62
     7
 10
69.928799999999995
 20
234.16
 30
0.0
 11
71.911000000000001
 21
233.0149999999999
 31
0.0
  0
LINE
  5
53
  8
0
 62
     7
 10
71.911000000000001
 20
233.0149999999999
 30
0.0
 11
70.767399999999995
 21
234.99799999999991
 31
0.0
  0
LINE
  5
54
  8
0
 62
     7
 10
70.767399999999995
 20
234.99799999999991
 30
0.0
 11
69.928799999999995
 21
234.16
 31
0.0
  0
LINE
  5
55
  8
0
 62
     7
 10
164.416
 20
99.603499999999997
 30
0.0
 11
162.20599999999999
 21
99.011600000000001
 31
0.0
  0
LINE
  5
56
  8
0
 62
     7
 10
162.20599999999999
 20
99.011600000000001
 30
0.0
 11
164.416
 21
98.41940000000001
 31
0.0
  0
LINE
  5
57
  8
0
 62
     7
 10
164.416
 20
98.41940000000001
 30
0.0
 11
164.416
 21
99.603499999999997
 31
0.0
  0
LINE
  5
58
  8
0
 62
     7
 10
181.995
 20
98.437000000000012
 30
0.0
 11
184.20500000000001
 21
99.028899999999993
 31
0.0
  0
LINE
  5
59
  8
0
 62
     7
 10
184.20500000000001
 20
99.028899999999993
 30
0.0
 11
181.995
 21
99.621099999999998
 31
0.0
  0
LINE
  5
5A
  8
0
 62
     7
 10
181.995
 20
99.621099999999998
 30
0.0
 11
181.995
 21
98.437000000000012
 31
0.0
  0
LINE
  5
5B
  8
0
 62
     7
 10
162.20599999999999
 20
99.020600000000002
 30
0.0
 11
184.20500000000001
 21
99.020600000000002
 31
0.0
  0
LINE
  5
5C
  8
0
 62
     7
 10
174.27799999999991
 20
134.86799999999991
 30
0.0
 11
174.27799999999991
 21
124.0629999999999
 31
0.0
  0
LINE
  5
5D
  8
0
 62
     7
 10
184.20500000000001
 20
112.051
 30
0.0
 11
184.20500000000001
 21
98.188900000000004
 31
0.0
  0
LINE
  5
5E
  8
0
 62
     7
 10
162.20599999999999
 20
108.54299999999991
 30
0.0
 11
162.20599999999999
 21
98.188900000000004
 31
0.0
  0
LINE
  5
5F
  8
0
 62
     7
 10
167.36000000000001
 20
124.53
 30
0.0
 11
173.35400000000001
 21
124.53
 31
0.0
  0
LINE
  5
60
  8
0
  6
AIGENLINE001
 62
     7
 10
177.7059999999999
 20
131.08699999999999
 30
0.0
 11
177.7059999999999
 21
125.087
 31
0.0
  0
LINE
  5
61
  8
0
  6
AIGENLINE001
 62
     7
 10
162.20599999999999
 20
109.5229999999999
 30
0.0
 11
162.20599999999999
 21
130.892
 31
0.0
  0
LINE
  5
62
  8
0
  6
AIGENLINE001
 62
     7
 10
180.2409999999999
 20
122.03100000000001
 30
0.0
 11
186.2409999999999
 21
122.03100000000001
 31
0.0
  0
ARC
  5
63
  8
0
  6
AIGENLINE002
 62
     7
 10
171.13686599999991
 20
126.96128299999999
 30
0.0
 40
1.06884
 50
91.273143000000005
 51
173.73223100000001
  0
ARC
  5
64
  8
0
  6
AIGENLINE002
 62
     7
 10
182.686061
 20
128.54927799999999
 30
0.0
 40
0.5204620000000001
 50
272.11279200000001
 51
357.88721800000002
  0
ARC
  5
65
  8
0
  6
AIGENLINE002
 62
     7
 10
183.7244419999999
 20
128.51208700000001
 30
0.0
 40
0.518586
 50
92.108044000000007
 51
178.01042799999991
  0
ARC
  5
66
  8
0
 62
     7
 10
147.26680599999989
 20
116.30587299999991
 30
0.0
 40
0.490792
 50
16.673014999999989
 51
35.919097000000001
  0
ARC
  5
67
  8
0
 62
     7
 10
142.44581599999989
 20
123.0174719999999
 30
0.0
 40
0.5124
 50
36.383102999999998
 51
89.445419000000001
  0
ARC
  5
68
  8
0
  6
AIGENLINE002
 62
     7
 10
157.6797389999999
 20
115.50399
 30
0.0
 40
1.028163999999999
 50
2.041706
 51
87.858587
  0
LINE
  5
69
  8
0
  6
AIGENLINE002
 62
     7
 10
158.70699999999991
 20
115.541
 30
0.0
 11
158.70699999999991
 21
111.562
 31
0.0
  0
LINE
  5
6A
  8
0
  6
AIGENLINE002
 62
     7
 10
166.69599999999991
 20
116.53100000000001
 30
0.0
 11
168.38800000000001
 21
116.53100000000001
 31
0.0
  0
ARC
  5
6B
  8
0
  6
AIGENLINE002
 62
     7
 10
166.7358209999999
 20
115.5023649999999
 30
0.0
 40
1.0298359999999991
 50
92.20860500000002
 51
177.87110899999999
  0
LINE
  5
6C
  8
0
  6
AIGENLINE002
 62
     7
 10
165.70699999999999
 20
111.562
 30
0.0
 11
165.70699999999999
 21
115.541
 31
0.0
  0
LINE
  5
6D
  8
0
 62
     7
 10
166.202
 20
111.53100000000001
 30
0.0
 11
165.70699999999999
 21
111.53100000000001
 31
0.0
  0
ARC
  5
6E
  8
0
 62
     7
 10
166.20261199999999
 20
112.024002
 30
0.0
 40
0.493155
 50
269.90091899999987
 51
344.669534
  0
ARC
  5
6F
  8
0
 62
     7
 10
167.62677199999999
 20
111.6354169999999
 30
0.0
 40
0.9830680000000001
 50
89.705398000000002
 51
164.772639
  0
LINE
  5
70
  8
0
 62
     7
 10
167.63200000000001
 20
112.6179999999999
 30
0.0
 11
168.917
 21
112.6179999999999
 31
0.0
  0
ARC
  5
71
  8
0
 62
     7
 10
169.11486099999999
 20
120.070685
 30
0.0
 40
7.4548529999999991
 50
268.47537299999999
 51
289.20827400000002
  0
LINE
  5
72
  8
0
 62
     7
 10
165.70699999999999
 20
111.53100000000001
 30
0.0
 11
158.2289999999999
 21
111.53100000000001
 31
0.0
  0
LINE
  5
73
  8
0
 62
     7
 10
171.56599999999989
 20
113.03100000000001
 30
0.0
 11
183.684
 21
113.03100000000001
 31
0.0
  0
LINE
  5
74
  8
0
  6
AIGENLINE002
 62
     7
 10
166.69599999999991
 20
116.53100000000001
 30
0.0
 11
152.1579999999999
 21
116.53100000000001
 31
0.0
  0
LINE
  5
75
  8
0
  6
AIGENLINE002
 62
     7
 10
158.70699999999991
 20
115.541
 30
0.0
 11
165.70699999999999
 21
115.541
 31
0.0
  0
LINE
  5
76
  8
0
 62
     7
 10
148.70799999999991
 20
113.419
 30
0.0
 11
147.73699999999999
 21
116.447
 31
0.0
  0
ARC
  5
77
  8
0
 62
     7
 10
149.22225499999999
 20
113.56576800000001
 30
0.0
 40
0.535046
 50
195.9461749999999
 51
268.73469899999998
  0
ARC
  5
78
  8
0
 62
     7
 10
138.02103999999991
 20
123.84190099999999
 30
0.0
 40
0.312328
 50
182.07250400000001
 51
267.59843000000001
  0
LINE
  5
79
  8
0
 62
     7
 10
137.709
 20
128.50700000000001
 30
0.0
 11
137.709
 21
123.831
 31
0.0
  0
LINE
  5
7A
  8
0
 62
     7
 10
147.6639999999999
 20
116.59399999999989
 30
0.0
 11
142.858
 21
123.3209999999999
 31
0.0
  0
LINE
  5
7B
  8
0
  6
AIGENLINE002
 62
     7
 10
182.70500000000001
 20
128.02999999999989
 30
0.0
 11
178.98400000000001
 21
128.02999999999989
 31
0.0
  0
LINE
  5
7C
  8
0
 62
     7
 10
183.684
 20
129.03
 30
0.0
 11
183.7229999999999
 21
129.03
 31
0.0
  0
ARC
  5
7D
  8
0
 62
     7
 10
183.66399799999991
 20
128.48912899999999
 30
0.0
 40
0.54155
 50
1.8919900000000001
 51
87.919092000000006
  0
LINE
  5
7E
  8
0
 62
     7
 10
184.20500000000001
 20
121.072
 30
0.0
 11
184.20500000000001
 21
128.50700000000001
 31
0.0
  0
LINE
  5
7F
  8
0
  6
AIGENLINE002
 62
     7
 10
174.43999999999991
 20
128.02999999999989
 30
0.0
 11
171.11299999999989
 21
128.02999999999989
 31
0.0
  0
ARC
  5
80
  8
0
  6
AIGENLINE002
 62
     7
 10
168.36732499999999
 20
117.59643199999999
 30
0.0
 40
1.0651969999999991
 50
271.1138029999999
 51
353.84853799999991
  0
LINE
  5
81
  8
0
 62
     7
 10
157.708
 20
113.03100000000001
 30
0.0
 11
157.708
 21
112.05200000000001
 31
0.0
  0
ARC
  5
82
  8
0
 62
     7
 10
158.249312
 20
112.072007
 30
0.0
 40
0.5415250000000002
 50
182.143822
 51
267.89408900000001
  0
ARC
  5
83
  8
0
  6
AIGENLINE002
 62
     7
 10
152.12110499999989
 20
117.200974
 30
0.0
 40
0.6705770000000002
 50
259.436846
 51
273.19054199999988
  0
ARC
  5
84
  8
0
  6
AIGENLINE002
 62
     7
 10
152.1815409999999
 20
117.612058
 30
0.0
 40
1.0858909999999991
 50
230.40118100000001
 51
260.27834699999988
  0
LINE
  5
85
  8
0
  6
AIGENLINE002
 62
     7
 10
151.489
 20
116.77500000000001
 30
0.0
 11
138.7939999999999
 21
127.98699999999999
 31
0.0
  0
LINE
  5
86
  8
0
 62
     7
 10
142.45099999999991
 20
123.53
 30
0.0
 11
138.0079999999999
 21
123.53
 31
0.0
  0
LINE
  5
87
  8
0
  6
AIGENLINE002
 62
     7
 10
138.708
 20
128.50700000000001
 30
0.0
 11
138.708
 21
127.98699999999999
 31
0.0
  0
ARC
  5
88
  8
0
 62
     7
 10
138.252185
 20
128.48715000000001
 30
0.0
 40
0.5436320000000001
 50
92.358012000000002
 51
177.90660299999999
  0
ARC
  5
89
  8
0
  6
AIGENLINE002
 62
     7
 10
138.16864399999989
 20
128.49109499999989
 30
0.0
 40
0.5395909999999999
 50
1.6899269999999991
 51
87.893643999999995
  0
LINE
  5
8A
  8
0
 62
     7
 10
138.1879999999999
 20
129.03
 30
0.0
 11
138.2299999999999
 21
129.03
 31
0.0
  0
ARC
  5
8B
  8
0
 62
     7
 10
183.66399999999999
 20
113.57177299999989
 30
0.0
 40
0.5416220000000001
 50
272.08036199999998
 51
357.88179200000002
  0
LINE
  5
8C
  8
0
  6
AIGENLINE002
 62
     7
 10
170.07400000000001
 20
127.078
 30
0.0
 11
169.4259999999999
 21
117.482
 31
0.0
  0
LINE
  5
8D
  8
0
 62
     7
 10
142.45099999999991
 20
123.53
 30
0.0
 11
184.20500000000001
 21
123.53
 31
0.0
  0
LINE
  5
8E
  8
0
 62
     7
 10
182.20500000000001
 20
116.53100000000001
 30
0.0
 11
182.20500000000001
 21
123.53
 31
0.0
  0
LINE
  5
8F
  8
0
 62
     7
 10
183.684
 20
129.03
 30
0.0
 11
138.1879999999999
 21
129.03
 31
0.0
  0
LINE
  5
90
  8
0
 62
     7
 10
184.20500000000001
 20
113.55200000000001
 30
0.0
 11
184.20500000000001
 21
121.072
 31
0.0
  0
LINE
  5
91
  8
0
 62
     7
 10
147.6639999999999
 20
116.53100000000001
 30
0.0
 11
184.20500000000001
 21
116.53100000000001
 31
0.0
  0
LINE
  5
92
  8
0
 62
     7
 10
149.21000000000001
 20
113.03100000000001
 30
0.0
 11
157.708
 21
113.03100000000001
 31
0.0
  0
LINE
  5
93
  8
0
  6
AIGENLINE002
 62
     7
 10
178.98099999999991
 20
128.02999999999989
 30
0.0
 11
174.43999999999991
 21
128.02999999999989
 31
0.0
  0
LINE
  5
94
  8
0
 62
     7
 10
52.406100000000002
 20
236.065
 30
0.0
 11
51.814700000000002
 21
238.2759999999999
 31
0.0
  0
LINE
  5
95
  8
0
 62
     7
 10
51.814700000000002
 20
238.2759999999999
 30
0.0
 11
51.222299999999997
 21
236.065
 31
0.0
  0
LINE
  5
96
  8
0
 62
     7
 10
51.222299999999997
 20
236.065
 30
0.0
 11
52.406100000000002
 21
236.065
 31
0.0
  0
LINE
  5
97
  8
0
 62
     7
 10
51.234099999999991
 20
218.48699999999999
 30
0.0
 11
51.8264
 21
216.27600000000001
 31
0.0
  0
LINE
  5
98
  8
0
 62
     7
 10
51.8264
 20
216.27600000000001
 30
0.0
 11
52.418799999999997
 21
218.48699999999999
 31
0.0
  0
LINE
  5
99
  8
0
 62
     7
 10
52.418799999999997
 20
218.48699999999999
 30
0.0
 11
51.234099999999991
 21
218.48699999999999
 31
0.0
  0
LINE
  5
9A
  8
0
 62
     7
 10
51.814700000000002
 20
238.2759999999999
 30
0.0
 11
51.814700000000002
 21
216.27799999999999
 31
0.0
  0
LINE
  5
9B
  8
0
 62
     7
 10
50.986400000000003
 20
216.27799999999999
 30
0.0
 11
67.343100000000007
 21
216.27799999999999
 31
0.0
  0
LINE
  5
9C
  8
0
 62
     7
 10
56.360599999999998
 20
99.720299999999995
 30
0.0
 11
54.150199999999998
 21
99.128100000000003
 31
0.0
  0
LINE
  5
9D
  8
0
 62
     7
 10
54.150199999999998
 20
99.128100000000003
 30
0.0
 11
56.360599999999998
 21
98.535899999999998
 31
0.0
  0
LINE
  5
9E
  8
0
 62
     7
 10
56.360599999999998
 20
98.535899999999998
 30
0.0
 11
56.360599999999998
 21
99.720299999999995
 31
0.0
  0
LINE
  5
9F
  8
0
 62
     7
 10
89.941500000000005
 20
98.558899999999994
 30
0.0
 11
92.152399999999986
 21
99.151499999999999
 31
0.0
  0
LINE
  5
A0
  8
0
 62
     7
 10
92.152399999999986
 20
99.151499999999999
 30
0.0
 11
89.941500000000005
 21
99.743700000000004
 31
0.0
  0
LINE
  5
A1
  8
0
 62
     7
 10
89.941500000000005
 20
99.743700000000004
 30
0.0
 11
89.941500000000005
 21
98.558899999999994
 31
0.0
  0
LINE
  5
A2
  8
0
 62
     7
 10
54.151899999999991
 20
99.140100000000004
 30
0.0
 11
92.150700000000001
 21
99.140100000000004
 31
0.0
  0
LINE
  5
A3
  8
0
 62
     7
 10
63.857500000000002
 20
136.6879999999999
 30
0.0
 11
61.648000000000003
 21
136.096
 31
0.0
  0
LINE
  5
A4
  8
0
 62
     7
 10
61.648000000000003
 20
136.096
 30
0.0
 11
63.857500000000002
 21
135.50399999999999
 31
0.0
  0
LINE
  5
A5
  8
0
 62
     7
 10
63.857500000000002
 20
135.50399999999999
 30
0.0
 11
63.857500000000002
 21
136.6879999999999
 31
0.0
  0
LINE
  5
A6
  8
0
 62
     7
 10
82.439400000000006
 20
135.52699999999999
 30
0.0
 11
84.649799999999999
 21
136.11999999999989
 31
0.0
  0
LINE
  5
A7
  8
0
 62
     7
 10
84.649799999999999
 20
136.11999999999989
 30
0.0
 11
82.439400000000006
 21
136.71199999999999
 31
0.0
  0
LINE
  5
A8
  8
0
 62
     7
 10
82.439400000000006
 20
136.71199999999999
 30
0.0
 11
82.439400000000006
 21
135.52699999999999
 31
0.0
  0
LINE
  5
A9
  8
0
 62
     7
 10
61.64950000000001
 20
136.10900000000001
 30
0.0
 11
84.648099999999985
 21
136.10900000000001
 31
0.0
  0
ARC
  5
AA
  8
0
 62
     7
 10
93.385405999999989
 20
115.26150699999999
 30
0.0
 40
1.236078
 50
103.7446629999999
 51
178.6876729999999
  0
ARC
  5
AB
  8
0
 62
     7
 10
77.630794999999992
 20
112.32428999999991
 30
0.0
 40
0.7940520000000002
 50
272.24506099999991
 51
357.88425599999999
  0
LINE
  5
AC
  8
0
 62
     7
 10
78.424300000000002
 20
113.03100000000001
 30
0.0
 11
78.424300000000002
 21
112.295
 31
0.0
  0
LINE
  5
AD
  8
0
 62
     7
 10
73.150199999999998
 20
111.53100000000001
 30
0.0
 11
77.661900000000003
 21
111.53100000000001
 31
0.0
  0
ARC
  5
AE
  8
0
 62
     7
 10
110.34288100000001
 20
125.411227
 30
0.0
 40
3.725387
 50
315.30222400000002
 51
329.66758399999992
  0
ARC
  5
AF
  8
0
 62
     7
 10
108.433809
 20
127.202122
 30
0.0
 40
6.3424469999999991
 50
303.8314509999999
 51
315.93245699999989
  0
ARC
  5
B0
  8
0
 62
     7
 10
105.192908
 20
131.80192700000001
 30
0.0
 40
11.968505
 50
295.48338499999988
 51
304.45954499999999
  0
ARC
  5
B1
  8
0
 62
     7
 10
100.535089
 20
141.1184979999999
 30
0.0
 40
22.383549999999989
 50
289.56558999999987
 51
295.98564199999993
  0
ARC
  5
B2
  8
0
 62
     7
 10
93.961067
 20
158.86059299999991
 30
0.0
 40
41.303514
 50
285.25513999999993
 51
289.9163539999999
  0
ARC
  5
B3
  8
0
 62
     7
 10
84.56631999999999
 20
192.14299999999989
 30
0.0
 40
75.885718000000011
 50
282.09099099999997
 51
285.48657400000002
  0
ARC
  5
B4
  8
0
 62
     7
 10
69.008413000000004
 20
262.25542499999989
 30
0.0
 40
147.70255499999999
 50
281.097264
 51
282.29530499999993
  0
ARC
  5
B5
  8
0
 62
     7
 10
197.67039800000001
 20
-405.17571199999998
 30
0.0
 40
532.01766799999984
 50
100.8595029999999
 51
101.336438
  0
ARC
  5
B6
  8
0
 62
     7
 10
118.10476
 20
124.321941
 30
0.0
 40
0.7926370000000002
 50
272.12167199999999
 51
357.87833799999993
  0
ARC
  5
B7
  8
0
 62
     7
 10
91.359061999999994
 20
113.8209899999999
 30
0.0
 40
0.7906220000000001
 50
272.00554499999998
 51
357.86486600000001
  0
LINE
  5
B8
  8
0
 62
     7
 10
92.149100000000004
 20
113.792
 30
0.0
 11
92.149100000000004
 21
115.29000000000001
 31
0.0
  0
LINE
  5
B9
  8
0
 62
     7
 10
118.89700000000001
 20
124.29299999999991
 30
0.0
 11
118.89700000000001
 21
128.26699999999991
 31
0.0
  0
LINE
  5
BA
  8
0
 62
     7
 10
73.150199999999998
 20
113.03100000000001
 30
0.0
 11
91.386700000000005
 21
113.03100000000001
 31
0.0
  0
LINE
  5
BB
  8
0
 62
     7
 10
73.150199999999998
 20
123.53
 30
0.0
 11
118.134
 21
123.53
 31
0.0
  0
ARC
  5
BC
  8
0
 62
     7
 10
118.1046849999999
 20
128.23816599999989
 30
0.0
 40
0.7927020000000001
 50
2.1010610000000001
 51
87.873056000000005
  0
LINE
  5
BD
  8
0
 62
     7
 10
118.134
 20
129.03
 30
0.0
 11
73.150199999999998
 21
129.03
 31
0.0
  0
ARC
  5
BE
  8
0
 62
     7
 10
82.473752999999988
 20
-7.5958920000000001
 30
0.0
 40
124.8830649999999
 50
86.329319999999996
 51
87.283525999999995
  0
ARC
  5
BF
  8
0
 62
     7
 10
73.051814000000007
 20
-189.32935900000001
 30
0.0
 40
306.859894
 50
87.134456999999983
 51
89.981623999999996
  0
ARC
  5
C0
  8
0
  6
AIGENLINE002
 62
     7
 10
85.094651999999996
 20
121.975791
 30
0.0
 40
1.055197999999999
 50
2.9737230000000001
 51
87.937026000000003
  0
ARC
  5
C1
  8
0
  6
AIGENLINE002
 62
     7
 10
85.109088000000014
 20
122.0698899999999
 30
0.0
 40
1.0400869999999991
 50
271.29737299999988
 51
357.83134699999988
  0
LINE
  5
C2
  8
0
  6
AIGENLINE002
 62
     7
 10
85.132599999999996
 20
121.0299999999999
 30
0.0
 11
84.165199999999999
 21
121.0299999999999
 31
0.0
  0
ARC
  5
C3
  8
0
  6
AIGENLINE002
 62
     7
 10
84.203283999999996
 20
122.085325
 30
0.0
 40
1.055939999999999
 50
182.97444899999991
 51
267.93571700000001
  0
ARC
  5
C4
  8
0
  6
AIGENLINE002
 62
     7
 10
84.187454999999986
 20
121.991106
 30
0.0
 40
1.039436
 50
91.224132999999995
 51
177.826233
  0
LINE
  5
C5
  8
0
  6
AIGENLINE002
 62
     7
 10
84.165199999999999
 20
123.0299999999999
 30
0.0
 11
85.132599999999996
 21
123.0299999999999
 31
0.0
  0
LINE
  5
C6
  8
0
  6
AIGENLINE001
 62
     7
 10
84.648599999999988
 20
119.96299999999989
 30
0.0
 11
84.648599999999988
 21
124.09699999999999
 31
0.0
  0
LINE
  5
C7
  8
0
  6
AIGENLINE001
 62
     7
 10
87.715599999999995
 20
122.03100000000001
 30
0.0
 11
81.582800000000006
 21
122.03100000000001
 31
0.0
  0
ARC
  5
C8
  8
0
 62
     7
 10
52.913917000000012
 20
115.26096799999991
 30
0.0
 40
1.2366010000000001
 50
1.3367459999999991
 51
76.261562999999995
  0
ARC
  5
C9
  8
0
 62
     7
 10
68.669038
 20
112.32428999999991
 30
0.0
 40
0.7940520000000002
 50
182.1157639999999
 51
267.75495899999987
  0
LINE
  5
CA
  8
0
 62
     7
 10
67.875500000000002
 20
113.03100000000001
 30
0.0
 11
67.875500000000002
 21
112.295
 31
0.0
  0
LINE
  5
CB
  8
0
 62
     7
 10
73.150199999999998
 20
111.53100000000001
 30
0.0
 11
68.637900000000002
 21
111.53100000000001
 31
0.0
  0
ARC
  5
CC
  8
0
 62
     7
 10
35.957126000000002
 20
125.41313599999999
 30
0.0
 40
3.7275419999999988
 50
210.34704500000001
 51
224.70629099999999
  0
ARC
  5
CD
  8
0
 62
     7
 10
37.867618999999998
 20
127.206299
 30
0.0
 40
6.347194
 50
224.078563
 51
236.17235899999989
  0
ARC
  5
CE
  8
0
 62
     7
 10
41.107261999999999
 20
131.80505700000001
 30
0.0
 40
11.971671000000001
 50
235.54486199999999
 51
244.5196499999999
  0
ARC
  5
CF
  8
0
 62
     7
 10
45.76766099999999
 20
141.12815699999999
 30
0.0
 40
22.393712000000001
 50
244.01744600000001
 51
250.43507700000001
  0
ARC
  5
D0
  8
0
 62
     7
 10
52.340578999999991
 20
158.86870699999989
 30
0.0
 40
41.311846000000003
 50
250.084813
 51
254.74528599999999
  0
ARC
  5
D1
  8
0
 62
     7
 10
61.736989999999999
 20
192.15780399999991
 30
0.0
 40
75.900937999999996
 50
254.51383000000001
 51
257.90874300000002
  0
ARC
  5
D2
  8
0
 62
     7
 10
77.295865000000006
 20
262.273865
 30
0.0
 40
147.72153599999999
 50
257.70452299999988
 51
258.90238199999988
  0
ARC
  5
D3
  8
0
 62
     7
 10
-51.140425
 20
-403.95751799999988
 30
0.0
 40
530.77790199999993
 50
78.662106000000009
 51
79.140117000000004
  0
ARC
  5
D4
  8
0
 62
     7
 10
28.194407000000002
 20
124.3219889999999
 30
0.0
 40
0.792661
 50
182.12513999999999
 51
267.926624
  0
ARC
  5
D5
  8
0
 62
     7
 10
54.941418999999989
 20
113.820905
 30
0.0
 40
0.790578
 50
182.129087
 51
267.909853
  0
LINE
  5
D6
  8
0
 62
     7
 10
54.151400000000002
 20
113.792
 30
0.0
 11
54.151400000000002
 21
115.29000000000001
 31
0.0
  0
LINE
  5
D7
  8
0
 62
     7
 10
27.4023
 20
124.29299999999991
 30
0.0
 11
27.4023
 21
128.26699999999991
 31
0.0
  0
LINE
  5
D8
  8
0
 62
     7
 10
73.150199999999998
 20
113.03100000000001
 30
0.0
 11
54.912599999999998
 21
113.03100000000001
 31
0.0
  0
LINE
  5
D9
  8
0
 62
     7
 10
73.150199999999998
 20
123.53
 30
0.0
 11
28.165700000000001
 21
123.53
 31
0.0
  0
ARC
  5
DA
  8
0
 62
     7
 10
28.195115000000001
 20
128.23748299999991
 30
0.0
 40
0.7933819999999999
 50
92.122695999999976
 51
177.85141300000001
  0
LINE
  5
DB
  8
0
 62
     7
 10
28.165700000000001
 20
129.03
 30
0.0
 11
73.150199999999998
 21
129.03
 31
0.0
  0
ARC
  5
DC
  8
0
 62
     7
 10
65.605958000000001
 20
-38.556500999999997
 30
0.0
 40
155.89421299999989
 50
92.677817999999988
 51
93.594790000000003
  0
ARC
  5
DD
  8
0
 62
     7
 10
73.293157999999991
 20
-191.29098500000001
 30
0.0
 40
308.82153899999997
 50
90.026517999999996
 51
92.778572999999994
  0
ARC
  5
DE
  8
0
  6
AIGENLINE002
 62
     7
 10
61.20467399999999
 20
121.97578
 30
0.0
 40
1.0552090000000001
 50
92.063488000000007
 51
177.025723
  0
ARC
  5
DF
  8
0
  6
AIGENLINE002
 62
     7
 10
61.190227999999998
 20
122.0698899999999
 30
0.0
 40
1.0400860000000001
 50
182.168656
 51
268.70266400000003
  0
LINE
  5
E0
  8
0
  6
AIGENLINE002
 62
     7
 10
61.166699999999999
 20
121.0299999999999
 30
0.0
 11
62.134099999999989
 21
121.0299999999999
 31
0.0
  0
ARC
  5
E1
  8
0
  6
AIGENLINE002
 62
     7
 10
62.096032000000001
 20
122.085325
 30
0.0
 40
1.055939999999999
 50
272.064303
 51
357.02557100000001
  0
ARC
  5
E2
  8
0
  6
AIGENLINE002
 62
     7
 10
62.11186099999999
 20
121.991106
 30
0.0
 40
1.039436
 50
2.1737649999999991
 51
88.775829999999985
  0
LINE
  5
E3
  8
0
  6
AIGENLINE002
 62
     7
 10
62.134099999999989
 20
123.0299999999999
 30
0.0
 11
61.166699999999999
 21
123.0299999999999
 31
0.0
  0
LINE
  5
E4
  8
0
  6
AIGENLINE001
 62
     7
 10
61.650700000000001
 20
119.96299999999989
 30
0.0
 11
61.650700000000001
 21
124.09699999999999
 31
0.0
  0
LINE
  5
E5
  8
0
  6
AIGENLINE001
 62
     7
 10
58.584699999999998
 20
122.03100000000001
 30
0.0
 11
64.716999999999999
 21
122.03100000000001
 31
0.0
  0
LINE
  5
E6
  8
0
  6
AIGENLINE001
 62
     7
 10
73.150199999999998
 20
130.63200000000001
 30
0.0
 11
73.150199999999998
 21
110.199
 31
0.0
  0
LINE
  5
E7
  8
0
 62
     7
 10
92.150700000000001
 20
112.051
 30
0.0
 11
92.150700000000001
 21
98.287800000000004
 31
0.0
  0
LINE
  5
E8
  8
0
 62
     7
 10
54.151400000000002
 20
112.051
 30
0.0
 11
54.151400000000002
 21
98.287800000000004
 31
0.0
  0
LINE
  5
E9
  8
0
 62
     7
 10
84.648099999999985
 20
136.96000000000001
 30
0.0
 11
84.648099999999985
 21
125.2399999999999
 31
0.0
  0
LINE
  5
EA
  8
0
 62
     7
 10
61.648000000000003
 20
136.96000000000001
 30
0.0
 11
61.648000000000003
 21
125.2399999999999
 31
0.0
  0
LINE
  5
EB
  8
0
 62
     7
 10
69.063199999999995
 20
235.863
 30
0.0
 11
79.439099999999996
 21
225.48799999999989
 31
0.0
  0
LINE
  5
EC
  8
0
 62
     7
 10
79.073499999999996
 20
222.20400000000001
 30
0.0
 11
66.496399999999994
 21
209.62700000000001
 31
0.0
  0
ARC
  5
ED
  8
0
 62
     7
 10
73.004369999999994
 20
216.42185299999991
 30
0.0
 40
3.8962289999999991
 50
272.1040799999999
 51
357.885403
  0
ARC
  5
EE
  8
0
 62
     7
 10
73.290774999999996
 20
216.420908
 30
0.0
 40
3.8952960000000001
 50
182.101214
 51
267.890919
  0
ARC
  5
EF
  8
0
 62
     7
 10
73.291961999999998
 20
216.1344399999999
 30
0.0
 40
3.8965129999999988
 50
92.125893000000005
 51
177.88723799999991
  0
ARC
  5
F0
  8
0
 62
     7
 10
73.004129000000006
 20
216.13444100000001
 30
0.0
 40
3.8964650000000001
 50
2.1127509999999989
 51
87.892503000000005
  0
ARC
  5
F1
  8
0
 62
     7
 10
73.062123999999983
 20
216.36427699999999
 30
0.0
 40
2.3375789999999999
 50
272.09110800000002
 51
357.88697300000001
  0
ARC
  5
F2
  8
0
 62
     7
 10
73.234391000000002
 20
216.36470299999991
 30
0.0
 40
2.3380669999999988
 50
182.12304800000001
 51
267.86820699999993
  0
ARC
  5
F3
  8
0
 62
     7
 10
73.234228000000002
 20
216.19199499999999
 30
0.0
 40
2.337883999999999
 50
92.127958000000007
 51
177.88955899999999
  0
ARC
  5
F4
  8
0
 62
     7
 10
73.060515000000009
 20
216.19064800000001
 30
0.0
 40
2.3392339999999989
 50
2.1422110000000001
 51
87.870936
  0
ARC
  5
F5
  8
0
 62
     7
 10
73.147677000000002
 20
231.7781019999999
 30
0.0
 40
1.7503779999999991
 50
269.99156199999999
 51
359.99153200000001
  0
ARC
  5
F6
  8
0
 62
     7
 10
73.215087999999994
 20
231.84497599999989
 30
0.0
 40
1.8185109999999991
 50
182.11563699999999
 51
267.86747200000002
  0
ARC
  5
F7
  8
0
 62
     7
 10
73.214628000000005
 20
231.710634
 30
0.0
 40
1.818055
 50
92.118565000000004
 51
177.881405
  0
ARC
  5
F8
  8
0
 62
     7
 10
73.147935000000004
 20
231.77732599999999
 30
0.0
 40
1.7501199999999999
 50
0.016928
 51
90.016898000000012
  0
LINE
  5
F9
  8
0
 62
     7
 10
42.838999999999999
 20
126.81999999999989
 30
0.0
 11
42.247100000000003
 21
129.03
 31
0.0
  0
LINE
  5
FA
  8
0
 62
     7
 10
42.247100000000003
 20
129.03
 30
0.0
 11
41.654200000000003
 21
126.81999999999989
 31
0.0
  0
LINE
  5
FB
  8
0
 62
     7
 10
41.654200000000003
 20
126.81999999999989
 30
0.0
 11
42.838999999999999
 21
126.81999999999989
 31
0.0
  0
LINE
  5
FC
  8
0
 62
     7
 10
41.677999999999997
 20
124.241
 30
0.0
 11
42.270400000000002
 21
122.03100000000001
 31
0.0
  0
LINE
  5
FD
  8
0
 62
     7
 10
42.270400000000002
 20
122.03100000000001
 30
0.0
 11
42.8628
 21
124.241
 31
0.0
  0
LINE
  5
FE
  8
0
 62
     7
 10
42.8628
 20
124.241
 30
0.0
 11
41.677999999999997
 21
124.241
 31
0.0
  0
LINE
  5
FF
  8
0
 62
     7
 10
42.258200000000002
 20
129.03
 30
0.0
 11
42.258200000000002
 21
122.03100000000001
 31
0.0
  0
LINE
  5
100
  8
0
 62
     7
 10
41.430300000000003
 20
122.03100000000001
 30
0.0
 11
57.604300000000002
 21
122.03100000000001
 31
0.0
  0
LINE
  5
101
  8
0
 62
     7
 10
123.261
 20
121.31999999999999
 30
0.0
 11
122.66799999999991
 21
123.53100000000001
 31
0.0
  0
LINE
  5
102
  8
0
 62
     7
 10
122.66799999999991
 20
123.53100000000001
 30
0.0
 11
122.07599999999999
 21
121.31999999999999
 31
0.0
  0
LINE
  5
103
  8
0
 62
     7
 10
122.07599999999999
 20
121.31999999999999
 30
0.0
 11
123.261
 21
121.31999999999999
 31
0.0
  0
LINE
  5
104
  8
0
 62
     7
 10
122.09999999999989
 20
131.24100000000001
 30
0.0
 11
122.69199999999999
 21
129.03
 31
0.0
  0
LINE
  5
105
  8
0
 62
     7
 10
122.69199999999999
 20
129.03
 30
0.0
 11
123.28399999999991
 21
131.24100000000001
 31
0.0
  0
LINE
  5
106
  8
0
 62
     7
 10
123.28399999999991
 20
131.24100000000001
 30
0.0
 11
122.09999999999989
 21
131.24100000000001
 31
0.0
  0
LINE
  5
107
  8
0
 62
     7
 10
122.68000000000001
 20
135.084
 30
0.0
 11
122.68000000000001
 21
119.7259999999999
 31
0.0
  0
LINE
  5
108
  8
0
 62
     7
 10
129.22599999999991
 20
126.81999999999989
 30
0.0
 11
128.6329999999999
 21
129.03
 31
0.0
  0
LINE
  5
109
  8
0
 62
     7
 10
128.6329999999999
 20
129.03
 30
0.0
 11
128.042
 21
126.81999999999989
 31
0.0
  0
LINE
  5
10A
  8
0
 62
     7
 10
128.042
 20
126.81999999999989
 30
0.0
 11
129.22599999999991
 21
126.81999999999989
 31
0.0
  0
LINE
  5
10B
  8
0
 62
     7
 10
128.065
 20
115.24499999999991
 30
0.0
 11
128.6579999999999
 21
113.0349999999999
 31
0.0
  0
LINE
  5
10C
  8
0
 62
     7
 10
128.6579999999999
 20
113.0349999999999
 30
0.0
 11
129.24899999999991
 21
115.24499999999991
 31
0.0
  0
LINE
  5
10D
  8
0
 62
     7
 10
129.24899999999991
 20
115.24499999999991
 30
0.0
 11
128.065
 21
115.24499999999991
 31
0.0
  0
LINE
  5
10E
  8
0
 62
     7
 10
128.64500000000001
 20
129.02799999999991
 30
0.0
 11
128.64500000000001
 21
113.03700000000001
 31
0.0
  0
LINE
  5
10F
  8
0
 62
     7
 10
135.37700000000001
 20
126.822
 30
0.0
 11
134.78499999999991
 21
129.0329999999999
 31
0.0
  0
LINE
  5
110
  8
0
 62
     7
 10
134.78499999999991
 20
129.0329999999999
 30
0.0
 11
134.19200000000001
 21
126.822
 31
0.0
  0
LINE
  5
111
  8
0
 62
     7
 10
134.19200000000001
 20
126.822
 30
0.0
 11
135.37700000000001
 21
126.822
 31
0.0
  0
LINE
  5
112
  8
0
 62
     7
 10
134.21700000000001
 20
113.7429999999999
 30
0.0
 11
134.809
 21
111.532
 31
0.0
  0
LINE
  5
113
  8
0
 62
     7
 10
134.809
 20
111.532
 30
0.0
 11
135.40100000000001
 21
113.7429999999999
 31
0.0
  0
LINE
  5
114
  8
0
 62
     7
 10
135.40100000000001
 20
113.7429999999999
 30
0.0
 11
134.21700000000001
 21
113.7429999999999
 31
0.0
  0
LINE
  5
115
  8
0
 62
     7
 10
134.79699999999991
 20
129.03
 30
0.0
 11
134.79699999999991
 21
111.53399999999991
 31
0.0
  0
LINE
  5
116
  8
0
 62
     7
 10
93.128600000000006
 20
113.03100000000001
 30
0.0
 11
129.49799999999999
 21
113.03100000000001
 31
0.0
  0
LINE
  5
117
  8
0
 62
     7
 10
79.405000000000001
 20
111.53100000000001
 30
0.0
 11
135.64899999999989
 21
111.53100000000001
 31
0.0
  0
LINE
  5
118
  8
0
 62
     7
 10
119.877
 20
123.53
 30
0.0
 11
123.5079999999999
 21
123.53
 31
0.0
  0
LINE
  5
119
  8
0
 62
     7
 10
119.877
 20
129.03
 30
0.0
 11
135.626
 21
129.03
 31
0.0
  0
LINE
  5
11A
  8
0
 62
     7
 10
133.4789999999999
 20
189.62
 30
0.0
 11
134.071
 21
191.8309999999999
 31
0.0
  0
LINE
  5
11B
  8
0
 62
     7
 10
134.071
 20
191.8309999999999
 30
0.0
 11
134.6629999999999
 21
189.62
 31
0.0
  0
LINE
  5
11C
  8
0
 62
     7
 10
134.6629999999999
 20
189.62
 30
0.0
 11
133.4789999999999
 21
189.62
 31
0.0
  0
LINE
  5
11D
  8
0
 62
     7
 10
127.024
 20
236.06700000000001
 30
0.0
 11
126.432
 21
238.27799999999991
 31
0.0
  0
LINE
  5
11E
  8
0
 62
     7
 10
126.432
 20
238.27799999999991
 30
0.0
 11
125.839
 21
236.06700000000001
 31
0.0
  0
LINE
  5
11F
  8
0
 62
     7
 10
125.839
 20
236.06700000000001
 30
0.0
 11
127.024
 21
236.06700000000001
 31
0.0
  0
LINE
  5
120
  8
0
 62
     7
 10
127.024
 20
229.5679999999999
 30
0.0
 11
126.432
 21
231.779
 31
0.0
  0
LINE
  5
121
  8
0
 62
     7
 10
126.432
 20
231.779
 30
0.0
 11
125.839
 21
229.5679999999999
 31
0.0
  0
LINE
  5
122
  8
0
 62
     7
 10
125.839
 20
229.5679999999999
 30
0.0
 11
127.024
 21
229.5679999999999
 31
0.0
  0
LINE
  5
123
  8
0
 62
     7
 10
125.8629999999999
 20
226.488
 30
0.0
 11
126.455
 21
224.27699999999999
 31
0.0
  0
LINE
  5
124
  8
0
 62
     7
 10
126.455
 20
224.27699999999999
 30
0.0
 11
127.0479999999999
 21
226.488
 31
0.0
  0
LINE
  5
125
  8
0
 62
     7
 10
127.0479999999999
 20
226.488
 30
0.0
 11
125.8629999999999
 21
226.488
 31
0.0
  0
LINE
  5
126
  8
0
 62
     7
 10
126.4429999999999
 20
231.77699999999999
 30
0.0
 11
126.4429999999999
 21
224.279
 31
0.0
  0
LINE
  5
127
  8
0
 62
     7
 10
125.8629999999999
 20
233.989
 30
0.0
 11
126.455
 21
231.779
 31
0.0
  0
LINE
  5
128
  8
0
 62
     7
 10
126.455
 20
231.779
 30
0.0
 11
127.0479999999999
 21
233.989
 31
0.0
  0
LINE
  5
129
  8
0
 62
     7
 10
127.0479999999999
 20
233.989
 30
0.0
 11
125.8629999999999
 21
233.989
 31
0.0
  0
LINE
  5
12A
  8
0
 62
     7
 10
126.4429999999999
 20
238.27799999999991
 30
0.0
 11
126.4429999999999
 21
231.779
 31
0.0
  0
LINE
  5
12B
  8
0
 62
     7
 10
134.65199999999999
 20
222.06700000000001
 30
0.0
 11
134.06
 21
224.27699999999999
 31
0.0
  0
LINE
  5
12C
  8
0
 62
     7
 10
134.06
 20
224.27699999999999
 30
0.0
 11
133.46700000000001
 21
222.06700000000001
 31
0.0
  0
LINE
  5
12D
  8
0
 62
     7
 10
133.46700000000001
 20
222.06700000000001
 30
0.0
 11
134.65199999999999
 21
222.06700000000001
 31
0.0
  0
LINE
  5
12E
  8
0
 62
     7
 10
133.49100000000001
 20
194.99000000000001
 30
0.0
 11
134.08299999999991
 21
192.779
 31
0.0
  0
LINE
  5
12F
  8
0
 62
     7
 10
134.08299999999991
 20
192.779
 30
0.0
 11
134.67500000000001
 21
194.99000000000001
 31
0.0
  0
LINE
  5
130
  8
0
 62
     7
 10
134.67500000000001
 20
194.99000000000001
 30
0.0
 11
133.49100000000001
 21
194.99000000000001
 31
0.0
  0
LINE
  5
131
  8
0
 62
     7
 10
134.071
 20
224.27500000000001
 30
0.0
 11
134.071
 21
185.62599999999989
 31
0.0
  0
LINE
  5
132
  8
0
 62
     7
 10
134.65199999999999
 20
236.0679999999999
 30
0.0
 11
134.06
 21
238.279
 31
0.0
  0
LINE
  5
133
  8
0
 62
     7
 10
134.06
 20
238.279
 30
0.0
 11
133.46700000000001
 21
236.0679999999999
 31
0.0
  0
LINE
  5
134
  8
0
 62
     7
 10
133.46700000000001
 20
236.0679999999999
 30
0.0
 11
134.65199999999999
 21
236.0679999999999
 31
0.0
  0
LINE
  5
135
  8
0
 62
     7
 10
133.49100000000001
 20
226.488
 30
0.0
 11
134.08299999999991
 21
224.27699999999999
 31
0.0
  0
LINE
  5
136
  8
0
 62
     7
 10
134.08299999999991
 20
224.27699999999999
 30
0.0
 11
134.67500000000001
 21
226.488
 31
0.0
  0
LINE
  5
137
  8
0
 62
     7
 10
134.67500000000001
 20
226.488
 30
0.0
 11
133.49100000000001
 21
226.488
 31
0.0
  0
LINE
  5
138
  8
0
 62
     7
 10
134.071
 20
238.27699999999999
 30
0.0
 11
134.071
 21
224.279
 31
0.0
  0
LINE
  5
139
  8
0
 62
     7
 10
142.81700000000001
 20
236.06899999999999
 30
0.0
 11
142.2239999999999
 21
238.28
 31
0.0
  0
LINE
  5
13A
  8
0
 62
     7
 10
142.2239999999999
 20
238.28
 30
0.0
 11
141.63199999999989
 21
236.06899999999999
 31
0.0
  0
LINE
  5
13B
  8
0
 62
     7
 10
141.63199999999989
 20
236.06899999999999
 30
0.0
 11
142.81700000000001
 21
236.06899999999999
 31
0.0
  0
LINE
  5
13C
  8
0
 62
     7
 10
141.65600000000001
 20
193.98699999999991
 30
0.0
 11
142.24799999999999
 21
191.7759999999999
 31
0.0
  0
LINE
  5
13D
  8
0
 62
     7
 10
142.24799999999999
 20
191.7759999999999
 30
0.0
 11
142.84
 21
193.98699999999991
 31
0.0
  0
LINE
  5
13E
  8
0
 62
     7
 10
142.84
 20
193.98699999999991
 30
0.0
 11
141.65600000000001
 21
193.98699999999991
 31
0.0
  0
LINE
  5
13F
  8
0
 62
     7
 10
142.2359999999999
 20
238.27799999999991
 30
0.0
 11
142.2359999999999
 21
191.77799999999999
 31
0.0
  0
LINE
  5
140
  8
0
 62
     7
 10
105.377
 20
224.27799999999991
 30
0.0
 11
134.89999999999989
 21
224.27799999999991
 31
0.0
  0
LINE
  5
141
  8
0
 62
     7
 10
119.877
 20
191.77799999999999
 30
0.0
 11
143.08799999999991
 21
191.77799999999999
 31
0.0
  0
LINE
  5
142
  8
0
 62
     7
 10
119.877
 20
192.779
 30
0.0
 11
134.923
 21
192.779
 31
0.0
  0
LINE
  5
143
  8
0
 62
     7
 10
77.189099999999996
 20
231.77799999999991
 30
0.0
 11
127.27200000000001
 21
231.77799999999991
 31
0.0
  0
LINE
  5
144
  8
0
 62
     7
 10
119.877
 20
238.27799999999991
 30
0.0
 11
143.08000000000001
 21
238.27799999999991
 31
0.0
  0
LINE
  5
145
  8
0
 62
     7
 10
116.6879999999999
 20
177.374
 30
0.0
 11
118.8989999999999
 21
177.96599999999989
 31
0.0
  0
LINE
  5
146
  8
0
 62
     7
 10
118.8989999999999
 20
177.96599999999989
 30
0.0
 11
116.6879999999999
 21
178.559
 31
0.0
  0
LINE
  5
147
  8
0
 62
     7
 10
116.6879999999999
 20
178.559
 30
0.0
 11
116.6879999999999
 21
177.374
 31
0.0
  0
LINE
  5
148
  8
0
 62
     7
 10
106.60599999999999
 20
178.535
 30
0.0
 11
104.3959999999999
 21
177.9429999999999
 31
0.0
  0
LINE
  5
149
  8
0
 62
     7
 10
104.3959999999999
 20
177.9429999999999
 30
0.0
 11
106.60599999999999
 21
177.34999999999999
 31
0.0
  0
LINE
  5
14A
  8
0
 62
     7
 10
106.60599999999999
 20
177.34999999999999
 30
0.0
 11
106.60599999999999
 21
178.535
 31
0.0
  0
LINE
  5
14B
  8
0
 62
     7
 10
118.89700000000001
 20
177.95400000000001
 30
0.0
 11
104.39700000000001
 21
177.95400000000001
 31
0.0
  0
LINE
  5
14C
  8
0
 62
     7
 10
25.189099999999989
 20
183.5329999999999
 30
0.0
 11
27.399000000000001
 21
184.12599999999989
 31
0.0
  0
LINE
  5
14D
  8
0
 62
     7
 10
27.399000000000001
 20
184.12599999999989
 30
0.0
 11
25.189099999999989
 21
184.7179999999999
 31
0.0
  0
LINE
  5
14E
  8
0
 62
     7
 10
25.189099999999989
 20
184.7179999999999
 30
0.0
 11
25.189099999999989
 21
183.5329999999999
 31
0.0
  0
LINE
  5
14F
  8
0
 62
     7
 10
30.6099
 20
184.69399999999999
 30
0.0
 11
28.399499999999989
 21
184.102
 31
0.0
  0
LINE
  5
150
  8
0
 62
     7
 10
28.399499999999989
 20
184.102
 30
0.0
 11
30.6099
 21
183.50999999999991
 31
0.0
  0
LINE
  5
151
  8
0
 62
     7
 10
30.6099
 20
183.50999999999991
 30
0.0
 11
30.6099
 21
184.69399999999999
 31
0.0
  0
LINE
  5
152
  8
0
 62
     7
 10
34.58639999999999
 20
184.114
 30
0.0
 11
23.444400000000002
 21
184.114
 31
0.0
  0
LINE
  5
153
  8
0
 62
     7
 10
39.6907
 20
177.374
 30
0.0
 11
41.901099999999992
 21
177.96599999999989
 31
0.0
  0
LINE
  5
154
  8
0
 62
     7
 10
41.901099999999992
 20
177.96599999999989
 30
0.0
 11
39.6907
 21
178.559
 31
0.0
  0
LINE
  5
155
  8
0
 62
     7
 10
39.6907
 20
178.559
 30
0.0
 11
39.6907
 21
177.374
 31
0.0
  0
LINE
  5
156
  8
0
 62
     7
 10
29.607900000000001
 20
178.535
 30
0.0
 11
27.397500000000001
 21
177.9429999999999
 31
0.0
  0
LINE
  5
157
  8
0
 62
     7
 10
27.397500000000001
 20
177.9429999999999
 30
0.0
 11
29.607900000000001
 21
177.34999999999999
 31
0.0
  0
LINE
  5
158
  8
0
 62
     7
 10
29.607900000000001
 20
177.34999999999999
 30
0.0
 11
29.607900000000001
 21
178.535
 31
0.0
  0
LINE
  5
159
  8
0
 62
     7
 10
41.89929999999999
 20
177.95400000000001
 30
0.0
 11
27.399000000000001
 21
177.95400000000001
 31
0.0
  0
LINE
  5
15A
  8
0
 62
     7
 10
102.18899999999989
 20
177.374
 30
0.0
 11
104.3989999999999
 21
177.96599999999989
 31
0.0
  0
LINE
  5
15B
  8
0
 62
     7
 10
104.3989999999999
 20
177.96599999999989
 30
0.0
 11
102.18899999999989
 21
178.559
 31
0.0
  0
LINE
  5
15C
  8
0
 62
     7
 10
102.18899999999989
 20
178.559
 30
0.0
 11
102.18899999999989
 21
177.374
 31
0.0
  0
LINE
  5
15D
  8
0
 62
     7
 10
44.106999999999999
 20
178.535
 30
0.0
 11
41.896599999999992
 21
177.9429999999999
 31
0.0
  0
LINE
  5
15E
  8
0
 62
     7
 10
41.896599999999992
 20
177.9429999999999
 30
0.0
 11
44.106999999999999
 21
177.34999999999999
 31
0.0
  0
LINE
  5
15F
  8
0
 62
     7
 10
44.106999999999999
 20
177.34999999999999
 30
0.0
 11
44.106999999999999
 21
178.535
 31
0.0
  0
LINE
  5
160
  8
0
 62
     7
 10
104.39700000000001
 20
177.95400000000001
 30
0.0
 11
41.89929999999999
 21
177.95400000000001
 31
0.0
  0
LINE
  5
161
  8
0
 62
     7
 10
104.39700000000001
 20
190.798
 30
0.0
 11
104.39700000000001
 21
177.10299999999989
 31
0.0
  0
LINE
  5
162
  8
0
 62
     7
 10
118.89700000000001
 20
190.798
 30
0.0
 11
118.89700000000001
 21
166.8479999999999
 31
0.0
  0
LINE
  5
163
  8
0
 62
     7
 10
41.89929999999999
 20
190.798
 30
0.0
 11
41.89929999999999
 21
177.12599999999989
 31
0.0
  0
LINE
  5
164
  8
0
 62
     7
 10
28.399499999999989
 20
190.798
 30
0.0
 11
28.399499999999989
 21
183.262
 31
0.0
  0
LINE
  5
165
  8
0
 62
     7
 10
27.399000000000001
 20
191.63800000000001
 30
0.0
 11
27.399000000000001
 21
166.965
 31
0.0
  0
LINE
  5
166
  8
0
 62
     7
 10
116.6879999999999
 20
167.09599999999989
 30
0.0
 11
118.8989999999999
 21
167.6879999999999
 31
0.0
  0
LINE
  5
167
  8
0
 62
     7
 10
118.8989999999999
 20
167.6879999999999
 30
0.0
 11
116.6879999999999
 21
168.28099999999989
 31
0.0
  0
LINE
  5
168
  8
0
 62
     7
 10
116.6879999999999
 20
168.28099999999989
 30
0.0
 11
116.6879999999999
 21
167.09599999999989
 31
0.0
  0
LINE
  5
169
  8
0
 62
     7
 10
29.607900000000001
 20
168.25700000000001
 30
0.0
 11
27.397500000000001
 21
167.66499999999991
 31
0.0
  0
LINE
  5
16A
  8
0
 62
     7
 10
27.397500000000001
 20
167.66499999999991
 30
0.0
 11
29.607900000000001
 21
167.07299999999989
 31
0.0
  0
LINE
  5
16B
  8
0
 62
     7
 10
29.607900000000001
 20
167.07299999999989
 30
0.0
 11
29.607900000000001
 21
168.25700000000001
 31
0.0
  0
LINE
  5
16C
  8
0
 62
     7
 10
118.89700000000001
 20
167.67699999999999
 30
0.0
 11
27.399000000000001
 21
167.67699999999999
 31
0.0
  0
ARC
  5
16D
  8
0
 62
     7
 10
88.060310000000001
 20
194.48844899999989
 30
0.0
 40
10.010099
 50
76.945858000000001
 51
89.943860999999984
  0
ARC
  5
16E
  8
0
 62
     7
 10
87.125834999999995
 20
189.75169199999991
 30
0.0
 40
14.836373999999999
 50
66.250205000000008
 51
77.562117000000001
  0
ARC
  5
16F
  8
0
 62
     7
 10
84.488973000000001
 20
183.48982899999999
 30
0.0
 40
21.630189000000001
 50
33.915743999999997
 51
66.537262999999996
  0
ARC
  5
170
  8
0
 62
     7
 10
89.993459999999999
 20
187.47026199999999
 30
0.0
 40
14.843076
 50
24.894455999999991
 51
33.020772999999998
  0
LINE
  5
171
  8
0
 62
     7
 10
88.070099999999996
 20
204.499
 30
0.0
 11
88.070099999999996
 21
224.27799999999991
 31
0.0
  0
LINE
  5
172
  8
0
 62
     7
 10
73.148600000000002
 20
204.499
 30
0.0
 11
88.070099999999996
 21
204.499
 31
0.0
  0
LINE
  5
173
  8
0
 62
     7
 10
104.39700000000001
 20
224.27799999999991
 30
0.0
 11
104.39700000000001
 21
192.779
 31
0.0
  0
LINE
  5
174
  8
0
 62
     7
 10
73.148600000000002
 20
224.27799999999991
 30
0.0
 11
104.39700000000001
 21
224.27799999999991
 31
0.0
  0
LINE
  5
175
  8
0
 62
     7
 10
73.148600000000002
 20
192.779
 30
0.0
 11
117.896
 21
192.779
 31
0.0
  0
LINE
  5
176
  8
0
 62
     7
 10
73.148600000000002
 20
191.77799999999999
 30
0.0
 11
117.896
 21
191.77799999999999
 31
0.0
  0
ARC
  5
177
  8
0
 62
     7
 10
117.857731
 20
192.817432
 30
0.0
 40
1.039841999999999
 50
272.13072
 51
357.86928999999998
  0
LINE
  5
178
  8
0
 62
     7
 10
117.896
 20
192.779
 30
0.0
 11
117.896
 21
236.27799999999991
 31
0.0
  0
ARC
  5
179
  8
0
 62
     7
 10
116.85765499999999
 20
236.23887199999999
 30
0.0
 40
1.039474
 50
2.1587809999999998
 51
87.870820999999992
  0
LINE
  5
17A
  8
0
 62
     7
 10
116.8959999999999
 20
237.27799999999999
 30
0.0
 11
73.148600000000002
 21
237.27799999999999
 31
0.0
  0
LINE
  5
17B
  8
0
 62
     7
 10
118.89700000000001
 20
192.779
 30
0.0
 11
118.89700000000001
 21
237.27799999999999
 31
0.0
  0
ARC
  5
17C
  8
0
 62
     7
 10
117.857783
 20
237.23846299999991
 30
0.0
 40
1.0398279999999991
 50
2.1870720000000001
 51
87.872138000000007
  0
LINE
  5
17D
  8
0
 62
     7
 10
117.896
 20
238.27799999999991
 30
0.0
 11
73.148600000000002
 21
238.27799999999991
 31
0.0
  0
ARC
  5
17E
  8
0
 62
     7
 10
58.235743999999997
 20
194.490993
 30
0.0
 40
10.007555
 50
90.056193000000007
 51
103.055789
  0
ARC
  5
17F
  8
0
 62
     7
 10
59.171005000000001
 20
189.75098899999989
 30
0.0
 40
14.837167000000001
 50
102.439148
 51
113.74999699999999
  0
ARC
  5
180
  8
0
 62
     7
 10
61.808473999999997
 20
183.48763299999999
 30
0.0
 40
21.632592999999989
 50
113.46278
 51
146.08150900000001
  0
ARC
  5
181
  8
0
 62
     7
 10
56.298870999999998
 20
187.4724249999999
 30
0.0
 40
14.838798999999989
 50
146.97843399999999
 51
155.107067
  0
LINE
  5
182
  8
0
  6
AIGENLINE001
 62
     7
 10
76.34899999999999
 20
231.77799999999991
 30
0.0
 11
69.948800000000006
 21
231.77799999999991
 31
0.0
  0
LINE
  5
183
  8
0
  6
AIGENLINE001
 62
     7
 10
84.648099999999985
 20
241.45199999999991
 30
0.0
 11
84.648099999999985
 21
233.54099999999991
 31
0.0
  0
LINE
  5
184
  8
0
  6
AIGENLINE001
 62
     7
 10
61.648999999999987
 20
241.45199999999991
 30
0.0
 11
61.648999999999987
 21
233.54099999999991
 31
0.0
  0
LINE
  5
185
  8
0
  6
AIGENLINE001
 62
     7
 10
73.148600000000002
 20
241.45199999999991
 30
0.0
 11
73.148600000000002
 21
187.84499999999991
 31
0.0
  0
LINE
  5
186
  8
0
  6
AIGENLINE001
 62
     7
 10
77.648600000000002
 20
216.27799999999999
 30
0.0
 11
68.649000000000001
 21
216.27799999999999
 31
0.0
  0
LINE
  5
187
  8
0
 62
     7
 10
58.225900000000003
 20
204.499
 30
0.0
 11
58.225900000000003
 21
224.27799999999991
 31
0.0
  0
LINE
  5
188
  8
0
 62
     7
 10
73.148600000000002
 20
204.499
 30
0.0
 11
58.225900000000003
 21
204.499
 31
0.0
  0
LINE
  5
189
  8
0
 62
     7
 10
41.89929999999999
 20
224.27799999999991
 30
0.0
 11
41.89929999999999
 21
192.779
 31
0.0
  0
LINE
  5
18A
  8
0
 62
     7
 10
73.148600000000002
 20
224.27799999999991
 30
0.0
 11
41.89929999999999
 21
224.27799999999991
 31
0.0
  0
LINE
  5
18B
  8
0
 62
     7
 10
73.148600000000002
 20
192.779
 30
0.0
 11
28.399499999999989
 21
192.779
 31
0.0
  0
LINE
  5
18C
  8
0
 62
     7
 10
73.148600000000002
 20
191.77799999999999
 30
0.0
 11
28.399499999999989
 21
191.77799999999999
 31
0.0
  0
ARC
  5
18D
  8
0
 62
     7
 10
28.438140000000001
 20
192.817432
 30
0.0
 40
1.039841999999999
 50
182.13072999999989
 51
267.8692999999999
  0
LINE
  5
18E
  8
0
 62
     7
 10
28.399499999999989
 20
192.779
 30
0.0
 11
28.399499999999989
 21
236.27799999999991
 31
0.0
  0
ARC
  5
18F
  8
0
 62
     7
 10
29.438068999999999
 20
236.23902599999991
 30
0.0
 40
1.0393209999999991
 50
92.130856999999978
 51
177.84936999999999
  0
LINE
  5
190
  8
0
 62
     7
 10
29.399399999999989
 20
237.27799999999999
 30
0.0
 11
73.148600000000002
 21
237.27799999999999
 31
0.0
  0
LINE
  5
191
  8
0
 62
     7
 10
27.399000000000001
 20
192.779
 30
0.0
 11
27.399000000000001
 21
237.27799999999999
 31
0.0
  0
ARC
  5
192
  8
0
 62
     7
 10
28.438097999999989
 20
237.23845299999999
 30
0.0
 40
1.0398389999999991
 50
92.128388999999984
 51
177.81236000000001
  0
LINE
  5
193
  8
0
 62
     7
 10
28.399499999999989
 20
238.27799999999991
 30
0.0
 11
73.148600000000002
 21
238.27799999999991
 31
0.0
  0
TEXT
  5
194
  8
_________2
 62
     7
 10
26.512799999999991
 20
61.42369999999999
 30
0.0
 40
3.9357000000000002
  1
※壁取付部には厚さ30mm以上の補強木を入れてください。
 41
0.5
  0
TEXT
  5
195
  8
_________2
 62
     7
 10
143.0653999999999
 20
30.451399999999989
 30
0.0
 40
3.9357000000000002
  1
SB3005
 41
0.5
 72
     1
 11
148.3129999999999
 21
30.451399999999989
 31
0.0
  0
TEXT
  5
196
  8
_________2
 62
     7
 10
143.0653999999999
 20
20.450600000000001
 30
0.0
 40
3.9357000000000002
  1
SB3005
 41
0.5
 72
     1
 11
148.3129999999999
 21
20.450600000000001
 31
0.0
  0
TEXT
  5
197
  8
_________2
 62
     7
 10
29.3491
 20
22.050799999999999
 30
0.0
 40
3.9357000000000002
  1
実容量：5.4L、重量：22kg、オーバーフロー付
 41
0.5
  0
LINE
  5
198
  8
_________2
 62
     7
 10
210.06399999999999
 20
148.75399999999991
 30
0.0
 11
188.3129999999999
 21
148.75399999999991
 31
0.0
  0
LINE
  5
199
  8
_________2
 62
     7
 10
105.062
 20
17.252099999999992
 30
0.0
 11
105.062
 21
0.272164
 31
0.0
  0
LINE
  5
19A
  8
_________2
 62
     7
 10
105.062
 20
297.27399999999989
 30
0.0
 11
105.062
 21
280.25400000000002
 31
0.0
  0
LINE
  5
19B
  8
_________2
 62
     7
 10
21.811900000000001
 20
148.75399999999991
 30
0.0
 11
0.0614953
 21
148.75399999999991
 31
0.0
  0
LINE
  5
19C
  8
_________2
 62
     7
 10
81.503399999999985
 20
51.1479
 30
0.0
 11
79.317099999999996
 21
51.1479
 31
0.0
  0
LINE
  5
19D
  8
_________2
 62
     7
 10
81.996000000000009
 20
51.1479
 30
0.0
 11
81.743799999999993
 21
51.1479
 31
0.0
  0
LINE
  5
19E
  8
_________2
 62
     7
 10
82.488699999999994
 20
51.1479
 30
0.0
 11
85.413600000000002
 21
51.1479
 31
0.0
  0
LINE
  5
19F
  8
_________2
 62
     7
 10
81.996000000000009
 20
51.1479
 30
0.0
 11
82.248199999999997
 21
51.1479
 31
0.0
  0
LINE
  5
1A0
  8
_________2
 62
     7
 10
75.599800000000002
 20
51.1479
 30
0.0
 11
73.412899999999993
 21
51.1479
 31
0.0
  0
LINE
  5
1A1
  8
_________2
 62
     7
 10
76.091800000000006
 20
51.1479
 30
0.0
 11
75.840299999999999
 21
51.1479
 31
0.0
  0
LINE
  5
1A2
  8
_________2
 62
     7
 10
76.091800000000006
 20
51.640599999999999
 30
0.0
 11
76.091800000000006
 21
53.827500000000001
 31
0.0
  0
LINE
  5
1A3
  8
_________2
 62
     7
 10
76.091800000000006
 20
51.1479
 30
0.0
 11
76.091800000000006
 21
51.400500000000001
 31
0.0
  0
LINE
  5
1A4
  8
_________2
 62
     7
 10
76.584400000000002
 20
51.1479
 30
0.0
 11
78.7714
 21
51.1479
 31
0.0
  0
LINE
  5
1A5
  8
_________2
 62
     7
 10
76.091800000000006
 20
51.1479
 30
0.0
 11
76.343999999999994
 21
51.1479
 31
0.0
  0
LINE
  5
1A6
  8
_________2
 62
     7
 10
76.091800000000006
 20
50.655999999999999
 30
0.0
 11
76.091800000000006
 21
48.4694
 31
0.0
  0
LINE
  5
1A7
  8
_________2
 62
     7
 10
76.091800000000006
 20
51.1479
 30
0.0
 11
76.091800000000006
 21
50.8964
 31
0.0
  0
LINE
  5
1A8
  8
_________2
 62
     7
 10
79.802899999999994
 20
49.928400000000011
 30
0.0
 11
84.980900000000005
 21
49.063600000000001
 31
0.0
  0
LINE
  5
1A9
  8
_________2
 62
     7
 10
79.802899999999994
 20
52.367800000000003
 30
0.0
 11
84.980900000000005
 21
53.2333
 31
0.0
  0
LINE
  5
1AA
  8
_________2
 62
     7
 10
84.980900000000005
 20
49.063600000000001
 30
0.0
 11
84.980900000000005
 21
53.2333
 31
0.0
  0
LINE
  5
1AB
  8
_________2
 62
     7
 10
79.802899999999994
 20
49.928400000000011
 30
0.0
 11
79.802899999999994
 21
52.367800000000003
 31
0.0
  0
ARC
  5
1AC
  8
_________2
 62
     7
 10
76.045203999999998
 20
51.100991
 30
0.0
 40
1.267714
 50
2.1220840000000001
 51
87.894083999999992
  0
ARC
  5
1AD
  8
_________2
 62
     7
 10
76.138734999999997
 20
51.101345000000002
 30
0.0
 40
1.267374999999999
 50
92.122849999999985
 51
177.893304
  0
ARC
  5
1AE
  8
_________2
 62
     7
 10
76.138711000000001
 20
51.194856000000001
 30
0.0
 40
1.267363
 50
182.12181499999991
 51
267.87821400000001
  0
ARC
  5
1AF
  8
_________2
 62
     7
 10
76.044899000000001
 20
51.195538999999997
 30
0.0
 40
1.2680439999999991
 50
272.11916400000001
 51
357.84848499999993
  0
ARC
  5
1B0
  8
_________2
 62
     7
 10
76.011420000000001
 20
51.067923
 30
0.0
 40
2.1668310000000002
 50
2.1161439999999989
 51
87.874379000000005
  0
ARC
  5
1B1
  8
_________2
 62
     7
 10
76.171850000000006
 20
51.068944999999999
 30
0.0
 40
2.1657980000000001
 50
92.118487999999999
 51
177.90988599999989
  0
ARC
  5
1B2
  8
_________2
 62
     7
 10
76.171792000000011
 20
51.22793699999999
 30
0.0
 40
2.1657779999999991
 50
182.11700400000001
 51
267.88302499999992
  0
ARC
  5
1B3
  8
_________2
 62
     7
 10
76.011817000000008
 20
51.228619999999999
 30
0.0
 40
2.1664590000000001
 50
272.11546800000002
 51
357.86560400000002
  0
TEXT
  5
1B4
  8
_________2
 62
     7
 10
109.367
 20
23.0227
 30
0.0
 40
3.0923400000000001
  1
図番
 41
0.5
  0
LINE
  5
1B5
  8
_________2
 62
     7
 10
108.3129999999999
 20
27.251899999999999
 30
0.0
 11
188.3129999999999
 21
27.251899999999999
 31
0.0
  0
TEXT
  5
1B6
  8
_________2
 62
     7
 10
109.367
 20
33.022500000000001
 30
0.0
 40
3.0923400000000001
  1
品番
 41
0.5
  0
TEXT
  5
1B7
  8
_________2
 62
     7
 10
109.367
 20
53.161599999999993
 30
0.0
 40
3.0923400000000001
  1
名称
 41
0.5
  0
TEXT
  5
1B8
  8
_________2
 62
     7
 10
96.607458333333355
 20
48.165500000000002
 30
0.0
 40
3.6545800000000002
  1
mm
 41
0.5
 72
     1
 11
98.130200000000016
 21
48.165500000000002
 31
0.0
  0
TEXT
  5
1B9
  8
_________2
 62
     7
 10
90.405600000000007
 20
53.161599999999993
 30
0.0
 40
3.0923400000000001
  1
単位
 41
0.5
  0
TEXT
  5
1BA
  8
_________2
 62
     7
 10
90.405600000000007
 20
40.753999999999998
 30
0.0
 40
3.0923400000000001
  1
尺度
 41
0.5
  0
TEXT
  5
1BB
  8
_________2
 62
     7
 10
94.854336166666656
 20
34.561399999999992
 30
0.0
 40
3.6545800000000002
  1
1 ： 10
 41
0.5
 72
     1
 11
98.722099999999998
 21
34.561399999999992
 31
0.0
  0
TEXT
  5
1BC
  8
_________2
 62
     7
 10
113.941
 20
45.569299999999998
 30
0.0
 40
3.9357000000000002
  1
ML 洗面器
 41
0.5
  0
TEXT
  5
1BD
  8
_________2
 62
     7
 10
44.187700333333332
 20
34.946599999999989
 30
0.0
 40
3.6545800000000002
  1
早川
 41
0.5
 72
     1
 11
46.075899999999997
 21
34.946599999999989
 31
0.0
  0
TEXT
  5
1BE
  8
_________2
 62
     7
 10
25.55279066666666
 20
34.946599999999989
 30
0.0
 40
3.6545800000000002
  1
菅原
 41
0.5
 72
     1
 11
27.501899999999988
 21
34.946599999999989
 31
0.0
  0
TEXT
  5
1BF
  8
_________2
 62
     7
 10
72.548100000000005
 20
34.561399999999992
 30
0.0
 40
3.6545800000000002
  1
12.12.11
 41
0.5
  0
TEXT
  5
1C0
  8
_________2
 62
     7
 10
71.355400000000003
 20
40.753999999999998
 30
0.0
 40
3.0923400000000001
  1
日付
 41
0.5
  0
TEXT
  5
1C1
  8
_________2
 62
     7
 10
34.401699999999998
 20
40.753999999999998
 30
0.0
 40
3.0923400000000001
  1
検図
 41
0.5
  0
TEXT
  5
1C2
  8
_________2
 62
     7
 10
22.7834
 20
26.554600000000001
 30
0.0
 40
3.0923400000000001
  1
備考
 41
0.5
  0
TEXT
  5
1C3
  8
_________2
 62
     7
 10
22.7834
 20
40.753999999999998
 30
0.0
 40
3.0923400000000001
  1
製図
 41
0.5
  0
TEXT
  5
1C4
  8
_________2
 62
     7
 10
28.550865333333341
 20
49.280000000000001
 30
0.0
 40
4.4979399999999989
  1
セラトレーディング株式会社
 41
0.5
 72
     1
 11
45.942899999999987
 21
49.280000000000001
 31
0.0
  0
LINE
  5
1C5
  8
_________2
 62
     7
 10
188.3129999999999
 20
17.252099999999992
 30
0.0
 11
21.811900000000001
 21
17.252099999999992
 31
0.0
  0
LINE
  5
1C6
  8
_________2
 62
     7
 10
21.811900000000001
 20
17.252099999999992
 30
0.0
 11
21.811900000000001
 21
280.25400000000002
 31
0.0
  0
LINE
  5
1C7
  8
_________2
 62
     7
 10
21.811900000000001
 20
280.25400000000002
 30
0.0
 11
188.3129999999999
 21
280.25400000000002
 31
0.0
  0
LINE
  5
1C8
  8
_________2
 62
     7
 10
188.3129999999999
 20
280.25400000000002
 30
0.0
 11
188.3129999999999
 21
17.252099999999992
 31
0.0
  0
LINE
  5
1C9
  8
_________2
 62
     7
 10
70.312299999999993
 20
30.752500000000001
 30
0.0
 11
70.312299999999993
 21
57.252299999999991
 31
0.0
  0
LINE
  5
1CA
  8
_________2
 62
     7
 10
89.312100000000001
 20
30.752500000000001
 30
0.0
 11
89.312100000000001
 21
57.252299999999991
 31
0.0
  0
LINE
  5
1CB
  8
_________2
 62
     7
 10
108.3129999999999
 20
17.252099999999992
 30
0.0
 11
108.3129999999999
 21
57.252299999999991
 31
0.0
  0
LINE
  5
1CC
  8
_________2
 62
     7
 10
33.311700000000002
 20
30.752500000000001
 30
0.0
 11
33.311700000000002
 21
44.752400000000002
 31
0.0
  0
LINE
  5
1CD
  8
_________2
 62
     7
 10
21.811900000000001
 20
30.752500000000001
 30
0.0
 11
108.3129999999999
 21
30.752500000000001
 31
0.0
  0
LINE
  5
1CE
  8
_________2
 62
     7
 10
21.811900000000001
 20
44.752400000000002
 30
0.0
 11
108.3129999999999
 21
44.752400000000002
 31
0.0
  0
LINE
  5
1CF
  8
_________2
 62
     7
 10
108.3129999999999
 20
37.2517
 30
0.0
 11
188.3129999999999
 21
37.2517
 31
0.0
  0
LINE
  5
1D0
  8
_________2
 62
     7
 10
21.811900000000001
 20
57.252299999999991
 30
0.0
 11
188.3129999999999
 21
57.252299999999991
 31
0.0
  0
ENDSEC
  0
EOF
