  0
SECTION
  2
HEADER
  9
$ACADVER
  1
AC1009
  9
$INSBASE
 10
0.0
 20
0.0
 30
0.0
  9
$EXTMIN
 10
0.238402
 20
0.4485540000000001
 30
0.0
  9
$EXTMAX
 10
210.24000000000001
 20
297.45100000000002
 30
0.0
  9
$LIMMIN
 10
0.0
 20
0.0
  9
$LIMMAX
 10
12.0
 20
9.0
  9
$ORTHOMODE
 70
     0
  9
$REGENMODE
 70
     1
  9
$FILLMODE
 70
     1
  9
$QTEXTMODE
 70
     0
  9
$MIRRTEXT
 70
     1
  9
$DRAGMODE
 70
     2
  9
$LTSCALE
 40
1.0
  9
$OSMODE
 70
    37
  9
$ATTMODE
 70
     1
  9
$TEXTSIZE
 40
0.0
  9
$TRACEWID
 40
0.05
  9
$TEXTSTYLE
  7
STANDARD
  9
$CLAYER
  8
0
  9
$CELTYPE
  6
CONTINUOUS
  9
$CECOLOR
 62
   256
  9
$DIMSCALE
 40
1.0
  9
$DIMASZ
 40
0.18
  9
$DIMEXO
 40
0.0625
  9
$DIMDLI
 40
0.38
  9
$DIMRND
 40
0.0
  9
$DIMDLE
 40
0.0
  9
$DIMEXE
 40
0.18
  9
$DIMTP
 40
0.0
  9
$DIMTM
 40
0.0
  9
$DIMTXT
 40
0.18
  9
$DIMCEN
 40
0.09
  9
$DIMTSZ
 40
0.0
  9
$DIMTOL
 70
     0
  9
$DIMLIM
 70
     0
  9
$DIMTIH
 70
     1
  9
$DIMTOH
 70
     1
  9
$DIMSE1
 70
     0
  9
$DIMSE2
 70
     0
  9
$DIMTAD
 70
     0
  9
$DIMZIN
 70
     0
  9
$DIMBLK
  1

  9
$DIMASO
 70
     1
  9
$DIMSHO
 70
     1
  9
$DIMPOST
  1

  9
$DIMAPOST
  1

  9
$DIMALT
 70
     0
  9
$DIMALTD
 70
     2
  9
$DIMALTF
 40
25.399999999999999
  9
$DIMLFAC
 40
1.0
  9
$DIMTOFL
 70
     0
  9
$DIMTVP
 40
0.0
  9
$DIMTIX
 70
     0
  9
$DIMSOXD
 70
     0
  9
$DIMSAH
 70
     0
  9
$DIMBLK1
  1

  9
$DIMBLK2
  1

  9
$DIMSTYLE
  2
STANDARD
  9
$DIMCLRD
 70
     0
  9
$DIMCLRE
 70
     0
  9
$DIMCLRT
 70
     0
  9
$DIMTFAC
 40
1.0
  9
$DIMGAP
 40
0.09
  9
$LUNITS
 70
     2
  9
$LUPREC
 70
     4
  9
$SKETCHINC
 40
0.1
  9
$FILLETRAD
 40
0.0
  9
$AUNITS
 70
     0
  9
$AUPREC
 70
     0
  9
$MENU
  1
.
  9
$ELEVATION
 40
0.0
  9
$PELEVATION
 40
0.0
  9
$THICKNESS
 40
0.0
  9
$LIMCHECK
 70
     0
  9
$BLIPMODE
 70
     0
  9
$CHAMFERA
 40
0.0
  9
$CHAMFERB
 40
0.0
  9
$SKPOLY
 70
     0
  9
$TDCREATE
 40
2444972.375
  9
$TDUPDATE
 40
2458180.2646626621
  9
$TDINDWG
 40
0.0000295023
  9
$TDUSRTIMER
 40
0.0000295023
  9
$USRTIMER
 70
     1
  9
$ANGBASE
 50
0.0
  9
$ANGDIR
 70
     0
  9
$PDMODE
 70
     0
  9
$PDSIZE
 40
0.0
  9
$PLINEWID
 40
0.0
  9
$COORDS
 70
     1
  9
$SPLFRAME
 70
     0
  9
$SPLINETYPE
 70
     6
  9
$SPLINESEGS
 70
     8
  9
$ATTDIA
 70
     1
  9
$ATTREQ
 70
     1
  9
$HANDLING
 70
     1
  9
$HANDSEED
  5
350
  9
$SURFTAB1
 70
     6
  9
$SURFTAB2
 70
     6
  9
$SURFTYPE
 70
     6
  9
$SURFU
 70
     6
  9
$SURFV
 70
     6
  9
$UCSNAME
  2

  9
$UCSORG
 10
0.0
 20
0.0
 30
0.0
  9
$UCSXDIR
 10
1.0
 20
0.0
 30
0.0
  9
$UCSYDIR
 10
0.0
 20
1.0
 30
0.0
  9
$PUCSNAME
  2

  9
$PUCSORG
 10
0.0
 20
0.0
 30
0.0
  9
$PUCSXDIR
 10
1.0
 20
0.0
 30
0.0
  9
$PUCSYDIR
 10
0.0
 20
1.0
 30
0.0
  9
$USERI1
 70
     0
  9
$USERI2
 70
     0
  9
$USERI3
 70
     0
  9
$USERI4
 70
     0
  9
$USERI5
 70
     0
  9
$USERR1
 40
0.0
  9
$USERR2
 40
0.0
  9
$USERR3
 40
0.0
  9
$USERR4
 40
0.0
  9
$USERR5
 40
0.0
  9
$WORLDVIEW
 70
     1
  9
$SHADEDGE
 70
     3
  9
$SHADEDIF
 70
    70
  9
$TILEMODE
 70
     1
  9
$MAXACTVP
 70
    48
  9
$PLIMCHECK
 70
     0
  9
$PEXTMIN
 10
1.0000000000000000E+020
 20
1.0000000000000000E+020
 30
1.0000000000000000E+020
  9
$PEXTMAX
 10
-1.0000000000000000E+020
 20
-1.0000000000000000E+020
 30
-1.0000000000000000E+020
  9
$PLIMMIN
 10
0.0
 20
0.0
  9
$PLIMMAX
 10
12.0
 20
9.0
  9
$UNITMODE
 70
     0
  9
$VISRETAIN
 70
     1
  9
$PLINEGEN
 70
     0
  9
$PSLTSCALE
 70
     1
  0
ENDSEC
  0
SECTION
  2
TABLES
  0
TABLE
  2
VPORT
 70
     1
  0
VPORT
  2
*ACTIVE
 70
     0
 10
0.0
 20
0.0
 11
1.0
 21
1.0
 12
195.83847240083131
 22
148.72550000000001
 13
0.0
 23
0.0
 14
1.0
 24
1.0
 15
0.0
 25
0.0
 16
0.0
 26
0.0
 36
1.0
 17
0.0
 27
0.0
 37
0.0
 40
281.37364046443349
 41
2.298642533936651
 42
50.0
 43
0.0
 44
0.0
 50
0.0
 51
0.0
 71
     0
 72
   100
 73
     1
 74
     1
 75
     0
 76
     0
 77
     0
 78
     0
  0
ENDTAB
  0
TABLE
  2
LTYPE
 70
     4
  0
LTYPE
  2
CONTINUOUS
 70
     0
  3
Solid line
 72
    65
 73
     0
 40
0.0
  0
LTYPE
  2
AIGENLINE001
 70
     0
  3
generate AI->DXF Converter
 72
    65
 73
     6
 40
7.4083750000000004
 49
3.5278
 49
-0.776115
 49
0.776115
 49
-0.776115
 49
0.776115
 49
-0.776115
  0
LTYPE
  2
AIGENLINE002
 70
     0
  3
generate AI->DXF Converter
 72
    65
 73
     2
 40
1.5522299999999991
 49
0.776115
 49
-0.776115
  0
LTYPE
  2
AIGENLINE003
 70
     0
  3
generate AI->DXF Converter
 72
    65
 73
     4
 40
5.8561449999999988
 49
3.5278
 49
-0.776115
 49
0.776115
 49
-0.776115
  0
ENDTAB
  0
TABLE
  2
LAYER
 70
     4
  0
LAYER
  2
0
 70
     0
 62
     7
  6
CONTINUOUS
  0
LAYER
  2
____
 70
     0
 62
     7
  6
CONTINUOUS
  0
LAYER
  2
_________1
 70
     0
 62
     7
  6
CONTINUOUS
  0
LAYER
  2
_________2
 70
     0
 62
     7
  6
CONTINUOUS
  0
ENDTAB
  0
TABLE
  2
STYLE
 70
     1
  0
STYLE
  2
STANDARD
 70
     0
 40
0.0
 41
0.0
 50
0.0
 71
     0
 42
0.0
  3
TXT
  4
EXTFONT.SHX
  0
ENDTAB
  0
TABLE
  2
VIEW
 70
     0
  0
ENDTAB
  0
TABLE
  2
UCS
 70
     0
  0
ENDTAB
  0
TABLE
  2
APPID
 70
     3
  0
APPID
  2
ACAD
 70
     0
  0
APPID
  2
ACAD_NAV_VCDISPLAY
 70
     0
  0
APPID
  2
ACAD_MLEADERVER
 70
     0
  0
ENDTAB
  0
TABLE
  2
DIMSTYLE
 70
     1
  0
DIMSTYLE
  2
STANDARD
 70
     0
  3

  4

  5

  6

  7

 40
1.0
 41
0.18
 42
0.0625
 43
0.38
 44
0.18
 45
0.0
 46
0.0
 47
0.0
 48
0.0
140
0.18
141
0.09
142
0.0
143
25.399999999999999
144
1.0
145
0.0
146
1.0
147
0.09
 71
     0
 72
     0
 73
     1
 74
     1
 75
     0
 76
     0
 77
     0
 78
     0
170
     0
171
     2
172
     0
173
     0
174
     0
175
     0
176
     0
177
     0
178
     0
  0
ENDTAB
  0
ENDSEC
  0
SECTION
  2
BLOCKS
  0
BLOCK
  8
0
  2
$MODEL_SPACE
 70
     0
 10
0.0
 20
0.0
 30
0.0
  3
$MODEL_SPACE
  1

  0
ENDBLK
  5
1A
  8
0
  0
BLOCK
 67
     1
  8
0
  2
$PAPER_SPACE
 70
     0
 10
0.0
 20
0.0
 30
0.0
  3
$PAPER_SPACE
  1

  0
ENDBLK
  5
17
 67
     1
  8
0
  0
BLOCK
  8
_________1
  2
AIGNBL02030017
 70
     0
 10
0.0
 20
0.0
 30
0.0
  3
AIGNBL02030017
  1

  0
LINE
  5
28
  8
_________1
 62
     7
 10
62.764200000000002
 20
96.211100000000016
 30
0.0
 11
64.974599999999995
 21
96.802999999999997
 31
0.0
  0
LINE
  5
29
  8
_________1
 62
     7
 10
64.974599999999995
 20
96.802999999999997
 30
0.0
 11
62.764200000000002
 21
97.395500000000013
 31
0.0
  0
LINE
  5
2A
  8
_________1
 62
     7
 10
62.764200000000002
 20
97.395500000000013
 30
0.0
 11
62.764200000000002
 21
96.211100000000016
 31
0.0
  0
LINE
  5
2B
  8
_________1
 62
     7
 10
77.762799999999984
 20
96.211100000000016
 30
0.0
 11
79.973200000000006
 21
96.802999999999997
 31
0.0
  0
LINE
  5
2C
  8
_________1
 62
     7
 10
79.973200000000006
 20
96.802999999999997
 30
0.0
 11
77.762799999999984
 21
97.395500000000013
 31
0.0
  0
LINE
  5
2D
  8
_________1
 62
     7
 10
77.762799999999984
 20
97.395500000000013
 30
0.0
 11
77.762799999999984
 21
96.211100000000016
 31
0.0
  0
LINE
  5
2E
  8
_________1
 62
     7
 10
70.183599999999998
 20
97.381100000000004
 30
0.0
 11
67.973200000000006
 21
96.789199999999994
 31
0.0
  0
LINE
  5
2F
  8
_________1
 62
     7
 10
67.973200000000006
 20
96.789199999999994
 30
0.0
 11
70.183599999999998
 21
96.196600000000004
 31
0.0
  0
LINE
  5
30
  8
_________1
 62
     7
 10
70.183599999999998
 20
96.196600000000004
 30
0.0
 11
70.183599999999998
 21
97.381100000000004
 31
0.0
  0
LINE
  5
31
  8
_________1
 62
     7
 10
58.184899999999999
 20
97.381100000000004
 30
0.0
 11
55.974200000000003
 21
96.789199999999994
 31
0.0
  0
LINE
  5
32
  8
_________1
 62
     7
 10
55.974200000000003
 20
96.789199999999994
 30
0.0
 11
58.184899999999999
 21
96.196600000000004
 31
0.0
  0
LINE
  5
33
  8
_________1
 62
     7
 10
58.184899999999999
 20
96.196600000000004
 30
0.0
 11
58.184899999999999
 21
97.381100000000004
 31
0.0
  0
LINE
  5
34
  8
_________1
 62
     7
 10
79.973200000000006
 20
96.796099999999996
 30
0.0
 11
55.974200000000003
 21
96.796099999999996
 31
0.0
  0
ENDBLK
  5
35
  8
_________1
  0
BLOCK
  8
_________1
  2
AIGNBL02020016
 70
     0
 10
0.0
 20
0.0
 30
0.0
  3
AIGNBL02020016
  1

  0
INSERT
  5
38
  8
_________1
 62
     7
  2
AIGNBL02030017
 10
0.0
 20
0.0
 30
0.0
  0
ENDBLK
  5
39
  8
_________1
  0
BLOCK
  8
_________1
  2
AIGNBL02010002
 70
     0
 10
0.0
 20
0.0
 30
0.0
  3
AIGNBL02010002
  1

  0
LINE
  5
3C
  8
_________1
 62
     7
 10
121.96599999999999
 20
199.464
 30
0.0
 11
119.755
 21
198.87100000000001
 31
0.0
  0
LINE
  5
3D
  8
_________1
 62
     7
 10
119.755
 20
198.87100000000001
 30
0.0
 11
121.96599999999999
 21
198.279
 31
0.0
  0
LINE
  5
3E
  8
_________1
 62
     7
 10
121.96599999999999
 20
198.279
 30
0.0
 11
121.96599999999999
 21
199.464
 31
0.0
  0
LINE
  5
3F
  8
_________1
 62
     7
 10
165.54599999999999
 20
198.29300000000001
 30
0.0
 11
167.75800000000001
 21
198.886
 31
0.0
  0
LINE
  5
40
  8
_________1
 62
     7
 10
167.75800000000001
 20
198.886
 30
0.0
 11
165.54599999999999
 21
199.47800000000001
 31
0.0
  0
LINE
  5
41
  8
_________1
 62
     7
 10
165.54599999999999
 20
199.47800000000001
 30
0.0
 11
165.54599999999999
 21
198.29300000000001
 31
0.0
  0
LINE
  5
42
  8
_________1
 62
     7
 10
119.756
 20
198.87899999999999
 30
0.0
 11
167.75700000000001
 21
198.87899999999999
 31
0.0
  0
ENDBLK
  5
43
  8
_________1
  0
BLOCK
  8
_________1
  2
AIGNBL02010003
 70
     0
 10
0.0
 20
0.0
 30
0.0
  3
AIGNBL02010003
  1

  0
LINE
  5
46
  8
_________1
 62
     7
 10
185.63999999999999
 20
240.71299999999999
 30
0.0
 11
185.047
 21
242.92500000000001
 31
0.0
  0
LINE
  5
47
  8
_________1
 62
     7
 10
185.047
 20
242.92500000000001
 30
0.0
 11
184.45500000000001
 21
240.71299999999999
 31
0.0
  0
LINE
  5
48
  8
_________1
 62
     7
 10
184.45500000000001
 20
240.71299999999999
 30
0.0
 11
185.63999999999999
 21
240.71299999999999
 31
0.0
  0
LINE
  5
49
  8
_________1
 62
     7
 10
184.46899999999999
 20
211.13399999999999
 30
0.0
 11
185.06200000000001
 21
208.923
 31
0.0
  0
LINE
  5
4A
  8
_________1
 62
     7
 10
185.06200000000001
 20
208.923
 30
0.0
 11
185.654
 21
211.13399999999999
 31
0.0
  0
LINE
  5
4B
  8
_________1
 62
     7
 10
185.654
 20
211.13399999999999
 30
0.0
 11
184.46899999999999
 21
211.13399999999999
 31
0.0
  0
LINE
  5
4C
  8
_________1
 62
     7
 10
185.054
 20
242.92400000000001
 30
0.0
 11
185.054
 21
208.92400000000001
 31
0.0
  0
ENDBLK
  5
4D
  8
_________1
  0
BLOCK
  8
_________1
  2
AIGNBL02010004
 70
     0
 10
0.0
 20
0.0
 30
0.0
  3
AIGNBL02010004
  1

  0
LINE
  5
50
  8
_________1
 62
     7
 10
177.87200000000001
 20
219.13399999999999
 30
0.0
 11
178.464
 21
216.922
 31
0.0
  0
LINE
  5
51
  8
_________1
 62
     7
 10
178.464
 20
216.922
 30
0.0
 11
179.05699999999999
 21
219.13399999999999
 31
0.0
  0
LINE
  5
52
  8
_________1
 62
     7
 10
179.05699999999999
 20
219.13399999999999
 30
0.0
 11
177.87200000000001
 21
219.13399999999999
 31
0.0
  0
LINE
  5
53
  8
_________1
 62
     7
 10
179.042
 20
240.71299999999999
 30
0.0
 11
178.44999999999999
 21
242.92500000000001
 31
0.0
  0
LINE
  5
54
  8
_________1
 62
     7
 10
178.44999999999999
 20
242.92500000000001
 30
0.0
 11
177.857
 21
240.71299999999999
 31
0.0
  0
LINE
  5
55
  8
_________1
 62
     7
 10
177.857
 20
240.71299999999999
 30
0.0
 11
179.042
 21
240.71299999999999
 31
0.0
  0
LINE
  5
56
  8
_________1
 62
     7
 10
178.45699999999999
 20
216.923
 30
0.0
 11
178.45699999999999
 21
242.92400000000001
 31
0.0
  0
ENDBLK
  5
57
  8
_________1
  0
BLOCK
  8
_________1
  2
AIGNBL02010005
 70
     0
 10
0.0
 20
0.0
 30
0.0
  3
AIGNBL02010005
  1

  0
LINE
  5
5A
  8
_________1
 62
     7
 10
158.71600000000001
 20
152.297
 30
0.0
 11
159.309
 21
150.08600000000001
 31
0.0
  0
LINE
  5
5B
  8
_________1
 62
     7
 10
159.309
 20
150.08600000000001
 30
0.0
 11
159.90100000000001
 21
152.297
 31
0.0
  0
LINE
  5
5C
  8
_________1
 62
     7
 10
159.90100000000001
 20
152.297
 30
0.0
 11
158.71600000000001
 21
152.297
 31
0.0
  0
LINE
  5
5D
  8
_________1
 62
     7
 10
159.90100000000001
 20
146.874
 30
0.0
 11
159.309
 21
149.08600000000001
 31
0.0
  0
LINE
  5
5E
  8
_________1
 62
     7
 10
159.309
 20
149.08600000000001
 30
0.0
 11
158.71600000000001
 21
146.874
 31
0.0
  0
LINE
  5
5F
  8
_________1
 62
     7
 10
158.71600000000001
 20
146.874
 30
0.0
 11
159.90100000000001
 21
146.874
 31
0.0
  0
LINE
  5
60
  8
_________1
 62
     7
 10
159.309
 20
144.714
 30
0.0
 11
159.309
 21
156.535
 31
0.0
  0
ENDBLK
  5
61
  8
_________1
  0
BLOCK
  8
_________1
  2
AIGNBL02010006
 70
     0
 10
0.0
 20
0.0
 30
0.0
  3
AIGNBL02010006
  1

  0
LINE
  5
64
  8
_________1
 62
     7
 10
144.46700000000001
 20
126.235
 30
0.0
 11
142.256
 21
125.642
 31
0.0
  0
LINE
  5
65
  8
_________1
 62
     7
 10
142.256
 20
125.642
 30
0.0
 11
144.46700000000001
 21
125.04900000000001
 31
0.0
  0
LINE
  5
66
  8
_________1
 62
     7
 10
144.46700000000001
 20
125.04900000000001
 30
0.0
 11
144.46700000000001
 21
126.235
 31
0.0
  0
LINE
  5
67
  8
_________1
 62
     7
 10
166.047
 20
125.06399999999999
 30
0.0
 11
168.2579999999999
 21
125.657
 31
0.0
  0
LINE
  5
68
  8
_________1
 62
     7
 10
168.2579999999999
 20
125.657
 30
0.0
 11
166.047
 21
126.249
 31
0.0
  0
LINE
  5
69
  8
_________1
 62
     7
 10
166.047
 20
126.249
 30
0.0
 11
166.047
 21
125.06399999999999
 31
0.0
  0
LINE
  5
6A
  8
_________1
 62
     7
 10
142.25700000000001
 20
125.649
 30
0.0
 11
168.25700000000001
 21
125.649
 31
0.0
  0
ENDBLK
  5
6B
  8
_________1
  0
BLOCK
  8
_________1
  2
AIGNBL02010007
 70
     0
 10
0.0
 20
0.0
 30
0.0
  3
AIGNBL02010007
  1

  0
LINE
  5
6E
  8
_________1
 62
     7
 10
137.524
 20
147.875
 30
0.0
 11
136.93100000000001
 21
150.08699999999999
 31
0.0
  0
LINE
  5
6F
  8
_________1
 62
     7
 10
136.93100000000001
 20
150.08699999999999
 30
0.0
 11
136.33799999999999
 21
147.875
 31
0.0
  0
LINE
  5
70
  8
_________1
 62
     7
 10
136.33799999999999
 20
147.875
 30
0.0
 11
137.524
 21
147.875
 31
0.0
  0
LINE
  5
71
  8
_________1
 62
     7
 10
136.35300000000001
 20
142.79599999999999
 30
0.0
 11
136.94499999999999
 21
140.58500000000001
 31
0.0
  0
LINE
  5
72
  8
_________1
 62
     7
 10
136.94499999999999
 20
140.58500000000001
 30
0.0
 11
137.53800000000001
 21
142.79599999999999
 31
0.0
  0
LINE
  5
73
  8
_________1
 62
     7
 10
137.53800000000001
 20
142.79599999999999
 30
0.0
 11
136.35300000000001
 21
142.79599999999999
 31
0.0
  0
LINE
  5
74
  8
_________1
 62
     7
 10
136.93799999999999
 20
150.08600000000001
 30
0.0
 11
136.93799999999999
 21
140.58600000000001
 31
0.0
  0
ENDBLK
  5
75
  8
_________1
  0
BLOCK
  8
_________1
  2
AIGNBL02010008
 70
     0
 10
0.0
 20
0.0
 30
0.0
  3
AIGNBL02010008
  1

  0
LINE
  5
78
  8
_________1
 62
     7
 10
111.61499999999999
 20
147.875
 30
0.0
 11
111.02200000000001
 21
150.08699999999999
 31
0.0
  0
LINE
  5
79
  8
_________1
 62
     7
 10
111.02200000000001
 20
150.08699999999999
 30
0.0
 11
110.429
 21
147.875
 31
0.0
  0
LINE
  5
7A
  8
_________1
 62
     7
 10
110.429
 20
147.875
 30
0.0
 11
111.61499999999999
 21
147.875
 31
0.0
  0
LINE
  5
7B
  8
_________1
 62
     7
 10
110.444
 20
137.79599999999999
 30
0.0
 11
111.036
 21
135.58500000000001
 31
0.0
  0
LINE
  5
7C
  8
_________1
 62
     7
 10
111.036
 20
135.58500000000001
 30
0.0
 11
111.629
 21
137.79599999999999
 31
0.0
  0
LINE
  5
7D
  8
_________1
 62
     7
 10
111.629
 20
137.79599999999999
 30
0.0
 11
110.444
 21
137.79599999999999
 31
0.0
  0
LINE
  5
7E
  8
_________1
 62
     7
 10
111.029
 20
150.08600000000001
 30
0.0
 11
111.029
 21
135.58600000000001
 31
0.0
  0
ENDBLK
  5
7F
  8
_________1
  0
BLOCK
  8
_________1
  2
AIGNBL02010009
 70
     0
 10
0.0
 20
0.0
 30
0.0
  3
AIGNBL02010009
  1

  0
LINE
  5
82
  8
_________1
 62
     7
 10
103.883
 20
147.875
 30
0.0
 11
103.29000000000001
 21
150.08699999999999
 31
0.0
  0
LINE
  5
83
  8
_________1
 62
     7
 10
103.29000000000001
 20
150.08699999999999
 30
0.0
 11
102.697
 21
147.875
 31
0.0
  0
LINE
  5
84
  8
_________1
 62
     7
 10
102.697
 20
147.875
 30
0.0
 11
103.883
 21
147.875
 31
0.0
  0
LINE
  5
85
  8
_________1
 62
     7
 10
102.712
 20
146.297
 30
0.0
 11
103.304
 21
144.08500000000001
 31
0.0
  0
LINE
  5
86
  8
_________1
 62
     7
 10
103.304
 20
144.08500000000001
 30
0.0
 11
103.89700000000001
 21
146.297
 31
0.0
  0
LINE
  5
87
  8
_________1
 62
     7
 10
103.89700000000001
 20
146.297
 30
0.0
 11
102.712
 21
146.297
 31
0.0
  0
LINE
  5
88
  8
_________1
 62
     7
 10
103.297
 20
150.08600000000001
 30
0.0
 11
103.297
 21
144.08699999999999
 31
0.0
  0
ENDBLK
  5
89
  8
_________1
  0
BLOCK
  8
_________1
  2
AIGNBL0201000A
 70
     0
 10
0.0
 20
0.0
 30
0.0
  3
AIGNBL0201000A
  1

  0
LINE
  5
8C
  8
_________1
 62
     7
 10
48.041499999999992
 20
126.235
 30
0.0
 11
45.83039999999999
 21
125.642
 31
0.0
  0
LINE
  5
8D
  8
_________1
 62
     7
 10
45.83039999999999
 20
125.642
 30
0.0
 11
48.041499999999992
 21
125.04900000000001
 31
0.0
  0
LINE
  5
8E
  8
_________1
 62
     7
 10
48.041499999999992
 20
125.04900000000001
 30
0.0
 11
48.041499999999992
 21
126.235
 31
0.0
  0
LINE
  5
8F
  8
_________1
 62
     7
 10
74.219499999999996
 20
125.06399999999999
 30
0.0
 11
76.430599999999998
 21
125.657
 31
0.0
  0
LINE
  5
90
  8
_________1
 62
     7
 10
76.430599999999998
 20
125.657
 30
0.0
 11
74.219499999999996
 21
126.249
 31
0.0
  0
LINE
  5
91
  8
_________1
 62
     7
 10
74.219499999999996
 20
126.249
 30
0.0
 11
74.219499999999996
 21
125.06399999999999
 31
0.0
  0
LINE
  5
92
  8
_________1
 62
     7
 10
45.831099999999999
 20
125.649
 30
0.0
 11
76.429900000000004
 21
125.649
 31
0.0
  0
ENDBLK
  5
93
  8
_________1
  0
BLOCK
  8
_________1
  2
AIGNBL0201000B
 70
     0
 10
0.0
 20
0.0
 30
0.0
  3
AIGNBL0201000B
  1

  0
LINE
  5
96
  8
_________1
 62
     7
 10
82.844200000000001
 20
245.13499999999999
 30
0.0
 11
83.436800000000005
 21
242.92400000000001
 31
0.0
  0
LINE
  5
97
  8
_________1
 62
     7
 10
83.436800000000005
 20
242.92400000000001
 30
0.0
 11
84.029300000000006
 21
245.13499999999999
 31
0.0
  0
LINE
  5
98
  8
_________1
 62
     7
 10
84.029300000000006
 20
245.13499999999999
 30
0.0
 11
82.844200000000001
 21
245.13499999999999
 31
0.0
  0
LINE
  5
99
  8
_________1
 62
     7
 10
84.029300000000006
 20
234.21199999999999
 30
0.0
 11
83.436800000000005
 21
236.42400000000001
 31
0.0
  0
LINE
  5
9A
  8
_________1
 62
     7
 10
83.436800000000005
 20
236.42400000000001
 30
0.0
 11
82.844200000000001
 21
234.21199999999999
 31
0.0
  0
LINE
  5
9B
  8
_________1
 62
     7
 10
82.844200000000001
 20
234.21199999999999
 30
0.0
 11
84.029300000000006
 21
234.21199999999999
 31
0.0
  0
LINE
  5
9C
  8
_________1
 62
     7
 10
83.436800000000005
 20
232.541
 30
0.0
 11
83.436800000000005
 21
246.745
 31
0.0
  0
ENDBLK
  5
9D
  8
_________1
  0
BLOCK
  8
_________1
  2
AIGNBL0201000C
 70
     0
 10
0.0
 20
0.0
 30
0.0
  3
AIGNBL0201000C
  1

  0
LINE
  5
A0
  8
_________1
 62
     7
 10
103.66200000000001
 20
227.71199999999999
 30
0.0
 11
103.06999999999999
 21
229.92400000000001
 31
0.0
  0
LINE
  5
A1
  8
_________1
 62
     7
 10
103.06999999999999
 20
229.92400000000001
 30
0.0
 11
102.477
 21
227.71199999999999
 31
0.0
  0
LINE
  5
A2
  8
_________1
 62
     7
 10
102.477
 20
227.71199999999999
 30
0.0
 11
103.66200000000001
 21
227.71199999999999
 31
0.0
  0
LINE
  5
A3
  8
_________1
 62
     7
 10
102.477
 20
232.13499999999999
 30
0.0
 11
103.06999999999999
 21
229.92400000000001
 31
0.0
  0
LINE
  5
A4
  8
_________1
 62
     7
 10
103.06999999999999
 20
229.92400000000001
 30
0.0
 11
103.66200000000001
 21
232.13499999999999
 31
0.0
  0
LINE
  5
A5
  8
_________1
 62
     7
 10
103.66200000000001
 20
232.13499999999999
 30
0.0
 11
102.477
 21
232.13499999999999
 31
0.0
  0
LINE
  5
A6
  8
_________1
 62
     7
 10
103.66200000000001
 20
194.71199999999999
 30
0.0
 11
103.06999999999999
 21
196.92400000000001
 31
0.0
  0
LINE
  5
A7
  8
_________1
 62
     7
 10
103.06999999999999
 20
196.92400000000001
 30
0.0
 11
102.477
 21
194.71199999999999
 31
0.0
  0
LINE
  5
A8
  8
_________1
 62
     7
 10
102.477
 20
194.71199999999999
 30
0.0
 11
103.66200000000001
 21
194.71199999999999
 31
0.0
  0
LINE
  5
A9
  8
_________1
 62
     7
 10
102.477
 20
199.935
 30
0.0
 11
103.06999999999999
 21
197.72399999999999
 31
0.0
  0
LINE
  5
AA
  8
_________1
 62
     7
 10
103.06999999999999
 20
197.72399999999999
 30
0.0
 11
103.66200000000001
 21
199.935
 31
0.0
  0
LINE
  5
AB
  8
_________1
 62
     7
 10
103.66200000000001
 20
199.935
 30
0.0
 11
102.477
 21
199.935
 31
0.0
  0
LINE
  5
AC
  8
_________1
 62
     7
 10
103.66200000000001
 20
239.91200000000001
 30
0.0
 11
103.06999999999999
 21
242.124
 31
0.0
  0
LINE
  5
AD
  8
_________1
 62
     7
 10
103.06999999999999
 20
242.124
 30
0.0
 11
102.477
 21
239.91200000000001
 31
0.0
  0
LINE
  5
AE
  8
_________1
 62
     7
 10
102.477
 20
239.91200000000001
 30
0.0
 11
103.66200000000001
 21
239.91200000000001
 31
0.0
  0
LINE
  5
AF
  8
_________1
 62
     7
 10
102.477
 20
245.13499999999999
 30
0.0
 11
103.06999999999999
 21
242.92400000000001
 31
0.0
  0
LINE
  5
B0
  8
_________1
 62
     7
 10
103.06999999999999
 20
242.92400000000001
 30
0.0
 11
103.66200000000001
 21
245.13499999999999
 31
0.0
  0
LINE
  5
B1
  8
_________1
 62
     7
 10
103.66200000000001
 20
245.13499999999999
 30
0.0
 11
102.477
 21
245.13499999999999
 31
0.0
  0
LINE
  5
B2
  8
_________1
 62
     7
 10
103.06999999999999
 20
247.864
 30
0.0
 11
103.06999999999999
 21
191.78999999999999
 31
0.0
  0
ENDBLK
  5
B3
  8
_________1
  0
BLOCK
  8
_________1
  2
AIGNBL0201000D
 70
     0
 10
0.0
 20
0.0
 30
0.0
  3
AIGNBL0201000D
  1

  0
LINE
  5
B6
  8
_________1
 62
     7
 10
111.387
 20
240.71299999999999
 30
0.0
 11
110.795
 21
242.92500000000001
 31
0.0
  0
LINE
  5
B7
  8
_________1
 62
     7
 10
110.795
 20
242.92500000000001
 30
0.0
 11
110.202
 21
240.71299999999999
 31
0.0
  0
LINE
  5
B8
  8
_________1
 62
     7
 10
110.202
 20
240.71299999999999
 30
0.0
 11
111.387
 21
240.71299999999999
 31
0.0
  0
LINE
  5
B9
  8
_________1
 62
     7
 10
110.209
 20
199.13499999999999
 30
0.0
 11
110.80200000000001
 21
196.92400000000001
 31
0.0
  0
LINE
  5
BA
  8
_________1
 62
     7
 10
110.80200000000001
 20
196.92400000000001
 30
0.0
 11
111.39400000000001
 21
199.13499999999999
 31
0.0
  0
LINE
  5
BB
  8
_________1
 62
     7
 10
111.39400000000001
 20
199.13499999999999
 30
0.0
 11
110.209
 21
199.13499999999999
 31
0.0
  0
LINE
  5
BC
  8
_________1
 62
     7
 10
110.80200000000001
 20
242.92400000000001
 30
0.0
 11
110.80200000000001
 21
196.92400000000001
 31
0.0
  0
ENDBLK
  5
BD
  8
_________1
  0
BLOCK
  8
_________1
  2
AIGNBL0201000E
 70
     0
 10
0.0
 20
0.0
 30
0.0
  3
AIGNBL0201000E
  1

  0
LINE
  5
C0
  8
_________1
 62
     7
 10
68.920299999999997
 20
254.13800000000001
 30
0.0
 11
71.132000000000005
 21
253.54499999999999
 31
0.0
  0
LINE
  5
C1
  8
_________1
 62
     7
 10
71.132000000000005
 20
253.54499999999999
 30
0.0
 11
68.920299999999997
 21
252.952
 31
0.0
  0
LINE
  5
C2
  8
_________1
 62
     7
 10
68.920299999999997
 20
252.952
 30
0.0
 11
68.920299999999997
 21
254.13800000000001
 31
0.0
  0
LINE
  5
C3
  8
_________1
 62
     7
 10
63.341200000000001
 20
252.96700000000001
 30
0.0
 11
61.130200000000002
 21
253.559
 31
0.0
  0
LINE
  5
C4
  8
_________1
 62
     7
 10
61.130200000000002
 20
253.559
 30
0.0
 11
63.341200000000001
 21
254.15199999999999
 31
0.0
  0
LINE
  5
C5
  8
_________1
 62
     7
 10
63.341200000000001
 20
254.15199999999999
 30
0.0
 11
63.341200000000001
 21
252.96700000000001
 31
0.0
  0
LINE
  5
C6
  8
_________1
 62
     7
 10
71.131
 20
253.55199999999999
 30
0.0
 11
61.130800000000001
 21
253.55199999999999
 31
0.0
  0
ENDBLK
  5
C7
  8
_________1
  0
BLOCK
  8
_________1
  2
AIGNBL0201000F
 70
     0
 10
0.0
 20
0.0
 30
0.0
  3
AIGNBL0201000F
  1

  0
LINE
  5
CA
  8
_________1
 62
     7
 10
53.3401
 20
254.13800000000001
 30
0.0
 11
51.128300000000003
 21
253.54499999999999
 31
0.0
  0
LINE
  5
CB
  8
_________1
 62
     7
 10
51.128300000000003
 20
253.54499999999999
 30
0.0
 11
53.3401
 21
252.952
 31
0.0
  0
LINE
  5
CC
  8
_________1
 62
     7
 10
53.3401
 20
252.952
 30
0.0
 11
53.3401
 21
254.13800000000001
 31
0.0
  0
LINE
  5
CD
  8
_________1
 62
     7
 10
58.9191
 20
252.96700000000001
 30
0.0
 11
61.130200000000002
 21
253.559
 31
0.0
  0
LINE
  5
CE
  8
_________1
 62
     7
 10
61.130200000000002
 20
253.559
 30
0.0
 11
58.9191
 21
254.15199999999999
 31
0.0
  0
LINE
  5
CF
  8
_________1
 62
     7
 10
58.9191
 20
254.15199999999999
 30
0.0
 11
58.9191
 21
252.96700000000001
 31
0.0
  0
LINE
  5
D0
  8
_________1
 62
     7
 10
51.129300000000001
 20
253.55199999999999
 30
0.0
 11
61.1295
 21
253.55199999999999
 31
0.0
  0
ENDBLK
  5
D1
  8
_________1
  0
BLOCK
  8
_________1
  2
AIGNBL02010010
 70
     0
 10
0.0
 20
0.0
 30
0.0
  3
AIGNBL02010010
  1

  0
LINE
  5
D4
  8
_________1
 62
     7
 10
34.141599999999997
 20
185.83600000000001
 30
0.0
 11
31.930199999999999
 21
185.244
 31
0.0
  0
LINE
  5
D5
  8
_________1
 62
     7
 10
31.930199999999999
 20
185.244
 30
0.0
 11
34.141599999999997
 21
184.65100000000001
 31
0.0
  0
LINE
  5
D6
  8
_________1
 62
     7
 10
34.141599999999997
 20
184.65100000000001
 30
0.0
 11
34.141599999999997
 21
185.83600000000001
 31
0.0
  0
LINE
  5
D7
  8
_________1
 62
     7
 10
28.918800000000001
 20
184.65100000000001
 30
0.0
 11
31.130299999999998
 21
185.244
 31
0.0
  0
LINE
  5
D8
  8
_________1
 62
     7
 10
31.130299999999998
 20
185.244
 30
0.0
 11
28.918800000000001
 21
185.83600000000001
 31
0.0
  0
LINE
  5
D9
  8
_________1
 62
     7
 10
28.918800000000001
 20
185.83600000000001
 30
0.0
 11
28.918800000000001
 21
184.65100000000001
 31
0.0
  0
LINE
  5
DA
  8
_________1
 62
     7
 10
93.341800000000006
 20
185.83600000000001
 30
0.0
 11
91.130399999999995
 21
185.244
 31
0.0
  0
LINE
  5
DB
  8
_________1
 62
     7
 10
91.130399999999995
 20
185.244
 30
0.0
 11
93.341800000000006
 21
184.65100000000001
 31
0.0
  0
LINE
  5
DC
  8
_________1
 62
     7
 10
93.341800000000006
 20
184.65100000000001
 30
0.0
 11
93.341800000000006
 21
185.83600000000001
 31
0.0
  0
LINE
  5
DD
  8
_________1
 62
     7
 10
88.118999999999986
 20
184.65100000000001
 30
0.0
 11
90.330500000000015
 21
185.244
 31
0.0
  0
LINE
  5
DE
  8
_________1
 62
     7
 10
90.330500000000015
 20
185.244
 30
0.0
 11
88.118999999999986
 21
185.83600000000001
 31
0.0
  0
LINE
  5
DF
  8
_________1
 62
     7
 10
88.118999999999986
 20
185.83600000000001
 30
0.0
 11
88.118999999999986
 21
184.65100000000001
 31
0.0
  0
LINE
  5
E0
  8
_________1
 62
     7
 10
25.841699999999999
 20
185.244
 30
0.0
 11
96.358699999999999
 21
185.244
 31
0.0
  0
ENDBLK
  5
E1
  8
_________1
  0
BLOCK
  8
_________1
  2
AIGNBL02010011
 70
     0
 10
0.0
 20
0.0
 30
0.0
  3
AIGNBL02010011
  1

  0
LINE
  5
E4
  8
_________1
 62
     7
 10
33.341000000000001
 20
179.00399999999999
 30
0.0
 11
31.129200000000001
 21
178.41200000000001
 31
0.0
  0
LINE
  5
E5
  8
_________1
 62
     7
 10
31.129200000000001
 20
178.41200000000001
 30
0.0
 11
33.341000000000001
 21
177.81899999999999
 31
0.0
  0
LINE
  5
E6
  8
_________1
 62
     7
 10
33.341000000000001
 20
177.81899999999999
 30
0.0
 11
33.341000000000001
 21
179.00399999999999
 31
0.0
  0
LINE
  5
E7
  8
_________1
 62
     7
 10
88.920000000000016
 20
177.834
 30
0.0
 11
91.131100000000004
 21
178.42599999999999
 31
0.0
  0
LINE
  5
E8
  8
_________1
 62
     7
 10
91.131100000000004
 20
178.42599999999999
 30
0.0
 11
88.920000000000016
 21
179.01900000000001
 31
0.0
  0
LINE
  5
E9
  8
_________1
 62
     7
 10
88.920000000000016
 20
179.01900000000001
 30
0.0
 11
88.920000000000016
 21
177.834
 31
0.0
  0
LINE
  5
EA
  8
_________1
 62
     7
 10
31.130299999999998
 20
178.41900000000001
 30
0.0
 11
91.130399999999995
 21
178.41900000000001
 31
0.0
  0
ENDBLK
  5
EB
  8
_________1
  0
BLOCK
  8
_________1
  2
AIGNBL02010012
 70
     0
 10
0.0
 20
0.0
 30
0.0
  3
AIGNBL02010012
  1

  0
LINE
  5
EE
  8
_________1
 62
     7
 10
58.39439999999999
 20
220.49700000000001
 30
0.0
 11
59.539200000000001
 21
218.51400000000001
 31
0.0
  0
LINE
  5
EF
  8
_________1
 62
     7
 10
59.539200000000001
 20
218.51400000000001
 30
0.0
 11
57.556199999999997
 21
219.65899999999999
 31
0.0
  0
LINE
  5
F0
  8
_________1
 62
     7
 10
57.556199999999997
 20
219.65899999999999
 30
0.0
 11
58.39439999999999
 21
220.49700000000001
 31
0.0
  0
LINE
  5
F1
  8
_________1
 62
     7
 10
63.866300000000003
 20
213.34999999999999
 30
0.0
 11
62.721499999999992
 21
215.33199999999999
 31
0.0
  0
LINE
  5
F2
  8
_________1
 62
     7
 10
62.721499999999992
 20
215.33199999999999
 30
0.0
 11
64.704499999999996
 21
214.18799999999999
 31
0.0
  0
LINE
  5
F3
  8
_________1
 62
     7
 10
64.704499999999996
 20
214.18799999999999
 30
0.0
 11
63.866300000000003
 21
213.34999999999999
 31
0.0
  0
LINE
  5
F4
  8
_________1
 62
     7
 10
79.490899999999996
 20
224.68199999999999
 30
0.0
 11
72.840500000000006
 21
224.68199999999999
 31
0.0
  0
LINE
  5
F5
  8
_________1
 62
     7
 10
73.360299999999995
 20
211.34399999999999
 30
0.0
 11
66.709900000000005
 21
211.34399999999999
 31
0.0
  0
LINE
  5
F6
  8
_________1
 62
     7
 10
66.709900000000005
 20
211.34399999999999
 30
0.0
 11
56.920200000000001
 21
221.13399999999999
 31
0.0
  0
ENDBLK
  5
F7
  8
_________1
  0
BLOCK
  8
_________1
  2
AIGNBL02010013
 70
     0
 10
0.0
 20
0.0
 30
0.0
  3
AIGNBL02010013
  1

  0
LINE
  5
FA
  8
_________1
 62
     7
 10
57.895499999999998
 20
238.791
 30
0.0
 11
59.8782
 21
237.64599999999999
 31
0.0
  0
LINE
  5
FB
  8
_________1
 62
     7
 10
59.8782
 20
237.64599999999999
 30
0.0
 11
58.733699999999999
 21
239.62899999999999
 31
0.0
  0
LINE
  5
FC
  8
_________1
 62
     7
 10
58.733699999999999
 20
239.62899999999999
 30
0.0
 11
57.895499999999998
 21
238.791
 31
0.0
  0
LINE
  5
FD
  8
_________1
 62
     7
 10
64.334500000000006
 20
234.02699999999999
 30
0.0
 11
62.35179999999999
 21
235.172
 31
0.0
  0
LINE
  5
FE
  8
_________1
 62
     7
 10
62.35179999999999
 20
235.172
 30
0.0
 11
63.496299999999998
 21
233.18899999999999
 31
0.0
  0
LINE
  5
FF
  8
_________1
 62
     7
 10
63.496299999999998
 20
233.18899999999999
 30
0.0
 11
64.334500000000006
 21
234.02699999999999
 31
0.0
  0
LINE
  5
100
  8
_________1
 62
     7
 10
72.840500000000006
 20
224.68199999999999
 30
0.0
 11
57.078000000000003
 21
240.44399999999999
 31
0.0
  0
ENDBLK
  5
101
  8
_________1
  0
BLOCK
  8
_________1
  2
AIGNBL02010014
 70
     0
 10
0.0
 20
0.0
 30
0.0
  3
AIGNBL02010014
  1

  0
LINE
  5
104
  8
_________1
 62
     7
 10
34.200000000000003
 20
242.71700000000001
 30
0.0
 11
35.624099999999999
 21
240.92400000000001
 31
0.0
  0
LINE
  5
105
  8
_________1
 62
     7
 10
35.624099999999999
 20
240.92400000000001
 30
0.0
 11
35.287300000000002
 21
243.18799999999999
 31
0.0
  0
LINE
  5
106
  8
_________1
 62
     7
 10
35.287300000000002
 20
243.18799999999999
 30
0.0
 11
34.200000000000003
 21
242.71700000000001
 31
0.0
  0
LINE
  5
107
  8
_________1
 62
     7
 10
35.617199999999997
 20
240.922
 30
0.0
 11
31.239799999999999
 21
251.00299999999999
 31
0.0
  0
LINE
  5
108
  8
_________1
 62
     7
 10
31.239799999999999
 20
251.00299999999999
 30
0.0
 11
47.687800000000003
 21
251.00299999999999
 31
0.0
  0
ENDBLK
  5
109
  8
_________1
  0
BLOCK
  8
_________1
  2
AIGNBL02010015
 70
     0
 10
0.0
 20
0.0
 30
0.0
  3
AIGNBL02010015
  1

  0
INSERT
  5
10C
  8
_________1
 62
     7
  2
AIGNBL02020016
 10
0.0
 20
0.0
 30
0.0
  0
ENDBLK
  5
10D
  8
_________1
  0
BLOCK
  8
_________2
  2
AIGNBL03010002
 70
     0
 10
0.0
 20
0.0
 30
0.0
  3
AIGNBL03010002
  1

  0
LINE
  5
110
  8
_________2
 62
     7
 10
81.679900000000004
 20
51.324300000000001
 30
0.0
 11
79.493700000000004
 21
51.324300000000001
 31
0.0
  0
LINE
  5
111
  8
_________2
 62
     7
 10
82.172600000000017
 20
51.324300000000001
 30
0.0
 11
81.920400000000001
 21
51.324300000000001
 31
0.0
  0
LINE
  5
112
  8
_________2
 62
     7
 10
82.665199999999984
 20
51.324300000000001
 30
0.0
 11
85.590100000000007
 21
51.324300000000001
 31
0.0
  0
LINE
  5
113
  8
_________2
 62
     7
 10
82.172600000000017
 20
51.324300000000001
 30
0.0
 11
82.424800000000005
 21
51.324300000000001
 31
0.0
  0
LINE
  5
114
  8
_________2
 62
     7
 10
75.776399999999995
 20
51.324300000000001
 30
0.0
 11
73.589399999999998
 21
51.324300000000001
 31
0.0
  0
LINE
  5
115
  8
_________2
 62
     7
 10
76.2684
 20
51.324300000000001
 30
0.0
 11
76.016900000000007
 21
51.324300000000001
 31
0.0
  0
LINE
  5
116
  8
_________2
 62
     7
 10
76.2684
 20
51.817
 30
0.0
 11
76.2684
 21
54.003900000000002
 31
0.0
  0
LINE
  5
117
  8
_________2
 62
     7
 10
76.2684
 20
51.324300000000001
 30
0.0
 11
76.2684
 21
51.576900000000002
 31
0.0
  0
LINE
  5
118
  8
_________2
 62
     7
 10
76.76100000000001
 20
51.324300000000001
 30
0.0
 11
78.947999999999993
 21
51.324300000000001
 31
0.0
  0
LINE
  5
119
  8
_________2
 62
     7
 10
76.2684
 20
51.324300000000001
 30
0.0
 11
76.520499999999998
 21
51.324300000000001
 31
0.0
  0
LINE
  5
11A
  8
_________2
 62
     7
 10
76.2684
 20
50.832399999999993
 30
0.0
 11
76.2684
 21
48.645699999999998
 31
0.0
  0
LINE
  5
11B
  8
_________2
 62
     7
 10
76.2684
 20
51.324300000000001
 30
0.0
 11
76.2684
 21
51.072800000000001
 31
0.0
  0
LINE
  5
11C
  8
_________2
 62
     7
 10
79.979399999999984
 20
50.104799999999997
 30
0.0
 11
85.157399999999996
 21
49.240000000000002
 31
0.0
  0
LINE
  5
11D
  8
_________2
 62
     7
 10
79.979399999999984
 20
52.544199999999989
 30
0.0
 11
85.157399999999996
 21
53.409700000000001
 31
0.0
  0
LINE
  5
11E
  8
_________2
 62
     7
 10
85.157399999999996
 20
49.240000000000002
 30
0.0
 11
85.157399999999996
 21
53.409700000000001
 31
0.0
  0
LINE
  5
11F
  8
_________2
 62
     7
 10
79.979399999999984
 20
50.104799999999997
 30
0.0
 11
79.979399999999984
 21
52.544199999999989
 31
0.0
  0
ARC
  5
120
  8
_________2
 62
     7
 10
76.221766000000002
 20
51.277380999999998
 30
0.0
 40
1.267714
 50
2.1220840000000001
 51
87.894083999999992
  0
ARC
  5
121
  8
_________2
 62
     7
 10
76.315297000000001
 20
51.277734999999993
 30
0.0
 40
1.267374999999999
 50
92.122849999999985
 51
177.893304
  0
ARC
  5
122
  8
_________2
 62
     7
 10
76.315273000000005
 20
51.371245999999992
 30
0.0
 40
1.267363
 50
182.121815
 51
267.87821400000001
  0
ARC
  5
123
  8
_________2
 62
     7
 10
76.221461000000005
 20
51.371928999999987
 30
0.0
 40
1.2680439999999991
 50
272.11916400000001
 51
357.84848499999998
  0
ARC
  5
124
  8
_________2
 62
     7
 10
76.187981999999991
 20
51.244312999999998
 30
0.0
 40
2.1668310000000002
 50
2.1161439999999989
 51
87.874379000000005
  0
ARC
  5
125
  8
_________2
 62
     7
 10
76.348411999999996
 20
51.245334999999997
 30
0.0
 40
2.1657980000000001
 50
92.118487999999999
 51
177.909886
  0
ARC
  5
126
  8
_________2
 62
     7
 10
76.348354
 20
51.404327000000002
 30
0.0
 40
2.1657779999999991
 50
182.11700400000001
 51
267.88302499999998
  0
ARC
  5
127
  8
_________2
 62
     7
 10
76.188378999999983
 20
51.405009999999997
 30
0.0
 40
2.1664590000000001
 50
272.11546800000002
 51
357.86560400000002
  0
ENDBLK
  5
128
  8
_________2
  0
ENDSEC
  0
SECTION
  2
ENTITIES
  0
TEXT
  5
129
  8
____
 62
     7
 10
141.8242875
 20
199.57900000000001
 30
0.0
 40
3.0923400000000001
  1
480
 41
0.5
 72
     1
 11
143.75700000000001
 21
199.57900000000001
 31
0.0
  0
TEXT
  5
12A
  8
____
 62
     7
 10
184.35400000000001
 20
223.9912875
 30
0.0
 40
3.0923400000000001
  1
340
 50
90.0
 41
0.5
 72
     1
 11
184.35400000000001
 21
225.92400000000001
 31
0.0
  0
TEXT
  5
12B
  8
____
 62
     7
 10
177.75700000000001
 20
227.9912875
 30
0.0
 40
3.0923400000000001
  1
260
 50
90.0
 41
0.5
 72
     1
 11
177.75700000000001
 21
229.92400000000001
 31
0.0
  0
TEXT
  5
12C
  8
____
 62
     7
 10
158.60900000000001
 20
154.73113499999999
 30
0.0
 40
3.0923400000000001
  1
10
 50
90.0
 41
0.5
 72
     2
 11
158.60900000000001
 21
156.535
 31
0.0
  0
TEXT
  5
12D
  8
____
 62
     7
 10
153.3242875
 20
126.349
 30
0.0
 40
3.0923400000000001
  1
260
 41
0.5
 72
     1
 11
155.25700000000001
 21
126.349
 31
0.0
  0
TEXT
  5
12E
  8
____
 62
     7
 10
136.238
 20
144.04752500000001
 30
0.0
 40
3.0923400000000001
  1
95
 50
90.0
 41
0.5
 72
     1
 11
136.238
 21
145.33600000000001
 31
0.0
  0
TEXT
  5
12F
  8
____
 62
     7
 10
110.32899999999999
 20
141.03213500000001
 30
0.0
 40
3.0923400000000001
  1
145
 50
90.0
 41
0.5
 72
     1
 11
110.32899999999999
 21
142.83600000000001
 31
0.0
  0
TEXT
  5
130
  8
____
 62
     7
 10
102.59699999999999
 20
145.92737249999999
 30
0.0
 40
3.0923400000000001
  1
60
 50
90.0
 41
0.5
 72
     1
 11
102.59699999999999
 21
147.08699999999999
 31
0.0
  0
TEXT
  5
131
  8
____
 62
     7
 10
59.197487500000001
 20
126.349
 30
0.0
 40
3.0923400000000001
  1
306
 41
0.5
 72
     1
 11
61.130200000000002
 21
126.349
 31
0.0
  0
TEXT
  5
132
  8
____
 62
     7
 10
82.736699999999999
 20
238.18752499999999
 30
0.0
 40
3.0923400000000001
  1
65
 50
90.0
 41
0.5
 72
     1
 11
82.736699999999999
 21
239.476
 31
0.0
  0
TEXT
  5
133
  8
____
 62
     7
 10
102.37
 20
191.78999999999999
 30
0.0
 40
3.0923400000000001
  1
8
 50
90.0
 41
0.5
  0
TEXT
  5
134
  8
____
 62
     7
 10
102.37
 20
211.76244
 30
0.0
 40
3.0923400000000001
  1
322
 50
90.0
 41
0.5
 72
     1
 11
102.37
 21
213.82400000000001
 31
0.0
  0
TEXT
  5
135
  8
____
 62
     7
 10
102.37
 20
234.220135
 30
0.0
 40
3.0923400000000001
  1
122
 50
90.0
 41
0.5
 72
     1
 11
102.37
 21
236.024
 31
0.0
  0
TEXT
  5
136
  8
____
 62
     7
 10
102.37
 20
246.83322000000001
 30
0.0
 40
3.0923400000000001
  1
8
 50
90.0
 41
0.5
 72
     2
 11
102.37
 21
247.864
 31
0.0
  0
TEXT
  5
137
  8
____
 62
     7
 10
110.102
 20
217.9912875
 30
0.0
 40
3.0923400000000001
  1
460
 50
90.0
 41
0.5
 72
     1
 11
110.102
 21
219.92400000000001
 31
0.0
  0
TEXT
  5
138
  8
____
 62
     7
 10
95.327920000000006
 20
185.94399999999999
 30
0.0
 40
3.0923400000000001
  1
8
 41
0.5
 72
     2
 11
96.358699999999999
 21
185.94399999999999
 31
0.0
  0
TEXT
  5
139
  8
____
 62
     7
 10
59.068640000000002
 20
185.94399999999999
 30
0.0
 40
3.0923400000000001
  1
584
 41
0.5
 72
     1
 11
61.130200000000002
 21
185.94399999999999
 31
0.0
  0
TEXT
  5
13A
  8
____
 62
     7
 10
25.841699999999999
 20
185.94399999999999
 30
0.0
 40
3.0923400000000001
  1
8
 41
0.5
  0
TEXT
  5
13B
  8
____
 62
     7
 10
153.12464600000001
 20
246.89400000000001
 30
0.0
 40
3.0923400000000001
  1
洗面器後端
 41
0.5
 72
     1
 11
157.55699999999999
 21
246.89400000000001
 31
0.0
  0
TEXT
  5
13C
  8
____
 62
     7
 10
54.583930000000002
 20
254.25200000000001
 30
0.0
 40
3.0923400000000001
  1
100
 41
0.5
 72
     1
 11
56.130099999999999
 21
254.25200000000001
 31
0.0
  0
TEXT
  5
13D
  8
____
 62
     7
 10
64.584029999999998
 20
254.25200000000001
 30
0.0
 40
3.0923400000000001
  1
100
 41
0.5
 72
     1
 11
66.130200000000002
 21
254.25200000000001
 31
0.0
  0
TEXT
  5
13E
  8
____
 62
     7
 10
59.326335
 20
179.119
 30
0.0
 40
3.0923400000000001
  1
600
 41
0.5
 72
     1
 11
61.130200000000002
 21
179.119
 31
0.0
  0
TEXT
  5
13F
  8
____
 62
     7
 10
159.40199999999999
 20
213.297
 30
0.0
 40
3.0923400000000001
  1
R10
 41
0.5
  0
TEXT
  5
140
  8
____
 62
     7
 10
124.532965
 20
213.29599999999999
 30
0.0
 40
3.0923400000000001
  1
R10
 41
0.5
 72
     2
 11
127.883
 21
213.29599999999999
 31
0.0
  0
TEXT
  5
141
  8
____
 62
     7
 10
45.823117000000003
 20
111.369
 30
0.0
 40
3.0923400000000001
  1
取付ボルト\U+00D72セット付（尺度1：5）
 41
0.5
 72
     1
 11
61.130200000000002
 21
111.369
 31
0.0
  0
TEXT
  5
142
  8
____
 62
     7
 10
50.126623500000001
 20
107.504
 30
0.0
 40
3.0923400000000001
  1
※\U+03A612\U+00D760樹脂プラグ付
 41
0.5
 72
     1
 11
61.130200000000002
 21
107.504
 31
0.0
  0
TEXT
  5
143
  8
____
 62
     7
 10
59.185425000000002
 20
97.495400000000004
 30
0.0
 40
3.0923400000000001
  1
45
 41
0.5
 72
     1
 11
60.4739
 21
97.495400000000004
 31
0.0
  0
TEXT
  5
144
  8
____
 62
     7
 10
65.307320000000004
 20
97.495400000000004
 30
0.0
 40
3.0923400000000001
  1
15
 41
0.5
 72
     1
 11
66.338099999999997
 21
97.495400000000004
 31
0.0
  0
TEXT
  5
145
  8
____
 62
     7
 10
72.910072499999984
 20
97.496099999999998
 30
0.0
 40
3.0923400000000001
  1
60
 41
0.5
 72
     1
 11
74.069699999999997
 21
97.496099999999998
 31
0.0
  0
TEXT
  5
146
  8
____
 62
     7
 10
119.944
 20
179.09800000000001
 30
0.0
 40
3.0923400000000001
  1
※カウンターを設ける場合も洗面器の
 41
0.5
  0
TEXT
  5
147
  8
____
 62
     7
 10
119.944
 20
175.233
 30
0.0
 40
3.0923400000000001
  1
壁固定が必要です。
 41
0.5
  0
TEXT
  5
148
  8
____
 62
     7
 10
119.944
 20
171.36799999999999
 30
0.0
 40
3.0923400000000001
  1
※カウンターの制作可否はカウンター
 41
0.5
  0
TEXT
  5
149
  8
____
 62
     7
 10
119.944
 20
167.50200000000001
 30
0.0
 40
3.0923400000000001
  1
業者様にご確認ください。
 41
0.5
  0
TEXT
  5
14A
  8
____
 62
     7
 10
135.51076
 20
188.27099999999999
 30
0.0
 40
3.0923400000000001
  1
カウンター切込寸法
 41
0.5
 72
     1
 11
143.75700000000001
 21
188.27099999999999
 31
0.0
  0
TEXT
  5
14B
  8
____
 62
     7
 10
132.53
 20
225.08199999999999
 30
0.0
 40
3.0923400000000001
  1
排水口
 41
0.5
  0
TEXT
  5
14C
  8
____
 62
     7
 10
75.367779999999996
 20
225.38200000000001
 30
0.0
 40
3.0923400000000001
  1
%%c35
 41
0.5
 72
     2
 11
79.490899999999996
 21
225.38200000000001
 31
0.0
  0
TEXT
  5
14D
  8
____
 62
     7
 10
36.967688000000003
 20
251.703
 30
0.0
 40
3.0923400000000001
  1
メーカーロゴ
 41
0.5
 72
     2
 11
47.687800000000003
 21
251.703
 31
0.0
  0
TEXT
  5
14E
  8
____
 62
     7
 10
69.237179999999995
 20
212.04400000000001
 30
0.0
 40
3.0923400000000001
  1
%%c45
 41
0.5
 72
     2
 11
73.360299999999995
 21
212.04400000000001
 31
0.0
  0
LINE
  5
14F
  8
_________1
 62
     7
 10
159.40199999999999
 20
212.45599999999999
 30
0.0
 11
164.13200000000001
 21
212.45599999999999
 31
0.0
  0
LINE
  5
150
  8
_________1
 62
     7
 10
166.27000000000001
 20
211.15700000000001
 30
0.0
 11
167.41399999999999
 21
209.17500000000001
 31
0.0
  0
LINE
  5
151
  8
_________1
 62
     7
 10
167.41399999999999
 20
209.17500000000001
 30
0.0
 11
165.43199999999999
 21
210.31899999999999
 31
0.0
  0
LINE
  5
152
  8
_________1
 62
     7
 10
165.43199999999999
 20
210.31899999999999
 30
0.0
 11
166.27000000000001
 21
211.15700000000001
 31
0.0
  0
LINE
  5
153
  8
_________1
 62
     7
 10
167.41399999999999
 20
209.17500000000001
 30
0.0
 11
164.13200000000001
 21
212.45599999999999
 31
0.0
  0
LINE
  5
154
  8
_________1
 62
     7
 10
123.288
 20
212.45599999999999
 30
0.0
 11
127.883
 21
212.45599999999999
 31
0.0
  0
LINE
  5
155
  8
_________1
 62
     7
 10
121.193
 20
211.19800000000001
 30
0.0
 11
120.04900000000001
 21
209.21600000000001
 31
0.0
  0
LINE
  5
156
  8
_________1
 62
     7
 10
120.04900000000001
 20
209.21600000000001
 30
0.0
 11
122.03100000000001
 21
210.36099999999999
 31
0.0
  0
LINE
  5
157
  8
_________1
 62
     7
 10
122.03100000000001
 20
210.36099999999999
 30
0.0
 11
121.193
 21
211.19800000000001
 31
0.0
  0
LINE
  5
158
  8
_________1
 62
     7
 10
120.04900000000001
 20
209.21600000000001
 30
0.0
 11
123.288
 21
212.45599999999999
 31
0.0
  0
LINE
  5
159
  8
_________1
  6
AIGENLINE001
 62
     7
 10
119.756
 20
242.92400000000001
 30
0.0
 11
167.75700000000001
 21
242.92400000000001
 31
0.0
  0
INSERT
  5
15A
  8
_________1
 62
     7
  2
AIGNBL02010002
 10
0.0
 20
0.0
 30
0.0
  0
LINE
  5
15B
  8
_________1
 62
     7
 10
167.75700000000001
 20
207.98599999999999
 30
0.0
 11
167.75700000000001
 21
197.87799999999999
 31
0.0
  0
LINE
  5
15C
  8
_________1
 62
     7
 10
119.756
 20
207.98599999999999
 30
0.0
 11
119.756
 21
197.87799999999999
 31
0.0
  0
INSERT
  5
15D
  8
_________1
 62
     7
  2
AIGNBL02010003
 10
0.0
 20
0.0
 30
0.0
  0
LINE
  5
15E
  8
_________1
 62
     7
 10
168.19399999999999
 20
208.92400000000001
 30
0.0
 11
186.054
 21
208.92400000000001
 31
0.0
  0
LINE
  5
15F
  8
_________1
 62
     7
 10
172.77799999999999
 20
242.92400000000001
 30
0.0
 11
186.054
 21
242.92400000000001
 31
0.0
  0
INSERT
  5
160
  8
_________1
 62
     7
  2
AIGNBL02010004
 10
0.0
 20
0.0
 30
0.0
  0
LINE
  5
161
  8
_________1
 62
     7
 10
150.44499999999999
 20
216.923
 30
0.0
 11
179.45699999999999
 21
216.923
 31
0.0
  0
INSERT
  5
162
  8
_________1
 62
     7
  2
AIGNBL02010005
 10
0.0
 20
0.0
 30
0.0
  0
INSERT
  5
163
  8
_________1
 62
     7
  2
AIGNBL02010006
 10
0.0
 20
0.0
 30
0.0
  0
LINE
  5
164
  8
_________1
 62
     7
 10
168.25700000000001
 20
134.59899999999999
 30
0.0
 11
168.25700000000001
 21
124.649
 31
0.0
  0
LINE
  5
165
  8
_________1
 62
     7
 10
142.25700000000001
 20
132.55099999999999
 30
0.0
 11
142.25700000000001
 21
124.649
 31
0.0
  0
INSERT
  5
166
  8
_________1
 62
     7
  2
AIGNBL02010007
 10
0.0
 20
0.0
 30
0.0
  0
INSERT
  5
167
  8
_________1
 62
     7
  2
AIGNBL02010008
 10
0.0
 20
0.0
 30
0.0
  0
LINE
  5
168
  8
_________1
 62
     7
 10
91.867999999999995
 20
135.58600000000001
 30
0.0
 11
112.029
 21
135.58600000000001
 31
0.0
  0
LINE
  5
169
  8
_________1
 62
     7
 10
91.868399999999994
 20
150.08600000000001
 30
0.0
 11
112.029
 21
150.08600000000001
 31
0.0
  0
INSERT
  5
16A
  8
_________1
 62
     7
  2
AIGNBL02010009
 10
0.0
 20
0.0
 30
0.0
  0
LINE
  5
16B
  8
_________1
 62
     7
 10
80.167900000000003
 20
144.08699999999999
 30
0.0
 11
104.297
 21
144.08699999999999
 31
0.0
  0
INSERT
  5
16C
  8
_________1
 62
     7
  2
AIGNBL0201000A
 10
0.0
 20
0.0
 30
0.0
  0
LINE
  5
16D
  8
_________1
 62
     7
 10
76.430599999999998
 20
140.09899999999999
 30
0.0
 11
76.430599999999998
 21
124.649
 31
0.0
  0
LINE
  5
16E
  8
_________1
 62
     7
 10
45.83039999999999
 20
140.09899999999999
 30
0.0
 11
45.83039999999999
 21
124.649
 31
0.0
  0
INSERT
  5
16F
  8
_________1
 62
     7
  2
AIGNBL0201000B
 10
0.0
 20
0.0
 30
0.0
  0
LINE
  5
170
  8
_________1
 62
     7
 10
75.965500000000006
 20
236.42400000000001
 30
0.0
 11
84.436899999999994
 21
236.42400000000001
 31
0.0
  0
LINE
  5
171
  8
_________1
 62
     7
 10
91.748099999999994
 20
197.72399999999999
 30
0.0
 11
104.06999999999999
 21
197.72399999999999
 31
0.0
  0
LINE
  5
172
  8
_________1
 62
     7
 10
92.267999999999986
 20
229.92400000000001
 30
0.0
 11
104.06999999999999
 21
229.92400000000001
 31
0.0
  0
INSERT
  5
173
  8
_________1
 62
     7
  2
AIGNBL0201000C
 10
0.0
 20
0.0
 30
0.0
  0
LINE
  5
174
  8
_________1
 62
     7
 10
91.768100000000004
 20
242.124
 30
0.0
 11
104.06999999999999
 21
242.124
 31
0.0
  0
INSERT
  5
175
  8
_________1
 62
     7
  2
AIGNBL0201000D
 10
0.0
 20
0.0
 30
0.0
  0
LINE
  5
176
  8
_________1
 62
     7
 10
91.867999999999995
 20
196.92400000000001
 30
0.0
 11
111.80200000000001
 21
196.92400000000001
 31
0.0
  0
LINE
  5
177
  8
_________1
 62
     7
 10
91.867999999999995
 20
242.92400000000001
 30
0.0
 11
111.80200000000001
 21
242.92400000000001
 31
0.0
  0
LINE
  5
178
  8
_________1
 62
     7
 10
61.130200000000002
 20
254.25899999999999
 30
0.0
 11
61.130200000000002
 21
246.89400000000001
 31
0.0
  0
LINE
  5
179
  8
_________1
 62
     7
 10
71.130300000000005
 20
254.25899999999999
 30
0.0
 11
71.130300000000005
 21
240.78100000000001
 31
0.0
  0
INSERT
  5
17A
  8
_________1
 62
     7
  2
AIGNBL0201000E
 10
0.0
 20
0.0
 30
0.0
  0
LINE
  5
17B
  8
_________1
 62
     7
 10
51.130000000000003
 20
254.25899999999999
 30
0.0
 11
51.130000000000003
 21
240.78100000000001
 31
0.0
  0
INSERT
  5
17C
  8
_________1
 62
     7
  2
AIGNBL0201000F
 10
0.0
 20
0.0
 30
0.0
  0
LINE
  5
17D
  8
_________1
 62
     7
 10
91.130399999999995
 20
196.18600000000001
 30
0.0
 11
91.130399999999995
 21
177.71199999999999
 31
0.0
  0
LINE
  5
17E
  8
_________1
 62
     7
 10
90.330500000000015
 20
196.286
 30
0.0
 11
90.330500000000015
 21
184.244
 31
0.0
  0
INSERT
  5
17F
  8
_________1
 62
     7
  2
AIGNBL02010010
 10
0.0
 20
0.0
 30
0.0
  0
LINE
  5
180
  8
_________1
 62
     7
 10
31.930599999999998
 20
196.286
 30
0.0
 11
31.930599999999998
 21
184.244
 31
0.0
  0
LINE
  5
181
  8
_________1
 62
     7
 10
31.130299999999998
 20
196.18600000000001
 30
0.0
 11
31.130299999999998
 21
177.71199999999999
 31
0.0
  0
INSERT
  5
182
  8
_________1
 62
     7
  2
AIGNBL02010011
 10
0.0
 20
0.0
 30
0.0
  0
INSERT
  5
183
  8
_________1
 62
     7
  2
AIGNBL02010012
 10
0.0
 20
0.0
 30
0.0
  0
INSERT
  5
184
  8
_________1
 62
     7
  2
AIGNBL02010013
 10
0.0
 20
0.0
 30
0.0
  0
INSERT
  5
185
  8
_________1
 62
     7
  2
AIGNBL02010014
 10
0.0
 20
0.0
 30
0.0
  0
ARC
  5
186
  8
_________1
  6
AIGENLINE002
 62
     7
 10
71.130302
 20
236.42392799999999
 30
0.0
 40
1.7499480000000001
 50
359.99437
 51
89.994339999999994
  0
ARC
  5
187
  8
_________1
  6
AIGENLINE002
 62
     7
 10
71.198094999999995
 20
236.35613599999999
 30
0.0
 40
1.818997
 50
92.130417000000008
 51
177.86955399999999
  0
ARC
  5
188
  8
_________1
  6
AIGENLINE002
 62
     7
 10
71.197532999999993
 20
236.490993
 30
0.0
 40
1.818420999999999
 50
182.119035
 51
267.8866339999999
  0
ARC
  5
189
  8
_________1
  6
AIGENLINE002
 62
     7
 10
71.130387999999996
 20
236.42366999999999
 30
0.0
 40
1.7498610000000001
 50
270.00283999999999
 51
0.00281
  0
LINE
  5
18A
  8
_________1
  6
AIGENLINE003
 62
     7
 10
71.130099999999999
 20
153.976
 30
0.0
 11
71.130099999999999
 21
147.59399999999999
 31
0.0
  0
LINE
  5
18B
  8
_________1
  6
AIGENLINE003
 62
     7
 10
51.130000000000003
 20
153.976
 30
0.0
 11
51.130000000000003
 21
147.59399999999999
 31
0.0
  0
LINE
  5
18C
  8
_________1
  6
AIGENLINE003
 62
     7
 10
71.130099999999999
 20
240.08099999999999
 30
0.0
 11
71.130099999999999
 21
232.65000000000001
 31
0.0
  0
ARC
  5
18D
  8
_________1
  6
AIGENLINE002
 62
     7
 10
51.130190999999989
 20
236.42392799999999
 30
0.0
 40
1.7499480000000001
 50
359.99437
 51
89.994339999999994
  0
ARC
  5
18E
  8
_________1
  6
AIGENLINE002
 62
     7
 10
51.197983000000001
 20
236.35613599999999
 30
0.0
 40
1.818997
 50
92.130417000000008
 51
177.86955399999999
  0
ARC
  5
18F
  8
_________1
  6
AIGENLINE002
 62
     7
 10
51.197420999999999
 20
236.490993
 30
0.0
 40
1.818420999999999
 50
182.119035
 51
267.8866339999999
  0
ARC
  5
190
  8
_________1
  6
AIGENLINE002
 62
     7
 10
51.130276999999992
 20
236.42366999999999
 30
0.0
 40
1.7498610000000001
 50
270.00283999999999
 51
0.00281
  0
LINE
  5
191
  8
_________1
  6
AIGENLINE003
 62
     7
 10
51.130000000000003
 20
240.08099999999999
 30
0.0
 11
51.130000000000003
 21
232.65000000000001
 31
0.0
  0
ARC
  5
192
  8
_________1
 62
     7
 10
61.130332999999993
 20
236.42392799999999
 30
0.0
 40
1.7499480000000001
 50
359.99437
 51
89.994339999999994
  0
ARC
  5
193
  8
_________1
 62
     7
 10
61.198124999999997
 20
236.35613599999999
 30
0.0
 40
1.818997
 50
92.130417000000008
 51
177.86955399999999
  0
ARC
  5
194
  8
_________1
 62
     7
 10
61.197563000000002
 20
236.490993
 30
0.0
 40
1.818420999999999
 50
182.119035
 51
267.8866339999999
  0
ARC
  5
195
  8
_________1
 62
     7
 10
61.130418999999989
 20
236.42366999999999
 30
0.0
 40
1.7498610000000001
 50
270.00283999999999
 51
0.00281
  0
ARC
  5
196
  8
_________1
 62
     7
 10
167.74218200000001
 20
149.57108299999999
 30
0.0
 40
0.5152910000000001
 50
2.133306999999999
 51
87.866682999999995
  0
ARC
  5
197
  8
_________1
 62
     7
 10
120.756441
 20
209.92365599999999
 30
0.0
 40
1.000030999999999
 50
180.00494499999999
 51
270.004954
  0
ARC
  5
198
  8
_________1
 62
     7
 10
166.71847
 20
209.96203299999999
 30
0.0
 40
1.0391269999999999
 50
272.13115699999997
 51
357.87872399999998
  0
LINE
  5
199
  8
_________1
 62
     7
 10
159.304
 20
245.95099999999999
 30
0.0
 11
157.55699999999999
 21
242.92400000000001
 31
0.0
  0
LINE
  5
19A
  8
_________1
 62
     7
 10
157.55699999999999
 20
242.92400000000001
 30
0.0
 11
155.809
 21
245.95099999999999
 31
0.0
  0
LINE
  5
19B
  8
_________1
 62
     7
 10
155.809
 20
245.95099999999999
 30
0.0
 11
159.304
 21
245.95099999999999
 31
0.0
  0
LINE
  5
19C
  8
_________1
 62
     7
 10
166.75700000000001
 20
208.92400000000001
 30
0.0
 11
120.75700000000001
 21
208.92400000000001
 31
0.0
  0
LINE
  5
19D
  8
_________1
 62
     7
 10
167.75700000000001
 20
242.92400000000001
 30
0.0
 11
167.75700000000001
 21
209.92400000000001
 31
0.0
  0
LINE
  5
19E
  8
_________1
 62
     7
 10
119.756
 20
242.92400000000001
 30
0.0
 11
119.756
 21
209.92400000000001
 31
0.0
  0
LINE
  5
19F
  8
_________1
 62
     7
 10
122.75700000000001
 20
135.58699999999999
 30
0.0
 11
167.75700000000001
 21
135.58699999999999
 31
0.0
  0
LINE
  5
1A0
  8
_________1
  6
AIGENLINE002
 62
     7
 10
167.26499999999999
 20
149.59
 30
0.0
 11
167.26499999999999
 21
149.58500000000001
 31
0.0
  0
ARC
  5
1A1
  8
_________1
 62
     7
 10
167.7379
 20
136.10592600000001
 30
0.0
 40
0.519562
 50
272.13204200000001
 51
357.90744100000001
  0
ARC
  5
1A2
  8
_________1
 62
     7
 10
122.757107
 20
136.08695499999999
 30
0.0
 40
0.5002310000000002
 50
179.99996999999999
 51
270.00002000000001
  0
ARC
  5
1A3
  8
_________1
 62
     7
 10
90.611237000000017
 20
136.10522599999999
 30
0.0
 40
0.519549
 50
272.127861
 51
357.83264800000001
  0
ARC
  5
1A4
  8
_________1
 62
     7
 10
31.649094000000002
 20
136.10489100000001
 30
0.0
 40
0.5192020000000001
 50
182.13183100000001
 51
267.90769999999998
  0
LINE
  5
1A5
  8
_________1
 62
     7
 10
90.630499999999998
 20
135.58600000000001
 30
0.0
 11
31.630099999999999
 21
135.58600000000001
 31
0.0
  0
ARC
  5
1A6
  8
_________1
 62
     7
 10
90.611200999999994
 20
197.44279900000001
 30
0.0
 40
0.519567
 50
272.13181600000001
 51
357.88793399999997
  0
ARC
  5
1A7
  8
_________1
 62
     7
 10
31.649628
 20
197.442961
 30
0.0
 40
0.5197350000000001
 50
182.129301
 51
267.85098900000003
  0
ARC
  5
1A8
  8
_________1
 62
     7
 10
32.470567000000003
 20
198.26356999999999
 30
0.0
 40
0.540384
 50
182.119046
 51
267.89995900000002
  0
ARC
  5
1A9
  8
_________1
 62
     7
 10
89.790285999999995
 20
198.26372699999999
 30
0.0
 40
0.5405470000000001
 50
272.11610999999999
 51
357.86492500000003
  0
LINE
  5
1AA
  8
_________1
 62
     7
 10
32.450800000000001
 20
197.72399999999999
 30
0.0
 11
89.810199999999995
 21
197.72399999999999
 31
0.0
  0
LINE
  5
1AB
  8
_________1
 62
     7
 10
31.630099999999999
 20
196.92400000000001
 30
0.0
 11
90.630499999999998
 21
196.92400000000001
 31
0.0
  0
ARC
  5
1AC
  8
_________1
 62
     7
 10
61.130418999999989
 20
216.923789
 30
0.0
 40
3.4999809999999991
 50
359.99860000000001
 51
89.998570000000001
  0
ARC
  5
1AD
  8
_________1
 62
     7
 10
61.130592000000007
 20
216.923789
 30
0.0
 40
3.4999809999999991
 50
90.001410000000007
 51
180.00142
  0
ARC
  5
1AE
  8
_________1
 62
     7
 10
61.130591000000003
 20
216.92361700000001
 30
0.0
 40
3.4999799999999999
 50
179.99856
 51
269.99860999999999
  0
ARC
  5
1AF
  8
_________1
 62
     7
 10
61.130418999999989
 20
216.923618
 30
0.0
 40
3.4999809999999991
 50
270.00143000000003
 51
0.0014
  0
ARC
  5
1B0
  8
_________1
 62
     7
 10
61.130504999999999
 20
216.92370299999999
 30
0.0
 40
2.2500059999999991
 50
0.00001
 51
89.999980000000008
  0
ARC
  5
1B1
  8
_________1
 62
     7
 10
61.130506000000011
 20
216.92370299999999
 30
0.0
 40
2.2500059999999991
 50
90.0
 51
179.99996999999999
  0
ARC
  5
1B2
  8
_________1
 62
     7
 10
61.130504999999999
 20
216.92370299999999
 30
0.0
 40
2.2500059999999991
 50
179.99996999999999
 51
270.00002000000001
  0
ARC
  5
1B3
  8
_________1
 62
     7
 10
61.130504999999999
 20
216.92370399999999
 30
0.0
 40
2.2500059999999991
 50
270.00002000000001
 51
359.99999000000003
  0
LINE
  5
1B4
  8
_________1
 62
     7
 10
31.130299999999998
 20
242.42400000000001
 30
0.0
 11
31.130299999999998
 21
197.42400000000001
 31
0.0
  0
LINE
  5
1B5
  8
_________1
 62
     7
 10
31.930599999999998
 20
241.624
 30
0.0
 11
31.930599999999998
 21
198.244
 31
0.0
  0
LINE
  5
1B6
  8
_________1
 62
     7
 10
91.130399999999995
 20
242.42400000000001
 30
0.0
 11
91.130399999999995
 21
197.42400000000001
 31
0.0
  0
LINE
  5
1B7
  8
_________1
 62
     7
 10
90.330500000000015
 20
241.624
 30
0.0
 11
90.330500000000015
 21
198.244
 31
0.0
  0
ARC
  5
1B8
  8
_________1
 62
     7
 10
89.793324999999996
 20
241.586793
 30
0.0
 40
0.538396
 50
3.9247269999999999
 51
85.996288000000007
  0
ARC
  5
1B9
  8
_________1
 62
     7
 10
90.593281000000005
 20
242.38674900000001
 30
0.0
 40
0.538396
 50
3.9247269999999999
 51
85.996288000000007
  0
LINE
  5
1BA
  8
_________1
 62
     7
 10
31.630500000000001
 20
242.92400000000001
 30
0.0
 11
90.630499999999998
 21
242.92400000000001
 31
0.0
  0
LINE
  5
1BB
  8
_________1
 62
     7
 10
32.430399999999999
 20
242.124
 30
0.0
 11
89.830200000000005
 21
242.124
 31
0.0
  0
ARC
  5
1BC
  8
_________1
 62
     7
 10
32.468175000000009
 20
241.58627899999999
 30
0.0
 40
0.538919
 50
94.015175999999997
 51
176.02426700000001
  0
ARC
  5
1BD
  8
_________1
 62
     7
 10
31.630483000000002
 20
242.42359999999999
 30
0.0
 40
0.5002310000000002
 50
90.0
 51
179.99996999999999
  0
LINE
  5
1BE
  8
_________1
 62
     7
 10
31.930599999999998
 20
229.92400000000001
 30
0.0
 11
90.330500000000015
 21
229.92400000000001
 31
0.0
  0
LINE
  5
1BF
  8
_________1
 62
     7
 10
31.130299999999998
 20
149.58699999999999
 30
0.0
 11
31.130299999999998
 21
136.08600000000001
 31
0.0
  0
ARC
  5
1C0
  8
_________1
 62
     7
 10
31.667335000000001
 20
149.549252
 30
0.0
 40
0.5383720000000001
 50
93.925062999999994
 51
176.03543400000001
  0
LINE
  5
1C1
  8
_________1
 62
     7
 10
90.630499999999998
 20
150.08600000000001
 30
0.0
 11
31.630500000000001
 21
150.08600000000001
 31
0.0
  0
ARC
  5
1C2
  8
_________1
 62
     7
 10
90.593698000000003
 20
149.54967099999999
 30
0.0
 40
0.5379770000000002
 50
3.922787
 51
86.037701999999996
  0
LINE
  5
1C3
  8
_________1
 62
     7
 10
91.130399999999995
 20
136.08600000000001
 30
0.0
 11
91.130399999999995
 21
149.58699999999999
 31
0.0
  0
ARC
  5
1C4
  8
_________1
 62
     7
 10
122.79040000000001
 20
149.55246700000001
 30
0.0
 40
0.534469
 50
93.941470999999993
 51
176.01872399999999
  0
LINE
  5
1C5
  8
_________1
 62
     7
 10
124.05800000000001
 20
150.08600000000001
 30
0.0
 11
122.98399999999999
 21
150.08600000000001
 31
0.0
  0
LINE
  5
1C6
  8
_________1
 62
     7
 10
167.761
 20
150.08600000000001
 30
0.0
 11
124.05800000000001
 21
150.08600000000001
 31
0.0
  0
LINE
  5
1C7
  8
_________1
 62
     7
 10
168.25700000000001
 20
140.374
 30
0.0
 11
168.25700000000001
 21
138.24700000000001
 31
0.0
  0
LINE
  5
1C8
  8
_________1
 62
     7
 10
168.25700000000001
 20
138.24700000000001
 30
0.0
 11
168.25700000000001
 21
136.08699999999999
 31
0.0
  0
LINE
  5
1C9
  8
_________1
 62
     7
 10
122.25700000000001
 20
136.08699999999999
 30
0.0
 11
122.25700000000001
 21
149.59
 31
0.0
  0
LINE
  5
1CA
  8
_________1
 62
     7
 10
122.754
 20
150.08600000000001
 30
0.0
 11
122.98399999999999
 21
150.08600000000001
 31
0.0
  0
LINE
  5
1CB
  8
_________1
 62
     7
 10
168.25700000000001
 20
149.59
 30
0.0
 11
168.25700000000001
 21
140.374
 31
0.0
  0
LINE
  5
1CC
  8
_________1
 62
     7
 10
33.130499999999998
 20
240.92400000000001
 30
0.0
 11
33.130499999999998
 21
239.42400000000001
 31
0.0
  0
LINE
  5
1CD
  8
_________1
 62
     7
 10
38.130400000000002
 20
240.92400000000001
 30
0.0
 11
33.130499999999998
 21
240.92400000000001
 31
0.0
  0
LINE
  5
1CE
  8
_________1
 62
     7
 10
38.130400000000002
 20
239.42400000000001
 30
0.0
 11
38.130400000000002
 21
240.92400000000001
 31
0.0
  0
LINE
  5
1CF
  8
_________1
 62
     7
 10
33.130499999999998
 20
239.42400000000001
 30
0.0
 11
38.130400000000002
 21
239.42400000000001
 31
0.0
  0
LINE
  5
1D0
  8
_________1
  6
AIGENLINE003
 62
     7
 10
76.430599999999998
 20
244.523
 30
0.0
 11
76.430599999999998
 21
240.42400000000001
 31
0.0
  0
LINE
  5
1D1
  8
_________1
  6
AIGENLINE003
 62
     7
 10
45.83039999999999
 20
244.523
 30
0.0
 11
45.83039999999999
 21
240.42400000000001
 31
0.0
  0
LINE
  5
1D2
  8
_________1
  6
AIGENLINE003
 62
     7
 10
149.00800000000001
 20
216.923
 30
0.0
 11
138.50700000000001
 21
216.923
 31
0.0
  0
LINE
  5
1D3
  8
_________1
  6
AIGENLINE003
 62
     7
 10
143.75700000000001
 20
246.19
 30
0.0
 11
143.75700000000001
 21
206.14500000000001
 31
0.0
  0
LINE
  5
1D4
  8
_________1
  6
AIGENLINE003
 62
     7
 10
46.780900000000003
 20
236.42400000000001
 30
0.0
 11
74.814899999999994
 21
236.42400000000001
 31
0.0
  0
LINE
  5
1D5
  8
_________1
  6
AIGENLINE003
 62
     7
 10
61.130200000000002
 20
246.19399999999999
 30
0.0
 11
61.130200000000002
 21
193.976
 31
0.0
  0
LINE
  5
1D6
  8
_________1
  6
AIGENLINE003
 62
     7
 10
76.430599999999998
 20
146.58600000000001
 30
0.0
 11
76.430599999999998
 21
141.58600000000001
 31
0.0
  0
LINE
  5
1D7
  8
_________1
  6
AIGENLINE003
 62
     7
 10
45.83039999999999
 20
146.58600000000001
 30
0.0
 11
45.83039999999999
 21
141.58600000000001
 31
0.0
  0
LINE
  5
1D8
  8
_________1
  6
AIGENLINE003
 62
     7
 10
56.130299999999998
 20
216.923
 30
0.0
 11
66.130399999999995
 21
216.923
 31
0.0
  0
LINE
  5
1D9
  8
_________1
  6
AIGENLINE003
 62
     7
 10
43.330299999999987
 20
144.08699999999999
 30
0.0
 11
48.330199999999998
 21
144.08699999999999
 31
0.0
  0
LINE
  5
1DA
  8
_________1
  6
AIGENLINE003
 62
     7
 10
73.930099999999996
 20
144.08699999999999
 30
0.0
 11
78.930400000000006
 21
144.08699999999999
 31
0.0
  0
LINE
  5
1DB
  8
_________1
  6
AIGENLINE003
 62
     7
 10
153.065
 20
145.387
 30
0.0
 11
157.21199999999999
 21
145.387
 31
0.0
  0
LINE
  5
1DC
  8
_________1
  6
AIGENLINE003
 62
     7
 10
161.75700000000001
 20
151.999
 30
0.0
 11
161.75700000000001
 21
147.08600000000001
 31
0.0
  0
LINE
  5
1DD
  8
_________1
  6
AIGENLINE003
 62
     7
 10
142.25700000000001
 20
152.08600000000001
 30
0.0
 11
142.25700000000001
 21
133.358
 31
0.0
  0
LINE
  5
1DE
  8
_________1
  6
AIGENLINE003
 62
     7
 10
61.130200000000002
 20
152.452
 30
0.0
 11
61.130200000000002
 21
134.21000000000001
 31
0.0
  0
LINE
  5
1DF
  8
_________1
  6
AIGENLINE003
 62
     7
 10
56.130299999999998
 20
145.387
 30
0.0
 11
66.130399999999995
 21
145.387
 31
0.0
  0
ARC
  5
1E0
  8
_________1
  6
AIGENLINE002
 62
     7
 10
143.75742199999999
 20
216.923789
 30
0.0
 40
3.4999809999999991
 50
359.99860000000001
 51
89.998570000000001
  0
ARC
  5
1E1
  8
_________1
  6
AIGENLINE002
 62
     7
 10
143.75742299999999
 20
216.92361700000001
 30
0.0
 40
3.5001540000000002
 50
89.998589999999993
 51
179.99856
  0
ARC
  5
1E2
  8
_________1
  6
AIGENLINE002
 62
     7
 10
143.75742199999999
 20
216.923789
 30
0.0
 40
3.500151999999999
 50
180.00142
 51
270.00143000000003
  0
ARC
  5
1E3
  8
_________1
  6
AIGENLINE002
 62
     7
 10
143.75742199999999
 20
216.923618
 30
0.0
 40
3.4999809999999991
 50
270.00143000000003
 51
0.0014
  0
ARC
  5
1E4
  8
_________1
  6
AIGENLINE002
 62
     7
 10
143.757508
 20
216.92370299999999
 30
0.0
 40
2.2500059999999991
 50
0.00001
 51
89.999980000000008
  0
ARC
  5
1E5
  8
_________1
  6
AIGENLINE002
 62
     7
 10
143.757509
 20
216.92370299999999
 30
0.0
 40
2.2500059999999991
 50
90.0
 51
179.99996999999999
  0
ARC
  5
1E6
  8
_________1
  6
AIGENLINE002
 62
     7
 10
143.757508
 20
216.92370299999999
 30
0.0
 40
2.2500059999999991
 50
179.99996999999999
 51
270.00002000000001
  0
ARC
  5
1E7
  8
_________1
  6
AIGENLINE002
 62
     7
 10
143.757508
 20
216.92370399999999
 30
0.0
 40
2.2500059999999991
 50
270.00002000000001
 51
359.99999000000003
  0
ARC
  5
1E8
  8
_________1
  6
AIGENLINE002
 62
     7
 10
166.74606499999999
 20
149.60475600000001
 30
0.0
 40
0.5195610000000001
 50
272.1304970000001
 51
357.86951299999998
  0
LINE
  5
1E9
  8
_________1
  6
AIGENLINE002
 62
     7
 10
166.66900000000001
 20
149.08600000000001
 30
0.0
 11
166.76499999999999
 21
149.08600000000001
 31
0.0
  0
ARC
  5
1EA
  8
_________1
  6
AIGENLINE002
 62
     7
 10
167.78053600000001
 20
149.57073399999999
 30
0.0
 40
0.51564
 50
92.130865000000014
 51
177.82930300000001
  0
LINE
  5
1EB
  8
_________1
  6
AIGENLINE002
 62
     7
 10
46.430199999999992
 20
145.08600000000001
 30
0.0
 11
45.2303
 21
145.08600000000001
 31
0.0
  0
LINE
  5
1EC
  8
_________1
  6
AIGENLINE002
 62
     7
 10
45.2303
 20
143.08600000000001
 30
0.0
 11
46.430199999999992
 21
143.08600000000001
 31
0.0
  0
ARC
  5
1ED
  8
_________1
  6
AIGENLINE002
 62
     7
 10
45.268159999999988
 20
144.12409
 30
0.0
 40
1.038726
 50
182.11099300000001
 51
267.90877699999999
  0
ARC
  5
1EE
  8
_________1
  6
AIGENLINE002
 62
     7
 10
45.304798999999988
 20
144.01091400000001
 30
0.0
 40
1.077269
 50
93.967857999999993
 51
176.012372
  0
ARC
  5
1EF
  8
_________1
  6
AIGENLINE002
 62
     7
 10
46.355240000000002
 20
144.01087899999999
 30
0.0
 40
1.0773330000000001
 50
3.9892720000000002
 51
86.010718000000011
  0
ARC
  5
1F0
  8
_________1
  6
AIGENLINE002
 62
     7
 10
46.355694
 20
144.160324
 30
0.0
 40
1.0768489999999991
 50
273.96687300000002
 51
356.03313700000001
  0
LINE
  5
1F1
  8
_________1
  6
AIGENLINE002
 62
     7
 10
77.0304
 20
145.08600000000001
 30
0.0
 11
75.830500000000001
 21
145.08600000000001
 31
0.0
  0
LINE
  5
1F2
  8
_________1
  6
AIGENLINE002
 62
     7
 10
75.830500000000001
 20
143.08600000000001
 30
0.0
 11
77.0304
 21
143.08600000000001
 31
0.0
  0
ARC
  5
1F3
  8
_________1
  6
AIGENLINE002
 62
     7
 10
75.905080999999996
 20
144.16077799999999
 30
0.0
 40
1.0773330000000001
 50
183.98929200000001
 51
266.010738
  0
ARC
  5
1F4
  8
_________1
  6
AIGENLINE002
 62
     7
 10
75.904690999999985
 20
144.011269
 30
0.0
 40
1.076916999999999
 50
93.970012999999966
 51
176.02995799999999
  0
ARC
  5
1F5
  8
_________1
  6
AIGENLINE002
 62
     7
 10
76.955461
 20
144.01087899999999
 30
0.0
 40
1.0773330000000001
 50
3.9892720000000002
 51
86.010718000000011
  0
ARC
  5
1F6
  8
_________1
  6
AIGENLINE002
 62
     7
 10
76.955915000000005
 20
144.160324
 30
0.0
 40
1.0768489999999991
 50
273.96687300000002
 51
356.03313700000001
  0
ARC
  5
1F7
  8
_________1
  6
AIGENLINE002
 62
     7
 10
155.89771300000001
 20
148.44511399999999
 30
0.0
 40
0.6419540000000001
 50
93.934895999999995
 51
176.01540299999999
  0
ARC
  5
1F8
  8
_________1
  6
AIGENLINE002
 62
     7
 10
153.65533400000001
 20
142.187196
 30
0.0
 40
1.605858999999999
 50
273.99802
 51
356.01523600000002
  0
ARC
  5
1F9
  8
_________1
  6
AIGENLINE002
 62
     7
 10
126.647682
 20
142.10976500000001
 30
0.0
 40
1.5452019999999991
 50
194.819008
 51
238.86631299999999
  0
ARC
  5
1FA
  8
_________1
  6
AIGENLINE002
 62
     7
 10
126.567278
 20
141.96231900000001
 30
0.0
 40
1.3774420000000001
 50
238.55802299999999
 51
271.323893
  0
ARC
  5
1FB
  8
_________1
  6
AIGENLINE002
 62
     7
 10
122.96925
 20
149.4713909999999
 30
0.0
 40
0.6144539999999999
 50
15.313964
 51
88.643516000000005
  0
LINE
  5
1FC
  8
_________1
  6
AIGENLINE002
 62
     7
 10
164.48500000000001
 20
149.08600000000001
 30
0.0
 11
160.16399999999999
 21
149.08600000000001
 31
0.0
  0
LINE
  5
1FD
  8
_________1
  6
AIGENLINE002
 62
     7
 10
146.393
 20
140.58600000000001
 30
0.0
 11
138.28299999999999
 21
140.58600000000001
 31
0.0
  0
LINE
  5
1FE
  8
_________1
  6
AIGENLINE002
 62
     7
 10
155.25700000000001
 20
146.90700000000001
 30
0.0
 11
155.25700000000001
 21
144.631
 31
0.0
  0
LINE
  5
1FF
  8
_________1
  6
AIGENLINE002
 62
     7
 10
155.25700000000001
 20
146.90700000000001
 30
0.0
 11
155.25700000000001
 21
148.49000000000001
 31
0.0
  0
LINE
  5
200
  8
_________1
  6
AIGENLINE002
 62
     7
 10
155.8539999999999
 20
149.08600000000001
 30
0.0
 11
160.416
 21
149.08600000000001
 31
0.0
  0
LINE
  5
201
  8
_________1
  6
AIGENLINE002
 62
     7
 10
155.25700000000001
 20
142.07599999999999
 30
0.0
 11
155.25700000000001
 21
144.631
 31
0.0
  0
LINE
  5
202
  8
_________1
  6
AIGENLINE002
 62
     7
 10
153.767
 20
140.58500000000001
 30
0.0
 11
146.58500000000001
 21
140.58600000000001
 31
0.0
  0
LINE
  5
203
  8
_________1
  6
AIGENLINE002
 62
     7
 10
138.63800000000001
 20
140.58600000000001
 30
0.0
 11
126.599
 21
140.58600000000001
 31
0.0
  0
LINE
  5
204
  8
_________1
  6
AIGENLINE002
 62
     7
 10
123.562
 20
149.63399999999999
 30
0.0
 11
125.154
 21
141.715
 31
0.0
  0
LINE
  5
205
  8
_________1
  6
AIGENLINE002
 62
     7
 10
164.48500000000001
 20
149.08600000000001
 30
0.0
 11
166.86099999999999
 21
149.08600000000001
 31
0.0
  0
LINE
  5
206
  8
_________1
  6
AIGENLINE002
 62
     7
 10
145.607
 20
140.40700000000001
 30
0.0
 11
144.62299999999999
 21
139.23500000000001
 31
0.0
  0
ARC
  5
207
  8
_________1
  6
AIGENLINE002
 62
     7
 10
145.995947
 20
140.07119
 30
0.0
 40
0.5140940000000001
 50
90.707378000000006
 51
139.247379
  0
LINE
  5
208
  8
_________1
  6
AIGENLINE002
 62
     7
 10
144.506
 20
138.91399999999999
 30
0.0
 11
144.506
 21
135.58699999999999
 31
0.0
  0
ARC
  5
209
  8
_________1
  6
AIGENLINE002
 62
     7
 10
145.020894
 20
138.90849399999999
 30
0.0
 40
0.5147870000000001
 50
140.57085900000001
 51
179.42349400000001
  0
LINE
  5
20A
  8
_________1
  6
AIGENLINE002
 62
     7
 10
138.90600000000001
 20
140.40700000000001
 30
0.0
 11
139.88900000000001
 21
139.23500000000001
 31
0.0
  0
ARC
  5
20B
  8
_________1
  6
AIGENLINE002
 62
     7
 10
138.51662099999999
 20
140.07112599999999
 30
0.0
 40
0.5141580000000001
 50
40.755862999999998
 51
89.289341000000007
  0
LINE
  5
20C
  8
_________1
  6
AIGENLINE002
 62
     7
 10
140.006
 20
138.91399999999999
 30
0.0
 11
140.006
 21
135.58699999999999
 31
0.0
  0
ARC
  5
20D
  8
_________1
  6
AIGENLINE002
 62
     7
 10
139.49803299999999
 20
138.91134199999999
 30
0.0
 40
0.5080930000000001
 50
0.262905
 51
39.634332000000001
  0
LINE
  5
20E
  8
_________1
  6
AIGENLINE002
 62
     7
 10
139.976
 20
139.08500000000001
 30
0.0
 11
144.53700000000001
 21
139.08500000000001
 31
0.0
  0
ARC
  5
20F
  8
_________1
  6
AIGENLINE002
 62
     7
 10
61.168064999999999
 20
145.42427699999999
 30
0.0
 40
1.038726
 50
182.11099300000001
 51
267.90877699999999
  0
ARC
  5
210
  8
_________1
  6
AIGENLINE002
 62
     7
 10
61.168819999999997
 20
145.347714
 30
0.0
 40
1.039482
 50
92.131343000000001
 51
177.88836000000001
  0
ARC
  5
211
  8
_________1
  6
AIGENLINE002
 62
     7
 10
61.12998799999999
 20
145.386188
 30
0.0
 40
1.000289999999999
 50
359.99014299999999
 51
89.990113000000008
  0
ARC
  5
212
  8
_________1
  6
AIGENLINE002
 62
     7
 10
61.091544999999989
 20
145.42498900000001
 30
0.0
 40
1.0394639999999991
 50
272.12901799999997
 51
357.85125199999999
  0
LINE
  5
213
  8
_________1
 62
     7
 10
172.078
 20
242.92400000000001
 30
0.0
 11
167.75700000000001
 21
242.92400000000001
 31
0.0
  0
LINE
  5
214
  8
_________1
 62
     7
 10
119.756
 20
242.92400000000001
 30
0.0
 11
115.43600000000001
 21
242.92400000000001
 31
0.0
  0
LINE
  5
215
  8
_________1
 62
     7
 10
52.564599999999999
 20
89.232699999999994
 30
0.0
 11
49.764400000000002
 21
89.232699999999994
 31
0.0
  0
LINE
  5
216
  8
_________1
 62
     7
 10
49.764400000000002
 20
89.232699999999994
 30
0.0
 11
49.764400000000002
 21
91.832999999999998
 31
0.0
  0
LINE
  5
217
  8
_________1
 62
     7
 10
49.764400000000002
 20
91.832999999999998
 30
0.0
 11
52.564599999999999
 21
91.832999999999998
 31
0.0
  0
LINE
  5
218
  8
_________1
 62
     7
 10
52.564599999999999
 20
91.832999999999998
 30
0.0
 11
52.564599999999999
 21
89.232699999999994
 31
0.0
  0
LINE
  5
219
  8
_________1
 62
     7
 10
49.764400000000002
 20
86.732899999999987
 30
0.0
 11
49.1646
 21
86.732899999999987
 31
0.0
  0
LINE
  5
21A
  8
_________1
 62
     7
 10
49.1646
 20
86.732899999999987
 30
0.0
 11
49.1646
 21
94.332800000000006
 31
0.0
  0
LINE
  5
21B
  8
_________1
 62
     7
 10
49.1646
 20
94.332800000000006
 30
0.0
 11
49.764400000000002
 21
94.332800000000006
 31
0.0
  0
LINE
  5
21C
  8
_________1
 62
     7
 10
49.764400000000002
 20
94.332800000000006
 30
0.0
 11
49.764400000000002
 21
86.732899999999987
 31
0.0
  0
LINE
  5
21D
  8
_________1
 62
     7
 10
49.1646
 20
88.082700000000003
 30
0.0
 11
48.964399999999998
 21
88.082700000000003
 31
0.0
  0
LINE
  5
21E
  8
_________1
 62
     7
 10
48.964399999999998
 20
88.082700000000003
 30
0.0
 11
48.964399999999998
 21
92.98299999999999
 31
0.0
  0
LINE
  5
21F
  8
_________1
 62
     7
 10
48.964399999999998
 20
92.98299999999999
 30
0.0
 11
49.1646
 21
92.98299999999999
 31
0.0
  0
LINE
  5
220
  8
_________1
 62
     7
 10
49.1646
 20
92.98299999999999
 30
0.0
 11
49.1646
 21
88.082700000000003
 31
0.0
  0
LINE
  5
221
  8
_________1
 62
     7
 10
46.189399999999999
 20
87.532899999999984
 30
0.0
 11
45.789400000000001
 21
87.532899999999984
 31
0.0
  0
LINE
  5
222
  8
_________1
 62
     7
 10
45.789400000000001
 20
87.532899999999984
 30
0.0
 11
45.789400000000001
 21
93.532899999999984
 31
0.0
  0
LINE
  5
223
  8
_________1
 62
     7
 10
45.789400000000001
 20
93.532899999999984
 30
0.0
 11
46.189399999999999
 21
93.532899999999984
 31
0.0
  0
LINE
  5
224
  8
_________1
 62
     7
 10
46.189399999999999
 20
93.532899999999984
 30
0.0
 11
46.189399999999999
 21
87.532899999999984
 31
0.0
  0
INSERT
  5
225
  8
_________1
 62
     7
  2
AIGNBL02010015
 10
0.0
 20
0.0
 30
0.0
  0
LINE
  5
226
  8
_________1
 62
     7
 10
78.772599999999997
 20
91.434100000000015
 30
0.0
 11
79.973200000000006
 21
90.532899999999998
 31
0.0
  0
LINE
  5
227
  8
_________1
 62
     7
 10
78.772599999999997
 20
89.632999999999996
 30
0.0
 11
67.972899999999996
 21
89.634399999999999
 31
0.0
  0
LINE
  5
228
  8
_________1
 62
     7
 10
78.772599999999997
 20
91.434100000000015
 30
0.0
 11
67.972899999999996
 21
91.433400000000006
 31
0.0
  0
LINE
  5
229
  8
_________1
 62
     7
 10
56.173000000000002
 20
89.634399999999999
 30
0.0
 11
55.974200000000003
 21
89.832800000000006
 31
0.0
  0
LINE
  5
22A
  8
_________1
 62
     7
 10
64.973200000000006
 20
89.832800000000006
 30
0.0
 11
65.173999999999992
 21
89.634399999999999
 31
0.0
  0
LINE
  5
22B
  8
_________1
 62
     7
 10
64.973200000000006
 20
91.233599999999996
 30
0.0
 11
65.173999999999992
 21
91.433400000000006
 31
0.0
  0
LINE
  5
22C
  8
_________1
 62
     7
 10
55.974499999999999
 20
91.232900000000001
 30
0.0
 11
56.174399999999999
 21
91.432699999999997
 31
0.0
  0
LINE
  5
22D
  8
_________1
 62
     7
 10
55.974499999999999
 20
91.232900000000001
 30
0.0
 11
64.973200000000006
 21
91.233599999999996
 31
0.0
  0
LINE
  5
22E
  8
_________1
 62
     7
 10
55.974200000000003
 20
89.832800000000006
 30
0.0
 11
64.973200000000006
 21
89.832800000000006
 31
0.0
  0
LINE
  5
22F
  8
_________1
 62
     7
 10
56.173000000000002
 20
89.634399999999999
 30
0.0
 11
65.772800000000004
 21
89.633700000000005
 31
0.0
  0
LINE
  5
230
  8
_________1
 62
     7
 10
56.174399999999999
 20
91.432699999999997
 30
0.0
 11
65.772800000000004
 21
91.433400000000006
 31
0.0
  0
LINE
  5
231
  8
_________1
 62
     7
 10
67.972899999999996
 20
91.232900000000001
 30
0.0
 11
65.973699999999994
 21
91.233599999999996
 31
0.0
  0
LINE
  5
232
  8
_________1
 62
     7
 10
67.972899999999996
 20
89.832800000000006
 30
0.0
 11
65.973299999999995
 21
89.833499999999987
 31
0.0
  0
LINE
  5
233
  8
_________1
 62
     7
 10
65.772800000000004
 20
89.633700000000005
 30
0.0
 11
65.973299999999995
 21
89.833499999999987
 31
0.0
  0
LINE
  5
234
  8
_________1
 62
     7
 10
65.973699999999994
 20
91.233599999999996
 30
0.0
 11
65.772800000000004
 21
91.433400000000006
 31
0.0
  0
LINE
  5
235
  8
_________1
 62
     7
 10
79.973200000000006
 20
90.532899999999998
 30
0.0
 11
78.772599999999997
 21
89.632999999999996
 31
0.0
  0
LINE
  5
236
  8
_________1
 62
     7
 10
68.277699999999996
 20
91.833699999999993
 30
0.0
 11
69.301299999999998
 21
89.233999999999995
 31
0.0
  0
LINE
  5
237
  8
_________1
 62
     7
 10
69.165199999999999
 20
91.833699999999993
 30
0.0
 11
70.189099999999996
 21
89.233400000000003
 31
0.0
  0
LINE
  5
238
  8
_________1
 62
     7
 10
70.053700000000006
 20
91.833699999999993
 30
0.0
 11
71.0779
 21
89.233400000000003
 31
0.0
  0
LINE
  5
239
  8
_________1
 62
     7
 10
70.941500000000005
 20
91.833699999999993
 30
0.0
 11
71.965400000000002
 21
89.233999999999995
 31
0.0
  0
LINE
  5
23A
  8
_________1
 62
     7
 10
71.828999999999994
 20
91.832999999999998
 30
0.0
 11
72.853899999999996
 21
89.233400000000003
 31
0.0
  0
LINE
  5
23B
  8
_________1
 62
     7
 10
72.716099999999983
 20
91.833699999999993
 30
0.0
 11
73.740300000000005
 21
89.233400000000003
 31
0.0
  0
LINE
  5
23C
  8
_________1
 62
     7
 10
73.6036
 20
91.833699999999993
 30
0.0
 11
74.628799999999998
 21
89.233400000000003
 31
0.0
  0
LINE
  5
23D
  8
_________1
 62
     7
 10
74.491399999999985
 20
91.832999999999998
 30
0.0
 11
75.515600000000006
 21
89.233400000000003
 31
0.0
  0
LINE
  5
23E
  8
_________1
 62
     7
 10
75.379900000000006
 20
91.833699999999993
 30
0.0
 11
76.403700000000001
 21
89.233400000000003
 31
0.0
  0
LINE
  5
23F
  8
_________1
 62
     7
 10
76.268000000000001
 20
91.832999999999998
 30
0.0
 11
77.291200000000003
 21
89.233400000000003
 31
0.0
  0
LINE
  5
240
  8
_________1
 62
     7
 10
77.155500000000004
 20
91.833699999999993
 30
0.0
 11
78.177999999999997
 21
89.233999999999995
 31
0.0
  0
LINE
  5
241
  8
_________1
 62
     7
 10
78.042199999999994
 20
91.834400000000002
 30
0.0
 11
79.066500000000005
 21
89.233999999999995
 31
0.0
  0
LINE
  5
242
  8
_________1
 62
     7
 10
67.972899999999996
 20
91.432699999999997
 30
0.0
 11
67.972899999999996
 21
89.634399999999999
 31
0.0
  0
LINE
  5
243
  8
_________1
 62
     7
 10
64.974900000000005
 20
91.432699999999997
 30
0.0
 11
64.973500000000001
 21
89.634399999999999
 31
0.0
  0
LINE
  5
244
  8
_________1
 62
     7
 10
56.174399999999999
 20
91.432699999999997
 30
0.0
 11
56.173000000000002
 21
89.634399999999999
 31
0.0
  0
LINE
  5
245
  8
_________1
 62
     7
 10
79.973200000000006
 20
97.376199999999983
 30
0.0
 11
79.972899999999996
 21
91.833699999999993
 31
0.0
  0
LINE
  5
246
  8
_________1
 62
     7
 10
67.972899999999996
 20
97.375600000000006
 30
0.0
 11
67.974599999999995
 21
91.833699999999993
 31
0.0
  0
LINE
  5
247
  8
_________1
 62
     7
 10
64.974900000000005
 20
97.376199999999983
 30
0.0
 11
64.973500000000001
 21
91.833699999999993
 31
0.0
  0
LINE
  5
248
  8
_________1
 62
     7
 10
55.974200000000003
 20
97.375600000000006
 30
0.0
 11
55.974200000000003
 21
91.835099999999997
 31
0.0
  0
LINE
  5
249
  8
_________1
 62
     7
 10
55.974499999999999
 20
91.232900000000001
 30
0.0
 11
55.974200000000003
 21
89.832800000000006
 31
0.0
  0
LINE
  5
24A
  8
_________1
 62
     7
 10
42.319099999999999
 20
89.033500000000004
 30
0.0
 11
42.204799999999999
 21
89.533800000000014
 31
0.0
  0
ARC
  5
24B
  8
_________1
 62
     7
 10
36.061864
 20
90.545214999999985
 30
0.0
 40
6.2586579999999996
 50
355.43444199999999
 51
359.886886
  0
ARC
  5
24C
  8
_________1
 62
     7
 10
39.352355000000003
 20
90.289730999999989
 30
0.0
 40
2.9582799999999989
 50
347.53720299999998
 51
355.29403200000002
  0
ARC
  5
24D
  8
_________1
 62
     7
 10
41.448439
 20
89.830866999999984
 30
0.0
 40
0.812574
 50
338.554303
 51
347.23434300000002
  0
ARC
  5
24E
  8
_________1
 62
     7
 10
41.444628999999992
 20
89.035360999999995
 30
0.0
 40
0.8745049999999999
 50
347.30358000000001
 51
359.88092499999999
  0
ARC
  5
24F
  8
_________1
 62
     7
 10
40.598914999999998
 20
89.192770999999993
 30
0.0
 40
1.7344369999999989
 50
337.677638
 51
348.37113699999998
  0
ARC
  5
250
  8
_________1
 62
     7
 10
41.439199000000002
 20
92.039214999999984
 30
0.0
 40
0.881333
 50
347.14079099999998
 51
359.5870220000001
  0
ARC
  5
251
  8
_________1
 62
     7
 10
40.567041000000003
 20
92.204924000000005
 30
0.0
 40
1.7687959999999989
 50
337.68521399999997
 51
348.19527399999998
  0
ARC
  5
252
  8
_________1
 62
     7
 10
36.104562000000001
 20
90.522654000000017
 30
0.0
 40
6.2159559999999994
 50
0.094064
 51
4.5900910000000001
  0
ARC
  5
253
  8
_________1
 62
     7
 10
39.401479999999999
 20
90.779719999999998
 30
0.0
 40
2.9090489999999991
 50
4.7397539999999996
 51
12.635490000000001
  0
ARC
  5
254
  8
_________1
 62
     7
 10
41.455203999999988
 20
91.234764999999996
 30
0.0
 40
0.805541
 50
13.007019
 51
21.754338000000001
  0
LINE
  5
255
  8
_________1
 62
     7
 10
42.320500000000003
 20
92.032899999999998
 30
0.0
 11
42.204799999999999
 21
92.532399999999996
 31
0.0
  0
ARC
  5
256
  8
_________1
 62
     7
 10
41.618226999999997
 20
89.03349
 30
0.0
 40
0.8731700000000001
 50
167.40243699999999
 51
179.99644799999999
  0
ARC
  5
257
  8
_________1
 62
     7
 10
42.448728000000003
 20
88.879174000000006
 30
0.0
 40
1.7176049999999989
 50
157.62225100000001
 51
168.421008
  0
ARC
  5
258
  8
_________1
 62
     7
 10
46.884696999999989
 20
90.524782000000016
 30
0.0
 40
6.139645999999999
 50
179.91817499999999
 51
184.46414200000001
  0
ARC
  5
259
  8
_________1
 62
     7
 10
43.672221999999991
 20
90.283897999999994
 30
0.0
 40
2.9181840000000001
 50
184.65831700000001
 51
192.426321
  0
ARC
  5
25A
  8
_________1
 62
     7
 10
41.631433999999999
 20
89.839288999999994
 30
0.0
 40
0.8295469999999999
 50
192.768271
 51
201.66146000000001
  0
LINE
  5
25B
  8
_________1
 62
     7
 10
40.745100000000001
 20
89.033500000000004
 30
0.0
 11
40.860500000000002
 21
88.533999999999978
 31
0.0
  0
ARC
  5
25C
  8
_________1
 62
     7
 10
41.62598599999999
 20
92.036303999999987
 30
0.0
 40
0.8812780000000001
 50
180.1789709999999
 51
192.64807300000001
  0
ARC
  5
25D
  8
_________1
 62
     7
 10
42.481196999999987
 20
92.196072000000001
 30
0.0
 40
1.750999
 50
191.62160700000001
 51
202.24073899999999
  0
ARC
  5
25E
  8
_________1
 62
     7
 10
46.934051999999987
 20
90.536632999999995
 30
0.0
 40
6.1889949999999994
 50
175.51977299999999
 51
180.028581
  0
ARC
  5
25F
  8
_________1
 62
     7
 10
43.689258999999993
 20
90.780743000000001
 30
0.0
 40
2.9350659999999991
 50
167.60659100000001
 51
175.32257300000001
  0
ARC
  5
260
  8
_________1
 62
     7
 10
41.632882000000002
 20
91.227581999999984
 30
0.0
 40
0.8307219999999999
 50
158.40523400000001
 51
167.267382
  0
ARC
  5
261
  8
_________1
 62
     7
 10
41.614065999999987
 20
92.035270999999995
 30
0.0
 40
0.8693549999999998
 50
167.43765500000001
 51
180.11336
  0
ARC
  5
262
  8
_________1
 62
     7
 10
42.439647999999991
 20
91.883458999999988
 30
0.0
 40
1.7084799999999991
 50
157.62637100000001
 51
168.490329
  0
LINE
  5
263
  8
_________1
  6
AIGENLINE003
 62
     7
 10
37.100499999999997
 20
90.532899999999998
 30
0.0
 11
84.211100000000002
 21
90.533500000000004
 31
0.0
  0
LINE
  5
264
  8
_________1
 62
     7
 10
40.8598
 20
92.533799999999985
 30
0.0
 11
42.204799999999999
 21
92.532399999999996
 31
0.0
  0
LINE
  5
265
  8
_________1
 62
     7
 10
40.860500000000002
 20
91.533299999999997
 30
0.0
 11
42.203400000000002
 21
91.533299999999997
 31
0.0
  0
LINE
  5
266
  8
_________1
 62
     7
 10
40.860500000000002
 20
88.533999999999978
 30
0.0
 11
42.203400000000002
 21
88.533999999999978
 31
0.0
  0
LINE
  5
267
  8
_________1
 62
     7
 10
40.8598
 20
89.533100000000005
 30
0.0
 11
42.204799999999999
 21
89.531700000000001
 31
0.0
  0
LINE
  5
268
  8
_________1
 62
     7
 10
42.3322
 20
88.860600000000005
 30
0.0
 11
42.332900000000002
 21
90.532899999999998
 31
0.0
  0
LINE
  5
269
  8
_________1
 62
     7
 10
42.332900000000002
 20
90.532899999999998
 30
0.0
 11
42.3322
 21
92.205799999999996
 31
0.0
  0
LINE
  5
26A
  8
_________1
 62
     7
 10
42.203400000000002
 20
88.533999999999978
 30
0.0
 11
42.3322
 21
88.860600000000005
 31
0.0
  0
LINE
  5
26B
  8
_________1
 62
     7
 10
40.732999999999997
 20
88.859899999999996
 30
0.0
 11
40.7316
 21
92.205799999999996
 31
0.0
  0
LINE
  5
26C
  8
_________1
 62
     7
 10
40.7316
 20
92.205799999999996
 30
0.0
 11
40.8598
 21
92.533799999999985
 31
0.0
  0
LINE
  5
26D
  8
_________1
 62
     7
 10
40.732999999999997
 20
88.859899999999996
 30
0.0
 11
40.860500000000002
 21
88.533999999999978
 31
0.0
  0
LINE
  5
26E
  8
_________1
 62
     7
 10
42.203400000000002
 20
88.533999999999978
 30
0.0
 11
42.3322
 21
88.860600000000005
 31
0.0
  0
LINE
  5
26F
  8
_________1
 62
     7
 10
42.204799999999999
 20
92.532399999999996
 30
0.0
 11
42.3322
 21
92.205799999999996
 31
0.0
  0
LINE
  5
270
  8
_________1
 62
     7
 10
132.53
 20
224.24199999999999
 30
0.0
 11
140.965
 21
224.24199999999999
 31
0.0
  0
LINE
  5
271
  8
_________1
 62
     7
 10
142.46199999999999
 20
221.066
 30
0.0
 11
142.483
 21
218.77699999999999
 31
0.0
  0
LINE
  5
272
  8
_________1
 62
     7
 10
142.483
 20
218.77699999999999
 30
0.0
 11
141.321
 21
220.749
 31
0.0
  0
LINE
  5
273
  8
_________1
 62
     7
 10
141.321
 20
220.749
 30
0.0
 11
142.46199999999999
 21
221.066
 31
0.0
  0
LINE
  5
274
  8
_________1
 62
     7
 10
142.483
 20
218.77699999999999
 30
0.0
 11
140.965
 21
224.24199999999999
 31
0.0
  0
TEXT
  5
275
  8
_________2
 62
     7
 10
26.512799999999999
 20
61.314100000000003
 30
0.0
 40
3.9357000000000002
  1
※壁取付部には厚さ30mm以上の補強木を入れてください。
 41
0.5
  0
TEXT
  5
276
  8
_________2
 62
     7
 10
29.525700000000001
 20
22.2272
 30
0.0
 40
3.9357000000000002
  1
実容量：6.8L、重量：17.0kg、オーバーフロー付
 41
0.5
  0
LINE
  5
277
  8
_________2
 62
     7
 10
105.239
 20
17.4285
 30
0.0
 11
105.239
 21
0.4485540000000001
 31
0.0
  0
INSERT
  5
278
  8
_________2
 62
     7
  2
AIGNBL03010002
 10
0.0
 20
0.0
 30
0.0
  0
TEXT
  5
279
  8
_________2
 62
     7
 10
109.544
 20
23.199100000000001
 30
0.0
 40
3.0923400000000001
  1
図番
 41
0.5
  0
LINE
  5
27A
  8
_________2
 62
     7
 10
108.489
 20
27.4283
 30
0.0
 11
188.49000000000001
 21
27.4283
 31
0.0
  0
TEXT
  5
27B
  8
_________2
 62
     7
 10
109.544
 20
33.198900000000002
 30
0.0
 40
3.0923400000000001
  1
品番
 41
0.5
  0
TEXT
  5
27C
  8
_________2
 62
     7
 10
109.544
 20
53.338000000000001
 30
0.0
 40
3.0923400000000001
  1
名称
 41
0.5
  0
TEXT
  5
27D
  8
_________2
 62
     7
 10
96.784058333333334
 20
48.341900000000003
 30
0.0
 40
3.6545800000000002
  1
mm
 41
0.5
 72
     1
 11
98.306799999999996
 21
48.341900000000003
 31
0.0
  0
TEXT
  5
27E
  8
_________2
 62
     7
 10
90.582099999999997
 20
53.338000000000001
 30
0.0
 40
3.0923400000000001
  1
単位
 41
0.5
  0
TEXT
  5
27F
  8
_________2
 62
     7
 10
90.582099999999997
 20
40.930399999999999
 30
0.0
 40
3.0923400000000001
  1
尺度
 41
0.5
  0
TEXT
  5
280
  8
_________2
 62
     7
 10
95.030836166666674
 20
34.7378
 30
0.0
 40
3.6545800000000002
  1
1 ： 10
 41
0.5
 72
     1
 11
98.898600000000002
 21
34.7378
 31
0.0
  0
TEXT
  5
281
  8
_________2
 62
     7
 10
143.40538749999999
 20
30.627800000000001
 30
0.0
 40
3.9357000000000002
  1
SB5105
 41
0.5
 72
     1
 11
148.489
 21
30.627800000000001
 31
0.0
  0
TEXT
  5
282
  8
_________2
 62
     7
 10
143.40538749999999
 20
20.626999999999999
 30
0.0
 40
3.9357000000000002
  1
SB5105
 41
0.5
 72
     1
 11
148.489
 21
20.626999999999999
 31
0.0
  0
TEXT
  5
283
  8
_________2
 62
     7
 10
114.11799999999999
 20
45.745600000000003
 30
0.0
 40
3.9357000000000002
  1
TR2 洗面器
 41
0.5
  0
TEXT
  5
284
  8
_________2
 62
     7
 10
44.303290666666669
 20
35.123000000000012
 30
0.0
 40
3.6545800000000002
  1
篠崎
 41
0.5
 72
     1
 11
46.252400000000002
 21
35.123000000000012
 31
0.0
  0
TEXT
  5
285
  8
_________2
 62
     7
 10
25.729290666666671
 20
35.123000000000012
 30
0.0
 40
3.6545800000000002
  1
飯塚
 41
0.5
 72
     1
 11
27.6784
 21
35.123000000000012
 31
0.0
  0
TEXT
  5
286
  8
_________2
 62
     7
 10
72.724699999999999
 20
34.7378
 30
0.0
 40
3.6545800000000002
  1
17.11.14
 41
0.5
  0
TEXT
  5
287
  8
_________2
 62
     7
 10
71.531999999999996
 20
40.930399999999999
 30
0.0
 40
3.0923400000000001
  1
日付
 41
0.5
  0
TEXT
  5
288
  8
_________2
 62
     7
 10
34.578299999999999
 20
40.930399999999999
 30
0.0
 40
3.0923400000000001
  1
検図
 41
0.5
  0
TEXT
  5
289
  8
_________2
 62
     7
 10
22.9602
 20
26.731000000000002
 30
0.0
 40
3.0923400000000001
  1
備考
 41
0.5
  0
TEXT
  5
28A
  8
_________2
 62
     7
 10
22.9602
 20
40.930399999999999
 30
0.0
 40
3.0923400000000001
  1
製図
 41
0.5
  0
TEXT
  5
28B
  8
_________2
 62
     7
 10
28.727365333333339
 20
49.456400000000002
 30
0.0
 40
4.4979399999999989
  1
セラトレーディング株式会社
 41
0.5
 72
     1
 11
46.119399999999992
 21
49.456400000000002
 31
0.0
  0
LINE
  5
28C
  8
_________2
 62
     7
 10
188.49000000000001
 20
17.4285
 30
0.0
 11
21.988499999999998
 21
17.4285
 31
0.0
  0
LINE
  5
28D
  8
_________2
 62
     7
 10
21.988499999999998
 20
17.4285
 30
0.0
 11
21.988499999999998
 21
280.43000000000001
 31
0.0
  0
LINE
  5
28E
  8
_________2
 62
     7
 10
21.988499999999998
 20
280.43000000000001
 30
0.0
 11
188.49000000000001
 21
280.43000000000001
 31
0.0
  0
LINE
  5
28F
  8
_________2
 62
     7
 10
188.49000000000001
 20
280.43000000000001
 30
0.0
 11
188.49000000000001
 21
17.4285
 31
0.0
  0
LINE
  5
290
  8
_________2
 62
     7
 10
70.488799999999998
 20
30.928899999999999
 30
0.0
 11
70.488799999999998
 21
57.428699999999992
 31
0.0
  0
LINE
  5
291
  8
_________2
 62
     7
 10
89.488600000000005
 20
30.928899999999999
 30
0.0
 11
89.488600000000005
 21
57.428699999999992
 31
0.0
  0
LINE
  5
292
  8
_________2
 62
     7
 10
108.489
 20
17.4285
 30
0.0
 11
108.489
 21
57.428699999999992
 31
0.0
  0
LINE
  5
293
  8
_________2
 62
     7
 10
33.488300000000002
 20
30.928899999999999
 30
0.0
 11
33.488300000000002
 21
44.928800000000003
 31
0.0
  0
LINE
  5
294
  8
_________2
 62
     7
 10
21.988499999999998
 20
30.928899999999999
 30
0.0
 11
108.489
 21
30.928899999999999
 31
0.0
  0
LINE
  5
295
  8
_________2
 62
     7
 10
21.988499999999998
 20
44.928800000000003
 30
0.0
 11
108.489
 21
44.928800000000003
 31
0.0
  0
LINE
  5
296
  8
_________2
 62
     7
 10
108.489
 20
37.428100000000001
 30
0.0
 11
188.49000000000001
 21
37.428100000000001
 31
0.0
  0
LINE
  5
297
  8
_________2
 62
     7
 10
21.988499999999998
 20
57.428699999999992
 30
0.0
 11
188.49000000000001
 21
57.428699999999992
 31
0.0
  0
LINE
  5
298
  8
_________2
 62
     7
 10
210.24000000000001
 20
148.93100000000001
 30
0.0
 11
188.489
 21
148.93100000000001
 31
0.0
  0
LINE
  5
299
  8
_________2
 62
     7
 10
105.239
 20
297.45100000000002
 30
0.0
 11
105.239
 21
280.43000000000001
 31
0.0
  0
LINE
  5
29A
  8
_________2
 62
     7
 10
21.988499999999998
 20
148.93100000000001
 30
0.0
 11
0.238402
 21
148.93100000000001
 31
0.0
  0
ENDSEC
  0
EOF
