  0
SECTION
  2
HEADER
  9
$ACADVER
  1
AC1009
  9
$INSBASE
 10
0.0
 20
0.0
 30
0.0
  9
$EXTMIN
 10
0.238402
 20
0.4485540000000001
 30
0.0
  9
$EXTMAX
 10
210.24000000000001
 20
297.45100000000002
 30
0.0
  9
$LIMMIN
 10
0.0
 20
0.0
  9
$LIMMAX
 10
12.0
 20
9.0
  9
$ORTHOMODE
 70
     0
  9
$REGENMODE
 70
     1
  9
$FILLMODE
 70
     1
  9
$QTEXTMODE
 70
     0
  9
$MIRRTEXT
 70
     1
  9
$DRAGMODE
 70
     2
  9
$LTSCALE
 40
1.0
  9
$OSMODE
 70
    37
  9
$ATTMODE
 70
     1
  9
$TEXTSIZE
 40
0.0
  9
$TRACEWID
 40
0.05
  9
$TEXTSTYLE
  7
STANDARD
  9
$CLAYER
  8
0
  9
$CELTYPE
  6
CONTINUOUS
  9
$CECOLOR
 62
   256
  9
$DIMSCALE
 40
1.0
  9
$DIMASZ
 40
0.18
  9
$DIMEXO
 40
0.0625
  9
$DIMDLI
 40
0.38
  9
$DIMRND
 40
0.0
  9
$DIMDLE
 40
0.0
  9
$DIMEXE
 40
0.18
  9
$DIMTP
 40
0.0
  9
$DIMTM
 40
0.0
  9
$DIMTXT
 40
0.18
  9
$DIMCEN
 40
0.09
  9
$DIMTSZ
 40
0.0
  9
$DIMTOL
 70
     0
  9
$DIMLIM
 70
     0
  9
$DIMTIH
 70
     1
  9
$DIMTOH
 70
     1
  9
$DIMSE1
 70
     0
  9
$DIMSE2
 70
     0
  9
$DIMTAD
 70
     0
  9
$DIMZIN
 70
     0
  9
$DIMBLK
  1

  9
$DIMASO
 70
     1
  9
$DIMSHO
 70
     1
  9
$DIMPOST
  1

  9
$DIMAPOST
  1

  9
$DIMALT
 70
     0
  9
$DIMALTD
 70
     2
  9
$DIMALTF
 40
25.399999999999999
  9
$DIMLFAC
 40
1.0
  9
$DIMTOFL
 70
     0
  9
$DIMTVP
 40
0.0
  9
$DIMTIX
 70
     0
  9
$DIMSOXD
 70
     0
  9
$DIMSAH
 70
     0
  9
$DIMBLK1
  1

  9
$DIMBLK2
  1

  9
$DIMSTYLE
  2
STANDARD
  9
$DIMCLRD
 70
     0
  9
$DIMCLRE
 70
     0
  9
$DIMCLRT
 70
     0
  9
$DIMTFAC
 40
1.0
  9
$DIMGAP
 40
0.09
  9
$LUNITS
 70
     2
  9
$LUPREC
 70
     4
  9
$SKETCHINC
 40
0.1
  9
$FILLETRAD
 40
0.0
  9
$AUNITS
 70
     0
  9
$AUPREC
 70
     0
  9
$MENU
  1
.
  9
$ELEVATION
 40
0.0
  9
$PELEVATION
 40
0.0
  9
$THICKNESS
 40
0.0
  9
$LIMCHECK
 70
     0
  9
$BLIPMODE
 70
     0
  9
$CHAMFERA
 40
0.0
  9
$CHAMFERB
 40
0.0
  9
$SKPOLY
 70
     0
  9
$TDCREATE
 40
2444972.375
  9
$TDUPDATE
 40
2458038.2491475241
  9
$TDINDWG
 40
0.0000294792
  9
$TDUSRTIMER
 40
0.0000294792
  9
$USRTIMER
 70
     1
  9
$ANGBASE
 50
0.0
  9
$ANGDIR
 70
     0
  9
$PDMODE
 70
     0
  9
$PDSIZE
 40
0.0
  9
$PLINEWID
 40
0.0
  9
$COORDS
 70
     1
  9
$SPLFRAME
 70
     0
  9
$SPLINETYPE
 70
     6
  9
$SPLINESEGS
 70
     8
  9
$ATTDIA
 70
     1
  9
$ATTREQ
 70
     1
  9
$HANDLING
 70
     1
  9
$HANDSEED
  5
399
  9
$SURFTAB1
 70
     6
  9
$SURFTAB2
 70
     6
  9
$SURFTYPE
 70
     6
  9
$SURFU
 70
     6
  9
$SURFV
 70
     6
  9
$UCSNAME
  2

  9
$UCSORG
 10
0.0
 20
0.0
 30
0.0
  9
$UCSXDIR
 10
1.0
 20
0.0
 30
0.0
  9
$UCSYDIR
 10
0.0
 20
1.0
 30
0.0
  9
$PUCSNAME
  2

  9
$PUCSORG
 10
0.0
 20
0.0
 30
0.0
  9
$PUCSXDIR
 10
1.0
 20
0.0
 30
0.0
  9
$PUCSYDIR
 10
0.0
 20
1.0
 30
0.0
  9
$USERI1
 70
     0
  9
$USERI2
 70
     0
  9
$USERI3
 70
     0
  9
$USERI4
 70
     0
  9
$USERI5
 70
     0
  9
$USERR1
 40
0.0
  9
$USERR2
 40
0.0
  9
$USERR3
 40
0.0
  9
$USERR4
 40
0.0
  9
$USERR5
 40
0.0
  9
$WORLDVIEW
 70
     1
  9
$SHADEDGE
 70
     3
  9
$SHADEDIF
 70
    70
  9
$TILEMODE
 70
     1
  9
$MAXACTVP
 70
    48
  9
$PLIMCHECK
 70
     0
  9
$PEXTMIN
 10
1.0000000000000000E+020
 20
1.0000000000000000E+020
 30
1.0000000000000000E+020
  9
$PEXTMAX
 10
-1.0000000000000000E+020
 20
-1.0000000000000000E+020
 30
-1.0000000000000000E+020
  9
$PLIMMIN
 10
0.0
 20
0.0
  9
$PLIMMAX
 10
12.0
 20
9.0
  9
$UNITMODE
 70
     0
  9
$VISRETAIN
 70
     1
  9
$PLINEGEN
 70
     0
  9
$PSLTSCALE
 70
     1
  0
ENDSEC
  0
SECTION
  2
TABLES
  0
TABLE
  2
VPORT
 70
     1
  0
VPORT
  2
*ACTIVE
 70
     0
 10
0.0
 20
0.0
 11
1.0
 21
1.0
 12
195.83847240083131
 22
148.72550000000001
 13
0.0
 23
0.0
 14
1.0
 24
1.0
 15
0.0
 25
0.0
 16
0.0
 26
0.0
 36
1.0
 17
0.0
 27
0.0
 37
0.0
 40
281.37364046443349
 41
2.298642533936651
 42
50.0
 43
0.0
 44
0.0
 50
0.0
 51
0.0
 71
     0
 72
   100
 73
     1
 74
     1
 75
     0
 76
     0
 77
     0
 78
     0
  0
ENDTAB
  0
TABLE
  2
LTYPE
 70
     4
  0
LTYPE
  2
CONTINUOUS
 70
     0
  3
Solid line
 72
    65
 73
     0
 40
0.0
  0
LTYPE
  2
AIGENLINE001
 70
     0
  3
generate AI->DXF Converter
 72
    65
 73
     2
 40
1.5522299999999991
 49
0.776115
 49
-0.776115
  0
LTYPE
  2
AIGENLINE002
 70
     0
  3
generate AI->DXF Converter
 72
    65
 73
     4
 40
5.8561449999999988
 49
3.5278
 49
-0.776115
 49
0.776115
 49
-0.776115
  0
LTYPE
  2
AIGENLINE003
 70
     0
  3
generate AI->DXF Converter
 72
    65
 73
     6
 40
7.4083750000000004
 49
3.5278
 49
-0.776115
 49
0.776115
 49
-0.776115
 49
0.776115
 49
-0.776115
  0
ENDTAB
  0
TABLE
  2
LAYER
 70
     4
  0
LAYER
  2
0
 70
     0
 62
     7
  6
CONTINUOUS
  0
LAYER
  2
____
 70
     0
 62
     7
  6
CONTINUOUS
  0
LAYER
  2
_________1
 70
     0
 62
     7
  6
CONTINUOUS
  0
LAYER
  2
_________2
 70
     0
 62
     7
  6
CONTINUOUS
  0
ENDTAB
  0
TABLE
  2
STYLE
 70
     1
  0
STYLE
  2
STANDARD
 70
     0
 40
0.0
 41
0.0
 50
0.0
 71
     0
 42
0.0
  3
TXT
  4
EXTFONT.SHX
  0
ENDTAB
  0
TABLE
  2
VIEW
 70
     0
  0
ENDTAB
  0
TABLE
  2
UCS
 70
     0
  0
ENDTAB
  0
TABLE
  2
APPID
 70
     3
  0
APPID
  2
ACAD
 70
     0
  0
APPID
  2
ACAD_NAV_VCDISPLAY
 70
     0
  0
APPID
  2
ACAD_MLEADERVER
 70
     0
  0
ENDTAB
  0
TABLE
  2
DIMSTYLE
 70
     1
  0
DIMSTYLE
  2
STANDARD
 70
     0
  3

  4

  5

  6

  7

 40
1.0
 41
0.18
 42
0.0625
 43
0.38
 44
0.18
 45
0.0
 46
0.0
 47
0.0
 48
0.0
140
0.18
141
0.09
142
0.0
143
25.399999999999999
144
1.0
145
0.0
146
1.0
147
0.09
 71
     0
 72
     0
 73
     1
 74
     1
 75
     0
 76
     0
 77
     0
 78
     0
170
     0
171
     2
172
     0
173
     0
174
     0
175
     0
176
     0
177
     0
178
     0
  0
ENDTAB
  0
ENDSEC
  0
SECTION
  2
BLOCKS
  0
BLOCK
  8
0
  2
$MODEL_SPACE
 70
     0
 10
0.0
 20
0.0
 30
0.0
  3
$MODEL_SPACE
  1

  0
ENDBLK
  5
1A
  8
0
  0
BLOCK
 67
     1
  8
0
  2
$PAPER_SPACE
 70
     0
 10
0.0
 20
0.0
 30
0.0
  3
$PAPER_SPACE
  1

  0
ENDBLK
  5
17
 67
     1
  8
0
  0
BLOCK
  8
_________1
  2
AIGNBL0203000C
 70
     0
 10
0.0
 20
0.0
 30
0.0
  3
AIGNBL0203000C
  1

  0
LINE
  5
28
  8
_________1
 62
     7
 10
171.18299999999999
 20
210.648
 30
0.0
 11
170.59200000000001
 21
212.858
 31
0.0
  0
LINE
  5
29
  8
_________1
 62
     7
 10
170.59200000000001
 20
212.858
 30
0.0
 11
169.999
 21
210.648
 31
0.0
  0
LINE
  5
2A
  8
_________1
 62
     7
 10
169.999
 20
210.648
 30
0.0
 11
171.18299999999999
 21
210.648
 31
0.0
  0
LINE
  5
2B
  8
_________1
 62
     7
 10
171.18299999999999
 20
225.64699999999999
 30
0.0
 11
170.59200000000001
 21
227.857
 31
0.0
  0
LINE
  5
2C
  8
_________1
 62
     7
 10
170.59200000000001
 20
227.857
 30
0.0
 11
169.999
 21
225.64699999999999
 31
0.0
  0
LINE
  5
2D
  8
_________1
 62
     7
 10
169.999
 20
225.64699999999999
 30
0.0
 11
171.18299999999999
 21
225.64699999999999
 31
0.0
  0
LINE
  5
2E
  8
_________1
 62
     7
 10
170.01300000000001
 20
218.06700000000001
 30
0.0
 11
170.60499999999999
 21
215.857
 31
0.0
  0
LINE
  5
2F
  8
_________1
 62
     7
 10
170.60499999999999
 20
215.857
 30
0.0
 11
171.19800000000001
 21
218.06700000000001
 31
0.0
  0
LINE
  5
30
  8
_________1
 62
     7
 10
171.19800000000001
 20
218.06700000000001
 30
0.0
 11
170.01300000000001
 21
218.06700000000001
 31
0.0
  0
LINE
  5
31
  8
_________1
 62
     7
 10
170.01300000000001
 20
206.06899999999999
 30
0.0
 11
170.60499999999999
 21
203.858
 31
0.0
  0
LINE
  5
32
  8
_________1
 62
     7
 10
170.60499999999999
 20
203.858
 30
0.0
 11
171.19800000000001
 21
206.06899999999999
 31
0.0
  0
LINE
  5
33
  8
_________1
 62
     7
 10
171.19800000000001
 20
206.06899999999999
 30
0.0
 11
170.01300000000001
 21
206.06899999999999
 31
0.0
  0
LINE
  5
34
  8
_________1
 62
     7
 10
170.59800000000001
 20
227.857
 30
0.0
 11
170.59800000000001
 21
203.858
 31
0.0
  0
ENDBLK
  5
35
  8
_________1
  0
BLOCK
  8
____
  2
AIGNBL01020008
 70
     0
 10
0.0
 20
0.0
 30
0.0
  3
AIGNBL01020008
  1

  0
TEXT
  5
38
  8
____
 62
     7
 10
103.68300000000001
 20
74.877600000000001
 30
0.0
 40
3.0923400000000001
  1
8
 50
90.0
 41
0.5
  0
ENDBLK
  5
39
  8
____
  0
BLOCK
  8
____
  2
AIGNBL01020009
 70
     0
 10
0.0
 20
0.0
 30
0.0
  3
AIGNBL01020009
  1

  0
TEXT
  5
3C
  8
____
 62
     7
 10
103.68300000000001
 20
203.02822
 30
0.0
 40
3.0923400000000001
  1
8
 50
90.0
 41
0.5
 72
     2
 11
103.68300000000001
 21
204.059
 31
0.0
  0
ENDBLK
  5
3D
  8
____
  0
BLOCK
  8
____
  2
AIGNBL0102000A
 70
     0
 10
0.0
 20
0.0
 30
0.0
  3
AIGNBL0102000A
  1

  0
TEXT
  5
40
  8
____
 62
     7
 10
103.68300000000001
 20
136.823745
 30
0.0
 40
3.0923400000000001
  1
1184
 50
90.0
 41
0.5
 72
     1
 11
103.68300000000001
 21
139.143
 31
0.0
  0
ENDBLK
  5
41
  8
____
  0
BLOCK
  8
____
  2
AIGNBL0102000B
 70
     0
 10
0.0
 20
0.0
 30
0.0
  3
AIGNBL0102000B
  1

  0
TEXT
  5
44
  8
____
 62
     7
 10
111.58
 20
136.823745
 30
0.0
 40
3.0923400000000001
  1
1200
 50
90.0
 41
0.5
 72
     1
 11
111.58
 21
139.143
 31
0.0
  0
ENDBLK
  5
45
  8
____
  0
BLOCK
  8
_________1
  2
AIGNBL0202000B
 70
     0
 10
0.0
 20
0.0
 30
0.0
  3
AIGNBL0202000B
  1

  0
INSERT
  5
48
  8
_________1
 62
     7
  2
AIGNBL0203000C
 10
0.0
 20
0.0
 30
0.0
  0
ENDBLK
  5
49
  8
_________1
  0
BLOCK
  8
____
  2
AIGNBL01010002
 70
     0
 10
0.0
 20
0.0
 30
0.0
  3
AIGNBL01010002
  1

  0
TEXT
  5
4C
  8
____
 62
     7
 10
124.67400000000001
 20
260.92700000000002
 30
0.0
 40
3.0923400000000001
  1
10
 41
0.5
  0
ENDBLK
  5
4D
  8
____
  0
BLOCK
  8
____
  2
AIGNBL01010003
 70
     0
 10
0.0
 20
0.0
 30
0.0
  3
AIGNBL01010003
  1

  0
TEXT
  5
50
  8
____
 62
     7
 10
134.83082999999999
 20
247.703
 30
0.0
 40
3.0923400000000001
  1
100
 41
0.5
 72
     1
 11
136.37700000000001
 21
247.703
 31
0.0
  0
ENDBLK
  5
51
  8
____
  0
BLOCK
  8
____
  2
AIGNBL01010004
 70
     0
 10
0.0
 20
0.0
 30
0.0
  3
AIGNBL01010004
  1

  0
TEXT
  5
54
  8
____
 62
     7
 10
153.55799999999999
 20
255.66444000000001
 30
0.0
 40
3.0923400000000001
  1
245
 50
90.0
 41
0.5
 72
     1
 11
153.55799999999999
 21
257.726
 31
0.0
  0
ENDBLK
  5
55
  8
____
  0
BLOCK
  8
____
  2
AIGNBL01010005
 70
     0
 10
0.0
 20
0.0
 30
0.0
  3
AIGNBL01010005
  1

  0
TEXT
  5
58
  8
____
 62
     7
 10
26.116199999999999
 20
92.191000000000003
 30
0.0
 40
3.0923400000000001
  1
メーカーロゴ
 41
0.5
  0
ENDBLK
  5
59
  8
____
  0
BLOCK
  8
____
  2
AIGNBL01010006
 70
     0
 10
0.0
 20
0.0
 30
0.0
  3
AIGNBL01010006
  1

  0
TEXT
  5
5C
  8
____
 62
     7
 10
63.24324
 20
150.577
 30
0.0
 40
3.0923400000000001
  1
245
 41
0.5
 72
     1
 11
65.3048
 21
150.577
 31
0.0
  0
ENDBLK
  5
5D
  8
____
  0
BLOCK
  8
____
  2
AIGNBL01010007
 70
     0
 10
0.0
 20
0.0
 30
0.0
  3
AIGNBL01010007
  1

  0
INSERT
  5
60
  8
____
 62
     7
  2
AIGNBL01020008
 10
0.0
 20
0.0
 30
0.0
  0
INSERT
  5
61
  8
____
 62
     7
  2
AIGNBL01020009
 10
0.0
 20
0.0
 30
0.0
  0
INSERT
  5
62
  8
____
 62
     7
  2
AIGNBL0102000A
 10
0.0
 20
0.0
 30
0.0
  0
INSERT
  5
63
  8
____
 62
     7
  2
AIGNBL0102000B
 10
0.0
 20
0.0
 30
0.0
  0
ENDBLK
  5
64
  8
____
  0
BLOCK
  8
____
  2
AIGNBL0101000C
 70
     0
 10
0.0
 20
0.0
 30
0.0
  3
AIGNBL0101000C
  1

  0
TEXT
  5
67
  8
____
 62
     7
 10
43.552300000000002
 20
205.77099999999999
 30
0.0
 40
3.0923400000000001
  1
8
 41
0.5
  0
ENDBLK
  5
68
  8
____
  0
BLOCK
  8
____
  2
AIGNBL0101000D
 70
     0
 10
0.0
 20
0.0
 30
0.0
  3
AIGNBL0101000D
  1

  0
TEXT
  5
6B
  8
____
 62
     7
 10
98.368920000000003
 20
205.77099999999999
 30
0.0
 40
3.0923400000000001
  1
8
 41
0.5
 72
     2
 11
99.399699999999996
 21
205.77099999999999
 31
0.0
  0
ENDBLK
  5
6C
  8
____
  0
BLOCK
  8
____
  2
AIGNBL0101000E
 70
     0
 10
0.0
 20
0.0
 30
0.0
  3
AIGNBL0101000E
  1

  0
TEXT
  5
6F
  8
____
 62
     7
 10
75.507140000000007
 20
205.77099999999999
 30
0.0
 40
3.0923400000000001
  1
322
 41
0.5
 72
     1
 11
77.568700000000007
 21
205.77099999999999
 31
0.0
  0
ENDBLK
  5
70
  8
____
  0
BLOCK
  8
____
  2
AIGNBL0101000F
 70
     0
 10
0.0
 20
0.0
 30
0.0
  3
AIGNBL0101000F
  1

  0
TEXT
  5
73
  8
____
 62
     7
 10
53.564534999999999
 20
205.77099999999999
 30
0.0
 40
3.0923400000000001
  1
122
 41
0.5
 72
     1
 11
55.368400000000001
 21
205.77099999999999
 31
0.0
  0
ENDBLK
  5
74
  8
____
  0
BLOCK
  8
____
  2
AIGNBL01010010
 70
     0
 10
0.0
 20
0.0
 30
0.0
  3
AIGNBL01010010
  1

  0
TEXT
  5
77
  8
____
 62
     7
 10
70.444887500000007
 20
210.71600000000001
 30
0.0
 40
3.0923400000000001
  1
460
 41
0.5
 72
     1
 11
72.377600000000001
 21
210.71600000000001
 31
0.0
  0
ENDBLK
  5
78
  8
____
  0
BLOCK
  8
____
  2
AIGNBL01010011
 70
     0
 10
0.0
 20
0.0
 30
0.0
  3
AIGNBL01010011
  1

  0
TEXT
  5
7B
  8
____
 62
     7
 10
50.430124999999997
 20
185.077
 30
0.0
 40
3.0923400000000001
  1
65
 41
0.5
 72
     1
 11
51.718600000000002
 21
185.077
 31
0.0
  0
ENDBLK
  5
7C
  8
____
  0
BLOCK
  8
____
  2
AIGNBL01010012
 70
     0
 10
0.0
 20
0.0
 30
0.0
  3
AIGNBL01010012
  1

  0
TEXT
  5
7F
  8
____
 62
     7
 10
56.930025000000001
 20
185.077
 30
0.0
 40
3.0923400000000001
  1
65
 41
0.5
 72
     1
 11
58.218499999999999
 21
185.077
 31
0.0
  0
ENDBLK
  5
80
  8
____
  0
BLOCK
  8
____
  2
AIGNBL01010013
 70
     0
 10
0.0
 20
0.0
 30
0.0
  3
AIGNBL01010013
  1

  0
TEXT
  5
83
  8
____
 62
     7
 10
38.528599999999997
 20
137.21028749999999
 30
0.0
 40
3.0923400000000001
  1
605
 50
90.0
 41
0.5
 72
     1
 11
38.528599999999997
 21
139.143
 31
0.0
  0
ENDBLK
  5
84
  8
____
  0
BLOCK
  8
____
  2
AIGNBL01010014
 70
     0
 10
0.0
 20
0.0
 30
0.0
  3
AIGNBL01010014
  1

  0
TEXT
  5
87
  8
____
 62
     7
 10
154.51499999999999
 20
137.21028749999999
 30
0.0
 40
3.0923400000000001
  1
730
 50
90.0
 41
0.5
 72
     1
 11
154.51499999999999
 21
139.143
 31
0.0
  0
ENDBLK
  5
88
  8
____
  0
BLOCK
  8
____
  2
AIGNBL01010015
 70
     0
 10
0.0
 20
0.0
 30
0.0
  3
AIGNBL01010015
  1

  0
TEXT
  5
8B
  8
____
 62
     7
 10
136.583135
 20
210.31700000000001
 30
0.0
 40
3.0923400000000001
  1
145
 41
0.5
 72
     1
 11
138.387
 21
210.31700000000001
 31
0.0
  0
ENDBLK
  5
8C
  8
____
  0
BLOCK
  8
____
  2
AIGNBL01010016
 70
     0
 10
0.0
 20
0.0
 30
0.0
  3
AIGNBL01010016
  1

  0
TEXT
  5
8F
  8
____
 62
     7
 10
132.599525
 20
205.27600000000001
 30
0.0
 40
3.0923400000000001
  1
55
 41
0.5
 72
     1
 11
133.88800000000001
 21
205.27600000000001
 31
0.0
  0
ENDBLK
  5
90
  8
____
  0
BLOCK
  8
____
  2
AIGNBL01010017
 70
     0
 10
0.0
 20
0.0
 30
0.0
  3
AIGNBL01010017
  1

  0
TEXT
  5
93
  8
____
 62
     7
 10
85.600999999999999
 20
243.672135
 30
0.0
 40
3.0923400000000001
  1
900
 50
90.0
 41
0.5
 72
     1
 11
85.600999999999999
 21
245.476
 31
0.0
  0
ENDBLK
  5
94
  8
____
  0
BLOCK
  8
____
  2
AIGNBL01010018
 70
     0
 10
0.0
 20
0.0
 30
0.0
  3
AIGNBL01010018
  1

  0
TEXT
  5
97
  8
____
 62
     7
 10
67.285387500000013
 20
275.04700000000003
 30
0.0
 40
3.0923400000000001
  1
340
 41
0.5
 72
     1
 11
69.218100000000007
 21
275.04700000000003
 31
0.0
  0
ENDBLK
  5
98
  8
____
  0
BLOCK
  8
____
  2
AIGNBL01010019
 70
     0
 10
0.0
 20
0.0
 30
0.0
  3
AIGNBL01010019
  1

  0
TEXT
  5
9B
  8
____
 62
     7
 10
64.781440000000003
 20
251.66900000000001
 30
0.0
 40
3.0923400000000001
  1
245
 41
0.5
 72
     1
 11
66.843000000000004
 21
251.66900000000001
 31
0.0
  0
ENDBLK
  5
9C
  8
____
  0
BLOCK
  8
_________1
  2
AIGNBL02010002
 70
     0
 10
0.0
 20
0.0
 30
0.0
  3
AIGNBL02010002
  1

  0
LINE
  5
9F
  8
_________1
 62
     7
 10
129.166
 20
259.63400000000001
 30
0.0
 11
131.37700000000001
 21
260.22699999999998
 31
0.0
  0
LINE
  5
A0
  8
_________1
 62
     7
 10
131.37700000000001
 20
260.22699999999998
 30
0.0
 11
129.166
 21
260.81900000000002
 31
0.0
  0
LINE
  5
A1
  8
_________1
 62
     7
 10
129.166
 20
260.81900000000002
 30
0.0
 11
129.166
 21
259.63400000000001
 31
0.0
  0
LINE
  5
A2
  8
_________1
 62
     7
 10
134.589
 20
260.81900000000002
 30
0.0
 11
132.37799999999999
 21
260.22699999999998
 31
0.0
  0
LINE
  5
A3
  8
_________1
 62
     7
 10
132.37799999999999
 20
260.22699999999998
 30
0.0
 11
134.589
 21
259.63400000000001
 31
0.0
  0
LINE
  5
A4
  8
_________1
 62
     7
 10
134.589
 20
259.63400000000001
 30
0.0
 11
134.589
 21
260.81900000000002
 31
0.0
  0
LINE
  5
A5
  8
_________1
 62
     7
 10
136.708
 20
260.22699999999998
 30
0.0
 11
124.67400000000001
 21
260.22699999999998
 31
0.0
  0
ENDBLK
  5
A6
  8
_________1
  0
BLOCK
  8
_________1
  2
AIGNBL02010003
 70
     0
 10
0.0
 20
0.0
 30
0.0
  3
AIGNBL02010003
  1

  0
LINE
  5
A9
  8
_________1
 62
     7
 10
133.589
 20
247.596
 30
0.0
 11
131.37700000000001
 21
247.00299999999999
 31
0.0
  0
LINE
  5
AA
  8
_________1
 62
     7
 10
131.37700000000001
 20
247.00299999999999
 30
0.0
 11
133.589
 21
246.411
 31
0.0
  0
LINE
  5
AB
  8
_________1
 62
     7
 10
133.589
 20
246.411
 30
0.0
 11
133.589
 21
247.596
 31
0.0
  0
LINE
  5
AC
  8
_________1
 62
     7
 10
139.166
 20
246.411
 30
0.0
 11
141.37799999999999
 21
247.00299999999999
 31
0.0
  0
LINE
  5
AD
  8
_________1
 62
     7
 10
141.37799999999999
 20
247.00299999999999
 30
0.0
 11
139.166
 21
247.596
 31
0.0
  0
LINE
  5
AE
  8
_________1
 62
     7
 10
139.166
 20
247.596
 30
0.0
 11
139.166
 21
246.411
 31
0.0
  0
LINE
  5
AF
  8
_________1
 62
     7
 10
131.37700000000001
 20
247.00299999999999
 30
0.0
 11
141.37799999999999
 21
247.00299999999999
 31
0.0
  0
ENDBLK
  5
B0
  8
_________1
  0
BLOCK
  8
_________1
  2
AIGNBL02010004
 70
     0
 10
0.0
 20
0.0
 30
0.0
  3
AIGNBL02010004
  1

  0
LINE
  5
B3
  8
_________1
 62
     7
 10
154.851
 20
267.76499999999999
 30
0.0
 11
154.25800000000001
 21
269.976
 31
0.0
  0
LINE
  5
B4
  8
_________1
 62
     7
 10
154.25800000000001
 20
269.976
 30
0.0
 11
153.666
 21
267.76499999999999
 31
0.0
  0
LINE
  5
B5
  8
_________1
 62
     7
 10
153.666
 20
267.76499999999999
 30
0.0
 11
154.851
 21
267.76499999999999
 31
0.0
  0
LINE
  5
B6
  8
_________1
 62
     7
 10
153.666
 20
247.68799999999999
 30
0.0
 11
154.25800000000001
 21
245.476
 31
0.0
  0
LINE
  5
B7
  8
_________1
 62
     7
 10
154.25800000000001
 20
245.476
 30
0.0
 11
154.851
 21
247.68799999999999
 31
0.0
  0
LINE
  5
B8
  8
_________1
 62
     7
 10
154.851
 20
247.68799999999999
 30
0.0
 11
153.666
 21
247.68799999999999
 31
0.0
  0
LINE
  5
B9
  8
_________1
 62
     7
 10
154.25800000000001
 20
269.976
 30
0.0
 11
154.25800000000001
 21
245.476
 31
0.0
  0
ENDBLK
  5
BA
  8
_________1
  0
BLOCK
  8
_________1
  2
AIGNBL02010005
 70
     0
 10
0.0
 20
0.0
 30
0.0
  3
AIGNBL02010005
  1

  0
LINE
  5
BD
  8
_________1
 62
     7
 10
38.636099999999999
 20
111.104
 30
0.0
 11
39.228700000000011
 21
108.893
 31
0.0
  0
LINE
  5
BE
  8
_________1
 62
     7
 10
39.228700000000011
 20
108.893
 30
0.0
 11
39.821199999999997
 21
111.104
 31
0.0
  0
LINE
  5
BF
  8
_________1
 62
     7
 10
39.821199999999997
 20
111.104
 30
0.0
 11
38.636099999999999
 21
111.104
 31
0.0
  0
LINE
  5
C0
  8
_________1
 62
     7
 10
39.821199999999997
 20
167.18199999999999
 30
0.0
 11
39.228700000000011
 21
169.393
 31
0.0
  0
LINE
  5
C1
  8
_________1
 62
     7
 10
39.228700000000011
 20
169.393
 30
0.0
 11
38.636099999999999
 21
167.18199999999999
 31
0.0
  0
LINE
  5
C2
  8
_________1
 62
     7
 10
38.636099999999999
 20
167.18199999999999
 30
0.0
 11
39.821199999999997
 21
167.18199999999999
 31
0.0
  0
LINE
  5
C3
  8
_________1
 62
     7
 10
39.228700000000011
 20
108.893
 30
0.0
 11
39.228700000000011
 21
169.393
 31
0.0
  0
ENDBLK
  5
C4
  8
_________1
  0
BLOCK
  8
_________1
  2
AIGNBL02010006
 70
     0
 10
0.0
 20
0.0
 30
0.0
  3
AIGNBL02010006
  1

  0
LINE
  5
C7
  8
_________1
 62
     7
 10
155.80699999999999
 20
173.43199999999999
 30
0.0
 11
155.215
 21
175.643
 31
0.0
  0
LINE
  5
C8
  8
_________1
 62
     7
 10
155.215
 20
175.643
 30
0.0
 11
154.62200000000001
 21
173.43199999999999
 31
0.0
  0
LINE
  5
C9
  8
_________1
 62
     7
 10
154.62200000000001
 20
173.43199999999999
 30
0.0
 11
155.80699999999999
 21
173.43199999999999
 31
0.0
  0
LINE
  5
CA
  8
_________1
 62
     7
 10
154.62200000000001
 20
104.854
 30
0.0
 11
155.215
 21
102.642
 31
0.0
  0
LINE
  5
CB
  8
_________1
 62
     7
 10
155.215
 20
102.642
 30
0.0
 11
155.80699999999999
 21
104.854
 31
0.0
  0
LINE
  5
CC
  8
_________1
 62
     7
 10
155.80699999999999
 20
104.854
 30
0.0
 11
154.62200000000001
 21
104.854
 31
0.0
  0
LINE
  5
CD
  8
_________1
 62
     7
 10
155.215
 20
175.643
 30
0.0
 11
155.215
 21
102.642
 31
0.0
  0
ENDBLK
  5
CE
  8
_________1
  0
BLOCK
  8
_________1
  2
AIGNBL02010007
 70
     0
 10
0.0
 20
0.0
 30
0.0
  3
AIGNBL02010007
  1

  0
LINE
  5
D1
  8
_________1
 62
     7
 10
86.543599999999998
 20
265.76499999999999
 30
0.0
 11
85.950999999999993
 21
267.97699999999998
 31
0.0
  0
LINE
  5
D2
  8
_________1
 62
     7
 10
85.950999999999993
 20
267.97699999999998
 30
0.0
 11
85.358500000000006
 21
265.76499999999999
 31
0.0
  0
LINE
  5
D3
  8
_________1
 62
     7
 10
85.358500000000006
 20
265.76499999999999
 30
0.0
 11
86.543599999999998
 21
265.76499999999999
 31
0.0
  0
LINE
  5
D4
  8
_________1
 62
     7
 10
85.358500000000006
 20
225.18799999999999
 30
0.0
 11
85.950999999999993
 21
222.976
 31
0.0
  0
LINE
  5
D5
  8
_________1
 62
     7
 10
85.950999999999993
 20
222.976
 30
0.0
 11
86.543599999999998
 21
225.18799999999999
 31
0.0
  0
LINE
  5
D6
  8
_________1
 62
     7
 10
86.543599999999998
 20
225.18799999999999
 30
0.0
 11
85.358500000000006
 21
225.18799999999999
 31
0.0
  0
LINE
  5
D7
  8
_________1
 62
     7
 10
85.950999999999993
 20
267.97699999999998
 30
0.0
 11
85.950999999999993
 21
222.976
 31
0.0
  0
ENDBLK
  5
D8
  8
_________1
  0
BLOCK
  8
_________1
  2
AIGNBL02010008
 70
     0
 10
0.0
 20
0.0
 30
0.0
  3
AIGNBL02010008
  1

  0
LINE
  5
DB
  8
_________1
 62
     7
 10
75.506799999999984
 20
273.75400000000002
 30
0.0
 11
77.718599999999995
 21
274.34699999999998
 31
0.0
  0
LINE
  5
DC
  8
_________1
 62
     7
 10
77.718599999999995
 20
274.34699999999998
 30
0.0
 11
75.506799999999984
 21
274.93900000000002
 31
0.0
  0
LINE
  5
DD
  8
_________1
 62
     7
 10
75.506799999999984
 20
274.93900000000002
 30
0.0
 11
75.506799999999984
 21
273.75400000000002
 31
0.0
  0
LINE
  5
DE
  8
_________1
 62
     7
 10
62.929400000000001
 20
274.93900000000002
 30
0.0
 11
60.718299999999999
 21
274.34699999999998
 31
0.0
  0
LINE
  5
DF
  8
_________1
 62
     7
 10
60.718299999999999
 20
274.34699999999998
 30
0.0
 11
62.929400000000001
 21
273.75400000000002
 31
0.0
  0
LINE
  5
E0
  8
_________1
 62
     7
 10
62.929400000000001
 20
273.75400000000002
 30
0.0
 11
62.929400000000001
 21
274.93900000000002
 31
0.0
  0
LINE
  5
E1
  8
_________1
 62
     7
 10
77.718599999999995
 20
274.34699999999998
 30
0.0
 11
60.718299999999999
 21
274.34699999999998
 31
0.0
  0
ENDBLK
  5
E2
  8
_________1
  0
BLOCK
  8
_________1
  2
AIGNBL02010009
 70
     0
 10
0.0
 20
0.0
 30
0.0
  3
AIGNBL02010009
  1

  0
LINE
  5
E5
  8
_________1
 62
     7
 10
70.756699999999995
 20
250.376
 30
0.0
 11
72.968400000000003
 21
250.96899999999999
 31
0.0
  0
LINE
  5
E6
  8
_________1
 62
     7
 10
72.968400000000003
 20
250.96899999999999
 30
0.0
 11
70.756699999999995
 21
251.56100000000001
 31
0.0
  0
LINE
  5
E7
  8
_________1
 62
     7
 10
70.756699999999995
 20
251.56100000000001
 30
0.0
 11
70.756699999999995
 21
250.376
 31
0.0
  0
LINE
  5
E8
  8
_________1
 62
     7
 10
62.929400000000001
 20
251.56100000000001
 30
0.0
 11
60.718299999999999
 21
250.96899999999999
 31
0.0
  0
LINE
  5
E9
  8
_________1
 62
     7
 10
60.718299999999999
 20
250.96899999999999
 30
0.0
 11
62.929400000000001
 21
250.376
 31
0.0
  0
LINE
  5
EA
  8
_________1
 62
     7
 10
62.929400000000001
 20
250.376
 30
0.0
 11
62.929400000000001
 21
251.56100000000001
 31
0.0
  0
LINE
  5
EB
  8
_________1
 62
     7
 10
72.968400000000003
 20
250.96899999999999
 30
0.0
 11
60.718299999999999
 21
250.96899999999999
 31
0.0
  0
ENDBLK
  5
EC
  8
_________1
  0
BLOCK
  8
_________1
  2
AIGNBL0201000A
 70
     0
 10
0.0
 20
0.0
 30
0.0
  3
AIGNBL0201000A
  1

  0
INSERT
  5
EF
  8
_________1
 62
     7
  2
AIGNBL0202000B
 10
0.0
 20
0.0
 30
0.0
  0
ENDBLK
  5
F0
  8
_________1
  0
BLOCK
  8
_________2
  2
AIGNBL03010002
 70
     0
 10
0.0
 20
0.0
 30
0.0
  3
AIGNBL03010002
  1

  0
LINE
  5
F3
  8
_________2
 62
     7
 10
81.679900000000004
 20
51.324300000000001
 30
0.0
 11
79.493700000000004
 21
51.324300000000001
 31
0.0
  0
LINE
  5
F4
  8
_________2
 62
     7
 10
82.172600000000017
 20
51.324300000000001
 30
0.0
 11
81.920400000000001
 21
51.324300000000001
 31
0.0
  0
LINE
  5
F5
  8
_________2
 62
     7
 10
82.665199999999984
 20
51.324300000000001
 30
0.0
 11
85.590100000000007
 21
51.324300000000001
 31
0.0
  0
LINE
  5
F6
  8
_________2
 62
     7
 10
82.172600000000017
 20
51.324300000000001
 30
0.0
 11
82.424800000000005
 21
51.324300000000001
 31
0.0
  0
LINE
  5
F7
  8
_________2
 62
     7
 10
75.776399999999995
 20
51.324300000000001
 30
0.0
 11
73.589399999999998
 21
51.324300000000001
 31
0.0
  0
LINE
  5
F8
  8
_________2
 62
     7
 10
76.2684
 20
51.324300000000001
 30
0.0
 11
76.016900000000007
 21
51.324300000000001
 31
0.0
  0
LINE
  5
F9
  8
_________2
 62
     7
 10
76.2684
 20
51.817
 30
0.0
 11
76.2684
 21
54.003900000000002
 31
0.0
  0
LINE
  5
FA
  8
_________2
 62
     7
 10
76.2684
 20
51.324300000000001
 30
0.0
 11
76.2684
 21
51.576900000000002
 31
0.0
  0
LINE
  5
FB
  8
_________2
 62
     7
 10
76.76100000000001
 20
51.324300000000001
 30
0.0
 11
78.947999999999993
 21
51.324300000000001
 31
0.0
  0
LINE
  5
FC
  8
_________2
 62
     7
 10
76.2684
 20
51.324300000000001
 30
0.0
 11
76.520499999999998
 21
51.324300000000001
 31
0.0
  0
LINE
  5
FD
  8
_________2
 62
     7
 10
76.2684
 20
50.832399999999993
 30
0.0
 11
76.2684
 21
48.645699999999998
 31
0.0
  0
LINE
  5
FE
  8
_________2
 62
     7
 10
76.2684
 20
51.324300000000001
 30
0.0
 11
76.2684
 21
51.072800000000001
 31
0.0
  0
LINE
  5
FF
  8
_________2
 62
     7
 10
79.979399999999984
 20
50.104799999999997
 30
0.0
 11
85.157399999999996
 21
49.240000000000002
 31
0.0
  0
LINE
  5
100
  8
_________2
 62
     7
 10
79.979399999999984
 20
52.544199999999989
 30
0.0
 11
85.157399999999996
 21
53.409700000000001
 31
0.0
  0
LINE
  5
101
  8
_________2
 62
     7
 10
85.157399999999996
 20
49.240000000000002
 30
0.0
 11
85.157399999999996
 21
53.409700000000001
 31
0.0
  0
LINE
  5
102
  8
_________2
 62
     7
 10
79.979399999999984
 20
50.104799999999997
 30
0.0
 11
79.979399999999984
 21
52.544199999999989
 31
0.0
  0
ARC
  5
103
  8
_________2
 62
     7
 10
76.221766000000002
 20
51.277380999999998
 30
0.0
 40
1.267714
 50
2.1220840000000001
 51
87.894083999999992
  0
ARC
  5
104
  8
_________2
 62
     7
 10
76.315297000000001
 20
51.277734999999993
 30
0.0
 40
1.267374999999999
 50
92.122849999999985
 51
177.893304
  0
ARC
  5
105
  8
_________2
 62
     7
 10
76.315273000000005
 20
51.371245999999992
 30
0.0
 40
1.267363
 50
182.121815
 51
267.87821400000001
  0
ARC
  5
106
  8
_________2
 62
     7
 10
76.221461000000005
 20
51.371928999999987
 30
0.0
 40
1.2680439999999991
 50
272.11916400000001
 51
357.84848499999998
  0
ARC
  5
107
  8
_________2
 62
     7
 10
76.187981999999991
 20
51.244312999999998
 30
0.0
 40
2.1668310000000002
 50
2.1161439999999989
 51
87.874379000000005
  0
ARC
  5
108
  8
_________2
 62
     7
 10
76.348411999999996
 20
51.245334999999997
 30
0.0
 40
2.1657980000000001
 50
92.118487999999999
 51
177.909886
  0
ARC
  5
109
  8
_________2
 62
     7
 10
76.348354
 20
51.404327000000002
 30
0.0
 40
2.1657779999999991
 50
182.11700400000001
 51
267.88302499999998
  0
ARC
  5
10A
  8
_________2
 62
     7
 10
76.188378999999983
 20
51.405009999999997
 30
0.0
 40
2.1664590000000001
 50
272.11546800000002
 51
357.86560400000002
  0
ENDBLK
  5
10B
  8
_________2
  0
ENDSEC
  0
SECTION
  2
ENTITIES
  0
INSERT
  5
10C
  8
____
 62
     7
  2
AIGNBL01010002
 10
0.0
 20
0.0
 30
0.0
  0
INSERT
  5
10D
  8
____
 62
     7
  2
AIGNBL01010003
 10
0.0
 20
0.0
 30
0.0
  0
INSERT
  5
10E
  8
____
 62
     7
  2
AIGNBL01010004
 10
0.0
 20
0.0
 30
0.0
  0
INSERT
  5
10F
  8
____
 62
     7
  2
AIGNBL01010005
 10
0.0
 20
0.0
 30
0.0
  0
INSERT
  5
110
  8
____
 62
     7
  2
AIGNBL01010006
 10
0.0
 20
0.0
 30
0.0
  0
INSERT
  5
111
  8
____
 62
     7
  2
AIGNBL01010007
 10
0.0
 20
0.0
 30
0.0
  0
TEXT
  5
112
  8
____
 62
     7
 10
64.765280000000004
 20
117.47799999999999
 30
0.0
 40
3.0923400000000001
  1
%%c35
 41
0.5
 72
     2
 11
68.888400000000004
 21
117.47799999999999
 31
0.0
  0
TEXT
  5
113
  8
____
 62
     7
 10
64.765280000000004
 20
177.97900000000001
 30
0.0
 40
3.0923400000000001
  1
%%c35
 41
0.5
 72
     2
 11
68.888400000000004
 21
177.97900000000001
 31
0.0
  0
TEXT
  5
114
  8
____
 62
     7
 10
80.195980000000006
 20
145.15899999999999
 30
0.0
 40
3.0923400000000001
  1
%%c45
 41
0.5
 72
     2
 11
84.319100000000006
 21
145.15899999999999
 31
0.0
  0
INSERT
  5
115
  8
____
 62
     7
  2
AIGNBL0101000C
 10
0.0
 20
0.0
 30
0.0
  0
INSERT
  5
116
  8
____
 62
     7
  2
AIGNBL0101000D
 10
0.0
 20
0.0
 30
0.0
  0
INSERT
  5
117
  8
____
 62
     7
  2
AIGNBL0101000E
 10
0.0
 20
0.0
 30
0.0
  0
INSERT
  5
118
  8
____
 62
     7
  2
AIGNBL0101000F
 10
0.0
 20
0.0
 30
0.0
  0
INSERT
  5
119
  8
____
 62
     7
  2
AIGNBL01010010
 10
0.0
 20
0.0
 30
0.0
  0
INSERT
  5
11A
  8
____
 62
     7
  2
AIGNBL01010011
 10
0.0
 20
0.0
 30
0.0
  0
INSERT
  5
11B
  8
____
 62
     7
  2
AIGNBL01010012
 10
0.0
 20
0.0
 30
0.0
  0
INSERT
  5
11C
  8
____
 62
     7
  2
AIGNBL01010013
 10
0.0
 20
0.0
 30
0.0
  0
INSERT
  5
11D
  8
____
 62
     7
  2
AIGNBL01010014
 10
0.0
 20
0.0
 30
0.0
  0
INSERT
  5
11E
  8
____
 62
     7
  2
AIGNBL01010015
 10
0.0
 20
0.0
 30
0.0
  0
INSERT
  5
11F
  8
____
 62
     7
  2
AIGNBL01010016
 10
0.0
 20
0.0
 30
0.0
  0
INSERT
  5
120
  8
____
 62
     7
  2
AIGNBL01010017
 10
0.0
 20
0.0
 30
0.0
  0
INSERT
  5
121
  8
____
 62
     7
  2
AIGNBL01010018
 10
0.0
 20
0.0
 30
0.0
  0
INSERT
  5
122
  8
____
 62
     7
  2
AIGNBL01010019
 10
0.0
 20
0.0
 30
0.0
  0
TEXT
  5
123
  8
____
 62
     7
 10
56.87319999999999
 20
255.044646
 30
0.0
 40
3.0923400000000001
  1
洗面器後端
 50
90.0
 41
0.5
 72
     1
 11
56.87319999999999
 21
259.47699999999998
 31
0.0
  0
TEXT
  5
124
  8
____
 62
     7
 10
70.211078000000001
 20
235.91499999999999
 30
0.0
 40
3.0923400000000001
  1
排水口
 41
0.5
 72
     2
 11
75.261899999999983
 21
235.91499999999999
 31
0.0
  0
TEXT
  5
125
  8
____
 62
     7
 10
67.561999999999983
 20
263.161
 30
0.0
 40
3.0923400000000001
  1
R10
 41
0.5
  0
TEXT
  5
126
  8
____
 62
     7
 10
69.216700000000003
 20
227.821
 30
0.0
 40
3.0923400000000001
  1
R10
 41
0.5
  0
TEXT
  5
127
  8
____
 62
     7
 10
159.274
 20
193.706917
 30
0.0
 40
3.0923400000000001
  1
取付ボルト\U+00D72セット付（尺度1：5）
 50
90.0
 41
0.5
 72
     1
 11
159.274
 21
209.01400000000001
 31
0.0
  0
TEXT
  5
128
  8
____
 62
     7
 10
163.13900000000001
 20
198.0104235
 30
0.0
 40
3.0923400000000001
  1
※\U+03A612\U+00D760樹脂プラグ付
 50
90.0
 41
0.5
 72
     1
 11
163.13900000000001
 21
209.01400000000001
 31
0.0
  0
TEXT
  5
129
  8
____
 62
     7
 10
169.899
 20
207.069525
 30
0.0
 40
3.0923400000000001
  1
45
 50
90.0
 41
0.5
 72
     1
 11
169.899
 21
208.358
 31
0.0
  0
TEXT
  5
12A
  8
____
 62
     7
 10
169.899
 20
213.19121999999999
 30
0.0
 40
3.0923400000000001
  1
15
 50
90.0
 41
0.5
 72
     1
 11
169.899
 21
214.22200000000001
 31
0.0
  0
TEXT
  5
12B
  8
____
 62
     7
 10
169.898
 20
220.7933725
 30
0.0
 40
3.0923400000000001
  1
60
 50
90.0
 41
0.5
 72
     1
 11
169.898
 21
221.953
 31
0.0
  0
TEXT
  5
12C
  8
____
 62
     7
 10
101.904
 20
221.66399999999999
 30
0.0
 40
3.0923400000000001
  1
※カウンターを設ける場合も洗面器の
 50
90.0
 41
0.5
  0
TEXT
  5
12D
  8
____
 62
     7
 10
105.76900000000001
 20
221.66399999999999
 30
0.0
 40
3.0923400000000001
  1
壁固定が必要です。
 50
90.0
 41
0.5
  0
TEXT
  5
12E
  8
____
 62
     7
 10
109.63500000000001
 20
221.66399999999999
 30
0.0
 40
3.0923400000000001
  1
※カウンターの制作可否はカウンター
 50
90.0
 41
0.5
  0
TEXT
  5
12F
  8
____
 62
     7
 10
113.5
 20
221.66399999999999
 30
0.0
 40
3.0923400000000001
  1
業者様にご確認ください。
 50
90.0
 41
0.5
  0
TEXT
  5
130
  8
____
 62
     7
 10
94.831800000000001
 20
231.1223885
 30
0.0
 40
3.0923400000000001
  1
カウンター切込寸法（尺度1：20）
 50
90.0
 41
0.5
 72
     1
 11
94.831800000000001
 21
245.476
 31
0.0
  0
LINE
  5
131
  8
_________1
 62
     7
 10
60.718299999999999
 20
275.04700000000003
 30
0.0
 11
60.718299999999999
 21
269.76999999999998
 31
0.0
  0
LINE
  5
132
  8
_________1
 62
     7
 10
77.718599999999995
 20
275.04700000000003
 30
0.0
 11
77.718599999999995
 21
268.80599999999998
 31
0.0
  0
INSERT
  5
133
  8
_________1
 62
     7
  2
AIGNBL02010002
 10
0.0
 20
0.0
 30
0.0
  0
INSERT
  5
134
  8
_________1
 62
     7
  2
AIGNBL02010003
 10
0.0
 20
0.0
 30
0.0
  0
INSERT
  5
135
  8
_________1
 62
     7
  2
AIGNBL02010004
 10
0.0
 20
0.0
 30
0.0
  0
LINE
  5
136
  8
_________1
 62
     7
 10
146.33699999999999
 20
269.976
 30
0.0
 11
154.958
 21
269.976
 31
0.0
  0
LINE
  5
137
  8
_________1
  6
AIGENLINE001
 62
     7
 10
142.87799999999999
 20
243.196
 30
0.0
 11
142.87799999999999
 21
247.756
 31
0.0
  0
ARC
  5
138
  8
_________1
  6
AIGENLINE001
 62
     7
 10
143.049589
 20
242.724345
 30
0.0
 40
0.501623
 50
90.045318999999992
 51
129.96026900000001
  0
LINE
  5
139
  8
_________1
  6
AIGENLINE001
 62
     7
 10
143.04900000000001
 20
243.226
 30
0.0
 11
145.637
 21
243.226
 31
0.0
  0
ARC
  5
13A
  8
_________1
  6
AIGENLINE001
 62
     7
 10
141.88699500000001
 20
241.73833400000001
 30
0.0
 40
0.50939
 50
130.51383000000001
 51
179.53135399999999
  0
LINE
  5
13B
  8
_________1
  6
AIGENLINE001
 62
     7
 10
141.55600000000001
 20
242.126
 30
0.0
 11
142.727
 21
243.10900000000001
 31
0.0
  0
ARC
  5
13C
  8
_________1
  6
AIGENLINE001
 62
     7
 10
143.051571
 20
248.233045
 30
0.0
 40
0.5070710000000001
 50
230.263093
 51
269.73131899999998
  0
LINE
  5
13D
  8
_________1
  6
AIGENLINE001
 62
     7
 10
143.04900000000001
 20
247.726
 30
0.0
 11
145.637
 21
247.726
 31
0.0
  0
ARC
  5
13E
  8
_________1
  6
AIGENLINE001
 62
     7
 10
141.88498799999999
 20
249.212334
 30
0.0
 40
0.5073760000000001
 50
180.36493200000001
 51
229.5898839999999
  0
LINE
  5
13F
  8
_________1
  6
AIGENLINE001
 62
     7
 10
141.55600000000001
 20
248.82599999999999
 30
0.0
 11
142.727
 21
247.84299999999999
 31
0.0
  0
LINE
  5
140
  8
_________1
  6
AIGENLINE001
 62
     7
 10
132.37799999999999
 20
256.36700000000002
 30
0.0
 11
132.37799999999999
 21
268.18799999999999
 31
0.0
  0
LINE
  5
141
  8
_________1
  6
AIGENLINE001
 62
     7
 10
131.82900000000001
 20
225.089
 30
0.0
 11
140.24799999999999
 21
226.68100000000001
 31
0.0
  0
LINE
  5
142
  8
_________1
  6
AIGENLINE001
 62
     7
 10
141.37799999999999
 20
241.66499999999999
 30
0.0
 11
141.37799999999999
 21
228.12700000000001
 31
0.0
  0
LINE
  5
143
  8
_________1
  6
AIGENLINE001
 62
     7
 10
141.37799999999999
 20
254.28100000000001
 30
0.0
 11
141.37799999999999
 21
249.61199999999999
 31
0.0
  0
LINE
  5
144
  8
_________1
  6
AIGENLINE001
 62
     7
 10
139.887
 20
255.77099999999999
 30
0.0
 11
132.97399999999999
 21
255.77099999999999
 31
0.0
  0
LINE
  5
145
  8
_________1
  6
AIGENLINE001
 62
     7
 10
141.37799999999999
 20
249.61199999999999
 30
0.0
 11
141.37799999999999
 21
241.50299999999999
 31
0.0
  0
ARC
  5
146
  8
_________1
  6
AIGENLINE001
 62
     7
 10
131.87264400000001
 20
269.11082800000003
 30
0.0
 40
0.326568
 50
249.5374819999999
 51
269.98231500000003
  0
ARC
  5
147
  8
_________1
  6
AIGENLINE001
 62
     7
 10
131.93088
 20
269.28232100000002
 30
0.0
 40
0.507628
 50
221.09765899999999
 51
250.14609899999999
  0
ARC
  5
148
  8
_________1
  6
AIGENLINE001
 62
     7
 10
132.03082900000001
 20
269.38977699999998
 30
0.0
 40
0.653763
 50
180.83369200000001
 51
222.436633
  0
ARC
  5
149
  8
_________1
  6
AIGENLINE001
 62
     7
 10
131.871872
 20
268.41228599999999
 30
0.0
 40
0.371974
 50
59.138506999999997
 51
89.896597999999997
  0
ARC
  5
14A
  8
_________1
  6
AIGENLINE001
 62
     7
 10
131.75195500000001
 20
268.18856599999998
 30
0.0
 40
0.6256420000000001
 50
359.971453
 51
60.221271999999992
  0
ARC
  5
14B
  8
_________1
  6
AIGENLINE001
 62
     7
 10
131.97346999999999
 20
224.51088799999999
 30
0.0
 40
0.5963350000000001
 50
104.006829
 51
179.95062999999999
  0
ARC
  5
14C
  8
_________1
  6
AIGENLINE001
 62
     7
 10
140.0139659999999
 20
228.091328
 30
0.0
 40
1.3641149999999991
 50
328.38745
 51
1.486189999999999
  0
ARC
  5
14D
  8
_________1
  6
AIGENLINE001
 62
     7
 10
139.86516399999999
 20
228.158387
 30
0.0
 40
1.5261290000000001
 50
284.54018000000002
 51
329.17173800000012
  0
ARC
  5
14E
  8
_________1
  6
AIGENLINE001
 62
     7
 10
139.82963599999999
 20
254.22267400000001
 30
0.0
 40
1.549070999999999
 50
2.145235
 51
87.868001000000021
  0
ARC
  5
14F
  8
_________1
  6
AIGENLINE001
 62
     7
 10
132.996047
 20
256.38911000000002
 30
0.0
 40
0.618844
 50
182.04535899999999
 51
267.921561
  0
LINE
  5
150
  8
_________1
 62
     7
 10
148.566
 20
245.476
 30
0.0
 11
154.958
 21
245.476
 31
0.0
  0
LINE
  5
151
  8
_________1
  6
AIGENLINE002
 62
     7
 10
129.37799999999999
 20
245.476
 30
0.0
 11
147.86600000000001
 21
245.476
 31
0.0
  0
LINE
  5
152
  8
_________1
  6
AIGENLINE002
 62
     7
 10
129.464
 20
263.476
 30
0.0
 11
134.37700000000001
 21
263.476
 31
0.0
  0
LINE
  5
153
  8
_________1
  6
AIGENLINE002
 62
     7
 10
135.54900000000001
 20
253.57900000000001
 30
0.0
 11
135.54900000000001
 21
257.726
 31
0.0
  0
LINE
  5
154
  8
_________1
 62
     7
 10
131.87299999999999
 20
269.976
 30
0.0
 11
140.851
 21
269.976
 31
0.0
  0
LINE
  5
155
  8
_________1
 62
     7
 10
131.37700000000001
 20
269.38
 30
0.0
 11
131.37700000000001
 21
269.4790000000001
 31
0.0
  0
LINE
  5
156
  8
_________1
 62
     7
 10
131.37700000000001
 20
224.28100000000001
 30
0.0
 11
131.37700000000001
 21
224.511
 31
0.0
  0
LINE
  5
157
  8
_________1
 62
     7
 10
145.637
 20
223.78399999999999
 30
0.0
 11
131.87299999999999
 21
223.78399999999999
 31
0.0
  0
LINE
  5
158
  8
_________1
 62
     7
 10
145.637
 20
242.99199999999999
 30
0.0
 11
145.637
 21
242.49600000000001
 31
0.0
  0
LINE
  5
159
  8
_________1
 62
     7
 10
145.637
 20
223.78399999999999
 30
0.0
 11
145.637
 21
232.80500000000001
 31
0.0
  0
LINE
  5
15A
  8
_________1
 62
     7
 10
145.637
 20
248.45599999999999
 30
0.0
 11
145.637
 21
247.96000000000001
 31
0.0
  0
LINE
  5
15B
  8
_________1
 62
     7
 10
142.97800000000001
 20
269.976
 30
0.0
 11
145.637
 21
269.976
 31
0.0
  0
LINE
  5
15C
  8
_________1
 62
     7
 10
140.851
 20
269.976
 30
0.0
 11
142.97800000000001
 21
269.976
 31
0.0
  0
LINE
  5
15D
  8
_________1
 62
     7
 10
145.637
 20
267.46800000000002
 30
0.0
 11
145.637
 21
269.976
 31
0.0
  0
LINE
  5
15E
  8
_________1
 62
     7
 10
145.637
 20
247.96000000000001
 30
0.0
 11
145.637
 21
242.99199999999999
 31
0.0
  0
LINE
  5
15F
  8
_________1
 62
     7
 10
145.637
 20
232.80500000000001
 30
0.0
 11
145.637
 21
234.71199999999999
 31
0.0
  0
LINE
  5
160
  8
_________1
 62
     7
 10
145.637
 20
248.45599999999999
 30
0.0
 11
145.637
 21
266.55599999999998
 31
0.0
  0
LINE
  5
161
  8
_________1
 62
     7
 10
145.637
 20
234.71199999999999
 30
0.0
 11
145.637
 21
242.65899999999999
 31
0.0
  0
LINE
  5
162
  8
_________1
 62
     7
 10
145.637
 20
266.55599999999998
 30
0.0
 11
145.637
 21
266.97199999999998
 31
0.0
  0
LINE
  5
163
  8
_________1
 62
     7
 10
131.37700000000001
 20
269.38
 30
0.0
 11
131.37700000000001
 21
225.58600000000001
 31
0.0
  0
LINE
  5
164
  8
_________1
 62
     7
 10
131.37700000000001
 20
225.58600000000001
 30
0.0
 11
131.37700000000001
 21
224.511
 31
0.0
  0
LINE
  5
165
  8
_________1
 62
     7
 10
145.637
 20
266.97199999999998
 30
0.0
 11
145.637
 21
267.46800000000002
 31
0.0
  0
ARC
  5
166
  8
_________1
 62
     7
 10
131.89311699999999
 20
269.46031499999998
 30
0.0
 40
0.516338
 50
92.207081000000017
 51
177.872411
  0
ARC
  5
167
  8
_________1
 62
     7
 10
131.89247800000001
 20
224.29979800000001
 30
0.0
 40
0.515675
 50
182.059325
 51
267.86118199999999
  0
LINE
  5
168
  8
_________1
 62
     7
 10
52.756999999999998
 20
183.57400000000001
 30
0.0
 11
54.968400000000003
 21
184.167
 31
0.0
  0
LINE
  5
169
  8
_________1
 62
     7
 10
54.968400000000003
 20
184.167
 30
0.0
 11
52.756999999999998
 21
184.75899999999999
 31
0.0
  0
LINE
  5
16A
  8
_________1
 62
     7
 10
52.756999999999998
 20
184.75899999999999
 30
0.0
 11
52.756999999999998
 21
183.57400000000001
 31
0.0
  0
LINE
  5
16B
  8
_________1
 62
     7
 10
50.679600000000001
 20
184.75899999999999
 30
0.0
 11
48.4681
 21
184.167
 31
0.0
  0
LINE
  5
16C
  8
_________1
 62
     7
 10
48.4681
 20
184.167
 30
0.0
 11
50.679600000000001
 21
183.57400000000001
 31
0.0
  0
LINE
  5
16D
  8
_________1
 62
     7
 10
50.679600000000001
 20
183.57400000000001
 30
0.0
 11
50.679600000000001
 21
184.75899999999999
 31
0.0
  0
LINE
  5
16E
  8
_________1
 62
     7
 10
103.791
 20
82.154300000000006
 30
0.0
 11
104.383
 21
79.942599999999999
 31
0.0
  0
LINE
  5
16F
  8
_________1
 62
     7
 10
104.383
 20
79.942599999999999
 30
0.0
 11
104.976
 21
82.154300000000006
 31
0.0
  0
LINE
  5
170
  8
_________1
 62
     7
 10
104.976
 20
82.154300000000006
 30
0.0
 11
103.791
 21
82.154300000000006
 31
0.0
  0
LINE
  5
171
  8
_________1
 62
     7
 10
104.976
 20
196.13200000000001
 30
0.0
 11
104.383
 21
198.34399999999999
 31
0.0
  0
LINE
  5
172
  8
_________1
 62
     7
 10
104.383
 20
198.34399999999999
 30
0.0
 11
103.791
 21
196.13200000000001
 31
0.0
  0
LINE
  5
173
  8
_________1
 62
     7
 10
103.791
 20
196.13200000000001
 30
0.0
 11
104.976
 21
196.13200000000001
 31
0.0
  0
LINE
  5
174
  8
_________1
 62
     7
 10
104.976
 20
76.930800000000005
 30
0.0
 11
104.383
 21
79.142600000000002
 31
0.0
  0
LINE
  5
175
  8
_________1
 62
     7
 10
104.383
 20
79.142600000000002
 30
0.0
 11
103.791
 21
76.930800000000005
 31
0.0
  0
LINE
  5
176
  8
_________1
 62
     7
 10
103.791
 20
76.930800000000005
 30
0.0
 11
104.976
 21
76.930800000000005
 31
0.0
  0
LINE
  5
177
  8
_________1
 62
     7
 10
111.687
 20
81.354399999999998
 30
0.0
 11
112.28
 21
79.142600000000002
 31
0.0
  0
LINE
  5
178
  8
_________1
 62
     7
 10
112.28
 20
79.142600000000002
 30
0.0
 11
112.872
 21
81.354399999999998
 31
0.0
  0
LINE
  5
179
  8
_________1
 62
     7
 10
112.872
 20
81.354399999999998
 30
0.0
 11
111.687
 21
81.354399999999998
 31
0.0
  0
LINE
  5
17A
  8
_________1
 62
     7
 10
103.791
 20
201.35499999999999
 30
0.0
 11
104.383
 21
199.14400000000001
 31
0.0
  0
LINE
  5
17B
  8
_________1
 62
     7
 10
104.383
 20
199.14400000000001
 30
0.0
 11
104.976
 21
201.35499999999999
 31
0.0
  0
LINE
  5
17C
  8
_________1
 62
     7
 10
104.976
 20
201.35499999999999
 30
0.0
 11
103.791
 21
201.35499999999999
 31
0.0
  0
LINE
  5
17D
  8
_________1
 62
     7
 10
112.872
 20
196.93199999999999
 30
0.0
 11
112.28
 21
199.14400000000001
 31
0.0
  0
LINE
  5
17E
  8
_________1
 62
     7
 10
112.28
 20
199.14400000000001
 30
0.0
 11
111.687
 21
196.93199999999999
 31
0.0
  0
LINE
  5
17F
  8
_________1
 62
     7
 10
111.687
 20
196.93199999999999
 30
0.0
 11
112.872
 21
196.93199999999999
 31
0.0
  0
LINE
  5
180
  8
_________1
 62
     7
 10
94.937299999999993
 20
198.34399999999999
 30
0.0
 11
105.083
 21
198.34399999999999
 31
0.0
  0
LINE
  5
181
  8
_________1
 62
     7
 10
104.383
 20
74.877600000000001
 30
0.0
 11
104.383
 21
204.059
 31
0.0
  0
LINE
  5
182
  8
_________1
 62
     7
 10
94.937299999999993
 20
79.942599999999999
 30
0.0
 11
105.083
 21
79.942599999999999
 31
0.0
  0
LINE
  5
183
  8
_________1
 62
     7
 10
112.28
 20
199.14400000000001
 30
0.0
 11
112.28
 21
79.142600000000002
 31
0.0
  0
LINE
  5
184
  8
_________1
 62
     7
 10
94.983800000000002
 20
79.142600000000002
 30
0.0
 11
112.98
 21
79.142600000000002
 31
0.0
  0
LINE
  5
185
  8
_________1
 62
     7
 10
94.983800000000002
 20
199.14400000000001
 30
0.0
 11
112.98
 21
199.14400000000001
 31
0.0
  0
LINE
  5
186
  8
_________1
 62
     7
 10
91.457400000000007
 20
204.47800000000001
 30
0.0
 11
93.668800000000005
 21
205.071
 31
0.0
  0
LINE
  5
187
  8
_________1
 62
     7
 10
93.668800000000005
 20
205.071
 30
0.0
 11
91.457400000000007
 21
205.66300000000001
 31
0.0
  0
LINE
  5
188
  8
_________1
 62
     7
 10
91.457400000000007
 20
205.66300000000001
 30
0.0
 11
91.457400000000007
 21
204.47800000000001
 31
0.0
  0
LINE
  5
189
  8
_________1
 62
     7
 10
63.680100000000003
 20
205.66300000000001
 30
0.0
 11
61.468600000000002
 21
205.071
 31
0.0
  0
LINE
  5
18A
  8
_________1
 62
     7
 10
61.468600000000002
 20
205.071
 30
0.0
 11
63.680100000000003
 21
204.47800000000001
 31
0.0
  0
LINE
  5
18B
  8
_________1
 62
     7
 10
63.680100000000003
 20
204.47800000000001
 30
0.0
 11
63.680100000000003
 21
205.66300000000001
 31
0.0
  0
LINE
  5
18C
  8
_________1
 62
     7
 10
96.680199999999999
 20
205.66300000000001
 30
0.0
 11
94.468699999999998
 21
205.071
 31
0.0
  0
LINE
  5
18D
  8
_________1
 62
     7
 10
94.468699999999998
 20
205.071
 30
0.0
 11
96.680199999999999
 21
204.47800000000001
 31
0.0
  0
LINE
  5
18E
  8
_________1
 62
     7
 10
96.680199999999999
 20
204.47800000000001
 30
0.0
 11
96.680199999999999
 21
205.66300000000001
 31
0.0
  0
LINE
  5
18F
  8
_________1
 62
     7
 10
59.257199999999997
 20
204.47800000000001
 30
0.0
 11
61.468600000000002
 21
205.071
 31
0.0
  0
LINE
  5
190
  8
_________1
 62
     7
 10
61.468600000000002
 20
205.071
 30
0.0
 11
59.257199999999997
 21
205.66300000000001
 31
0.0
  0
LINE
  5
191
  8
_________1
 62
     7
 10
59.257199999999997
 20
205.66300000000001
 30
0.0
 11
59.257199999999997
 21
204.47800000000001
 31
0.0
  0
LINE
  5
192
  8
_________1
 62
     7
 10
92.257300000000001
 20
209.624
 30
0.0
 11
94.468699999999998
 21
210.21600000000001
 31
0.0
  0
LINE
  5
193
  8
_________1
 62
     7
 10
94.468699999999998
 20
210.21600000000001
 30
0.0
 11
92.257300000000001
 21
210.809
 31
0.0
  0
LINE
  5
194
  8
_________1
 62
     7
 10
92.257300000000001
 20
210.809
 30
0.0
 11
92.257300000000001
 21
209.624
 31
0.0
  0
LINE
  5
195
  8
_________1
 62
     7
 10
46.256700000000002
 20
204.47800000000001
 30
0.0
 11
48.4681
 21
205.071
 31
0.0
  0
LINE
  5
196
  8
_________1
 62
     7
 10
48.4681
 20
205.071
 30
0.0
 11
46.256700000000002
 21
205.66300000000001
 31
0.0
  0
LINE
  5
197
  8
_________1
 62
     7
 10
46.256700000000002
 20
205.66300000000001
 30
0.0
 11
46.256700000000002
 21
204.47800000000001
 31
0.0
  0
LINE
  5
198
  8
_________1
 62
     7
 10
50.679600000000001
 20
210.809
 30
0.0
 11
48.4681
 21
210.21600000000001
 31
0.0
  0
LINE
  5
199
  8
_________1
 62
     7
 10
48.4681
 20
210.21600000000001
 30
0.0
 11
50.679600000000001
 21
209.624
 31
0.0
  0
LINE
  5
19A
  8
_________1
 62
     7
 10
50.679600000000001
 20
209.624
 30
0.0
 11
50.679600000000001
 21
210.809
 31
0.0
  0
LINE
  5
19B
  8
_________1
 62
     7
 10
51.479500000000002
 20
205.66300000000001
 30
0.0
 11
49.26809999999999
 21
205.071
 31
0.0
  0
LINE
  5
19C
  8
_________1
 62
     7
 10
49.26809999999999
 20
205.071
 30
0.0
 11
51.479500000000002
 21
204.47800000000001
 31
0.0
  0
LINE
  5
19D
  8
_________1
 62
     7
 10
51.479500000000002
 20
204.47800000000001
 30
0.0
 11
51.479500000000002
 21
205.66300000000001
 31
0.0
  0
LINE
  5
19E
  8
_________1
 62
     7
 10
59.257199999999997
 20
183.57400000000001
 30
0.0
 11
61.468600000000002
 21
184.167
 31
0.0
  0
LINE
  5
19F
  8
_________1
 62
     7
 10
61.468600000000002
 20
184.167
 30
0.0
 11
59.257199999999997
 21
184.75899999999999
 31
0.0
  0
LINE
  5
1A0
  8
_________1
 62
     7
 10
59.257199999999997
 20
184.75899999999999
 30
0.0
 11
59.257199999999997
 21
183.57400000000001
 31
0.0
  0
LINE
  5
1A1
  8
_________1
 62
     7
 10
57.1798
 20
184.75899999999999
 30
0.0
 11
54.968400000000003
 21
184.167
 31
0.0
  0
LINE
  5
1A2
  8
_________1
 62
     7
 10
54.968400000000003
 20
184.167
 30
0.0
 11
57.1798
 21
183.57400000000001
 31
0.0
  0
LINE
  5
1A3
  8
_________1
 62
     7
 10
57.1798
 20
183.57400000000001
 30
0.0
 11
57.1798
 21
184.75899999999999
 31
0.0
  0
LINE
  5
1A4
  8
_________1
 62
     7
 10
48.6173
 20
84.796000000000006
 30
0.0
 11
50.468400000000003
 21
83.448700000000002
 31
0.0
  0
LINE
  5
1A5
  8
_________1
 62
     7
 10
50.468400000000003
 20
83.448700000000002
 30
0.0
 11
49.538899999999998
 21
85.540899999999993
 31
0.0
  0
LINE
  5
1A6
  8
_________1
 62
     7
 10
49.538899999999998
 20
85.540899999999993
 30
0.0
 11
48.6173
 21
84.796000000000006
 31
0.0
  0
LINE
  5
1A7
  8
_________1
 62
     7
 10
50.468400000000003
 20
83.448700000000002
 30
0.0
 11
43.967399999999998
 21
91.490899999999996
 31
0.0
  0
LINE
  5
1A8
  8
_________1
 62
     7
 10
43.967399999999998
 20
91.490899999999996
 30
0.0
 11
26.116199999999999
 21
91.490899999999996
 31
0.0
  0
LINE
  5
1A9
  8
_________1
 62
     7
 10
70.757000000000005
 20
149.285
 30
0.0
 11
72.968400000000003
 21
149.87700000000001
 31
0.0
  0
LINE
  5
1AA
  8
_________1
 62
     7
 10
72.968400000000003
 20
149.87700000000001
 30
0.0
 11
70.757000000000005
 21
150.47
 31
0.0
  0
LINE
  5
1AB
  8
_________1
 62
     7
 10
70.757000000000005
 20
150.47
 30
0.0
 11
70.757000000000005
 21
149.285
 31
0.0
  0
LINE
  5
1AC
  8
_________1
 62
     7
 10
50.679600000000001
 20
150.47
 30
0.0
 11
48.4681
 21
149.87700000000001
 31
0.0
  0
LINE
  5
1AD
  8
_________1
 62
     7
 10
48.4681
 20
149.87700000000001
 30
0.0
 11
50.679600000000001
 21
149.285
 31
0.0
  0
LINE
  5
1AE
  8
_________1
 62
     7
 10
50.679600000000001
 20
149.285
 30
0.0
 11
50.679600000000001
 21
150.47
 31
0.0
  0
LINE
  5
1AF
  8
_________1
 62
     7
 10
72.968400000000003
 20
149.87700000000001
 30
0.0
 11
48.4681
 21
149.87700000000001
 31
0.0
  0
LINE
  5
1B0
  8
_________1
 62
     7
 10
72.968400000000003
 20
144.84299999999999
 30
0.0
 11
72.968400000000003
 21
150.577
 31
0.0
  0
LINE
  5
1B1
  8
_________1
 62
     7
 10
49.26809999999999
 20
199.589
 30
0.0
 11
49.26809999999999
 21
205.77099999999999
 31
0.0
  0
LINE
  5
1B2
  8
_________1
 62
     7
 10
99.399699999999996
 20
205.071
 30
0.0
 11
43.552300000000002
 21
205.071
 31
0.0
  0
LINE
  5
1B3
  8
_________1
 62
     7
 10
93.668800000000005
 20
199.589
 30
0.0
 11
93.668800000000005
 21
205.77099999999999
 31
0.0
  0
LINE
  5
1B4
  8
_________1
 62
     7
 10
61.468600000000002
 20
199.464
 30
0.0
 11
61.468600000000002
 21
205.77099999999999
 31
0.0
  0
LINE
  5
1B5
  8
_________1
 62
     7
 10
48.4681
 20
210.21600000000001
 30
0.0
 11
94.468699999999998
 21
210.21600000000001
 31
0.0
  0
LINE
  5
1B6
  8
_________1
 62
     7
 10
94.468699999999998
 20
199.96899999999999
 30
0.0
 11
94.468699999999998
 21
210.916
 31
0.0
  0
LINE
  5
1B7
  8
_________1
 62
     7
 10
48.4681
 20
199.96899999999999
 30
0.0
 11
48.4681
 21
210.916
 31
0.0
  0
LINE
  5
1B8
  8
_________1
 62
     7
 10
54.968400000000003
 20
173.69799999999989
 30
0.0
 11
54.968400000000003
 21
184.86699999999999
 31
0.0
  0
LINE
  5
1B9
  8
_________1
 62
     7
 10
54.968400000000003
 20
184.167
 30
0.0
 11
48.4681
 21
184.167
 31
0.0
  0
LINE
  5
1BA
  8
_________1
 62
     7
 10
61.468600000000002
 20
184.167
 30
0.0
 11
54.968400000000003
 21
184.167
 31
0.0
  0
INSERT
  5
1BB
  8
_________1
 62
     7
  2
AIGNBL02010005
 10
0.0
 20
0.0
 30
0.0
  0
LINE
  5
1BC
  8
_________1
 62
     7
 10
50.8384
 20
169.393
 30
0.0
 11
38.528599999999997
 21
169.393
 31
0.0
  0
LINE
  5
1BD
  8
_________1
 62
     7
 10
50.5456
 20
108.893
 30
0.0
 11
38.528599999999997
 21
108.893
 31
0.0
  0
LINE
  5
1BE
  8
_________1
 62
     7
 10
52.585799999999999
 20
105.672
 30
0.0
 11
53.730899999999998
 21
107.655
 31
0.0
  0
LINE
  5
1BF
  8
_________1
 62
     7
 10
53.730899999999998
 20
107.655
 30
0.0
 11
51.747599999999998
 21
106.51000000000001
 31
0.0
  0
LINE
  5
1C0
  8
_________1
 62
     7
 10
51.747599999999998
 20
106.51000000000001
 30
0.0
 11
52.585799999999999
 21
105.672
 31
0.0
  0
LINE
  5
1C1
  8
_________1
 62
     7
 10
57.351399999999998
 20
112.113
 30
0.0
 11
56.206200000000003
 21
110.13
 31
0.0
  0
LINE
  5
1C2
  8
_________1
 62
     7
 10
56.206200000000003
 20
110.13
 30
0.0
 11
58.1892
 21
111.27500000000001
 31
0.0
  0
LINE
  5
1C3
  8
_________1
 62
     7
 10
58.1892
 20
111.27500000000001
 30
0.0
 11
57.351399999999998
 21
112.113
 31
0.0
  0
LINE
  5
1C4
  8
_________1
 62
     7
 10
62.853900000000003
 20
116.77800000000001
 30
0.0
 11
50.767400000000002
 21
104.69199999999999
 31
0.0
  0
LINE
  5
1C5
  8
_________1
 62
     7
 10
62.853900000000003
 20
116.77800000000001
 30
0.0
 11
68.888400000000004
 21
116.77800000000001
 31
0.0
  0
LINE
  5
1C6
  8
_________1
 62
     7
 10
52.585799999999999
 20
166.172
 30
0.0
 11
53.730899999999998
 21
168.155
 31
0.0
  0
LINE
  5
1C7
  8
_________1
 62
     7
 10
53.730899999999998
 20
168.155
 30
0.0
 11
51.747599999999998
 21
167.011
 31
0.0
  0
LINE
  5
1C8
  8
_________1
 62
     7
 10
51.747599999999998
 20
167.011
 30
0.0
 11
52.585799999999999
 21
166.172
 31
0.0
  0
LINE
  5
1C9
  8
_________1
 62
     7
 10
57.351399999999998
 20
172.614
 30
0.0
 11
56.206200000000003
 21
170.631
 31
0.0
  0
LINE
  5
1CA
  8
_________1
 62
     7
 10
56.206200000000003
 20
170.631
 30
0.0
 11
58.1892
 21
171.77600000000001
 31
0.0
  0
LINE
  5
1CB
  8
_________1
 62
     7
 10
58.1892
 20
171.77600000000001
 30
0.0
 11
57.351399999999998
 21
172.614
 31
0.0
  0
LINE
  5
1CC
  8
_________1
 62
     7
 10
62.853900000000003
 20
177.27799999999999
 30
0.0
 11
50.767400000000002
 21
165.19200000000001
 31
0.0
  0
LINE
  5
1CD
  8
_________1
 62
     7
 10
62.853900000000003
 20
177.27799999999999
 30
0.0
 11
68.888400000000004
 21
177.27799999999999
 31
0.0
  0
LINE
  5
1CE
  8
_________1
 62
     7
 10
70.232299999999995
 20
135.56899999999999
 30
0.0
 11
71.377499999999998
 21
137.55199999999999
 31
0.0
  0
LINE
  5
1CF
  8
_________1
 62
     7
 10
71.377499999999998
 20
137.55199999999999
 30
0.0
 11
69.394099999999995
 21
136.40700000000001
 31
0.0
  0
LINE
  5
1D0
  8
_________1
 62
     7
 10
69.394099999999995
 20
136.40700000000001
 30
0.0
 11
70.232299999999995
 21
135.56899999999999
 31
0.0
  0
LINE
  5
1D1
  8
_________1
 62
     7
 10
75.700800000000001
 20
142.714
 30
0.0
 11
74.555599999999998
 21
140.73099999999999
 31
0.0
  0
LINE
  5
1D2
  8
_________1
 62
     7
 10
74.555599999999998
 20
140.73099999999999
 30
0.0
 11
76.539000000000001
 21
141.875
 31
0.0
  0
LINE
  5
1D3
  8
_________1
 62
     7
 10
76.539000000000001
 20
141.875
 30
0.0
 11
75.700800000000001
 21
142.714
 31
0.0
  0
LINE
  5
1D4
  8
_________1
 62
     7
 10
78.284300000000002
 20
144.459
 30
0.0
 11
68.414000000000001
 21
134.589
 31
0.0
  0
LINE
  5
1D5
  8
_________1
 62
     7
 10
78.284300000000002
 20
144.459
 30
0.0
 11
84.319100000000006
 21
144.459
 31
0.0
  0
LINE
  5
1D6
  8
_________1
  6
AIGENLINE002
 62
     7
 10
72.968400000000003
 20
134.143
 30
0.0
 11
72.968400000000003
 21
144.143
 31
0.0
  0
LINE
  5
1D7
  8
_________1
  6
AIGENLINE002
 62
     7
 10
51.245600000000003
 20
108.893
 30
0.0
 11
58.56580000000001
 21
108.893
 31
0.0
  0
LINE
  5
1D8
  8
_________1
  6
AIGENLINE002
 62
     7
 10
51.538400000000003
 20
169.393
 30
0.0
 11
58.575400000000002
 21
169.393
 31
0.0
  0
LINE
  5
1D9
  8
_________1
  6
AIGENLINE002
 62
     7
 10
45.197699999999998
 20
102.643
 30
0.0
 11
51.738900000000001
 21
102.643
 31
0.0
  0
LINE
  5
1DA
  8
_________1
  6
AIGENLINE002
 62
     7
 10
45.197699999999998
 20
175.643
 30
0.0
 11
51.738900000000001
 21
175.643
 31
0.0
  0
LINE
  5
1DB
  8
_________1
  6
AIGENLINE002
 62
     7
 10
45.197699999999998
 20
139.143
 30
0.0
 11
97.415700000000015
 21
139.143
 31
0.0
  0
LINE
  5
1DC
  8
_________1
  6
AIGENLINE002
 62
     7
 10
54.968400000000003
 20
165.732
 30
0.0
 11
54.968400000000003
 21
172.99799999999999
 31
0.0
  0
LINE
  5
1DD
  8
_________1
  6
AIGENLINE002
 62
     7
 10
54.968400000000003
 20
105.371
 30
0.0
 11
54.968400000000003
 21
112.735
 31
0.0
  0
LINE
  5
1DE
  8
_________1
 62
     7
 10
51.968400000000003
 20
81.142799999999994
 30
0.0
 11
51.968400000000003
 21
86.142700000000005
 31
0.0
  0
LINE
  5
1DF
  8
_________1
 62
     7
 10
51.968400000000003
 20
86.142700000000005
 30
0.0
 11
50.468400000000003
 21
86.142700000000005
 31
0.0
  0
LINE
  5
1E0
  8
_________1
 62
     7
 10
50.468400000000003
 20
86.142700000000005
 30
0.0
 11
50.468400000000003
 21
81.142799999999994
 31
0.0
  0
LINE
  5
1E1
  8
_________1
 62
     7
 10
50.468400000000003
 20
81.142799999999994
 30
0.0
 11
51.968400000000003
 21
81.142799999999994
 31
0.0
  0
ARC
  5
1E2
  8
_________1
 62
     7
 10
54.968395999999998
 20
108.892922
 30
0.0
 40
1.7501199999999999
 50
0.00001
 51
89.999980000000008
  0
ARC
  5
1E3
  8
_________1
 62
     7
 10
54.968396999999989
 20
108.892922
 30
0.0
 40
1.7501199999999999
 50
90.0
 51
179.99996999999999
  0
ARC
  5
1E4
  8
_________1
 62
     7
 10
54.968223999999999
 20
108.893094
 30
0.0
 40
1.7499469999999999
 50
180.00565
 51
270.00565999999998
  0
ARC
  5
1E5
  8
_________1
 62
     7
 10
54.968567999999998
 20
108.893095
 30
0.0
 40
1.7499480000000001
 50
269.99437999999998
 51
359.99435
  0
ARC
  5
1E6
  8
_________1
 62
     7
 10
54.968395999999998
 20
169.393315
 30
0.0
 40
1.7501199999999999
 50
0.00001
 51
89.999980000000008
  0
ARC
  5
1E7
  8
_________1
 62
     7
 10
54.968396999999989
 20
169.393315
 30
0.0
 40
1.7501199999999999
 50
90.0
 51
179.99996999999999
  0
ARC
  5
1E8
  8
_________1
 62
     7
 10
54.968395999999998
 20
169.393315
 30
0.0
 40
1.7501189999999991
 50
179.99996999999999
 51
270.00002000000001
  0
ARC
  5
1E9
  8
_________1
 62
     7
 10
54.968395999999998
 20
169.393316
 30
0.0
 40
1.7501199999999999
 50
270.00002000000001
 51
359.99999000000003
  0
ARC
  5
1EA
  8
_________1
 62
     7
 10
72.968616999999995
 20
139.14294599999999
 30
0.0
 40
3.500067
 50
0.00283
 51
90.002800000000008
  0
ARC
  5
1EB
  8
_________1
 62
     7
 10
72.968446
 20
139.14311799999999
 30
0.0
 40
3.4998949999999991
 50
90.0
 51
179.99996999999999
  0
ARC
  5
1EC
  8
_________1
 62
     7
 10
72.968443999999991
 20
139.14311799999999
 30
0.0
 40
3.4998939999999998
 50
179.99996999999999
 51
270.00002000000001
  0
ARC
  5
1ED
  8
_________1
 62
     7
 10
72.968616999999995
 20
139.143291
 30
0.0
 40
3.500067
 50
269.99720000000002
 51
359.9971700000001
  0
ARC
  5
1EE
  8
_________1
 62
     7
 10
72.968444999999974
 20
139.14311799999999
 30
0.0
 40
2.2500059999999991
 50
0.00001
 51
89.999980000000008
  0
ARC
  5
1EF
  8
_________1
 62
     7
 10
72.968444999999974
 20
139.14311799999999
 30
0.0
 40
2.2500059999999991
 50
90.0
 51
179.99996999999999
  0
ARC
  5
1F0
  8
_________1
 62
     7
 10
72.968444999999974
 20
139.14311799999999
 30
0.0
 40
2.2500059999999991
 50
179.99996999999999
 51
270.00002000000001
  0
ARC
  5
1F1
  8
_________1
 62
     7
 10
72.968444999999974
 20
139.14311900000001
 30
0.0
 40
2.2500059999999991
 50
270.00002000000001
 51
359.99999000000003
  0
LINE
  5
1F2
  8
_________1
 62
     7
 10
61.468600000000002
 20
79.942899999999995
 30
0.0
 11
61.468600000000002
 21
198.34399999999999
 31
0.0
  0
ARC
  5
1F3
  8
_________1
 62
     7
 10
93.968502000000015
 20
79.642842999999999
 30
0.0
 40
0.5002310000000002
 50
270.00002000000001
 51
359.99999000000003
  0
ARC
  5
1F4
  8
_________1
 62
     7
 10
93.149249999999995
 20
80.462452999999996
 30
0.0
 40
0.519898
 50
272.12699300000003
 51
357.83354300000002
  0
LINE
  5
1F5
  8
_________1
 62
     7
 10
93.668800000000005
 20
80.442800000000005
 30
0.0
 11
93.668800000000005
 21
197.84399999999999
 31
0.0
  0
LINE
  5
1F6
  8
_________1
 62
     7
 10
94.468699999999998
 20
79.642799999999994
 30
0.0
 11
94.468699999999998
 21
198.64400000000001
 31
0.0
  0
ARC
  5
1F7
  8
_________1
 62
     7
 10
48.968379999999989
 20
79.642842999999999
 30
0.0
 40
0.5002310000000002
 50
179.99996999999999
 51
270.00002000000001
  0
ARC
  5
1F8
  8
_________1
 62
     7
 10
49.78731299999999
 20
80.462132999999994
 30
0.0
 40
0.519567
 50
182.132598
 51
267.90690499999999
  0
LINE
  5
1F9
  8
_________1
 62
     7
 10
49.26809999999999
 20
80.442800000000005
 30
0.0
 11
49.26809999999999
 21
197.84399999999999
 31
0.0
  0
LINE
  5
1FA
  8
_________1
 62
     7
 10
48.4681
 20
79.642799999999994
 30
0.0
 11
48.4681
 21
198.64400000000001
 31
0.0
  0
ARC
  5
1FB
  8
_________1
 62
     7
 10
93.949519999999993
 20
198.62440000000001
 30
0.0
 40
0.519573
 50
2.133124
 51
87.906339000000017
  0
ARC
  5
1FC
  8
_________1
 62
     7
 10
48.987681000000002
 20
198.62407999999999
 30
0.0
 40
0.519904
 50
92.127519000000007
 51
177.832978
  0
ARC
  5
1FD
  8
_________1
 62
     7
 10
49.787636999999997
 20
197.82412400000001
 30
0.0
 40
0.519904
 50
92.127519000000007
 51
177.832978
  0
ARC
  5
1FE
  8
_________1
 62
     7
 10
93.149563999999984
 20
197.824443
 30
0.0
 40
0.519573
 50
2.133124
 51
87.906339000000017
  0
LINE
  5
1FF
  8
_________1
 62
     7
 10
49.768300000000004
 20
198.34399999999999
 30
0.0
 11
93.168499999999995
 21
198.34399999999999
 31
0.0
  0
LINE
  5
200
  8
_________1
 62
     7
 10
48.968400000000003
 20
199.14400000000001
 30
0.0
 11
93.968500000000006
 21
199.14400000000001
 31
0.0
  0
LINE
  5
201
  8
_________1
 62
     7
 10
49.768300000000004
 20
79.942899999999995
 30
0.0
 11
93.168499999999995
 21
79.942899999999995
 31
0.0
  0
LINE
  5
202
  8
_________1
 62
     7
 10
48.968400000000003
 20
79.142600000000002
 30
0.0
 11
93.968500000000006
 21
79.142600000000002
 31
0.0
  0
LINE
  5
203
  8
_________1
 62
     7
 10
134.42599999999999
 20
203.87799999999999
 30
0.0
 11
136.637
 21
204.47
 31
0.0
  0
LINE
  5
204
  8
_________1
 62
     7
 10
136.637
 20
204.47
 30
0.0
 11
134.42599999999999
 21
205.06299999999999
 31
0.0
  0
LINE
  5
205
  8
_________1
 62
     7
 10
134.42599999999999
 20
205.06299999999999
 30
0.0
 11
134.42599999999999
 21
203.87799999999999
 31
0.0
  0
LINE
  5
206
  8
_________1
 62
     7
 10
133.34899999999999
 20
205.06299999999999
 30
0.0
 11
131.137
 21
204.47
 31
0.0
  0
LINE
  5
207
  8
_________1
 62
     7
 10
131.137
 20
204.47
 30
0.0
 11
133.34899999999999
 21
203.87799999999999
 31
0.0
  0
LINE
  5
208
  8
_________1
 62
     7
 10
133.34899999999999
 20
203.87799999999999
 30
0.0
 11
133.34899999999999
 21
205.06299999999999
 31
0.0
  0
LINE
  5
209
  8
_________1
 62
     7
 10
143.42599999999999
 20
209.024
 30
0.0
 11
145.637
 21
209.61699999999999
 31
0.0
  0
LINE
  5
20A
  8
_________1
 62
     7
 10
145.637
 20
209.61699999999999
 30
0.0
 11
143.42599999999999
 21
210.209
 31
0.0
  0
LINE
  5
20B
  8
_________1
 62
     7
 10
143.42599999999999
 20
210.209
 30
0.0
 11
143.42599999999999
 21
209.024
 31
0.0
  0
LINE
  5
20C
  8
_________1
 62
     7
 10
133.34899999999999
 20
210.209
 30
0.0
 11
131.137
 21
209.61699999999999
 31
0.0
  0
LINE
  5
20D
  8
_________1
 62
     7
 10
131.137
 20
209.61699999999999
 30
0.0
 11
133.34899999999999
 21
209.024
 31
0.0
  0
LINE
  5
20E
  8
_________1
 62
     7
 10
133.34899999999999
 20
209.024
 30
0.0
 11
133.34899999999999
 21
210.209
 31
0.0
  0
LINE
  5
20F
  8
_________1
 62
     7
 10
136.637
 20
204.47
 30
0.0
 11
131.137
 21
204.47
 31
0.0
  0
LINE
  5
210
  8
_________1
 62
     7
 10
131.137
 20
209.61699999999999
 30
0.0
 11
145.637
 21
209.61699999999999
 31
0.0
  0
LINE
  5
211
  8
_________1
 62
     7
 10
139.83699999999999
 20
175.643
 30
0.0
 11
155.91499999999999
 21
175.643
 31
0.0
  0
LINE
  5
212
  8
_________1
 62
     7
 10
139.83699999999999
 20
102.642
 30
0.0
 11
155.93299999999999
 21
102.642
 31
0.0
  0
INSERT
  5
213
  8
_________1
 62
     7
  2
AIGNBL02010006
 10
0.0
 20
0.0
 30
0.0
  0
LINE
  5
214
  8
_________1
 62
     7
 10
145.637
 20
199.84399999999999
 30
0.0
 11
145.637
 21
210.31700000000001
 31
0.0
  0
LINE
  5
215
  8
_________1
 62
     7
 10
131.137
 20
199.96799999999999
 30
0.0
 11
131.137
 21
210.31700000000001
 31
0.0
  0
LINE
  5
216
  8
_________1
 62
     7
 10
136.637
 20
178.84299999999999
 30
0.0
 11
136.637
 21
205.17099999999999
 31
0.0
  0
ARC
  5
217
  8
_________1
  6
AIGENLINE001
 62
     7
 10
135.299012
 20
139.104489
 30
0.0
 40
1.0391209999999991
 50
2.130487
 51
87.869502999999995
  0
ARC
  5
218
  8
_________1
  6
AIGENLINE001
 62
     7
 10
135.37624400000001
 20
139.103801
 30
0.0
 40
1.039806999999999
 50
92.127519000000007
 51
177.832978
  0
ARC
  5
219
  8
_________1
  6
AIGENLINE001
 62
     7
 10
135.33764199999999
 20
139.14311799999999
 30
0.0
 40
1.000462
 50
179.99996999999999
 51
270.00002000000001
  0
ARC
  5
21A
  8
_________1
  6
AIGENLINE001
 62
     7
 10
135.29896400000001
 20
139.181082
 30
0.0
 40
1.0391449999999991
 50
272.13313399999998
 51
357.90634899999998
  0
ARC
  5
21B
  8
_________1
  6
AIGENLINE001
 62
     7
 10
136.59886499999999
 20
176.20445000000001
 30
0.0
 40
1.0391099999999991
 50
2.1299410000000001
 51
87.870048999999995
  0
ARC
  5
21C
  8
_________1
  6
AIGENLINE001
 62
     7
 10
136.67610400000001
 20
176.20445000000001
 30
0.0
 40
1.0391099999999991
 50
92.129931000000013
 51
177.87003899999999
  0
ARC
  5
21D
  8
_________1
  6
AIGENLINE001
 62
     7
 10
136.67611500000001
 20
175.08142100000001
 30
0.0
 40
1.0391209999999991
 50
182.13050699999999
 51
267.86952200000002
  0
ARC
  5
21E
  8
_________1
  6
AIGENLINE001
 62
     7
 10
136.59885499999999
 20
175.08142100000001
 30
0.0
 40
1.0391209999999991
 50
272.1304970000001
 51
357.86951299999998
  0
LINE
  5
21F
  8
_________1
  6
AIGENLINE001
 62
     7
 10
137.637
 20
175.04300000000001
 30
0.0
 11
137.637
 21
176.24299999999999
 31
0.0
  0
LINE
  5
220
  8
_________1
  6
AIGENLINE001
 62
     7
 10
135.63800000000001
 20
176.24299999999999
 30
0.0
 11
135.63800000000001
 21
175.04300000000001
 31
0.0
  0
ARC
  5
221
  8
_________1
  6
AIGENLINE001
 62
     7
 10
136.59886499999999
 20
103.20396599999999
 30
0.0
 40
1.0391099999999991
 50
2.1299410000000001
 51
87.870048999999995
  0
ARC
  5
222
  8
_________1
  6
AIGENLINE001
 62
     7
 10
136.67610400000001
 20
103.20396599999999
 30
0.0
 40
1.0391099999999991
 50
92.129931000000013
 51
177.87003899999999
  0
ARC
  5
223
  8
_________1
  6
AIGENLINE001
 62
     7
 10
136.67680200000001
 20
102.081597
 30
0.0
 40
1.039806999999999
 50
182.12754899999999
 51
267.83300800000001
  0
ARC
  5
224
  8
_________1
  6
AIGENLINE001
 62
     7
 10
136.598806
 20
102.080958
 30
0.0
 40
1.0391449999999991
 50
272.13313399999998
 51
357.90634899999998
  0
LINE
  5
225
  8
_________1
  6
AIGENLINE001
 62
     7
 10
137.637
 20
102.04300000000001
 30
0.0
 11
137.637
 21
103.24299999999999
 31
0.0
  0
LINE
  5
226
  8
_________1
  6
AIGENLINE001
 62
     7
 10
135.63800000000001
 20
103.24299999999999
 30
0.0
 11
135.63800000000001
 21
102.04300000000001
 31
0.0
  0
LINE
  5
227
  8
_________1
  6
AIGENLINE002
 62
     7
 10
135.33799999999999
 20
134.143
 30
0.0
 11
135.33799999999999
 21
144.143
 31
0.0
  0
LINE
  5
228
  8
_________1
  6
AIGENLINE002
 62
     7
 10
128.773
 20
139.143
 30
0.0
 11
147.01499999999999
 21
139.143
 31
0.0
  0
LINE
  5
229
  8
_________1
  6
AIGENLINE002
 62
     7
 10
136.637
 20
173.143
 30
0.0
 11
136.637
 21
178.143
 31
0.0
  0
LINE
  5
22A
  8
_________1
  6
AIGENLINE002
 62
     7
 10
136.637
 20
100.143
 30
0.0
 11
136.637
 21
105.143
 31
0.0
  0
LINE
  5
22B
  8
_________1
  6
AIGENLINE002
 62
     7
 10
134.13800000000001
 20
102.642
 30
0.0
 11
139.137
 21
102.642
 31
0.0
  0
LINE
  5
22C
  8
_________1
  6
AIGENLINE002
 62
     7
 10
134.13800000000001
 20
175.643
 30
0.0
 11
139.137
 21
175.643
 31
0.0
  0
LINE
  5
22D
  8
_________1
 62
     7
 10
145.637
 20
79.142600000000002
 30
0.0
 11
145.637
 21
199.14400000000001
 31
0.0
  0
LINE
  5
22E
  8
_________1
 62
     7
 10
145.637
 20
199.14400000000001
 30
0.0
 11
131.63800000000001
 21
199.14400000000001
 31
0.0
  0
ARC
  5
22F
  8
_________1
 62
     7
 10
131.637586
 20
198.643394
 30
0.0
 40
0.5002310000000002
 50
90.0
 51
179.99996999999999
  0
LINE
  5
230
  8
_________1
 62
     7
 10
131.137
 20
198.643
 30
0.0
 11
131.137
 21
79.642799999999994
 31
0.0
  0
ARC
  5
231
  8
_________1
 62
     7
 10
131.637586
 20
79.642842999999999
 30
0.0
 40
0.5002310000000002
 50
179.99996999999999
 51
270.00002000000001
  0
LINE
  5
232
  8
_________1
 62
     7
 10
131.63800000000001
 20
79.142600000000002
 30
0.0
 11
145.637
 21
79.142600000000002
 31
0.0
  0
LINE
  5
233
  8
_________1
 62
     7
 10
78.524699999999996
 20
267.97699999999998
 30
0.0
 11
86.6511
 21
267.97699999999998
 31
0.0
  0
LINE
  5
234
  8
_________1
 62
     7
 10
78.524699999999996
 20
222.976
 30
0.0
 11
86.659999999999997
 21
222.976
 31
0.0
  0
INSERT
  5
235
  8
_________1
 62
     7
  2
AIGNBL02010007
 10
0.0
 20
0.0
 30
0.0
  0
INSERT
  5
236
  8
_________1
 62
     7
  2
AIGNBL02010008
 10
0.0
 20
0.0
 30
0.0
  0
INSERT
  5
237
  8
_________1
 62
     7
  2
AIGNBL02010009
 10
0.0
 20
0.0
 30
0.0
  0
LINE
  5
238
  8
_________1
 62
     7
 10
72.968400000000003
 20
248.80199999999999
 30
0.0
 11
72.968400000000003
 21
251.66900000000001
 31
0.0
  0
LINE
  5
239
  8
_________1
  6
AIGENLINE003
 62
     7
 10
60.718299999999999
 20
222.976
 30
0.0
 11
60.718299999999999
 21
267.97699999999998
 31
0.0
  0
LINE
  5
23A
  8
_________1
 62
     7
 10
60.718299999999999
 20
222.976
 30
0.0
 11
77.218299999999999
 21
222.976
 31
0.0
  0
LINE
  5
23B
  8
_________1
 62
     7
 10
77.718599999999995
 20
223.476
 30
0.0
 11
77.718599999999995
 21
245.477
 31
0.0
  0
LINE
  5
23C
  8
_________1
 62
     7
 10
60.718299999999999
 20
221.881
 30
0.0
 11
60.718299999999999
 21
222.976
 31
0.0
  0
ARC
  5
23D
  8
_________1
 62
     7
 10
77.180644000000001
 20
223.51384200000001
 30
0.0
 40
0.539248
 50
274.008715
 51
355.99129500000009
  0
LINE
  5
23E
  8
_________1
 62
     7
 10
60.718299999999999
 20
267.97699999999998
 30
0.0
 11
77.218299999999999
 21
267.97699999999998
 31
0.0
  0
LINE
  5
23F
  8
_________1
 62
     7
 10
77.718599999999995
 20
267.476
 30
0.0
 11
77.718599999999995
 21
245.477
 31
0.0
  0
LINE
  5
240
  8
_________1
 62
     7
 10
60.718299999999999
 20
269.07100000000003
 30
0.0
 11
60.718299999999999
 21
267.97699999999998
 31
0.0
  0
ARC
  5
241
  8
_________1
 62
     7
 10
77.180579000000009
 20
267.43873000000002
 30
0.0
 40
0.5393180000000001
 50
4.0151339999999998
 51
85.984856000000008
  0
LINE
  5
242
  8
_________1
 62
     7
 10
57.990099999999991
 20
257.90199999999999
 30
0.0
 11
57.990099999999991
 21
261.05099999999999
 31
0.0
  0
LINE
  5
243
  8
_________1
 62
     7
 10
60.718299999999999
 20
259.47699999999998
 30
0.0
 11
57.990099999999991
 21
257.90199999999999
 31
0.0
  0
LINE
  5
244
  8
_________1
 62
     7
 10
57.990099999999991
 20
261.05099999999999
 30
0.0
 11
60.718299999999999
 21
259.47699999999998
 31
0.0
  0
ARC
  5
245
  8
_________1
  6
AIGENLINE001
 62
     7
 10
72.901561000000001
 20
245.409077
 30
0.0
 40
1.8182469999999999
 50
2.1193779999999989
 51
87.891891999999999
  0
ARC
  5
246
  8
_________1
  6
AIGENLINE001
 62
     7
 10
72.968272999999996
 20
245.476146
 30
0.0
 40
1.7499480000000001
 50
89.994360000000015
 51
179.99432999999999
  0
ARC
  5
247
  8
_________1
  6
AIGENLINE001
 62
     7
 10
72.968271999999999
 20
245.47649000000001
 30
0.0
 40
1.7499469999999999
 50
180.00565
 51
270.00565999999998
  0
ARC
  5
248
  8
_________1
  6
AIGENLINE001
 62
     7
 10
72.900848999999994
 20
245.54427200000001
 30
0.0
 40
1.818984999999999
 50
272.129683
 51
357.85904699999998
  0
ARC
  5
249
  8
_________1
  6
AIGENLINE001
 62
     7
 10
72.968444999999974
 20
245.47631799999999
 30
0.0
 40
1.124830999999999
 50
0.00001
 51
89.999980000000008
  0
ARC
  5
24A
  8
_________1
  6
AIGENLINE001
 62
     7
 10
72.968272999999996
 20
245.476146
 30
0.0
 40
1.1250029999999991
 50
89.991226999999995
 51
179.991197
  0
ARC
  5
24B
  8
_________1
  6
AIGENLINE001
 62
     7
 10
72.968271999999999
 20
245.47649100000001
 30
0.0
 40
1.1250029999999991
 50
180.00878299999999
 51
270.00879300000003
  0
ARC
  5
24C
  8
_________1
  6
AIGENLINE001
 62
     7
 10
72.968444999999974
 20
245.47631899999999
 30
0.0
 40
1.124830999999999
 50
270.00002000000001
 51
359.99999000000003
  0
LINE
  5
24D
  8
_________1
  6
AIGENLINE002
 62
     7
 10
59.085000000000001
 20
245.476
 30
0.0
 11
79.107600000000005
 21
245.476
 31
0.0
  0
LINE
  5
24E
  8
_________1
  6
AIGENLINE002
 62
     7
 10
72.968400000000003
 20
248.102
 30
0.0
 11
72.968400000000003
 21
242.851
 31
0.0
  0
LINE
  5
24F
  8
_________1
 62
     7
 10
75.026600000000002
 20
235.215
 30
0.0
 11
62.836999999999989
 21
235.215
 31
0.0
  0
LINE
  5
250
  8
_________1
 62
     7
 10
67.561999999999983
 20
262.46100000000001
 30
0.0
 11
72.317700000000002
 21
262.46100000000001
 31
0.0
  0
LINE
  5
251
  8
_________1
 62
     7
 10
70.6554
 20
242.19499999999999
 30
0.0
 11
71.799199999999999
 21
244.17599999999999
 31
0.0
  0
LINE
  5
252
  8
_________1
 62
     7
 10
71.799199999999999
 20
244.17599999999999
 30
0.0
 11
69.817499999999995
 21
243.03299999999999
 31
0.0
  0
LINE
  5
253
  8
_________1
 62
     7
 10
69.817499999999995
 20
243.03299999999999
 30
0.0
 11
70.6554
 21
242.19499999999999
 31
0.0
  0
LINE
  5
254
  8
_________1
 62
     7
 10
71.799199999999999
 20
244.17599999999999
 30
0.0
 11
62.836999999999989
 21
235.215
 31
0.0
  0
LINE
  5
255
  8
_________1
 62
     7
 10
76.439099999999996
 20
265.745
 30
0.0
 11
77.582800000000006
 21
267.72699999999998
 31
0.0
  0
LINE
  5
256
  8
_________1
 62
     7
 10
77.582800000000006
 20
267.72699999999998
 30
0.0
 11
75.601200000000006
 21
266.58300000000003
 31
0.0
  0
LINE
  5
257
  8
_________1
 62
     7
 10
75.601200000000006
 20
266.58300000000003
 30
0.0
 11
76.439099999999996
 21
265.745
 31
0.0
  0
LINE
  5
258
  8
_________1
 62
     7
 10
77.582800000000006
 20
267.72699999999998
 30
0.0
 11
72.317700000000002
 21
262.46100000000001
 31
0.0
  0
LINE
  5
259
  8
_________1
 62
     7
 10
69.216700000000003
 20
227.12100000000001
 30
0.0
 11
73.595500000000001
 21
227.12100000000001
 31
0.0
  0
LINE
  5
25A
  8
_________1
 62
     7
 10
76.439099999999996
 20
225.11600000000001
 30
0.0
 11
77.582800000000006
 21
223.13399999999999
 31
0.0
  0
LINE
  5
25B
  8
_________1
 62
     7
 10
77.582800000000006
 20
223.13399999999999
 30
0.0
 11
75.601200000000006
 21
224.279
 31
0.0
  0
LINE
  5
25C
  8
_________1
 62
     7
 10
75.601200000000006
 20
224.279
 30
0.0
 11
76.439099999999996
 21
225.11600000000001
 31
0.0
  0
LINE
  5
25D
  8
_________1
 62
     7
 10
77.582800000000006
 20
223.13399999999999
 30
0.0
 11
73.595500000000001
 21
227.12100000000001
 31
0.0
  0
LINE
  5
25E
  8
_________1
 62
     7
 10
178.16099999999989
 20
200.44800000000001
 30
0.0
 11
178.16099999999989
 21
197.648
 31
0.0
  0
LINE
  5
25F
  8
_________1
 62
     7
 10
178.16099999999989
 20
197.648
 30
0.0
 11
175.56100000000001
 21
197.648
 31
0.0
  0
LINE
  5
260
  8
_________1
 62
     7
 10
175.56100000000001
 20
197.648
 30
0.0
 11
175.56100000000001
 21
200.44800000000001
 31
0.0
  0
LINE
  5
261
  8
_________1
 62
     7
 10
175.56100000000001
 20
200.44800000000001
 30
0.0
 11
178.16099999999989
 21
200.44800000000001
 31
0.0
  0
LINE
  5
262
  8
_________1
 62
     7
 10
180.66200000000001
 20
197.648
 30
0.0
 11
180.66200000000001
 21
197.048
 31
0.0
  0
LINE
  5
263
  8
_________1
 62
     7
 10
180.66200000000001
 20
197.048
 30
0.0
 11
173.06099999999989
 21
197.048
 31
0.0
  0
LINE
  5
264
  8
_________1
 62
     7
 10
173.06099999999989
 20
197.048
 30
0.0
 11
173.06099999999989
 21
197.648
 31
0.0
  0
LINE
  5
265
  8
_________1
 62
     7
 10
173.06099999999989
 20
197.648
 30
0.0
 11
180.66200000000001
 21
197.648
 31
0.0
  0
LINE
  5
266
  8
_________1
 62
     7
 10
179.31099999999989
 20
197.048
 30
0.0
 11
179.31099999999989
 21
196.8479999999999
 31
0.0
  0
LINE
  5
267
  8
_________1
 62
     7
 10
179.31099999999989
 20
196.8479999999999
 30
0.0
 11
174.411
 21
196.8479999999999
 31
0.0
  0
LINE
  5
268
  8
_________1
 62
     7
 10
174.411
 20
196.8479999999999
 30
0.0
 11
174.411
 21
197.048
 31
0.0
  0
LINE
  5
269
  8
_________1
 62
     7
 10
174.411
 20
197.048
 30
0.0
 11
179.31099999999989
 21
197.048
 31
0.0
  0
LINE
  5
26A
  8
_________1
 62
     7
 10
179.86199999999999
 20
194.07300000000001
 30
0.0
 11
179.86199999999999
 21
193.673
 31
0.0
  0
LINE
  5
26B
  8
_________1
 62
     7
 10
179.86199999999999
 20
193.673
 30
0.0
 11
173.86199999999999
 21
193.673
 31
0.0
  0
LINE
  5
26C
  8
_________1
 62
     7
 10
173.86199999999999
 20
193.673
 30
0.0
 11
173.86199999999999
 21
194.07300000000001
 31
0.0
  0
LINE
  5
26D
  8
_________1
 62
     7
 10
173.86199999999999
 20
194.07300000000001
 30
0.0
 11
179.86199999999999
 21
194.07300000000001
 31
0.0
  0
INSERT
  5
26E
  8
_________1
 62
     7
  2
AIGNBL0201000A
 10
0.0
 20
0.0
 30
0.0
  0
LINE
  5
26F
  8
_________1
 62
     7
 10
175.96000000000001
 20
226.65600000000001
 30
0.0
 11
176.86199999999999
 21
227.857
 31
0.0
  0
LINE
  5
270
  8
_________1
 62
     7
 10
177.762
 20
226.65600000000001
 30
0.0
 11
177.75999999999999
 21
215.85599999999999
 31
0.0
  0
LINE
  5
271
  8
_________1
 62
     7
 10
175.96000000000001
 20
226.65600000000001
 30
0.0
 11
175.96100000000001
 21
215.85599999999999
 31
0.0
  0
LINE
  5
272
  8
_________1
 62
     7
 10
177.75999999999999
 20
204.05699999999999
 30
0.0
 11
177.56200000000001
 21
203.858
 31
0.0
  0
LINE
  5
273
  8
_________1
 62
     7
 10
177.56200000000001
 20
212.857
 30
0.0
 11
177.75999999999999
 21
213.05699999999999
 31
0.0
  0
LINE
  5
274
  8
_________1
 62
     7
 10
176.16099999999989
 20
212.857
 30
0.0
 11
175.96100000000001
 21
213.05699999999999
 31
0.0
  0
LINE
  5
275
  8
_________1
 62
     7
 10
176.16200000000001
 20
203.858
 30
0.0
 11
175.96199999999999
 21
204.05799999999999
 31
0.0
  0
LINE
  5
276
  8
_________1
 62
     7
 10
176.16200000000001
 20
203.858
 30
0.0
 11
176.16099999999989
 21
212.857
 31
0.0
  0
LINE
  5
277
  8
_________1
 62
     7
 10
177.56200000000001
 20
203.858
 30
0.0
 11
177.56200000000001
 21
212.857
 31
0.0
  0
LINE
  5
278
  8
_________1
 62
     7
 10
177.75999999999999
 20
204.05699999999999
 30
0.0
 11
177.761
 21
213.65600000000001
 31
0.0
  0
LINE
  5
279
  8
_________1
 62
     7
 10
175.96199999999999
 20
204.05799999999999
 30
0.0
 11
175.96100000000001
 21
213.65600000000001
 31
0.0
  0
LINE
  5
27A
  8
_________1
 62
     7
 10
176.16200000000001
 20
215.85599999999999
 30
0.0
 11
176.16099999999989
 21
213.857
 31
0.0
  0
LINE
  5
27B
  8
_________1
 62
     7
 10
177.56200000000001
 20
215.85599999999999
 30
0.0
 11
177.56100000000001
 21
213.857
 31
0.0
  0
LINE
  5
27C
  8
_________1
 62
     7
 10
177.761
 20
213.65600000000001
 30
0.0
 11
177.56100000000001
 21
213.857
 31
0.0
  0
LINE
  5
27D
  8
_________1
 62
     7
 10
176.16099999999989
 20
213.857
 30
0.0
 11
175.96100000000001
 21
213.65600000000001
 31
0.0
  0
LINE
  5
27E
  8
_________1
 62
     7
 10
176.86199999999999
 20
227.857
 30
0.0
 11
177.762
 21
226.65600000000001
 31
0.0
  0
LINE
  5
27F
  8
_________1
 62
     7
 10
175.56100000000001
 20
216.161
 30
0.0
 11
178.16
 21
217.185
 31
0.0
  0
LINE
  5
280
  8
_________1
 62
     7
 10
175.56100000000001
 20
217.04900000000001
 30
0.0
 11
178.16099999999989
 21
218.07300000000001
 31
0.0
  0
LINE
  5
281
  8
_________1
 62
     7
 10
175.56100000000001
 20
217.93700000000001
 30
0.0
 11
178.16099999999989
 21
218.96199999999999
 31
0.0
  0
LINE
  5
282
  8
_________1
 62
     7
 10
175.56100000000001
 20
218.82499999999999
 30
0.0
 11
178.16
 21
219.84899999999999
 31
0.0
  0
LINE
  5
283
  8
_________1
 62
     7
 10
175.56100000000001
 20
219.71299999999999
 30
0.0
 11
178.16099999999989
 21
220.73699999999999
 31
0.0
  0
LINE
  5
284
  8
_________1
 62
     7
 10
175.56100000000001
 20
220.59899999999999
 30
0.0
 11
178.16099999999989
 21
221.624
 31
0.0
  0
LINE
  5
285
  8
_________1
 62
     7
 10
175.56100000000001
 20
221.48699999999999
 30
0.0
 11
178.16099999999989
 21
222.512
 31
0.0
  0
LINE
  5
286
  8
_________1
 62
     7
 10
175.56100000000001
 20
222.375
 30
0.0
 11
178.16099999999989
 21
223.399
 31
0.0
  0
LINE
  5
287
  8
_________1
 62
     7
 10
175.56100000000001
 20
223.26300000000001
 30
0.0
 11
178.16099999999989
 21
224.28700000000001
 31
0.0
  0
LINE
  5
288
  8
_________1
 62
     7
 10
175.56100000000001
 20
224.15100000000001
 30
0.0
 11
178.16099999999989
 21
225.17500000000001
 31
0.0
  0
LINE
  5
289
  8
_________1
 62
     7
 10
175.56100000000001
 20
225.03899999999999
 30
0.0
 11
178.16
 21
226.06100000000001
 31
0.0
  0
LINE
  5
28A
  8
_________1
 62
     7
 10
175.56
 20
225.92599999999999
 30
0.0
 11
178.16
 21
226.94999999999999
 31
0.0
  0
LINE
  5
28B
  8
_________1
 62
     7
 10
175.96199999999999
 20
215.85599999999999
 30
0.0
 11
177.75999999999999
 21
215.85599999999999
 31
0.0
  0
LINE
  5
28C
  8
_________1
 62
     7
 10
175.96199999999999
 20
212.858
 30
0.0
 11
177.75999999999999
 21
212.857
 31
0.0
  0
LINE
  5
28D
  8
_________1
 62
     7
 10
175.96199999999999
 20
204.05799999999999
 30
0.0
 11
177.75999999999999
 21
204.05699999999999
 31
0.0
  0
LINE
  5
28E
  8
_________1
 62
     7
 10
170.018
 20
227.857
 30
0.0
 11
175.56100000000001
 21
227.85599999999999
 31
0.0
  0
LINE
  5
28F
  8
_________1
 62
     7
 10
170.01900000000001
 20
215.85599999999999
 30
0.0
 11
175.56100000000001
 21
215.858
 31
0.0
  0
LINE
  5
290
  8
_________1
 62
     7
 10
170.018
 20
212.858
 30
0.0
 11
175.56100000000001
 21
212.857
 31
0.0
  0
LINE
  5
291
  8
_________1
 62
     7
 10
170.01900000000001
 20
203.858
 30
0.0
 11
175.559
 21
203.858
 31
0.0
  0
LINE
  5
292
  8
_________1
 62
     7
 10
176.16200000000001
 20
203.858
 30
0.0
 11
177.56200000000001
 21
203.858
 31
0.0
  0
ARC
  5
293
  8
_________1
 62
     7
 10
178.36193399999999
 20
189.32055199999999
 30
0.0
 40
0.881961
 50
90.063546000000017
 51
102.519994
  0
ARC
  5
294
  8
_________1
 62
     7
 10
178.52136400000001
 20
188.45662799999999
 30
0.0
 40
1.7601869999999991
 50
101.48993
 51
112.044298
  0
ARC
  5
295
  8
_________1
 62
     7
 10
176.855289
 20
184.04716300000001
 30
0.0
 40
6.1567309999999988
 50
85.414697999999987
 51
89.940885999999992
  0
ARC
  5
296
  8
_________1
 62
     7
 10
177.10684000000001
 20
187.252475
 30
0.0
 40
2.9415729999999991
 50
77.506598999999994
 51
85.307620999999997
  0
ARC
  5
297
  8
_________1
 62
     7
 10
177.564121
 20
189.33528799999999
 30
0.0
 40
0.809168
 50
68.496746999999999
 51
77.215193999999997
  0
ARC
  5
298
  8
_________1
 62
     7
 10
178.36002500000001
 20
189.32990699999999
 30
0.0
 40
0.872606
 50
77.335184999999996
 51
89.938897999999995
  0
ARC
  5
299
  8
_________1
 62
     7
 10
178.20409599999999
 20
188.492749
 30
0.0
 40
1.723868999999999
 50
67.618470000000002
 51
78.379186000000004
  0
ARC
  5
29A
  8
_________1
 62
     7
 10
175.35837100000001
 20
189.47318899999999
 30
0.0
 40
0.7307090000000001
 50
83.802397999999997
 51
89.743956999999995
  0
ARC
  5
29B
  8
_________1
 62
     7
 10
175.297876
 20
188.900732
 30
0.0
 40
1.3063519999999991
 50
72.237133999999998
 51
83.875196000000003
  0
ARC
  5
29C
  8
_________1
 62
     7
 10
175.15970200000001
 20
188.35861600000001
 30
0.0
 40
1.865084999999999
 50
67.907059000000004
 51
73.275533999999993
  0
ARC
  5
29D
  8
_________1
 62
     7
 10
176.86779999999999
 20
184.090157
 30
0.0
 40
6.1137360000000003
 50
90.057710999999998
 51
94.628951999999998
  0
ARC
  5
29E
  8
_________1
 62
     7
 10
176.61437900000001
 20
187.28746699999999
 30
0.0
 40
2.906409
 50
94.736153000000002
 51
102.6390719999999
  0
ARC
  5
29F
  8
_________1
 62
     7
 10
176.15917200000001
 20
189.34015299999999
 30
0.0
 40
0.8038759999999999
 50
102.993256
 51
111.758499
  0
ARC
  5
2A0
  8
_________1
 62
     7
 10
175.36256700000001
 20
189.33128500000001
 30
0.0
 40
0.872606
 50
90.061083000000011
 51
102.664795
  0
ARC
  5
2A1
  8
_________1
 62
     7
 10
175.518496
 20
188.49412699999999
 30
0.0
 40
1.723868999999999
 50
101.620794
 51
112.38151000000001
  0
ARC
  5
2A2
  8
_________1
 62
     7
 10
178.35837799999999
 20
189.486908
 30
0.0
 40
0.858129
 50
257.35807
 51
270.17212999999998
  0
ARC
  5
2A3
  8
_________1
 62
     7
 10
178.51345499999999
 20
190.32818700000001
 30
0.0
 40
1.713266999999999
 50
247.630166
 51
258.45513499999998
  0
ARC
  5
2A4
  8
_________1
 62
     7
 10
176.87707599999999
 20
194.64370099999999
 30
0.0
 40
6.0149400000000002
 50
269.84640999999999
 51
274.48656299999999
  0
ARC
  5
2A5
  8
_________1
 62
     7
 10
177.111064
 20
191.55809099999999
 30
0.0
 40
2.920491999999999
 50
274.645511
 51
282.40693299999998
  0
ARC
  5
2A6
  8
_________1
 62
     7
 10
177.55636899999999
 20
189.51155600000001
 30
0.0
 40
0.8260899999999999
 50
282.73978799999998
 51
291.67018100000001
  0
ARC
  5
2A7
  8
_________1
 62
     7
 10
178.360005
 20
189.506787
 30
0.0
 40
0.8780040000000001
 50
270.06206700000001
 51
282.58704000000012
  0
ARC
  5
2A8
  8
_________1
 62
     7
 10
178.204026
 20
190.34814600000001
 30
0.0
 40
1.7334130000000001
 50
281.55830200000003
 51
292.25417900000002
  0
ARC
  5
2A9
  8
_________1
 62
     7
 10
175.356337
 20
189.519766
 30
0.0
 40
0.891684
 50
270.29628700000001
 51
282.62039700000003
  0
ARC
  5
2AA
  8
_________1
 62
     7
 10
175.19612900000001
 20
190.37488400000001
 30
0.0
 40
1.761409
 50
281.62828400000001
 51
292.18304799999999
  0
ARC
  5
2AB
  8
_________1
 62
     7
 10
176.8521879999999
 20
194.73579899999999
 30
0.0
 40
6.1070229999999999
 50
265.51298300000002
 51
270.08222999999998
  0
ARC
  5
2AC
  8
_________1
 62
     7
 10
176.61242799999999
 20
191.570774
 30
0.0
 40
2.932952999999999
 50
257.62412
 51
265.34526199999999
  0
ARC
  5
2AD
  8
_________1
 62
     7
 10
176.16664
 20
189.51548399999999
 30
0.0
 40
0.8298950000000001
 50
248.40319400000001
 51
257.27407199999999
  0
ARC
  5
2AE
  8
_________1
 62
     7
 10
175.35835900000001
 20
189.489913
 30
0.0
 40
0.861823
 50
257.38530299999991
 51
270.172121
  0
ARC
  5
2AF
  8
_________1
 62
     7
 10
175.51239200000001
 20
190.32727499999999
 30
0.0
 40
1.712920999999999
 50
247.63865000000001
 51
258.47446000000002
  0
LINE
  5
2B0
  8
_________1
  6
AIGENLINE002
 62
     7
 10
176.86199999999999
 20
184.98400000000001
 30
0.0
 11
176.86099999999999
 21
232.09399999999999
 31
0.0
  0
LINE
  5
2B1
  8
_________1
 62
     7
 10
174.86099999999999
 20
188.74299999999999
 30
0.0
 11
174.86199999999999
 21
190.08799999999999
 31
0.0
  0
LINE
  5
2B2
  8
_________1
 62
     7
 10
175.86099999999999
 20
188.744
 30
0.0
 11
175.86099999999999
 21
190.08699999999999
 31
0.0
  0
LINE
  5
2B3
  8
_________1
 62
     7
 10
178.86000000000001
 20
188.744
 30
0.0
 11
178.86000000000001
 21
190.08699999999999
 31
0.0
  0
LINE
  5
2B4
  8
_________1
 62
     7
 10
177.86099999999999
 20
188.74299999999999
 30
0.0
 11
177.863
 21
190.08799999999999
 31
0.0
  0
LINE
  5
2B5
  8
_________1
 62
     7
 10
178.53399999999999
 20
190.21600000000001
 30
0.0
 11
176.86199999999999
 21
190.21600000000001
 31
0.0
  0
LINE
  5
2B6
  8
_________1
 62
     7
 10
176.86199999999999
 20
190.21600000000001
 30
0.0
 11
175.18899999999999
 21
190.21600000000001
 31
0.0
  0
LINE
  5
2B7
  8
_________1
 62
     7
 10
178.86000000000001
 20
190.08699999999999
 30
0.0
 11
178.53399999999999
 21
190.21600000000001
 31
0.0
  0
LINE
  5
2B8
  8
_________1
 62
     7
 10
178.535
 20
188.61600000000001
 30
0.0
 11
175.18899999999999
 21
188.61500000000001
 31
0.0
  0
LINE
  5
2B9
  8
_________1
 62
     7
 10
175.18899999999999
 20
188.61500000000001
 30
0.0
 11
174.86099999999999
 21
188.74299999999999
 31
0.0
  0
LINE
  5
2BA
  8
_________1
 62
     7
 10
178.535
 20
188.61600000000001
 30
0.0
 11
178.86000000000001
 21
188.744
 31
0.0
  0
LINE
  5
2BB
  8
_________1
 62
     7
 10
178.86000000000001
 20
190.08699999999999
 30
0.0
 11
178.53399999999999
 21
190.21600000000001
 31
0.0
  0
LINE
  5
2BC
  8
_________1
 62
     7
 10
174.86199999999999
 20
190.08799999999999
 30
0.0
 11
175.18899999999999
 21
190.21600000000001
 31
0.0
  0
TEXT
  5
2BD
  8
_________2
 62
     7
 10
26.512799999999999
 20
66.018100000000004
 30
0.0
 40
3.9357000000000002
  1
※壁取付部には厚さ30mm以上の補強木を入れてください。
 41
0.5
  0
TEXT
  5
2BE
  8
_________2
 62
     7
 10
26.512799999999999
 20
61.098500000000001
 30
0.0
 40
3.9357000000000002
  1
※排水栓を閉めた状態で、水栓2台合わせて毎分10L以上吐水させないでください。
 41
0.5
  0
TEXT
  5
2BF
  8
_________2
 62
     7
 10
29.525700000000001
 20
22.2272
 30
0.0
 40
3.9357000000000002
  1
実容量：11.5L、重量：28.8kg、オーバーフロー付
 41
0.5
  0
LINE
  5
2C0
  8
_________2
 62
     7
 10
105.239
 20
17.4285
 30
0.0
 11
105.239
 21
0.4485540000000001
 31
0.0
  0
INSERT
  5
2C1
  8
_________2
 62
     7
  2
AIGNBL03010002
 10
0.0
 20
0.0
 30
0.0
  0
TEXT
  5
2C2
  8
_________2
 62
     7
 10
109.544
 20
23.199100000000001
 30
0.0
 40
3.0923400000000001
  1
図番
 41
0.5
  0
LINE
  5
2C3
  8
_________2
 62
     7
 10
108.489
 20
27.4283
 30
0.0
 11
188.49000000000001
 21
27.4283
 31
0.0
  0
TEXT
  5
2C4
  8
_________2
 62
     7
 10
109.544
 20
33.198900000000002
 30
0.0
 40
3.0923400000000001
  1
品番
 41
0.5
  0
TEXT
  5
2C5
  8
_________2
 62
     7
 10
109.544
 20
53.338000000000001
 30
0.0
 40
3.0923400000000001
  1
名称
 41
0.5
  0
TEXT
  5
2C6
  8
_________2
 62
     7
 10
96.784058333333334
 20
48.341900000000003
 30
0.0
 40
3.6545800000000002
  1
mm
 41
0.5
 72
     1
 11
98.306799999999996
 21
48.341900000000003
 31
0.0
  0
TEXT
  5
2C7
  8
_________2
 62
     7
 10
90.582099999999997
 20
53.338000000000001
 30
0.0
 40
3.0923400000000001
  1
単位
 41
0.5
  0
TEXT
  5
2C8
  8
_________2
 62
     7
 10
90.582099999999997
 20
40.930399999999999
 30
0.0
 40
3.0923400000000001
  1
尺度
 41
0.5
  0
TEXT
  5
2C9
  8
_________2
 62
     7
 10
95.030836166666674
 20
34.7378
 30
0.0
 40
3.6545800000000002
  1
1 ： 10
 41
0.5
 72
     1
 11
98.898600000000002
 21
34.7378
 31
0.0
  0
TEXT
  5
2CA
  8
_________2
 62
     7
 10
143.40538749999999
 20
30.627800000000001
 30
0.0
 40
3.9357000000000002
  1
SB5107
 41
0.5
 72
     1
 11
148.489
 21
30.627800000000001
 31
0.0
  0
TEXT
  5
2CB
  8
_________2
 62
     7
 10
143.40538749999999
 20
20.626999999999999
 30
0.0
 40
3.9357000000000002
  1
SB5107
 41
0.5
 72
     1
 11
148.489
 21
20.626999999999999
 31
0.0
  0
TEXT
  5
2CC
  8
_________2
 62
     7
 10
114.11799999999999
 20
45.745600000000003
 30
0.0
 40
3.9357000000000002
  1
TR2 洗面器
 41
0.5
  0
TEXT
  5
2CD
  8
_________2
 62
     7
 10
44.303290666666669
 20
35.123000000000012
 30
0.0
 40
3.6545800000000002
  1
篠崎
 41
0.5
 72
     1
 11
46.252400000000002
 21
35.123000000000012
 31
0.0
  0
TEXT
  5
2CE
  8
_________2
 62
     7
 10
25.729290666666671
 20
35.123000000000012
 30
0.0
 40
3.6545800000000002
  1
飯塚
 41
0.5
 72
     1
 11
27.6784
 21
35.123000000000012
 31
0.0
  0
TEXT
  5
2CF
  8
_________2
 62
     7
 10
72.724699999999999
 20
34.7378
 30
0.0
 40
3.6545800000000002
  1
17.10.05
 41
0.5
  0
TEXT
  5
2D0
  8
_________2
 62
     7
 10
71.531999999999996
 20
40.930399999999999
 30
0.0
 40
3.0923400000000001
  1
日付
 41
0.5
  0
TEXT
  5
2D1
  8
_________2
 62
     7
 10
34.578299999999999
 20
40.930399999999999
 30
0.0
 40
3.0923400000000001
  1
検図
 41
0.5
  0
TEXT
  5
2D2
  8
_________2
 62
     7
 10
22.9602
 20
26.731000000000002
 30
0.0
 40
3.0923400000000001
  1
備考
 41
0.5
  0
TEXT
  5
2D3
  8
_________2
 62
     7
 10
22.9602
 20
40.930399999999999
 30
0.0
 40
3.0923400000000001
  1
製図
 41
0.5
  0
TEXT
  5
2D4
  8
_________2
 62
     7
 10
28.727365333333339
 20
49.456400000000002
 30
0.0
 40
4.4979399999999989
  1
セラトレーディング株式会社
 41
0.5
 72
     1
 11
46.119399999999992
 21
49.456400000000002
 31
0.0
  0
LINE
  5
2D5
  8
_________2
 62
     7
 10
188.49000000000001
 20
17.4285
 30
0.0
 11
21.988499999999998
 21
17.4285
 31
0.0
  0
LINE
  5
2D6
  8
_________2
 62
     7
 10
21.988499999999998
 20
17.4285
 30
0.0
 11
21.988499999999998
 21
280.43000000000001
 31
0.0
  0
LINE
  5
2D7
  8
_________2
 62
     7
 10
21.988499999999998
 20
280.43000000000001
 30
0.0
 11
188.49000000000001
 21
280.43000000000001
 31
0.0
  0
LINE
  5
2D8
  8
_________2
 62
     7
 10
188.49000000000001
 20
280.43000000000001
 30
0.0
 11
188.49000000000001
 21
17.4285
 31
0.0
  0
LINE
  5
2D9
  8
_________2
 62
     7
 10
70.488799999999998
 20
30.928899999999999
 30
0.0
 11
70.488799999999998
 21
57.428699999999992
 31
0.0
  0
LINE
  5
2DA
  8
_________2
 62
     7
 10
89.488600000000005
 20
30.928899999999999
 30
0.0
 11
89.488600000000005
 21
57.428699999999992
 31
0.0
  0
LINE
  5
2DB
  8
_________2
 62
     7
 10
108.489
 20
17.4285
 30
0.0
 11
108.489
 21
57.428699999999992
 31
0.0
  0
LINE
  5
2DC
  8
_________2
 62
     7
 10
33.488300000000002
 20
30.928899999999999
 30
0.0
 11
33.488300000000002
 21
44.928800000000003
 31
0.0
  0
LINE
  5
2DD
  8
_________2
 62
     7
 10
21.988499999999998
 20
30.928899999999999
 30
0.0
 11
108.489
 21
30.928899999999999
 31
0.0
  0
LINE
  5
2DE
  8
_________2
 62
     7
 10
21.988499999999998
 20
44.928800000000003
 30
0.0
 11
108.489
 21
44.928800000000003
 31
0.0
  0
LINE
  5
2DF
  8
_________2
 62
     7
 10
108.489
 20
37.428100000000001
 30
0.0
 11
188.49000000000001
 21
37.428100000000001
 31
0.0
  0
LINE
  5
2E0
  8
_________2
 62
     7
 10
21.988499999999998
 20
57.428699999999992
 30
0.0
 11
188.49000000000001
 21
57.428699999999992
 31
0.0
  0
LINE
  5
2E1
  8
_________2
 62
     7
 10
210.24000000000001
 20
148.93100000000001
 30
0.0
 11
188.489
 21
148.93100000000001
 31
0.0
  0
LINE
  5
2E2
  8
_________2
 62
     7
 10
105.239
 20
297.45100000000002
 30
0.0
 11
105.239
 21
280.43000000000001
 31
0.0
  0
LINE
  5
2E3
  8
_________2
 62
     7
 10
21.988499999999998
 20
148.93100000000001
 30
0.0
 11
0.238402
 21
148.93100000000001
 31
0.0
  0
ENDSEC
  0
EOF
