  0
SECTION
  2
HEADER
  9
$ACADVER
  1
AC1009
  9
$INSBASE
 10
0.0
 20
0.0
 30
0.0
  9
$EXTMIN
 10
0.0614953
 20
0.272164
 30
0.0
  9
$EXTMAX
 10
210.06399999999999
 20
297.274
 30
0.0
  9
$LIMMIN
 10
0.0
 20
0.0
  9
$LIMMAX
 10
12.0
 20
9.0
  9
$ORTHOMODE
 70
     0
  9
$REGENMODE
 70
     1
  9
$FILLMODE
 70
     1
  9
$QTEXTMODE
 70
     0
  9
$MIRRTEXT
 70
     1
  9
$DRAGMODE
 70
     2
  9
$LTSCALE
 40
1.0
  9
$OSMODE
 70
    37
  9
$ATTMODE
 70
     1
  9
$TEXTSIZE
 40
0.0
  9
$TRACEWID
 40
0.05
  9
$TEXTSTYLE
  7
STANDARD
  9
$CLAYER
  8
0
  9
$CELTYPE
  6
CONTINUOUS
  9
$CECOLOR
 62
   256
  9
$DIMSCALE
 40
1.0
  9
$DIMASZ
 40
0.18
  9
$DIMEXO
 40
0.0625
  9
$DIMDLI
 40
0.38
  9
$DIMRND
 40
0.0
  9
$DIMDLE
 40
0.0
  9
$DIMEXE
 40
0.18
  9
$DIMTP
 40
0.0
  9
$DIMTM
 40
0.0
  9
$DIMTXT
 40
0.18
  9
$DIMCEN
 40
0.09
  9
$DIMTSZ
 40
0.0
  9
$DIMTOL
 70
     0
  9
$DIMLIM
 70
     0
  9
$DIMTIH
 70
     1
  9
$DIMTOH
 70
     1
  9
$DIMSE1
 70
     0
  9
$DIMSE2
 70
     0
  9
$DIMTAD
 70
     0
  9
$DIMZIN
 70
     0
  9
$DIMBLK
  1

  9
$DIMASO
 70
     1
  9
$DIMSHO
 70
     1
  9
$DIMPOST
  1

  9
$DIMAPOST
  1

  9
$DIMALT
 70
     0
  9
$DIMALTD
 70
     2
  9
$DIMALTF
 40
25.399999999999999
  9
$DIMLFAC
 40
1.0
  9
$DIMTOFL
 70
     0
  9
$DIMTVP
 40
0.0
  9
$DIMTIX
 70
     0
  9
$DIMSOXD
 70
     0
  9
$DIMSAH
 70
     0
  9
$DIMBLK1
  1

  9
$DIMBLK2
  1

  9
$DIMSTYLE
  2
STANDARD
  9
$DIMCLRD
 70
     0
  9
$DIMCLRE
 70
     0
  9
$DIMCLRT
 70
     0
  9
$DIMTFAC
 40
1.0
  9
$DIMGAP
 40
0.09
  9
$LUNITS
 70
     2
  9
$LUPREC
 70
     4
  9
$SKETCHINC
 40
0.1
  9
$FILLETRAD
 40
0.0
  9
$AUNITS
 70
     0
  9
$AUPREC
 70
     0
  9
$MENU
  1
.
  9
$ELEVATION
 40
0.0
  9
$PELEVATION
 40
0.0
  9
$THICKNESS
 40
0.0
  9
$LIMCHECK
 70
     0
  9
$BLIPMODE
 70
     0
  9
$CHAMFERA
 40
0.0
  9
$CHAMFERB
 40
0.0
  9
$SKPOLY
 70
     0
  9
$TDCREATE
 40
2444972.375
  9
$TDUPDATE
 40
2457829.2533704629
  9
$TDINDWG
 40
0.0000299421
  9
$TDUSRTIMER
 40
0.0000299421
  9
$USRTIMER
 70
     1
  9
$ANGBASE
 50
0.0
  9
$ANGDIR
 70
     0
  9
$PDMODE
 70
     0
  9
$PDSIZE
 40
0.0
  9
$PLINEWID
 40
0.0
  9
$COORDS
 70
     1
  9
$SPLFRAME
 70
     0
  9
$SPLINETYPE
 70
     6
  9
$SPLINESEGS
 70
     8
  9
$ATTDIA
 70
     1
  9
$ATTREQ
 70
     1
  9
$HANDLING
 70
     1
  9
$HANDSEED
  5
253
  9
$SURFTAB1
 70
     6
  9
$SURFTAB2
 70
     6
  9
$SURFTYPE
 70
     6
  9
$SURFU
 70
     6
  9
$SURFV
 70
     6
  9
$UCSNAME
  2

  9
$UCSORG
 10
0.0
 20
0.0
 30
0.0
  9
$UCSXDIR
 10
1.0
 20
0.0
 30
0.0
  9
$UCSYDIR
 10
0.0
 20
1.0
 30
0.0
  9
$PUCSNAME
  2

  9
$PUCSORG
 10
0.0
 20
0.0
 30
0.0
  9
$PUCSXDIR
 10
1.0
 20
0.0
 30
0.0
  9
$PUCSYDIR
 10
0.0
 20
1.0
 30
0.0
  9
$USERI1
 70
     0
  9
$USERI2
 70
     0
  9
$USERI3
 70
     0
  9
$USERI4
 70
     0
  9
$USERI5
 70
     0
  9
$USERR1
 40
0.0
  9
$USERR2
 40
0.0
  9
$USERR3
 40
0.0
  9
$USERR4
 40
0.0
  9
$USERR5
 40
0.0
  9
$WORLDVIEW
 70
     1
  9
$SHADEDGE
 70
     3
  9
$SHADEDIF
 70
    70
  9
$TILEMODE
 70
     1
  9
$MAXACTVP
 70
    48
  9
$PLIMCHECK
 70
     0
  9
$PEXTMIN
 10
1.0000000000000000E+020
 20
1.0000000000000000E+020
 30
1.0000000000000000E+020
  9
$PEXTMAX
 10
-1.0000000000000000E+020
 20
-1.0000000000000000E+020
 30
-1.0000000000000000E+020
  9
$PLIMMIN
 10
0.0
 20
0.0
  9
$PLIMMAX
 10
12.0
 20
9.0
  9
$UNITMODE
 70
     0
  9
$VISRETAIN
 70
     1
  9
$PLINEGEN
 70
     0
  9
$PSLTSCALE
 70
     1
  0
ENDSEC
  0
SECTION
  2
TABLES
  0
TABLE
  2
VPORT
 70
     1
  0
VPORT
  2
*ACTIVE
 70
     0
 10
0.0
 20
0.0
 11
1.0
 21
1.0
 12
177.8572474393483
 22
148.637
 13
0.0
 23
0.0
 14
1.0
 24
1.0
 15
0.0
 25
0.0
 16
0.0
 26
0.0
 36
1.0
 17
0.0
 27
0.0
 37
0.0
 40
289.90655304623237
 41
2.1063583815028899
 42
50.0
 43
0.0
 44
0.0
 50
0.0
 51
0.0
 71
     0
 72
   100
 73
     1
 74
     1
 75
     0
 76
     0
 77
     0
 78
     0
  0
ENDTAB
  0
TABLE
  2
LTYPE
 70
     3
  0
LTYPE
  2
CONTINUOUS
 70
     0
  3
Solid line
 72
    65
 73
     0
 40
0.0
  0
LTYPE
  2
AIGENLINE001
 70
     0
  3
generate AI->DXF Converter
 72
    65
 73
     2
 40
1.5522299999999991
 49
0.776115
 49
-0.776115
  0
LTYPE
  2
AIGENLINE002
 70
     0
  3
generate AI->DXF Converter
 72
    65
 73
     2
 40
1.5522299999999991
 49
0.776115
 49
-0.776115
  0
ENDTAB
  0
TABLE
  2
LAYER
 70
     2
  0
LAYER
  2
0
 70
     0
 62
     7
  6
CONTINUOUS
  0
LAYER
  2
_________2
 70
     0
 62
     7
  6
CONTINUOUS
  0
ENDTAB
  0
TABLE
  2
STYLE
 70
     1
  0
STYLE
  2
STANDARD
 70
     0
 40
0.0
 41
0.0
 50
0.0
 71
     0
 42
0.0
  3
TXT
  4
EXTFONT.SHX
  0
ENDTAB
  0
TABLE
  2
VIEW
 70
     0
  0
ENDTAB
  0
TABLE
  2
UCS
 70
     0
  0
ENDTAB
  0
TABLE
  2
APPID
 70
     3
  0
APPID
  2
ACAD
 70
     0
  0
APPID
  2
ACAD_NAV_VCDISPLAY
 70
     0
  0
APPID
  2
ACAD_MLEADERVER
 70
     0
  0
ENDTAB
  0
TABLE
  2
DIMSTYLE
 70
     1
  0
DIMSTYLE
  2
STANDARD
 70
     0
  3

  4

  5

  6

  7

 40
1.0
 41
0.18
 42
0.0625
 43
0.38
 44
0.18
 45
0.0
 46
0.0
 47
0.0
 48
0.0
140
0.18
141
0.09
142
0.0
143
25.399999999999999
144
1.0
145
0.0
146
1.0
147
0.09
 71
     0
 72
     0
 73
     1
 74
     1
 75
     0
 76
     0
 77
     0
 78
     0
170
     0
171
     2
172
     0
173
     0
174
     0
175
     0
176
     0
177
     0
178
     0
  0
ENDTAB
  0
ENDSEC
  0
SECTION
  2
BLOCKS
  0
BLOCK
  8
0
  2
$MODEL_SPACE
 70
     0
 10
0.0
 20
0.0
 30
0.0
  3
$MODEL_SPACE
  1

  0
ENDBLK
  5
1A
  8
0
  0
BLOCK
 67
     1
  8
0
  2
$PAPER_SPACE
 70
     0
 10
0.0
 20
0.0
 30
0.0
  3
$PAPER_SPACE
  1

  0
ENDBLK
  5
17
 67
     1
  8
0
  0
ENDSEC
  0
SECTION
  2
ENTITIES
  0
TEXT
  5
23
  8
0
 62
     7
 10
148.20045999999999
 20
106.06
 30
0.0
 40
3.092309999999999
  1
225
 41
0.5
 72
     1
 11
150.262
 21
106.06
 31
0.0
  0
TEXT
  5
24
  8
0
 62
     7
 10
41.691687999999999
 20
242.44399999999999
 30
0.0
 40
3.0923400000000001
  1
メーカーロゴ
 41
0.5
 72
     2
 11
52.411799999999992
 21
242.44399999999999
 31
0.0
  0
TEXT
  5
25
  8
0
 62
     7
 10
75.949280000000002
 20
222.053
 30
0.0
 40
3.0923400000000001
  1
%%c35
 41
0.5
 72
     2
 11
80.072400000000016
 21
222.053
 31
0.0
  0
TEXT
  5
26
  8
0
 62
     7
 10
76.213579999999993
 20
205.60499999999999
 30
0.0
 40
3.0923400000000001
  1
%%c45
 41
0.5
 72
     2
 11
80.336699999999979
 21
205.60499999999999
 31
0.0
  0
TEXT
  5
27
  8
0
 62
     7
 10
123.295965
 20
194.30500000000001
 30
0.0
 40
3.0923400000000001
  1
R10
 41
0.5
 72
     2
 11
126.646
 21
194.30500000000001
 31
0.0
  0
TEXT
  5
28
  8
0
 62
     7
 10
149.929
 20
218.7841525
 30
0.0
 40
3.092309999999999
  1
217
 50
90.0
 41
0.5
 72
     1
 11
149.929
 21
220.58799999999999
 31
0.0
  0
TEXT
  5
29
  8
0
 62
     7
 10
59.051699999999997
 20
237.5441525
 30
0.0
 40
3.092309999999999
  1
10
 50
90.0
 41
0.5
 72
     2
 11
59.051699999999997
 21
239.34800000000001
 31
0.0
  0
TEXT
  5
2A
  8
0
 62
     7
 10
59.051699999999997
 20
228.08953750000001
 30
0.0
 40
3.092309999999999
  1
57
 50
90.0
 41
0.5
 72
     1
 11
59.051699999999997
 21
229.37799999999999
 31
0.0
  0
TEXT
  5
2B
  8
0
 62
     7
 10
59.051699999999997
 20
221.83953750000001
 30
0.0
 40
3.092309999999999
  1
68
 50
90.0
 41
0.5
 72
     1
 11
59.051699999999997
 21
223.12799999999999
 31
0.0
  0
TEXT
  5
2C
  8
0
 62
     7
 10
37.816699999999997
 20
209.29530625000001
 30
0.0
 40
3.092309999999999
  1
440
 50
90.0
 41
0.5
 72
     1
 11
37.816699999999997
 21
211.22800000000001
 31
0.0
  0
TEXT
  5
2D
  8
0
 62
     7
 10
98.159999999999997
 20
184.59700000000001
 30
0.0
 40
3.092309999999999
  1
5
 50
90.0
 41
0.5
  0
TEXT
  5
2E
  8
0
 62
     7
 10
98.159999999999997
 20
202.92415249999999
 30
0.0
 40
3.092309999999999
  1
300
 50
90.0
 41
0.5
 72
     1
 11
98.159999999999997
 21
204.72800000000001
 31
0.0
  0
TEXT
  5
2F
  8
0
 62
     7
 10
98.159999999999997
 20
224.67415249999999
 30
0.0
 40
3.092309999999999
  1
135
 50
90.0
 41
0.5
 72
     1
 11
98.159999999999997
 21
226.47800000000001
 31
0.0
  0
TEXT
  5
30
  8
0
 62
     7
 10
157.76400000000001
 20
134.99415250000001
 30
0.0
 40
3.092309999999999
  1
10
 50
90.0
 41
0.5
 72
     2
 11
157.76400000000001
 21
136.798
 31
0.0
  0
TEXT
  5
31
  8
0
 62
     7
 10
99.397099999999995
 20
126.01338375
 30
0.0
 40
3.092309999999999
  1
70
 50
90.0
 41
0.5
 72
     1
 11
99.397099999999995
 21
127.173
 31
0.0
  0
TEXT
  5
32
  8
0
 62
     7
 10
137.16800000000001
 20
124.20899875000001
 30
0.0
 40
3.092309999999999
  1
120
 50
90.0
 41
0.5
 72
     1
 11
137.16800000000001
 21
125.884
 31
0.0
  0
TEXT
  5
33
  8
0
 62
     7
 10
169.459
 20
120.49899875
 30
0.0
 40
3.092309999999999
  1
170
 50
90.0
 41
0.5
 72
     1
 11
169.459
 21
122.17400000000001
 31
0.0
  0
TEXT
  5
34
  8
0
 62
     7
 10
169.375
 20
208.36645999999999
 30
0.0
 40
3.092309999999999
  1
424
 50
90.0
 41
0.5
 72
     1
 11
169.375
 21
210.428
 31
0.0
  0
TEXT
  5
35
  8
0
 62
     7
 10
66.813606250000007
 20
172.44099999999989
 30
0.0
 40
3.092309999999999
  1
450
 41
0.5
 72
     1
 11
68.746300000000005
 21
172.44099999999989
 31
0.0
  0
TEXT
  5
36
  8
0
 62
     7
 10
66.813606250000007
 20
179.38999999999999
 30
0.0
 40
3.092309999999999
  1
440
 41
0.5
 72
     1
 11
68.746300000000005
 21
179.38999999999999
 31
0.0
  0
TEXT
  5
37
  8
0
 62
     7
 10
136.95045999999999
 20
179.94099999999989
 30
0.0
 40
3.092309999999999
  1
434
 41
0.5
 72
     1
 11
139.012
 21
179.94099999999989
 31
0.0
  0
TEXT
  5
38
  8
0
 62
     7
 10
123.568
 20
216.43199999999999
 30
0.0
 40
3.092309999999999
  1
排水口
 41
0.5
  0
TEXT
  5
39
  8
0
 62
     7
 10
130.76584
 20
168.66399999999999
 30
0.0
 40
3.092309999999999
  1
カウンター切込寸法
 41
0.5
 72
     1
 11
139.012
 21
168.66399999999999
 31
0.0
  0
LINE
  5
3A
  8
0
 62
     7
 10
159.30000000000001
 20
104.767
 30
0.0
 11
161.512
 21
105.36
 31
0.0
  0
LINE
  5
3B
  8
0
 62
     7
 10
161.512
 20
105.36
 30
0.0
 11
159.30000000000001
 21
105.952
 31
0.0
  0
LINE
  5
3C
  8
0
 62
     7
 10
159.30000000000001
 20
105.952
 30
0.0
 11
159.30000000000001
 21
104.767
 31
0.0
  0
LINE
  5
3D
  8
0
 62
     7
 10
141.22300000000001
 20
105.952
 30
0.0
 11
139.011
 21
105.36
 31
0.0
  0
LINE
  5
3E
  8
0
 62
     7
 10
139.011
 20
105.36
 30
0.0
 11
141.22300000000001
 21
104.767
 31
0.0
  0
LINE
  5
3F
  8
0
 62
     7
 10
141.22300000000001
 20
104.767
 30
0.0
 11
141.22300000000001
 21
105.952
 31
0.0
  0
LINE
  5
40
  8
0
 62
     7
 10
161.512
 20
105.36
 30
0.0
 11
139.011
 21
105.36
 31
0.0
  0
LINE
  5
41
  8
0
 62
     7
 10
139.011
 20
110.038
 30
0.0
 11
139.011
 21
104.66
 31
0.0
  0
LINE
  5
42
  8
0
 62
     7
 10
161.512
 20
122.974
 30
0.0
 11
161.512
 21
104.66
 31
0.0
  0
LINE
  5
43
  8
0
 62
     7
 10
44.447999999999993
 20
229.696
 30
0.0
 11
46.245899999999999
 21
228.27799999999999
 31
0.0
  0
LINE
  5
44
  8
0
 62
     7
 10
46.245899999999999
 20
228.27799999999999
 30
0.0
 11
45.397699999999993
 21
230.405
 31
0.0
  0
LINE
  5
45
  8
0
 62
     7
 10
45.397699999999993
 20
230.405
 30
0.0
 11
44.447999999999993
 21
229.696
 31
0.0
  0
LINE
  5
46
  8
0
 62
     7
 10
46.245899999999999
 20
228.27799999999999
 30
0.0
 11
36.192500000000003
 21
241.744
 31
0.0
  0
LINE
  5
47
  8
0
  6
AIGENLINE001
 62
     7
 10
143.012
 20
118.67400000000001
 30
0.0
 11
145.12700000000001
 21
118.67400000000001
 31
0.0
  0
ARC
  5
48
  8
0
  6
AIGENLINE001
 62
     7
 10
145.10423
 20
119.758831
 30
0.0
 40
1.0854509999999991
 50
271.18082500000003
 51
277.45574199999999
  0
ARC
  5
49
  8
0
  6
AIGENLINE001
 62
     7
 10
145.001666
 20
120.51509900000001
 30
0.0
 40
1.848636999999999
 50
277.56618200000003
 51
316.40107499999999
  0
ARC
  5
4A
  8
0
  6
AIGENLINE001
 62
     7
 10
144.73374999999999
 20
120.81111300000001
 30
0.0
 40
2.2469860000000001
 50
315.64595900000012
 51
333.62186800000001
  0
ARC
  5
4B
  8
0
  6
AIGENLINE001
 62
     7
 10
144.02476999999999
 20
121.195773
 30
0.0
 40
3.0531939999999991
 50
333.06611800000002
 51
344.86521499999998
  0
ARC
  5
4C
  8
0
  6
AIGENLINE001
 62
     7
 10
142.937816
 20
121.519415
 30
0.0
 40
4.1870440000000002
 50
344.47353900000002
 51
352.00023199999998
  0
LINE
  5
4D
  8
0
  6
AIGENLINE001
 62
     7
 10
147.084
 20
120.937
 30
0.0
 11
147.994
 21
128.93799999999999
 31
0.0
  0
ARC
  5
4E
  8
0
  6
AIGENLINE001
 62
     7
 10
148.72887600000001
 20
128.82154800000001
 30
0.0
 40
0.7444150000000001
 50
165.663906
 51
171.00059300000001
  0
ARC
  5
4F
  8
0
  6
AIGENLINE001
 62
     7
 10
149.19677899999999
 20
128.71775500000001
 30
0.0
 40
1.223543
 50
148.48498599999999
 51
166.380223
  0
ARC
  5
50
  8
0
  6
AIGENLINE001
 62
     7
 10
148.80154099999999
 20
128.94717800000001
 30
0.0
 40
0.766756
 50
125.520297
 51
147.661789
  0
ARC
  5
51
  8
0
  6
AIGENLINE001
 62
     7
 10
148.69085200000001
 20
129.07493600000001
 30
0.0
 40
0.598673
 50
89.037570999999986
 51
124.001822
  0
ARC
  5
52
  8
0
  6
AIGENLINE001
 62
     7
 10
125.612748
 20
120.61652100000001
 30
0.0
 40
1.9429129999999999
 50
242.54591600000001
 51
269.91923800000001
  0
ARC
  5
53
  8
0
  6
AIGENLINE001
 62
     7
 10
125.93278599999999
 20
121.32980999999999
 30
0.0
 40
2.723790999999999
 50
227.12409099999999
 51
243.489555
  0
ARC
  5
54
  8
0
  6
AIGENLINE001
 62
     7
 10
126.253878
 20
121.737897
 30
0.0
 40
3.2416009999999988
 50
216.52832699999999
 51
227.87286700000001
  0
LINE
  5
55
  8
0
  6
AIGENLINE001
 62
     7
 10
123.649
 20
119.80800000000001
 30
0.0
 11
118.78100000000001
 21
130.22200000000001
 31
0.0
  0
ARC
  5
56
  8
0
  6
AIGENLINE001
 62
     7
 10
118.34832
 20
129.99399
 30
0.0
 40
0.489307
 50
27.726823
 51
34.835397999999998
  0
ARC
  5
57
  8
0
  6
AIGENLINE001
 62
     7
 10
117.99058100000001
 20
129.75358
 30
0.0
 40
0.920292
 50
34.398313999999999
 51
88.721517000000006
  0
LINE
  5
58
  8
0
  6
AIGENLINE001
 62
     7
 10
133.98099999999999
 20
118.67400000000001
 30
0.0
 11
125.61
 21
118.67400000000001
 31
0.0
  0
LINE
  5
59
  8
0
  6
AIGENLINE001
 62
     7
 10
141.262
 20
117.45699999999999
 30
0.0
 11
141.262
 21
113.673
 31
0.0
  0
LINE
  5
5A
  8
0
  6
AIGENLINE001
 62
     7
 10
135.512
 20
116.08199999999999
 30
0.0
 11
135.512
 21
113.673
 31
0.0
  0
LINE
  5
5B
  8
0
  6
AIGENLINE001
 62
     7
 10
133.476
 20
116.95099999999999
 30
0.0
 11
134.75200000000001
 21
116.95099999999999
 31
0.0
  0
LINE
  5
5C
  8
0
  6
AIGENLINE001
 62
     7
 10
134.75200000000001
 20
116.95099999999999
 30
0.0
 11
135.512
 21
116.08199999999999
 31
0.0
  0
LINE
  5
5D
  8
0
  6
AIGENLINE001
 62
     7
 10
143.648
 20
114.54900000000001
 30
0.0
 11
142.511
 21
114.54900000000001
 31
0.0
  0
LINE
  5
5E
  8
0
  6
AIGENLINE001
 62
     7
 10
142.511
 20
114.54900000000001
 30
0.0
 11
142.511
 21
114.05
 31
0.0
  0
ARC
  5
5F
  8
0
  6
AIGENLINE001
 62
     7
 10
142.142807
 20
114.00434
 30
0.0
 40
0.37141
 50
358.95445799999999
 51
7.0488540000000004
  0
ARC
  5
60
  8
0
  6
AIGENLINE001
 62
     7
 10
142.04167000000001
 20
113.99583800000001
 30
0.0
 40
0.4724880000000001
 50
341.25726700000001
 51
0.209191
  0
ARC
  5
61
  8
0
  6
AIGENLINE001
 62
     7
 10
142.24185199999999
 20
113.937291
 30
0.0
 40
0.264259
 50
267.1181049999999
 51
339.33150499999999
  0
LINE
  5
62
  8
0
  6
AIGENLINE001
 62
     7
 10
148.70099999999999
 20
129.67400000000001
 30
0.0
 11
159.87200000000001
 21
129.67400000000001
 31
0.0
  0
ARC
  5
63
  8
0
  6
AIGENLINE001
 62
     7
 10
159.813737
 20
130.433044
 30
0.0
 40
0.761754
 50
274.38998599999991
 51
333.12206099999997
  0
ARC
  5
64
  8
0
  6
AIGENLINE001
 62
     7
 10
159.346541
 20
130.64926
 30
0.0
 40
1.2763599999999991
 50
333.94610799999998
 51
338.47884299999998
  0
ARC
  5
65
  8
0
  6
AIGENLINE001
 62
     7
 10
176.73627999999999
 20
124.06829399999999
 30
0.0
 40
17.317107
 50
158.24728500000001
 51
159.329768
  0
ARC
  5
66
  8
0
  6
AIGENLINE001
 62
     7
 10
160.957426
 20
130.32468600000001
 30
0.0
 40
0.34517
 50
97.977757000000025
 51
152.131372
  0
ARC
  5
67
  8
0
  6
AIGENLINE001
 62
     7
 10
161.00752499999999
 20
129.99745799999999
 30
0.0
 40
0.6761970000000001
 50
89.647143
 51
98.333543999999989
  0
ARC
  5
68
  8
0
  6
AIGENLINE001
 62
     7
 10
143.07836900000001
 20
117.772587
 30
0.0
 40
0.90349
 50
94.235455000000016
 51
99.317350000000005
  0
ARC
  5
69
  8
0
  6
AIGENLINE001
 62
     7
 10
143.29836299999999
 20
116.397637
 30
0.0
 40
2.2959239999999999
 50
99.179690000000022
 51
152.51793699999999
  0
ARC
  5
6A
  8
0
  6
AIGENLINE001
 62
     7
 10
134.90292500000001
 20
117.403952
 30
0.0
 40
1.2742830000000001
 50
80.010131999999999
 51
85.117196999999976
  0
ARC
  5
6B
  8
0
  6
AIGENLINE001
 62
     7
 10
134.71778
 20
116.38890000000001
 30
0.0
 40
2.3060709999999989
 50
27.59566400000001
 51
79.854755999999995
  0
LINE
  5
6C
  8
0
  6
AIGENLINE001
 62
     7
 10
143.012
 20
118.67400000000001
 30
0.0
 11
135.011
 21
118.67400000000001
 31
0.0
  0
LINE
  5
6D
  8
0
  6
AIGENLINE001
 62
     7
 10
136.762
 20
117.45699999999999
 30
0.0
 11
136.762
 21
113.673
 31
0.0
  0
LINE
  5
6E
  8
0
  6
AIGENLINE001
 62
     7
 10
136.762
 20
117.45699999999999
 30
0.0
 11
141.262
 21
117.45699999999999
 31
0.0
  0
LINE
  5
6F
  8
0
  6
AIGENLINE002
 62
     7
 10
145.749
 20
126.67400000000001
 30
0.0
 11
150.08600000000001
 21
126.67400000000001
 31
0.0
  0
LINE
  5
70
  8
0
 62
     7
 10
159.512
 20
123.67400000000001
 30
0.0
 11
158.761
 21
113.673
 31
0.0
  0
LINE
  5
71
  8
0
  6
AIGENLINE002
 62
     7
 10
139.012
 20
121.68300000000001
 30
0.0
 11
139.012
 21
110.738
 31
0.0
  0
LINE
  5
72
  8
0
 62
     7
 10
120.761
 20
113.673
 30
0.0
 11
158.761
 21
113.673
 31
0.0
  0
LINE
  5
73
  8
0
 62
     7
 10
119.511
 20
123.67400000000001
 30
0.0
 11
120.761
 21
113.673
 31
0.0
  0
LINE
  5
74
  8
0
 62
     7
 10
100.797
 20
123.67400000000001
 30
0.0
 11
92.013599999999997
 21
123.67400000000001
 31
0.0
  0
LINE
  5
75
  8
0
 62
     7
 10
100.797
 20
130.67400000000001
 30
0.0
 11
92.013599999999997
 21
130.67400000000001
 31
0.0
  0
LINE
  5
76
  8
0
 62
     7
 10
100.69
 20
128.46199999999999
 30
0.0
 11
100.09699999999999
 21
130.67400000000001
 31
0.0
  0
LINE
  5
77
  8
0
 62
     7
 10
100.09699999999999
 20
130.67400000000001
 30
0.0
 11
99.504599999999996
 21
128.46199999999999
 31
0.0
  0
LINE
  5
78
  8
0
 62
     7
 10
99.504599999999996
 20
128.46199999999999
 30
0.0
 11
100.69
 21
128.46199999999999
 31
0.0
  0
LINE
  5
79
  8
0
 62
     7
 10
99.504599999999996
 20
125.88500000000001
 30
0.0
 11
100.09699999999999
 21
123.67400000000001
 31
0.0
  0
LINE
  5
7A
  8
0
 62
     7
 10
100.09699999999999
 20
123.67400000000001
 30
0.0
 11
100.69
 21
125.88500000000001
 31
0.0
  0
LINE
  5
7B
  8
0
 62
     7
 10
100.69
 20
125.88500000000001
 30
0.0
 11
99.504599999999996
 21
125.88500000000001
 31
0.0
  0
LINE
  5
7C
  8
0
 62
     7
 10
100.09699999999999
 20
130.67400000000001
 30
0.0
 11
100.09699999999999
 21
123.67400000000001
 31
0.0
  0
LINE
  5
7D
  8
0
 62
     7
 10
170.86000000000001
 20
130.67400000000001
 30
0.0
 11
162.417
 21
130.67400000000001
 31
0.0
  0
LINE
  5
7E
  8
0
 62
     7
 10
159.05699999999999
 20
127.462
 30
0.0
 11
158.464
 21
129.67400000000001
 31
0.0
  0
LINE
  5
7F
  8
0
 62
     7
 10
158.464
 20
129.67400000000001
 30
0.0
 11
157.87100000000001
 21
127.462
 31
0.0
  0
LINE
  5
80
  8
0
 62
     7
 10
157.87100000000001
 20
127.462
 30
0.0
 11
159.05699999999999
 21
127.462
 31
0.0
  0
LINE
  5
81
  8
0
 62
     7
 10
157.87100000000001
 20
132.88499999999999
 30
0.0
 11
158.464
 21
130.67400000000001
 31
0.0
  0
LINE
  5
82
  8
0
 62
     7
 10
158.464
 20
130.67400000000001
 30
0.0
 11
159.05699999999999
 21
132.88499999999999
 31
0.0
  0
LINE
  5
83
  8
0
 62
     7
 10
159.05699999999999
 20
132.88499999999999
 30
0.0
 11
157.87100000000001
 21
132.88499999999999
 31
0.0
  0
LINE
  5
84
  8
0
 62
     7
 10
158.464
 20
136.798
 30
0.0
 11
158.464
 21
126.309
 31
0.0
  0
LINE
  5
85
  8
0
 62
     7
 10
117.511
 20
123.67400000000001
 30
0.0
 11
117.511
 21
130.173
 31
0.0
  0
ARC
  5
86
  8
0
 62
     7
 10
118.030767
 20
130.15411599999999
 30
0.0
 40
0.519898
 50
92.166447000000005
 51
177.872997
  0
LINE
  5
87
  8
0
 62
     7
 10
118.011
 20
130.67400000000001
 30
0.0
 11
161.012
 21
130.67400000000001
 31
0.0
  0
ARC
  5
88
  8
0
 62
     7
 10
160.99234999999999
 20
130.15442999999999
 30
0.0
 40
0.519573
 50
2.093650999999999
 51
87.866866000000016
  0
LINE
  5
89
  8
0
 62
     7
 10
161.512
 20
130.173
 30
0.0
 11
161.512
 21
123.67400000000001
 31
0.0
  0
LINE
  5
8A
  8
0
 62
     7
 10
161.512
 20
123.67400000000001
 30
0.0
 11
117.511
 21
123.67400000000001
 31
0.0
  0
LINE
  5
8B
  8
0
 62
     7
 10
60.344299999999997
 20
230.01599999999999
 30
0.0
 11
59.751800000000003
 21
232.22800000000001
 31
0.0
  0
LINE
  5
8C
  8
0
 62
     7
 10
59.751800000000003
 20
232.22800000000001
 30
0.0
 11
59.159199999999991
 21
230.01599999999999
 31
0.0
  0
LINE
  5
8D
  8
0
 62
     7
 10
59.159199999999991
 20
230.01599999999999
 30
0.0
 11
60.344299999999997
 21
230.01599999999999
 31
0.0
  0
LINE
  5
8E
  8
0
 62
     7
 10
59.159199999999991
 20
235.43899999999999
 30
0.0
 11
59.751800000000003
 21
233.22800000000001
 31
0.0
  0
LINE
  5
8F
  8
0
 62
     7
 10
59.751800000000003
 20
233.22800000000001
 30
0.0
 11
60.344299999999997
 21
235.43899999999999
 31
0.0
  0
LINE
  5
90
  8
0
 62
     7
 10
60.344299999999997
 20
235.43899999999999
 30
0.0
 11
59.159199999999991
 21
235.43899999999999
 31
0.0
  0
LINE
  5
91
  8
0
 62
     7
 10
59.159199999999991
 20
228.739
 30
0.0
 11
59.751800000000003
 21
226.52799999999999
 31
0.0
  0
LINE
  5
92
  8
0
 62
     7
 10
59.751800000000003
 20
226.52799999999999
 30
0.0
 11
60.344299999999997
 21
228.739
 31
0.0
  0
LINE
  5
93
  8
0
 62
     7
 10
60.344299999999997
 20
228.739
 30
0.0
 11
59.159199999999991
 21
228.739
 31
0.0
  0
LINE
  5
94
  8
0
 62
     7
 10
60.344299999999997
 20
224.316
 30
0.0
 11
59.751800000000003
 21
226.52799999999999
 31
0.0
  0
LINE
  5
95
  8
0
 62
     7
 10
59.751800000000003
 20
226.52799999999999
 30
0.0
 11
59.159199999999991
 21
224.316
 31
0.0
  0
LINE
  5
96
  8
0
 62
     7
 10
59.159199999999991
 20
224.316
 30
0.0
 11
60.344299999999997
 21
224.316
 31
0.0
  0
LINE
  5
97
  8
0
 62
     7
 10
59.159199999999991
 20
221.93899999999999
 30
0.0
 11
59.751800000000003
 21
219.72800000000001
 31
0.0
  0
LINE
  5
98
  8
0
 62
     7
 10
59.751800000000003
 20
219.72800000000001
 30
0.0
 11
60.344299999999997
 21
221.93899999999999
 31
0.0
  0
LINE
  5
99
  8
0
 62
     7
 10
60.344299999999997
 20
221.93899999999999
 30
0.0
 11
59.159199999999991
 21
221.93899999999999
 31
0.0
  0
LINE
  5
9A
  8
0
 62
     7
 10
49.496000000000002
 20
113.673
 30
0.0
 11
87.996600000000015
 21
113.673
 31
0.0
  0
LINE
  5
9B
  8
0
 62
     7
 10
89.246499999999983
 20
123.67400000000001
 30
0.0
 11
87.996600000000015
 21
113.673
 31
0.0
  0
LINE
  5
9C
  8
0
 62
     7
 10
48.246099999999991
 20
123.67400000000001
 30
0.0
 11
49.496000000000002
 21
113.673
 31
0.0
  0
ARC
  5
9D
  8
0
 62
     7
 10
159.67304200000001
 20
190.26646
 30
0.0
 40
1.0392950000000001
 50
272.13976500000001
 51
357.870116
  0
LINE
  5
9E
  8
0
 62
     7
 10
159.71199999999999
 20
189.22799999999989
 30
0.0
 11
118.31100000000001
 21
189.22799999999989
 31
0.0
  0
ARC
  5
9F
  8
0
 62
     7
 10
118.34982599999999
 20
190.26629700000001
 30
0.0
 40
1.0391269999999999
 50
182.121296
 51
267.86886299999998
  0
LINE
  5
A0
  8
0
 62
     7
 10
117.31100000000001
 20
190.22800000000001
 30
0.0
 11
117.31100000000001
 21
230.62799999999999
 31
0.0
  0
ARC
  5
A1
  8
0
 62
     7
 10
118.349988
 20
230.58940999999999
 30
0.0
 40
1.0392950000000001
 50
92.139744999999991
 51
177.87009599999999
  0
LINE
  5
A2
  8
0
 62
     7
 10
118.31100000000001
 20
231.62799999999999
 30
0.0
 11
159.71199999999999
 21
231.62799999999999
 31
0.0
  0
ARC
  5
A3
  8
0
 62
     7
 10
159.673205
 20
230.589572
 30
0.0
 40
1.0391269999999999
 50
2.1212759999999991
 51
87.868842999999998
  0
LINE
  5
A4
  8
0
 62
     7
 10
160.71199999999999
 20
230.62799999999999
 30
0.0
 11
160.71199999999999
 21
190.22800000000001
 31
0.0
  0
LINE
  5
A5
  8
0
 62
     7
 10
151.32900000000001
 20
209.928
 30
0.0
 11
146.72399999999999
 21
209.928
 31
0.0
  0
LINE
  5
A6
  8
0
 62
     7
 10
151.22200000000001
 20
229.416
 30
0.0
 11
150.62899999999999
 21
231.62799999999999
 31
0.0
  0
LINE
  5
A7
  8
0
 62
     7
 10
150.62899999999999
 20
231.62799999999999
 30
0.0
 11
150.03700000000001
 21
229.416
 31
0.0
  0
LINE
  5
A8
  8
0
 62
     7
 10
150.03700000000001
 20
229.416
 30
0.0
 11
151.22200000000001
 21
229.416
 31
0.0
  0
LINE
  5
A9
  8
0
 62
     7
 10
150.03700000000001
 20
212.13900000000001
 30
0.0
 11
150.62899999999999
 21
209.928
 31
0.0
  0
LINE
  5
AA
  8
0
 62
     7
 10
150.62899999999999
 20
209.928
 30
0.0
 11
151.22200000000001
 21
212.13900000000001
 31
0.0
  0
LINE
  5
AB
  8
0
 62
     7
 10
151.22200000000001
 20
212.13900000000001
 30
0.0
 11
150.03700000000001
 21
212.13900000000001
 31
0.0
  0
LINE
  5
AC
  8
0
 62
     7
 10
150.62899999999999
 20
231.62799999999999
 30
0.0
 11
150.62899999999999
 21
209.928
 31
0.0
  0
LINE
  5
AD
  8
0
 62
     7
 10
170.86000000000001
 20
113.673
 30
0.0
 11
159.952
 21
113.673
 31
0.0
  0
LINE
  5
AE
  8
0
 62
     7
 10
138.46100000000001
 20
128.46199999999999
 30
0.0
 11
137.86799999999999
 21
130.67400000000001
 31
0.0
  0
LINE
  5
AF
  8
0
 62
     7
 10
137.86799999999999
 20
130.67400000000001
 30
0.0
 11
137.27600000000001
 21
128.46199999999999
 31
0.0
  0
LINE
  5
B0
  8
0
 62
     7
 10
137.27600000000001
 20
128.46199999999999
 30
0.0
 11
138.46100000000001
 21
128.46199999999999
 31
0.0
  0
LINE
  5
B1
  8
0
 62
     7
 10
137.27600000000001
 20
120.88500000000001
 30
0.0
 11
137.86799999999999
 21
118.67400000000001
 31
0.0
  0
LINE
  5
B2
  8
0
 62
     7
 10
137.86799999999999
 20
118.67400000000001
 30
0.0
 11
138.46100000000001
 21
120.88500000000001
 31
0.0
  0
LINE
  5
B3
  8
0
 62
     7
 10
138.46100000000001
 20
120.88500000000001
 30
0.0
 11
137.27600000000001
 21
120.88500000000001
 31
0.0
  0
LINE
  5
B4
  8
0
 62
     7
 10
137.86799999999999
 20
130.67400000000001
 30
0.0
 11
137.86799999999999
 21
118.67400000000001
 31
0.0
  0
LINE
  5
B5
  8
0
 62
     7
 10
170.75200000000001
 20
128.46199999999999
 30
0.0
 11
170.16
 21
130.67400000000001
 31
0.0
  0
LINE
  5
B6
  8
0
 62
     7
 10
170.16
 20
130.67400000000001
 30
0.0
 11
169.56700000000001
 21
128.46199999999999
 31
0.0
  0
LINE
  5
B7
  8
0
 62
     7
 10
169.56700000000001
 20
128.46199999999999
 30
0.0
 11
170.75200000000001
 21
128.46199999999999
 31
0.0
  0
LINE
  5
B8
  8
0
 62
     7
 10
169.56700000000001
 20
115.88500000000001
 30
0.0
 11
170.16
 21
113.673
 31
0.0
  0
LINE
  5
B9
  8
0
 62
     7
 10
170.16
 20
113.673
 30
0.0
 11
170.75200000000001
 21
115.88500000000001
 31
0.0
  0
LINE
  5
BA
  8
0
 62
     7
 10
170.75200000000001
 20
115.88500000000001
 30
0.0
 11
169.56700000000001
 21
115.88500000000001
 31
0.0
  0
LINE
  5
BB
  8
0
 62
     7
 10
170.16
 20
130.67400000000001
 30
0.0
 11
170.16
 21
113.673
 31
0.0
  0
LINE
  5
BC
  8
0
 62
     7
 10
170.77500000000001
 20
189.22799999999989
 30
0.0
 11
161.11199999999999
 21
189.22799999999989
 31
0.0
  0
LINE
  5
BD
  8
0
 62
     7
 10
170.77500000000001
 20
231.62799999999999
 30
0.0
 11
161.11199999999999
 21
231.62799999999999
 31
0.0
  0
LINE
  5
BE
  8
0
 62
     7
 10
170.66800000000001
 20
229.416
 30
0.0
 11
170.07499999999999
 21
231.62799999999999
 31
0.0
  0
LINE
  5
BF
  8
0
 62
     7
 10
170.07499999999999
 20
231.62799999999999
 30
0.0
 11
169.483
 21
229.416
 31
0.0
  0
LINE
  5
C0
  8
0
 62
     7
 10
169.483
 20
229.416
 30
0.0
 11
170.66800000000001
 21
229.416
 31
0.0
  0
LINE
  5
C1
  8
0
 62
     7
 10
169.483
 20
191.43899999999999
 30
0.0
 11
170.07499999999999
 21
189.22799999999989
 31
0.0
  0
LINE
  5
C2
  8
0
 62
     7
 10
170.07499999999999
 20
189.22799999999989
 30
0.0
 11
170.66800000000001
 21
191.43899999999999
 31
0.0
  0
LINE
  5
C3
  8
0
 62
     7
 10
170.66800000000001
 20
191.43899999999999
 30
0.0
 11
169.483
 21
191.43899999999999
 31
0.0
  0
LINE
  5
C4
  8
0
 62
     7
 10
170.07499999999999
 20
231.62799999999999
 30
0.0
 11
170.07499999999999
 21
189.22799999999989
 31
0.0
  0
LINE
  5
C5
  8
0
 62
     7
 10
64.6721
 20
226.52799999999999
 30
0.0
 11
59.051699999999997
 21
226.52799999999999
 31
0.0
  0
LINE
  5
C6
  8
0
 62
     7
 10
99.560100000000006
 20
189.727
 30
0.0
 11
91.996700000000004
 21
189.727
 31
0.0
  0
LINE
  5
C7
  8
0
 62
     7
 10
99.560100000000006
 20
189.22799999999989
 30
0.0
 11
91.996700000000004
 21
189.22799999999989
 31
0.0
  0
LINE
  5
C8
  8
0
 62
     7
 10
99.560100000000006
 20
219.72800000000001
 30
0.0
 11
91.996700000000004
 21
219.72800000000001
 31
0.0
  0
LINE
  5
C9
  8
0
 62
     7
 10
99.560100000000006
 20
233.22800000000001
 30
0.0
 11
91.996700000000004
 21
233.22800000000001
 31
0.0
  0
LINE
  5
CA
  8
0
  6
AIGENLINE002
 62
     7
 10
146.024
 20
209.928
 30
0.0
 11
131.91300000000001
 21
209.928
 31
0.0
  0
LINE
  5
CB
  8
0
 62
     7
 10
45.8459
 20
233.22800000000001
 30
0.0
 11
37.816699999999997
 21
233.22800000000001
 31
0.0
  0
LINE
  5
CC
  8
0
 62
     7
 10
158.5
 20
178.648
 30
0.0
 11
160.71199999999999
 21
179.24000000000001
 31
0.0
  0
LINE
  5
CD
  8
0
 62
     7
 10
160.71199999999999
 20
179.24000000000001
 30
0.0
 11
158.5
 21
179.833
 31
0.0
  0
LINE
  5
CE
  8
0
 62
     7
 10
158.5
 20
179.833
 30
0.0
 11
158.5
 21
178.648
 31
0.0
  0
LINE
  5
CF
  8
0
 62
     7
 10
119.523
 20
179.833
 30
0.0
 11
117.31100000000001
 21
179.24000000000001
 31
0.0
  0
LINE
  5
D0
  8
0
 62
     7
 10
117.31100000000001
 20
179.24000000000001
 30
0.0
 11
119.523
 21
178.648
 31
0.0
  0
LINE
  5
D1
  8
0
 62
     7
 10
119.523
 20
178.648
 30
0.0
 11
119.523
 21
179.833
 31
0.0
  0
LINE
  5
D2
  8
0
 62
     7
 10
160.71199999999999
 20
179.24000000000001
 30
0.0
 11
117.31100000000001
 21
179.24000000000001
 31
0.0
  0
LINE
  5
D3
  8
0
 62
     7
 10
160.71199999999999
 20
188.47800000000001
 30
0.0
 11
160.71199999999999
 21
178.53999999999999
 31
0.0
  0
LINE
  5
D4
  8
0
 62
     7
 10
117.31100000000001
 20
188.47800000000001
 30
0.0
 11
117.31100000000001
 21
178.53999999999999
 31
0.0
  0
LINE
  5
D5
  8
0
 62
     7
 10
88.534999999999997
 20
178.09700000000001
 30
0.0
 11
90.746499999999997
 21
178.69
 31
0.0
  0
LINE
  5
D6
  8
0
 62
     7
 10
90.746499999999997
 20
178.69
 30
0.0
 11
88.534999999999997
 21
179.28299999999999
 31
0.0
  0
LINE
  5
D7
  8
0
 62
     7
 10
88.534999999999997
 20
179.28299999999999
 30
0.0
 11
88.534999999999997
 21
178.09700000000001
 31
0.0
  0
LINE
  5
D8
  8
0
 62
     7
 10
48.957500000000003
 20
179.28299999999999
 30
0.0
 11
46.746099999999998
 21
178.69
 31
0.0
  0
LINE
  5
D9
  8
0
 62
     7
 10
46.746099999999998
 20
178.69
 30
0.0
 11
48.957500000000003
 21
178.09700000000001
 31
0.0
  0
LINE
  5
DA
  8
0
 62
     7
 10
48.957500000000003
 20
178.09700000000001
 30
0.0
 11
48.957500000000003
 21
179.28299999999999
 31
0.0
  0
LINE
  5
DB
  8
0
 62
     7
 10
90.746499999999997
 20
178.69
 30
0.0
 11
46.746099999999998
 21
178.69
 31
0.0
  0
LINE
  5
DC
  8
0
 62
     7
 10
89.034899999999993
 20
171.148
 30
0.0
 11
91.246300000000005
 21
171.74000000000001
 31
0.0
  0
LINE
  5
DD
  8
0
 62
     7
 10
91.246300000000005
 20
171.74000000000001
 30
0.0
 11
89.034899999999993
 21
172.333
 31
0.0
  0
LINE
  5
DE
  8
0
 62
     7
 10
89.034899999999993
 20
172.333
 30
0.0
 11
89.034899999999993
 21
171.148
 31
0.0
  0
LINE
  5
DF
  8
0
 62
     7
 10
48.457599999999999
 20
172.333
 30
0.0
 11
46.246200000000002
 21
171.74000000000001
 31
0.0
  0
LINE
  5
E0
  8
0
 62
     7
 10
46.246200000000002
 20
171.74000000000001
 30
0.0
 11
48.457599999999999
 21
171.148
 31
0.0
  0
LINE
  5
E1
  8
0
 62
     7
 10
48.457599999999999
 20
171.148
 30
0.0
 11
48.457599999999999
 21
172.333
 31
0.0
  0
LINE
  5
E2
  8
0
 62
     7
 10
91.246300000000005
 20
171.74000000000001
 30
0.0
 11
46.246200000000002
 21
171.74000000000001
 31
0.0
  0
LINE
  5
E3
  8
0
 62
     7
 10
45.8459
 20
189.22799999999989
 30
0.0
 11
37.816699999999997
 21
189.22799999999989
 31
0.0
  0
LINE
  5
E4
  8
0
 62
     7
 10
90.746499999999997
 20
189.78299999999999
 30
0.0
 11
90.746499999999997
 21
177.99000000000001
 31
0.0
  0
LINE
  5
E5
  8
0
 62
     7
 10
46.746099999999998
 20
189.78299999999999
 30
0.0
 11
46.746099999999998
 21
177.99000000000001
 31
0.0
  0
LINE
  5
E6
  8
0
 62
     7
 10
99.452600000000004
 20
217.51599999999999
 30
0.0
 11
98.860100000000003
 21
219.72800000000001
 31
0.0
  0
LINE
  5
E7
  8
0
 62
     7
 10
98.860100000000003
 20
219.72800000000001
 30
0.0
 11
98.267499999999998
 21
217.51599999999999
 31
0.0
  0
LINE
  5
E8
  8
0
 62
     7
 10
98.267499999999998
 20
217.51599999999999
 30
0.0
 11
99.452600000000004
 21
217.51599999999999
 31
0.0
  0
LINE
  5
E9
  8
0
 62
     7
 10
99.452600000000004
 20
187.01599999999999
 30
0.0
 11
98.860100000000003
 21
189.22799999999989
 31
0.0
  0
LINE
  5
EA
  8
0
 62
     7
 10
98.860100000000003
 20
189.22799999999989
 30
0.0
 11
98.267499999999998
 21
187.01599999999999
 31
0.0
  0
LINE
  5
EB
  8
0
 62
     7
 10
98.267499999999998
 20
187.01599999999999
 30
0.0
 11
99.452600000000004
 21
187.01599999999999
 31
0.0
  0
LINE
  5
EC
  8
0
 62
     7
 10
99.452600000000004
 20
231.01599999999999
 30
0.0
 11
98.860100000000003
 21
233.22800000000001
 31
0.0
  0
LINE
  5
ED
  8
0
 62
     7
 10
98.860100000000003
 20
233.22800000000001
 30
0.0
 11
98.267499999999998
 21
231.01599999999999
 31
0.0
  0
LINE
  5
EE
  8
0
 62
     7
 10
98.267499999999998
 20
231.01599999999999
 30
0.0
 11
99.452600000000004
 21
231.01599999999999
 31
0.0
  0
LINE
  5
EF
  8
0
 62
     7
 10
98.267499999999998
 20
191.93899999999999
 30
0.0
 11
98.860100000000003
 21
189.727
 31
0.0
  0
LINE
  5
F0
  8
0
 62
     7
 10
98.860100000000003
 20
189.727
 30
0.0
 11
99.452600000000004
 21
191.93899999999999
 31
0.0
  0
LINE
  5
F1
  8
0
 62
     7
 10
99.452600000000004
 20
191.93899999999999
 30
0.0
 11
98.267499999999998
 21
191.93899999999999
 31
0.0
  0
LINE
  5
F2
  8
0
 62
     7
 10
98.267499999999998
 20
221.93899999999999
 30
0.0
 11
98.860100000000003
 21
219.72800000000001
 31
0.0
  0
LINE
  5
F3
  8
0
 62
     7
 10
98.860100000000003
 20
219.72800000000001
 30
0.0
 11
99.452600000000004
 21
221.93899999999999
 31
0.0
  0
LINE
  5
F4
  8
0
 62
     7
 10
99.452600000000004
 20
221.93899999999999
 30
0.0
 11
98.267499999999998
 21
221.93899999999999
 31
0.0
  0
LINE
  5
F5
  8
0
 62
     7
 10
59.751800000000003
 20
239.34800000000001
 30
0.0
 11
59.751800000000003
 21
219.72800000000001
 31
0.0
  0
LINE
  5
F6
  8
0
 62
     7
 10
98.860100000000003
 20
233.22800000000001
 30
0.0
 11
98.860100000000003
 21
184.59700000000001
 31
0.0
  0
LINE
  5
F7
  8
0
 62
     7
 10
39.109299999999998
 20
231.01599999999999
 30
0.0
 11
38.516800000000003
 21
233.22800000000001
 31
0.0
  0
LINE
  5
F8
  8
0
 62
     7
 10
38.516800000000003
 20
233.22800000000001
 30
0.0
 11
37.924199999999999
 21
231.01599999999999
 31
0.0
  0
LINE
  5
F9
  8
0
 62
     7
 10
37.924199999999999
 20
231.01599999999999
 30
0.0
 11
39.109299999999998
 21
231.01599999999999
 31
0.0
  0
LINE
  5
FA
  8
0
 62
     7
 10
37.924199999999999
 20
191.43899999999999
 30
0.0
 11
38.516800000000003
 21
189.22799999999989
 31
0.0
  0
LINE
  5
FB
  8
0
 62
     7
 10
38.516800000000003
 20
189.22799999999989
 30
0.0
 11
39.109299999999998
 21
191.43899999999999
 31
0.0
  0
LINE
  5
FC
  8
0
 62
     7
 10
39.109299999999998
 20
191.43899999999999
 30
0.0
 11
37.924199999999999
 21
191.43899999999999
 31
0.0
  0
LINE
  5
FD
  8
0
 62
     7
 10
38.516800000000003
 20
233.22800000000001
 30
0.0
 11
38.516800000000003
 21
189.22799999999989
 31
0.0
  0
LINE
  5
FE
  8
0
 62
     7
 10
46.246200000000002
 20
188.828
 30
0.0
 11
46.246200000000002
 21
171.03999999999999
 31
0.0
  0
LINE
  5
FF
  8
0
 62
     7
 10
91.246300000000005
 20
188.828
 30
0.0
 11
91.246300000000005
 21
171.03999999999999
 31
0.0
  0
LINE
  5
100
  8
0
 62
     7
 10
118.749
 20
191.50399999999999
 30
0.0
 11
117.605
 21
189.52099999999999
 31
0.0
  0
LINE
  5
101
  8
0
 62
     7
 10
117.605
 20
189.52099999999999
 30
0.0
 11
119.58799999999999
 21
190.666
 31
0.0
  0
LINE
  5
102
  8
0
 62
     7
 10
119.58799999999999
 20
190.666
 30
0.0
 11
118.749
 21
191.50399999999999
 31
0.0
  0
LINE
  5
103
  8
0
 62
     7
 10
121.688
 20
193.60499999999999
 30
0.0
 11
117.605
 21
189.52099999999999
 31
0.0
  0
LINE
  5
104
  8
0
 62
     7
 10
121.688
 20
193.60499999999999
 30
0.0
 11
126.646
 21
193.60499999999999
 31
0.0
  0
LINE
  5
105
  8
0
 62
     7
 10
135.43799999999999
 20
212.66399999999999
 30
0.0
 11
137.42099999999999
 21
211.51900000000001
 31
0.0
  0
LINE
  5
106
  8
0
 62
     7
 10
137.42099999999999
 20
211.51900000000001
 30
0.0
 11
136.27600000000001
 21
213.50200000000001
 31
0.0
  0
LINE
  5
107
  8
0
 62
     7
 10
136.27600000000001
 20
213.50200000000001
 30
0.0
 11
135.43799999999999
 21
212.66399999999999
 31
0.0
  0
LINE
  5
108
  8
0
 62
     7
 10
133.20699999999999
 20
215.732
 30
0.0
 11
137.42099999999999
 21
211.51900000000001
 31
0.0
  0
ARC
  5
109
  8
0
  6
AIGENLINE001
 62
     7
 10
139.011515
 20
209.927876
 30
0.0
 40
2.2500059999999991
 50
270.00002000000001
 51
359.99999000000003
  0
ARC
  5
10A
  8
0
  6
AIGENLINE001
 62
     7
 10
139.011515
 20
209.927876
 30
0.0
 40
2.2500059999999991
 50
179.99996999999999
 51
270.00002000000001
  0
ARC
  5
10B
  8
0
  6
AIGENLINE001
 62
     7
 10
139.011516
 20
209.927876
 30
0.0
 40
2.2500059999999991
 50
90.0
 51
179.99996999999999
  0
ARC
  5
10C
  8
0
  6
AIGENLINE001
 62
     7
 10
139.011515
 20
209.927876
 30
0.0
 40
2.2500059999999991
 50
0.00001
 51
89.999980000000008
  0
ARC
  5
10D
  8
0
  6
AIGENLINE001
 62
     7
 10
139.01160100000001
 20
209.92796300000001
 30
0.0
 40
4.0000400000000003
 50
269.998786
 51
359.99875600000001
  0
ARC
  5
10E
  8
0
  6
AIGENLINE001
 62
     7
 10
139.011428
 20
209.92796100000001
 30
0.0
 40
4.0000390000000001
 50
180.00124400000001
 51
270.00125400000002
  0
ARC
  5
10F
  8
0
  6
AIGENLINE001
 62
     7
 10
139.01142999999999
 20
209.92778899999999
 30
0.0
 40
4.0000400000000003
 50
89.998766000000003
 51
179.99873700000001
  0
ARC
  5
110
  8
0
  6
AIGENLINE001
 62
     7
 10
139.01160100000001
 20
209.92778899999999
 30
0.0
 40
4.0000400000000003
 50
0.001244
 51
90.001214000000004
  0
LINE
  5
111
  8
0
 62
     7
 10
72.319900000000004
 20
207.99199999999999
 30
0.0
 11
70.337199999999996
 21
209.137
 31
0.0
  0
LINE
  5
112
  8
0
 62
     7
 10
70.337199999999996
 20
209.137
 30
0.0
 11
71.481700000000004
 21
207.154
 31
0.0
  0
LINE
  5
113
  8
0
 62
     7
 10
71.481700000000004
 20
207.154
 30
0.0
 11
72.319900000000004
 21
207.99199999999999
 31
0.0
  0
LINE
  5
114
  8
0
 62
     7
 10
65.172700000000006
 20
213.464
 30
0.0
 11
67.155299999999997
 21
212.31899999999999
 31
0.0
  0
LINE
  5
115
  8
0
 62
     7
 10
67.155299999999997
 20
212.31899999999999
 30
0.0
 11
66.010900000000007
 21
214.30199999999999
 31
0.0
  0
LINE
  5
116
  8
0
 62
     7
 10
66.010900000000007
 20
214.30199999999999
 30
0.0
 11
65.172700000000006
 21
213.464
 31
0.0
  0
LINE
  5
117
  8
0
 62
     7
 10
64.519800000000004
 20
214.95400000000001
 30
0.0
 11
74.569199999999995
 21
204.905
 31
0.0
  0
LINE
  5
118
  8
0
 62
     7
 10
71.966399999999993
 20
224.14500000000001
 30
0.0
 11
69.983800000000002
 21
225.28999999999999
 31
0.0
  0
LINE
  5
119
  8
0
 62
     7
 10
69.983800000000002
 20
225.28999999999999
 30
0.0
 11
71.128600000000006
 21
223.30699999999999
 31
0.0
  0
LINE
  5
11A
  8
0
 62
     7
 10
71.128600000000006
 20
223.30699999999999
 30
0.0
 11
71.966399999999993
 21
224.14500000000001
 31
0.0
  0
LINE
  5
11B
  8
0
 62
     7
 10
65.5261
 20
228.91
 30
0.0
 11
67.508799999999994
 21
227.76499999999999
 31
0.0
  0
LINE
  5
11C
  8
0
 62
     7
 10
67.508799999999994
 20
227.76499999999999
 30
0.0
 11
66.36399999999999
 21
229.74799999999999
 31
0.0
  0
LINE
  5
11D
  8
0
 62
     7
 10
66.36399999999999
 20
229.74799999999999
 30
0.0
 11
65.5261
 21
228.91
 31
0.0
  0
LINE
  5
11E
  8
0
 62
     7
 10
64.788200000000003
 20
230.48599999999999
 30
0.0
 11
73.921499999999995
 21
221.35300000000001
 31
0.0
  0
LINE
  5
11F
  8
0
 62
     7
 10
123.568
 20
215.732
 30
0.0
 11
133.20699999999999
 21
215.732
 31
0.0
  0
LINE
  5
120
  8
0
 62
     7
 10
74.569199999999995
 20
204.905
 30
0.0
 11
80.336699999999979
 21
204.905
 31
0.0
  0
LINE
  5
121
  8
0
 62
     7
 10
36.192500000000003
 20
241.744
 30
0.0
 11
52.411799999999992
 21
241.744
 31
0.0
  0
LINE
  5
122
  8
0
 62
     7
 10
73.921499999999995
 20
221.35300000000001
 30
0.0
 11
80.072400000000016
 21
221.35300000000001
 31
0.0
  0
ARC
  5
123
  8
0
 62
     7
 10
89.226235999999986
 20
218.53800100000001
 30
0.0
 40
1.3586819999999991
 50
19.188687000000002
 51
34.928961999999999
  0
ARC
  5
124
  8
0
 62
     7
 10
89.574072000000001
 20
218.75294299999999
 30
0.0
 40
0.950714
 50
36.311213000000009
 51
77.905182999999994
  0
ARC
  5
125
  8
0
 62
     7
 10
89.407360999999995
 20
218.127182
 30
0.0
 40
1.5978339999999991
 50
76.761418999999989
 51
87.713787999999994
  0
ARC
  5
126
  8
0
 62
     7
 10
89.309798999999998
 20
216.57011800000001
 30
0.0
 40
3.1577479999999989
 50
87.071974999999995
 51
90.142976000000019
  0
ARC
  5
127
  8
0
 62
     7
 10
89.348481000000007
 20
231.39737099999999
 30
0.0
 40
0.831128
 50
2.111375999999999
 51
87.913284000000004
  0
LINE
  5
128
  8
0
 62
     7
 10
90.179000000000002
 20
231.428
 30
0.0
 11
90.179000000000002
 21
219.82400000000001
 31
0.0
  0
LINE
  5
129
  8
0
 62
     7
 10
89.378699999999995
 20
232.22800000000001
 30
0.0
 11
68.746300000000005
 21
232.22800000000001
 31
0.0
  0
LINE
  5
12A
  8
0
 62
     7
 10
87.254800000000003
 20
218.22300000000001
 30
0.0
 11
89.803899999999985
 21
219.251
 31
0.0
  0
LINE
  5
12B
  8
0
 62
     7
 10
90.055000000000007
 20
190.435
 30
0.0
 11
87.254800000000003
 21
196.30500000000001
 31
0.0
  0
LINE
  5
12C
  8
0
 62
     7
 10
87.254800000000003
 20
196.30500000000001
 30
0.0
 11
68.746300000000005
 21
196.30500000000001
 31
0.0
  0
LINE
  5
12D
  8
0
 62
     7
 10
68.746300000000005
 20
218.22300000000001
 30
0.0
 11
87.254800000000003
 21
218.22300000000001
 31
0.0
  0
LINE
  5
12E
  8
0
 62
     7
 10
87.254800000000003
 20
218.22300000000001
 30
0.0
 11
87.254800000000003
 21
196.30500000000001
 31
0.0
  0
LINE
  5
12F
  8
0
 62
     7
 10
68.746300000000005
 20
219.72800000000001
 30
0.0
 11
89.301900000000003
 21
219.72800000000001
 31
0.0
  0
ARC
  5
130
  8
0
 62
     7
 10
48.266441999999998
 20
218.53796
 30
0.0
 40
1.3588049999999989
 50
145.07252299999999
 51
160.81126499999999
  0
ARC
  5
131
  8
0
 62
     7
 10
47.918602999999997
 20
218.75275999999999
 30
0.0
 40
0.9509170000000001
 50
102.099039
 51
143.68402900000001
  0
ARC
  5
132
  8
0
 62
     7
 10
48.085202000000002
 20
218.127182
 30
0.0
 40
1.5978339999999991
 50
92.286192
 51
103.238561
  0
ARC
  5
133
  8
0
 62
     7
 10
48.182763999999999
 20
216.57011800000001
 30
0.0
 40
3.1577479999999989
 50
89.857004000000003
 51
92.928006000000011
  0
ARC
  5
134
  8
0
 62
     7
 10
48.144081
 20
231.39737099999999
 30
0.0
 40
0.831128
 50
92.086679000000004
 51
177.888621
  0
ARC
  5
135
  8
0
 62
     7
 10
68.74628100000001
 20
210.727833
 30
0.0
 40
2.2500059999999991
 50
270.00002000000001
 51
359.99999000000003
  0
ARC
  5
136
  8
0
 62
     7
 10
68.74628100000001
 20
210.72783200000001
 30
0.0
 40
2.2500059999999991
 50
179.99996999999999
 51
270.00002000000001
  0
ARC
  5
137
  8
0
 62
     7
 10
68.746281999999994
 20
210.72783200000001
 30
0.0
 40
2.2500059999999991
 50
90.0
 51
179.99996999999999
  0
ARC
  5
138
  8
0
 62
     7
 10
68.74628100000001
 20
210.72783200000001
 30
0.0
 40
2.2500059999999991
 50
0.00001
 51
89.999980000000008
  0
ARC
  5
139
  8
0
 62
     7
 10
68.746367000000006
 20
210.72791900000001
 30
0.0
 40
4.0000400000000003
 50
269.998786
 51
359.99875600000001
  0
ARC
  5
13A
  8
0
 62
     7
 10
68.746195
 20
210.72791799999999
 30
0.0
 40
4.0000390000000001
 50
180.00124400000001
 51
270.00125400000002
  0
ARC
  5
13B
  8
0
 62
     7
 10
68.746195999999983
 20
210.727745
 30
0.0
 40
4.0000400000000003
 50
89.998766000000003
 51
179.99873700000001
  0
ARC
  5
13C
  8
0
 62
     7
 10
68.746367000000006
 20
210.727745
 30
0.0
 40
4.0000400000000003
 50
0.001244
 51
90.001214000000004
  0
LINE
  5
13D
  8
0
  6
AIGENLINE002
 62
     7
 10
62.365200000000002
 20
210.72800000000001
 30
0.0
 11
74.6584
 21
210.72800000000001
 31
0.0
  0
LINE
  5
13E
  8
0
  6
AIGENLINE002
 62
     7
 10
154.81200000000001
 20
132.304
 30
0.0
 11
154.81200000000001
 21
127.285
 31
0.0
  0
LINE
  5
13F
  8
0
  6
AIGENLINE002
 62
     7
 10
65.372100000000003
 20
226.52799999999999
 30
0.0
 11
72.395300000000006
 21
226.52799999999999
 31
0.0
  0
ARC
  5
140
  8
0
 62
     7
 10
68.746367000000006
 20
226.52791500000001
 30
0.0
 40
1.7500340000000001
 50
269.99720000000002
 51
359.9971700000001
  0
ARC
  5
141
  8
0
 62
     7
 10
68.746195
 20
226.52791500000001
 30
0.0
 40
1.7500329999999999
 50
180.00282999999999
 51
270.00283999999999
  0
ARC
  5
142
  8
0
 62
     7
 10
68.746195999999983
 20
226.52774299999999
 30
0.0
 40
1.7500340000000001
 50
89.997179999999986
 51
179.99715
  0
ARC
  5
143
  8
0
 62
     7
 10
68.746367000000006
 20
226.52774299999999
 30
0.0
 40
1.7500340000000001
 50
0.00283
 51
90.002800000000008
  0
ARC
  5
144
  8
0
 62
     7
 10
89.707867000000007
 20
190.76602600000001
 30
0.0
 40
1.0393069999999991
 50
272.12134300000002
 51
357.86879800000003
  0
LINE
  5
145
  8
0
 62
     7
 10
89.746300000000005
 20
189.727
 30
0.0
 11
47.746200000000002
 21
189.727
 31
0.0
  0
ARC
  5
146
  8
0
 62
     7
 10
47.784846999999992
 20
190.766178
 30
0.0
 40
1.039464999999999
 50
182.13928300000001
 51
267.87061599999998
  0
LINE
  5
147
  8
0
 62
     7
 10
46.746099999999998
 20
190.727
 30
0.0
 11
46.746099999999998
 21
231.72800000000001
 31
0.0
  0
ARC
  5
148
  8
0
 62
     7
 10
47.784303000000001
 20
231.68946
 30
0.0
 40
1.038899999999999
 50
92.100489999999994
 51
177.889611
  0
LINE
  5
149
  8
0
 62
     7
 10
47.746200000000002
 20
232.72800000000001
 30
0.0
 11
89.746300000000005
 21
232.72800000000001
 31
0.0
  0
ARC
  5
14A
  8
0
 62
     7
 10
89.707716000000005
 20
231.68891500000001
 30
0.0
 40
1.039464999999999
 50
2.1392630000000001
 51
87.870597000000004
  0
LINE
  5
14B
  8
0
 62
     7
 10
90.746499999999997
 20
231.72800000000001
 30
0.0
 11
90.746499999999997
 21
190.727
 31
0.0
  0
ARC
  5
14C
  8
0
 62
     7
 10
90.727479000000017
 20
124.192729
 30
0.0
 40
0.5192230000000001
 50
272.09450699999991
 51
357.86600199999998
  0
LINE
  5
14D
  8
0
 62
     7
 10
90.746499999999997
 20
123.67400000000001
 30
0.0
 11
46.746099999999998
 21
123.67400000000001
 31
0.0
  0
ARC
  5
14E
  8
0
 62
     7
 10
46.76539799999999
 20
124.193044
 30
0.0
 40
0.519549
 50
182.167372
 51
267.87215900000001
  0
LINE
  5
14F
  8
0
 62
     7
 10
46.246200000000002
 20
124.173
 30
0.0
 11
46.246200000000002
 21
130.17400000000001
 31
0.0
  0
ARC
  5
150
  8
0
 62
     7
 10
46.765062999999991
 20
130.15444199999999
 30
0.0
 40
0.5192020000000001
 50
92.092299999999994
 51
177.86816899999999
  0
LINE
  5
151
  8
0
 62
     7
 10
46.746099999999998
 20
130.673
 30
0.0
 11
90.746499999999997
 21
130.673
 31
0.0
  0
ARC
  5
152
  8
0
 62
     7
 10
90.727164999999999
 20
130.15410700000001
 30
0.0
 40
0.519549
 50
2.1673520000000002
 51
87.872139000000004
  0
LINE
  5
153
  8
0
 62
     7
 10
91.246300000000005
 20
130.17400000000001
 30
0.0
 11
91.246300000000005
 21
124.173
 31
0.0
  0
ARC
  5
154
  8
0
 62
     7
 10
90.207591000000008
 20
190.26628299999999
 30
0.0
 40
1.0394699999999999
 50
272.14903099999998
 51
357.87071900000001
  0
LINE
  5
155
  8
0
 62
     7
 10
90.246600000000001
 20
189.22799999999989
 30
0.0
 11
47.246000000000002
 21
189.22799999999989
 31
0.0
  0
ARC
  5
156
  8
0
 62
     7
 10
47.284641999999998
 20
190.265953
 30
0.0
 40
1.0391269999999999
 50
182.111795
 51
267.868495
  0
LINE
  5
157
  8
0
 62
     7
 10
46.246200000000002
 20
190.22800000000001
 30
0.0
 11
46.246200000000002
 21
232.22800000000001
 31
0.0
  0
ARC
  5
158
  8
0
 62
     7
 10
47.284579999999991
 20
232.189547
 30
0.0
 40
1.0390619999999999
 50
92.128176000000011
 51
177.89153400000001
  0
LINE
  5
159
  8
0
 62
     7
 10
47.246000000000002
 20
233.22800000000001
 30
0.0
 11
90.246600000000001
 21
233.22800000000001
 31
0.0
  0
ARC
  5
15A
  8
0
 62
     7
 10
90.207920000000001
 20
232.18948399999999
 30
0.0
 40
1.0391280000000001
 50
2.111791999999999
 51
87.868456999999978
  0
LINE
  5
15B
  8
0
 62
     7
 10
91.246300000000005
 20
232.22800000000001
 30
0.0
 11
91.246300000000005
 21
190.22800000000001
 31
0.0
  0
LINE
  5
15C
  8
0
 62
     7
 10
47.313499999999991
 20
231.428
 30
0.0
 11
47.313499999999991
 21
219.82400000000001
 31
0.0
  0
LINE
  5
15D
  8
0
 62
     7
 10
48.113799999999991
 20
232.22800000000001
 30
0.0
 11
68.746300000000005
 21
232.22800000000001
 31
0.0
  0
LINE
  5
15E
  8
0
 62
     7
 10
50.23769999999999
 20
218.22300000000001
 30
0.0
 11
47.68869999999999
 21
219.251
 31
0.0
  0
LINE
  5
15F
  8
0
 62
     7
 10
47.4375
 20
190.435
 30
0.0
 11
50.23769999999999
 21
196.30500000000001
 31
0.0
  0
LINE
  5
160
  8
0
 62
     7
 10
50.23769999999999
 20
196.30500000000001
 30
0.0
 11
68.746300000000005
 21
196.30500000000001
 31
0.0
  0
LINE
  5
161
  8
0
 62
     7
 10
68.746300000000005
 20
218.22300000000001
 30
0.0
 11
50.23769999999999
 21
218.22300000000001
 31
0.0
  0
LINE
  5
162
  8
0
  6
AIGENLINE002
 62
     7
 10
139.012
 20
234.922
 30
0.0
 11
139.012
 21
185.244
 31
0.0
  0
LINE
  5
163
  8
0
  6
AIGENLINE002
 62
     7
 10
68.746300000000005
 20
133.82499999999999
 30
0.0
 11
68.746300000000005
 21
110.479
 31
0.0
  0
LINE
  5
164
  8
0
  6
AIGENLINE002
 62
     7
 10
68.746300000000005
 20
235.53899999999999
 30
0.0
 11
68.746300000000005
 21
187.05600000000001
 31
0.0
  0
LINE
  5
165
  8
0
 62
     7
 10
50.23769999999999
 20
218.22300000000001
 30
0.0
 11
50.23769999999999
 21
196.30500000000001
 31
0.0
  0
LINE
  5
166
  8
0
 62
     7
 10
68.746300000000005
 20
219.72800000000001
 30
0.0
 11
48.190600000000003
 21
219.72800000000001
 31
0.0
  0
TEXT
  5
167
  8
_________2
 62
     7
 10
143.2293875
 20
30.4514
 30
0.0
 40
3.9357000000000002
  1
SB5108
 41
0.5
 72
     1
 11
148.31299999999999
 21
30.4514
 31
0.0
  0
TEXT
  5
168
  8
_________2
 62
     7
 10
143.2293875
 20
20.450600000000001
 30
0.0
 40
3.9357000000000002
  1
SB5108
 41
0.5
 72
     1
 11
148.31299999999999
 21
20.450600000000001
 31
0.0
  0
TEXT
  5
169
  8
_________2
 62
     7
 10
29.3491
 20
22.050799999999999
 30
0.0
 40
3.9357000000000002
  1
実容量：5.8L、重量：14kg、オーバーフロー付
 41
0.5
  0
LINE
  5
16A
  8
_________2
 62
     7
 10
210.06399999999999
 20
148.755
 30
0.0
 11
188.31299999999999
 21
148.755
 31
0.0
  0
LINE
  5
16B
  8
_________2
 62
     7
 10
105.062
 20
17.252099999999999
 30
0.0
 11
105.062
 21
0.272164
 31
0.0
  0
LINE
  5
16C
  8
_________2
 62
     7
 10
105.062
 20
297.274
 30
0.0
 11
105.062
 21
280.25400000000002
 31
0.0
  0
LINE
  5
16D
  8
_________2
 62
     7
 10
21.811900000000001
 20
148.755
 30
0.0
 11
0.0614953
 21
148.755
 31
0.0
  0
LINE
  5
16E
  8
_________2
 62
     7
 10
81.503200000000007
 20
51.1479
 30
0.0
 11
79.316900000000004
 21
51.1479
 31
0.0
  0
LINE
  5
16F
  8
_________2
 62
     7
 10
81.995900000000006
 20
51.1479
 30
0.0
 11
81.743700000000004
 21
51.1479
 31
0.0
  0
LINE
  5
170
  8
_________2
 62
     7
 10
82.488500000000002
 20
51.1479
 30
0.0
 11
85.413399999999996
 21
51.1479
 31
0.0
  0
LINE
  5
171
  8
_________2
 62
     7
 10
81.995900000000006
 20
51.1479
 30
0.0
 11
82.248000000000005
 21
51.1479
 31
0.0
  0
LINE
  5
172
  8
_________2
 62
     7
 10
75.599699999999984
 20
51.1479
 30
0.0
 11
73.412700000000001
 21
51.1479
 31
0.0
  0
LINE
  5
173
  8
_________2
 62
     7
 10
76.0916
 20
51.1479
 30
0.0
 11
75.840100000000007
 21
51.1479
 31
0.0
  0
LINE
  5
174
  8
_________2
 62
     7
 10
76.0916
 20
51.640599999999999
 30
0.0
 11
76.0916
 21
53.827500000000001
 31
0.0
  0
LINE
  5
175
  8
_________2
 62
     7
 10
76.0916
 20
51.1479
 30
0.0
 11
76.0916
 21
51.400500000000001
 31
0.0
  0
LINE
  5
176
  8
_________2
 62
     7
 10
76.584299999999999
 20
51.1479
 30
0.0
 11
78.771199999999993
 21
51.1479
 31
0.0
  0
LINE
  5
177
  8
_________2
 62
     7
 10
76.0916
 20
51.1479
 30
0.0
 11
76.343800000000002
 21
51.1479
 31
0.0
  0
LINE
  5
178
  8
_________2
 62
     7
 10
76.0916
 20
50.655999999999999
 30
0.0
 11
76.0916
 21
48.4694
 31
0.0
  0
LINE
  5
179
  8
_________2
 62
     7
 10
76.0916
 20
51.1479
 30
0.0
 11
76.0916
 21
50.8964
 31
0.0
  0
LINE
  5
17A
  8
_________2
 62
     7
 10
79.802700000000002
 20
49.928400000000011
 30
0.0
 11
84.980699999999999
 21
49.063600000000001
 31
0.0
  0
LINE
  5
17B
  8
_________2
 62
     7
 10
79.802700000000002
 20
52.367800000000003
 30
0.0
 11
84.980699999999999
 21
53.2333
 31
0.0
  0
LINE
  5
17C
  8
_________2
 62
     7
 10
84.980699999999999
 20
49.063600000000001
 30
0.0
 11
84.980699999999999
 21
53.2333
 31
0.0
  0
LINE
  5
17D
  8
_________2
 62
     7
 10
79.802700000000002
 20
49.928400000000011
 30
0.0
 11
79.802700000000002
 21
52.367800000000003
 31
0.0
  0
ARC
  5
17E
  8
_________2
 62
     7
 10
76.045031999999992
 20
51.100991
 30
0.0
 40
1.267714
 50
2.1220840000000001
 51
87.894083999999992
  0
ARC
  5
17F
  8
_________2
 62
     7
 10
76.138563000000005
 20
51.101345000000002
 30
0.0
 40
1.267374999999999
 50
92.122849999999985
 51
177.893304
  0
ARC
  5
180
  8
_________2
 62
     7
 10
76.138538999999994
 20
51.194856000000001
 30
0.0
 40
1.267363
 50
182.121815
 51
267.87821400000001
  0
ARC
  5
181
  8
_________2
 62
     7
 10
76.044727000000009
 20
51.195538999999997
 30
0.0
 40
1.2680439999999991
 50
272.11916400000001
 51
357.84848499999998
  0
ARC
  5
182
  8
_________2
 62
     7
 10
76.011246999999983
 20
51.067923
 30
0.0
 40
2.1668310000000002
 50
2.1161439999999989
 51
87.874379000000005
  0
ARC
  5
183
  8
_________2
 62
     7
 10
76.171678
 20
51.068944999999999
 30
0.0
 40
2.1657980000000001
 50
92.118487999999999
 51
177.909886
  0
ARC
  5
184
  8
_________2
 62
     7
 10
76.17161999999999
 20
51.22793699999999
 30
0.0
 40
2.1657779999999991
 50
182.11700400000001
 51
267.88302499999998
  0
ARC
  5
185
  8
_________2
 62
     7
 10
76.011645000000001
 20
51.228619999999999
 30
0.0
 40
2.1664590000000001
 50
272.11546800000002
 51
357.86560400000002
  0
TEXT
  5
186
  8
_________2
 62
     7
 10
109.367
 20
23.0227
 30
0.0
 40
3.0923400000000001
  1
図番
 41
0.5
  0
LINE
  5
187
  8
_________2
 62
     7
 10
108.313
 20
27.251899999999999
 30
0.0
 11
188.31299999999999
 21
27.251899999999999
 31
0.0
  0
TEXT
  5
188
  8
_________2
 62
     7
 10
109.367
 20
33.022500000000001
 30
0.0
 40
3.0923400000000001
  1
品番
 41
0.5
  0
TEXT
  5
189
  8
_________2
 62
     7
 10
109.367
 20
53.161599999999993
 30
0.0
 40
3.0923400000000001
  1
名称
 41
0.5
  0
TEXT
  5
18A
  8
_________2
 62
     7
 10
96.607258333333334
 20
48.165500000000002
 30
0.0
 40
3.6545800000000002
  1
mm
 41
0.5
 72
     1
 11
98.129999999999995
 21
48.165500000000002
 31
0.0
  0
TEXT
  5
18B
  8
_________2
 62
     7
 10
90.4054
 20
53.161599999999993
 30
0.0
 40
3.0923400000000001
  1
単位
 41
0.5
  0
TEXT
  5
18C
  8
_________2
 62
     7
 10
90.4054
 20
40.753999999999998
 30
0.0
 40
3.0923400000000001
  1
尺度
 41
0.5
  0
TEXT
  5
18D
  8
_________2
 62
     7
 10
94.854136166666663
 20
34.561399999999999
 30
0.0
 40
3.6545800000000002
  1
1 ： 10
 41
0.5
 72
     1
 11
98.721900000000005
 21
34.561399999999999
 31
0.0
  0
TEXT
  5
18E
  8
_________2
 62
     7
 10
113.941
 20
45.569299999999998
 30
0.0
 40
3.9357000000000002
  1
TR2　洗面器
 41
0.5
  0
TEXT
  5
18F
  8
_________2
 62
     7
 10
44.126590666666658
 20
34.946599999999997
 30
0.0
 40
3.6545800000000002
  1
篠崎
 41
0.5
 72
     1
 11
46.075699999999991
 21
34.946599999999997
 31
0.0
  0
TEXT
  5
190
  8
_________2
 62
     7
 10
25.613700333333341
 20
34.946599999999997
 30
0.0
 40
3.6545800000000002
  1
早川
 41
0.5
 72
     1
 11
27.501899999999999
 21
34.946599999999997
 31
0.0
  0
TEXT
  5
191
  8
_________2
 62
     7
 10
72.548000000000002
 20
34.561399999999999
 30
0.0
 40
3.6545800000000002
  1
17.03.06
 41
0.5
  0
TEXT
  5
192
  8
_________2
 62
     7
 10
71.3553
 20
40.753999999999998
 30
0.0
 40
3.0923400000000001
  1
日付
 41
0.5
  0
TEXT
  5
193
  8
_________2
 62
     7
 10
34.401600000000002
 20
40.753999999999998
 30
0.0
 40
3.0923400000000001
  1
検図
 41
0.5
  0
TEXT
  5
194
  8
_________2
 62
     7
 10
22.7834
 20
26.554600000000001
 30
0.0
 40
3.0923400000000001
  1
備考
 41
0.5
  0
TEXT
  5
195
  8
_________2
 62
     7
 10
22.7834
 20
40.753999999999998
 30
0.0
 40
3.0923400000000001
  1
製図
 41
0.5
  0
TEXT
  5
196
  8
_________2
 62
     7
 10
28.550665333333338
 20
49.280000000000001
 30
0.0
 40
4.4979399999999989
  1
セラトレーディング株式会社
 41
0.5
 72
     1
 11
45.942700000000002
 21
49.280000000000001
 31
0.0
  0
LINE
  5
197
  8
_________2
 62
     7
 10
188.31299999999999
 20
17.252099999999999
 30
0.0
 11
21.811900000000001
 21
17.252099999999999
 31
0.0
  0
LINE
  5
198
  8
_________2
 62
     7
 10
21.811900000000001
 20
17.252099999999999
 30
0.0
 11
21.811900000000001
 21
280.25400000000002
 31
0.0
  0
LINE
  5
199
  8
_________2
 62
     7
 10
21.811900000000001
 20
280.25400000000002
 30
0.0
 11
188.31299999999999
 21
280.25400000000002
 31
0.0
  0
LINE
  5
19A
  8
_________2
 62
     7
 10
188.31299999999999
 20
280.25400000000002
 30
0.0
 11
188.31299999999999
 21
17.252099999999999
 31
0.0
  0
LINE
  5
19B
  8
_________2
 62
     7
 10
70.312100000000001
 20
30.752500000000001
 30
0.0
 11
70.312100000000001
 21
57.252299999999991
 31
0.0
  0
LINE
  5
19C
  8
_________2
 62
     7
 10
89.311899999999994
 20
30.752500000000001
 30
0.0
 11
89.311899999999994
 21
57.252299999999991
 31
0.0
  0
LINE
  5
19D
  8
_________2
 62
     7
 10
108.313
 20
17.252099999999999
 30
0.0
 11
108.313
 21
57.252299999999991
 31
0.0
  0
LINE
  5
19E
  8
_________2
 62
     7
 10
33.311500000000002
 20
30.752500000000001
 30
0.0
 11
33.311500000000002
 21
44.752400000000002
 31
0.0
  0
LINE
  5
19F
  8
_________2
 62
     7
 10
21.811900000000001
 20
30.752500000000001
 30
0.0
 11
108.313
 21
30.752500000000001
 31
0.0
  0
LINE
  5
1A0
  8
_________2
 62
     7
 10
21.811900000000001
 20
44.752400000000002
 30
0.0
 11
108.313
 21
44.752400000000002
 31
0.0
  0
LINE
  5
1A1
  8
_________2
 62
     7
 10
108.313
 20
37.2517
 30
0.0
 11
188.31299999999999
 21
37.2517
 31
0.0
  0
LINE
  5
1A2
  8
_________2
 62
     7
 10
21.811900000000001
 20
57.252299999999991
 30
0.0
 11
188.31299999999999
 21
57.252299999999991
 31
0.0
  0
ENDSEC
  0
EOF
