  0
SECTION
  2
HEADER
  9
$ACADVER
  1
AC1009
  9
$LUNITS
 70
2
  9
$LUPREC
 70
4
  9
$LTSCALE
 40
1.0
  9
$EXTMIN
 10
-104.7936
 20
0.176
 30
0
  9
$EXTMAX
 10
315.2069
 20
297.1763
 30
0
  0
ENDSEC
  0
SECTION
  2
TABLES
  0
TABLE
  2
LTYPE
 70
256
  0
LTYPE
  2
AIGENLINE001
 70
64
  3
generate AI->DXF Converter
 72
65
 73
4
 40
5.8561
 49
3.5278
 49
-0.7761
 49
0.7761
 49
-0.7761
  0
LTYPE
  2
AIGENLINE002
 70
64
  3
generate AI->DXF Converter
 72
65
 73
2
 40
1.5522
 49
0.7761
 49
-0.7761
  0
ENDTAB
  0
TABLE
  2
LAYER
 70
3
  0
LAYER
  2
LAYER_1
 70
64
 62
7
  6
CONTINUOUS
  0
LAYER
  2
LAYER_2
 70
64
 62
7
  6
CONTINUOUS
  0
LAYER
  2
LAYER_3
 70
64
 62
7
  6
CONTINUOUS
  0
ENDTAB
  0
TABLE
  2
STYLE
 70
6
  0
STYLE
  2
STANDARD
 70
0
 40
0
 50
0
 71
0
 41
0
 42
0
  3
TXT
  4
BIGFONT
  0
ENDTAB
  0
ENDSEC
  0
SECTION
  2
BLOCKS
  0
BLOCK
  8
LAYER_1
  2
AIGNBL01020003
 70
64
 10
0
 20
0
 30
0
  3
AIGNBL01020003
  0
TEXT
  8
LAYER_1
 10
70.4184
 20
153.9718
 11
70.4184
 21
153.9718
 40
3.0923
 41
0.5
 72
1
  1
カウンター切込寸法
  0
ENDBLK
  0
BLOCK
  8
LAYER_1
  2
AIGNBL01020005
 70
64
 10
0
 20
0
 30
0
  3
AIGNBL01020005
  0
TEXT
  8
LAYER_1
 10
53.7249
 20
201.74
 11
53.7249
 21
201.74
 40
3.0923
 41
0.5
  1
排水口
  0
ENDBLK
  0
BLOCK
  8
LAYER_1
  2
AIGNBL01010002
 70
64
 10
0
 20
0
 30
0
  3
AIGNBL01010002
  0
INSERT
  8
LAYER_1
  2
AIGNBL01020003
 10
0
 20
0
 30
0
  0
ENDBLK
  0
BLOCK
  8
LAYER_1
  2
AIGNBL01010004
 70
64
 10
0
 20
0
 30
0
  3
AIGNBL01010004
  0
INSERT
  8
LAYER_1
  2
AIGNBL01020005
 10
0
 20
0
 30
0
  0
ENDBLK
  0
BLOCK
  8
LAYER_2
  2
AIGNBL02010002
 70
64
 10
0
 20
0
 30
0
  3
AIGNBL02010002
  0
LINE
  8
LAYER_2
 10
-28.8694
 20
200.262
 11
-18.82
 21
190.2127
  0
LINE
  8
LAYER_2
 10
-28.2165
 20
198.7717
 11
-26.2339
 21
197.6267
  0
LINE
  8
LAYER_2
 10
-26.2339
 20
197.6267
 11
-27.3783
 21
199.6097
  0
LINE
  8
LAYER_2
 10
-27.3783
 20
199.6097
 11
-28.2165
 21
198.7717
  0
LINE
  8
LAYER_2
 10
-21.0693
 20
193.2996
 11
-23.052
 21
194.4446
  0
LINE
  8
LAYER_2
 10
-23.052
 20
194.4446
 11
-21.9075
 21
192.4616
  0
LINE
  8
LAYER_2
 10
-21.9075
 20
192.4616
 11
-21.0693
 21
193.2996
  0
ENDBLK
  0
BLOCK
  8
LAYER_2
  2
AIGNBL02010003
 70
64
 10
0
 20
0
 30
0
  3
AIGNBL02010003
  0
LINE
  8
LAYER_2
 10
63.3636
 20
201.0399
 11
67.5769
 21
196.8267
  0
LINE
  8
LAYER_2
 10
65.5943
 20
197.9715
 11
67.5769
 21
196.8267
  0
LINE
  8
LAYER_2
 10
67.5769
 20
196.8267
 11
66.4325
 21
198.8096
  0
LINE
  8
LAYER_2
 10
66.4325
 20
198.8096
 11
65.5943
 21
197.9715
  0
ENDBLK
  0
BLOCK
  8
LAYER_2
  2
AIGNBL02010004
 70
64
 10
0
 20
0
 30
0
  3
AIGNBL02010004
  0
LINE
  8
LAYER_2
 10
44.3446
 20
178.9126
 11
40.2611
 21
174.8291
  0
LINE
  8
LAYER_2
 10
41.4059
 20
176.8119
 11
40.2611
 21
174.8291
  0
LINE
  8
LAYER_2
 10
40.2611
 20
174.8291
 11
42.2441
 21
175.9739
  0
LINE
  8
LAYER_2
 10
42.2441
 20
175.9739
 11
41.4059
 21
176.8119
  0
ENDBLK
  0
BLOCK
  8
LAYER_2
  2
AIGNBL02010005
 70
64
 10
0
 20
0
 30
0
  3
AIGNBL02010005
  0
LINE
  8
LAYER_2
 10
-62.3722
 20
218.5357
 11
-62.3722
 21
174.5356
  0
LINE
  8
LAYER_2
 10
-62.9648
 20
176.7472
 11
-62.3722
 21
174.5356
  0
LINE
  8
LAYER_2
 10
-62.3722
 20
174.5356
 11
-61.7797
 21
176.7472
  0
LINE
  8
LAYER_2
 10
-61.7797
 20
176.7472
 11
-62.9648
 21
176.7472
  0
LINE
  8
LAYER_2
 10
-61.7797
 20
216.3241
 11
-62.3722
 21
218.5357
  0
LINE
  8
LAYER_2
 10
-62.3722
 20
218.5357
 11
-62.9648
 21
216.3241
  0
LINE
  8
LAYER_2
 10
-62.9648
 20
216.3241
 11
-61.7797
 21
216.3241
  0
ENDBLK
  0
BLOCK
  8
LAYER_2
  2
AIGNBL02010006
 70
64
 10
0
 20
0
 30
0
  3
AIGNBL02010006
  0
LINE
  8
LAYER_2
 10
5.357
 20
157.0486
 11
-54.6428
 21
157.0486
  0
LINE
  8
LAYER_2
 10
-52.4314
 20
157.6412
 11
-54.6428
 21
157.0486
  0
LINE
  8
LAYER_2
 10
-54.6428
 20
157.0486
 11
-52.4314
 21
156.4561
  0
LINE
  8
LAYER_2
 10
-52.4314
 20
156.4561
 11
-52.4314
 21
157.6412
  0
LINE
  8
LAYER_2
 10
3.1455
 20
156.4561
 11
5.357
 21
157.0486
  0
LINE
  8
LAYER_2
 10
5.357
 20
157.0486
 11
3.1455
 21
157.6412
  0
LINE
  8
LAYER_2
 10
3.1455
 20
157.6412
 11
3.1455
 21
156.4561
  0
ENDBLK
  0
BLOCK
  8
LAYER_2
  2
AIGNBL02010007
 70
64
 10
0
 20
0
 30
0
  3
AIGNBL02010007
  0
LINE
  8
LAYER_2
 10
91.6678
 20
80.3992
 11
69.1675
 21
80.3992
  0
LINE
  8
LAYER_2
 10
71.3793
 20
80.9918
 11
69.1675
 21
80.3992
  0
LINE
  8
LAYER_2
 10
69.1675
 20
80.3992
 11
71.3793
 21
79.8067
  0
LINE
  8
LAYER_2
 10
71.3793
 20
79.8067
 11
71.3793
 21
80.9918
  0
LINE
  8
LAYER_2
 10
89.4567
 20
79.8067
 11
91.6678
 21
80.3992
  0
LINE
  8
LAYER_2
 10
91.6678
 20
80.3992
 11
89.4567
 21
80.9918
  0
LINE
  8
LAYER_2
 10
89.4567
 20
80.9918
 11
89.4567
 21
79.8067
  0
ENDBLK
  0
BLOCK
  8
LAYER_2
  2
AIGNBL02010008
 70
64
 10
0
 20
0
 30
0
  3
AIGNBL02010008
  0
LINE
  8
LAYER_2
 10
4.8571
 20
163.9981
 11
-54.143
 21
163.9981
  0
LINE
  8
LAYER_2
 10
-51.9315
 20
164.5907
 11
-54.143
 21
163.9981
  0
LINE
  8
LAYER_2
 10
-54.143
 20
163.9981
 11
-51.9315
 21
163.4055
  0
LINE
  8
LAYER_2
 10
-51.9315
 20
163.4055
 11
-51.9315
 21
164.5907
  0
LINE
  8
LAYER_2
 10
2.6457
 20
163.4055
 11
4.8571
 21
163.9981
  0
LINE
  8
LAYER_2
 10
4.8571
 20
163.9981
 11
2.6457
 21
164.5907
  0
LINE
  8
LAYER_2
 10
2.6457
 20
164.5907
 11
2.6457
 21
163.4055
  0
ENDBLK
  0
BLOCK
  8
LAYER_2
  2
AIGNBL02010009
 70
64
 10
0
 20
0
 30
0
  3
AIGNBL02010009
  0
LINE
  8
LAYER_2
 10
98.3678
 20
162.4485
 11
39.9679
 21
162.4485
  0
LINE
  8
LAYER_2
 10
42.1793
 20
163.041
 11
39.9679
 21
162.4485
  0
LINE
  8
LAYER_2
 10
39.9679
 20
162.4485
 11
42.1793
 21
161.8559
  0
LINE
  8
LAYER_2
 10
42.1793
 20
161.8559
 11
42.1793
 21
163.041
  0
LINE
  8
LAYER_2
 10
96.1564
 20
161.8559
 11
98.3678
 21
162.4485
  0
LINE
  8
LAYER_2
 10
98.3678
 20
162.4485
 11
96.1564
 21
163.041
  0
LINE
  8
LAYER_2
 10
96.1564
 20
163.041
 11
96.1564
 21
161.8559
  0
ENDBLK
  0
BLOCK
  8
LAYER_2
  2
AIGNBL0201000A
 70
64
 10
0
 20
0
 30
0
  3
AIGNBL0201000A
  0
LINE
  8
LAYER_2
 10
107.7316
 20
216.9358
 11
107.7316
 21
174.5356
  0
LINE
  8
LAYER_2
 10
107.139
 20
176.7472
 11
107.7316
 21
174.5356
  0
LINE
  8
LAYER_2
 10
107.7316
 20
174.5356
 11
108.3241
 21
176.7472
  0
LINE
  8
LAYER_2
 10
108.3241
 20
176.7472
 11
107.139
 21
176.7472
  0
LINE
  8
LAYER_2
 10
108.3241
 20
214.7242
 11
107.7316
 21
216.9358
  0
LINE
  8
LAYER_2
 10
107.7316
 20
216.9358
 11
107.139
 21
214.7242
  0
LINE
  8
LAYER_2
 10
107.139
 20
214.7242
 11
108.3241
 21
214.7242
  0
ENDBLK
  0
BLOCK
  8
LAYER_2
  2
AIGNBL0201000B
 70
64
 10
0
 20
0
 30
0
  3
AIGNBL0201000B
  0
LINE
  8
LAYER_2
 10
83.2356
 20
216.9358
 11
83.2356
 21
195.2358
  0
LINE
  8
LAYER_2
 10
82.643
 20
197.4474
 11
83.2356
 21
195.2358
  0
LINE
  8
LAYER_2
 10
83.2356
 20
195.2358
 11
83.8281
 21
197.4474
  0
LINE
  8
LAYER_2
 10
83.8281
 20
197.4474
 11
82.643
 21
197.4474
  0
LINE
  8
LAYER_2
 10
83.8281
 20
214.7242
 11
83.2356
 21
216.9358
  0
LINE
  8
LAYER_2
 10
83.2356
 20
216.9358
 11
82.643
 21
214.7242
  0
LINE
  8
LAYER_2
 10
82.643
 20
214.7242
 11
83.8281
 21
214.7242
  0
ENDBLK
  0
BLOCK
  8
LAYER_2
  2
AIGNBL0201000C
 70
64
 10
0
 20
0
 30
0
  3
AIGNBL0201000C
  0
LINE
  8
LAYER_2
 10
100.3157
 20
105.7131
 11
100.3157
 21
88.7129
  0
LINE
  8
LAYER_2
 10
99.7231
 20
90.9247
 11
100.3157
 21
88.7129
  0
LINE
  8
LAYER_2
 10
100.3157
 20
88.7129
 11
100.9082
 21
90.9247
  0
LINE
  8
LAYER_2
 10
100.9082
 20
90.9247
 11
99.7231
 21
90.9247
  0
LINE
  8
LAYER_2
 10
100.9082
 20
103.5013
 11
100.3157
 21
105.7131
  0
LINE
  8
LAYER_2
 10
100.3157
 20
105.7131
 11
99.7231
 21
103.5013
  0
LINE
  8
LAYER_2
 10
99.7231
 20
103.5013
 11
100.9082
 21
103.5013
  0
ENDBLK
  0
BLOCK
  8
LAYER_2
  2
AIGNBL0201000D
 70
64
 10
0
 20
0
 30
0
  3
AIGNBL0201000D
  0
LINE
  8
LAYER_2
 10
68.0244
 20
105.7131
 11
68.0244
 21
93.7132
  0
LINE
  8
LAYER_2
 10
67.4319
 20
95.9249
 11
68.0244
 21
93.7132
  0
LINE
  8
LAYER_2
 10
68.0244
 20
93.7132
 11
68.617
 21
95.9249
  0
LINE
  8
LAYER_2
 10
68.617
 20
95.9249
 11
67.4319
 21
95.9249
  0
LINE
  8
LAYER_2
 10
68.617
 20
103.5013
 11
68.0244
 21
105.7131
  0
LINE
  8
LAYER_2
 10
68.0244
 20
105.7131
 11
67.4319
 21
103.5013
  0
LINE
  8
LAYER_2
 10
67.4319
 20
103.5013
 11
68.617
 21
103.5013
  0
ENDBLK
  0
BLOCK
  8
LAYER_2
  2
AIGNBL0201000E
 70
64
 10
0
 20
0
 30
0
  3
AIGNBL0201000E
  0
LINE
  8
LAYER_2
 10
-28.601
 20
215.7939
 11
-19.4677
 21
206.6606
  0
LINE
  8
LAYER_2
 10
-27.8631
 20
214.2183
 11
-25.8804
 21
213.0733
  0
LINE
  8
LAYER_2
 10
-25.8804
 20
213.0733
 11
-27.0252
 21
215.0563
  0
LINE
  8
LAYER_2
 10
-27.0252
 20
215.0563
 11
-27.8631
 21
214.2183
  0
LINE
  8
LAYER_2
 10
-21.4228
 20
209.4532
 11
-23.4055
 21
210.5982
  0
LINE
  8
LAYER_2
 10
-23.4055
 20
210.5982
 11
-22.2607
 21
208.6152
  0
LINE
  8
LAYER_2
 10
-22.2607
 20
208.6152
 11
-21.4228
 21
209.4532
  0
ENDBLK
  0
BLOCK
  8
LAYER_2
  2
AIGNBL0201000F
 70
64
 10
0
 20
0
 30
0
  3
AIGNBL0201000F
  0
LINE
  8
LAYER_2
 10
14.1881
 20
105.7131
 11
14.1881
 21
98.7134
  0
LINE
  8
LAYER_2
 10
13.5956
 20
100.9244
 11
14.1881
 21
98.7134
  0
LINE
  8
LAYER_2
 10
14.1881
 20
98.7134
 11
14.7806
 21
100.9244
  0
LINE
  8
LAYER_2
 10
14.7806
 20
100.9244
 11
13.5956
 21
100.9244
  0
LINE
  8
LAYER_2
 10
14.7806
 20
103.5013
 11
14.1881
 21
105.7131
  0
LINE
  8
LAYER_2
 10
14.1881
 20
105.7131
 11
13.5956
 21
103.5013
  0
LINE
  8
LAYER_2
 10
13.5956
 20
103.5013
 11
14.7806
 21
103.5013
  0
ENDBLK
  0
BLOCK
  8
LAYER_3
  2
AIGNBL03010002
 70
64
 10
0
 20
0
 30
0
  3
AIGNBL03010002
  0
ARC
  8
LAYER_3
 10
181.2361
 20
51.0518
 40
2.085
 50
359.9990616
 51
90.00093841
  0
ARC
  8
LAYER_3
 10
181.2364
 20
51.0522
 40
2.0846
 50
90.00927268
 51
180.0099666
  0
ARC
  8
LAYER_3
 10
181.2361
 20
51.0519
 40
2.0843
 50
180.0023133
 51
270.0004358
  0
ARC
  8
LAYER_3
 10
181.2365
 20
51.0522
 40
2.0846
 50
269.9893525
 51
359.9886593
  0
ARC
  8
LAYER_3
 10
181.2365
 20
51.0515
 40
1.2199
 50
0.01483428533
 51
90.01804168
  0
ARC
  8
LAYER_3
 10
181.2361
 20
51.0519
 40
1.2195
 50
90.00175626
 51
180.0029419
  0
ARC
  8
LAYER_3
 10
181.2361
 20
51.0518
 40
1.2195
 50
180.0016044
 51
269.9983956
  0
ARC
  8
LAYER_3
 10
181.2365
 20
51.0522
 40
1.2199
 50
269.9818051
 51
359.9806209
  0
LINE
  8
LAYER_3
 10
184.9472
 20
49.8323
 11
184.9472
 21
52.2714
  0
LINE
  8
LAYER_3
 10
190.1252
 20
48.9676
 11
190.1252
 21
53.1368
  0
LINE
  8
LAYER_3
 10
184.9472
 20
52.2714
 11
190.1252
 21
53.1368
  0
LINE
  8
LAYER_3
 10
184.9472
 20
49.8323
 11
190.1252
 21
48.9676
  0
LINE
  8
LAYER_3
 10
181.2361
 20
51.0518
 11
181.2361
 21
50.8004
  0
LINE
  8
LAYER_3
 10
181.2361
 20
50.5599
 11
181.2361
 21
48.3729
  0
LINE
  8
LAYER_3
 10
181.2361
 20
51.0518
 11
181.4883
 21
51.0518
  0
LINE
  8
LAYER_3
 10
181.7288
 20
51.0518
 11
183.9157
 21
51.0518
  0
LINE
  8
LAYER_3
 10
181.2361
 20
51.0518
 11
181.2361
 21
51.304
  0
LINE
  8
LAYER_3
 10
181.2361
 20
51.5445
 11
181.2361
 21
53.7314
  0
LINE
  8
LAYER_3
 10
181.2361
 20
51.0518
 11
180.9846
 21
51.0518
  0
LINE
  8
LAYER_3
 10
180.7442
 20
51.0518
 11
178.5572
 21
51.0518
  0
LINE
  8
LAYER_3
 10
187.1404
 20
51.0518
 11
187.3925
 21
51.0518
  0
LINE
  8
LAYER_3
 10
187.633
 20
51.0518
 11
190.5579
 21
51.0518
  0
LINE
  8
LAYER_3
 10
187.1404
 20
51.0518
 11
186.8882
 21
51.0518
  0
LINE
  8
LAYER_3
 10
186.6477
 20
51.0518
 11
184.4614
 21
51.0518
  0
ENDBLK
  0
ENDSEC
  0
SECTION
  2
ENTITIES
  0
INSERT
  8
LAYER_1
  2
AIGNBL01010002
 10
0
 20
0
 30
0
  0
INSERT
  8
LAYER_1
  2
AIGNBL01010004
 10
0
 20
0
 30
0
  0
TEXT
  8
LAYER_1
 10
69.1679
 20
163.1485
 11
69.1679
 21
163.1485
 40
3.0923
 41
0.5
 72
1
  1
584
  0
TEXT
  8
LAYER_1
 10
-24.6429
 20
164.6981
 11
-24.6429
 21
164.6981
 40
3.0923
 41
0.5
 72
1
  1
590
  0
TEXT
  8
LAYER_1
 10
-24.6429
 20
157.7487
 11
-24.6429
 21
157.7487
 40
3.0923
 41
0.5
 72
1
  1
600
  0
TEXT
  8
LAYER_1
 10
80.4178
 20
81.0993
 11
80.4178
 21
81.0993
 40
3.0923
 41
0.5
 72
1
  1
225
  0
TEXT
  8
LAYER_1
 10
107.0315
 20
195.7357
 11
107.0315
 21
195.7357
 40
3.0923
 41
0.5
 50
89.99999999
 72
1
  1
424
  0
TEXT
  8
LAYER_1
 10
-63.0723
 20
196.5356
 11
-63.0723
 21
196.5356
 40
3.0923
 41
0.5
 50
89.99999999
 72
1
  1
440
  0
TEXT
  8
LAYER_1
 10
82.5355
 20
206.0858
 11
82.5355
 21
206.0858
 40
3.0923
 41
0.5
 50
89.99999999
 72
1
  1
217
  0
TEXT
  8
LAYER_1
 10
49.3021
 20
179.6126
 11
49.3021
 21
179.6126
 40
3.0923
 41
0.5
 72
2
  1
R10
  0
TEXT
  8
LAYER_1
 10
-14.1702
 20
190.9127
 11
-14.1702
 21
190.9127
 40
3.0923
 41
0.5
 72
2
  1
%%c45
  0
TEXT
  8
LAYER_1
 10
99.6156
 20
97.2134
 11
99.6156
 21
97.2134
 40
3.0923
 41
0.5
 50
89.99999999
 72
1
  1
170
  0
TEXT
  8
LAYER_1
 10
67.3244
 20
100.923
 11
67.3244
 21
100.923
 40
3.0923
 41
0.5
 50
89.99999999
 72
1
  1
120
  0
TEXT
  8
LAYER_1
 10
87.9202
 20
111.8378
 11
87.9202
 21
111.8378
 40
3.0923
 41
0.5
 50
89.99999999
 72
2
  1
10
  0
TEXT
  8
LAYER_1
 10
12.2706
 20
211.7857
 11
12.2706
 21
211.7857
 40
3.0923
 41
0.5
 50
89.99999999
 72
1
  1
135
  0
TEXT
  8
LAYER_1
 10
12.2706
 20
190.0356
 11
12.2706
 21
190.0356
 40
3.0923
 41
0.5
 50
89.99999999
 72
1
  1
300
  0
TEXT
  8
LAYER_1
 10
12.2706
 20
169.9054
 11
12.2706
 21
169.9054
 40
3.0923
 41
0.5
 50
89.99999999
  1
5
  0
TEXT
  8
LAYER_1
 10
-34.3374
 20
208.4357
 11
-34.3374
 21
208.4357
 40
3.0923
 41
0.5
 50
89.99999999
 72
1
  1
68
  0
TEXT
  8
LAYER_1
 10
-34.3374
 20
214.6858
 11
-34.3374
 21
214.6858
 40
3.0923
 41
0.5
 50
89.99999999
 72
1
  1
57
  0
TEXT
  8
LAYER_1
 10
-34.3374
 20
224.6555
 11
-34.3374
 21
224.6555
 40
3.0923
 41
0.5
 50
89.99999999
 72
2
  1
10
  0
TEXT
  8
LAYER_1
 10
-14.4345
 20
207.3606
 11
-14.4345
 21
207.3606
 40
3.0923
 41
0.5
 72
2
  1
%%c35
  0
TEXT
  8
LAYER_1
 10
13.4884
 20
102.2129
 11
13.4884
 21
102.2129
 40
3.0923
 41
0.5
 50
89.99999999
 72
1
  1
70
  0
TEXT
  8
LAYER_1
 10
-24.2472
 20
229.8079
 11
-24.2472
 21
229.8079
 40
3.0923
 41
0.5
 72
2
  1
メーカーロゴ　※ホワイト色のみ
  0
LINE
  8
LAYER_2
 10
-24.6429
 20
205.0357
 11
-52.6984
 21
205.0357
  0
LINE
  8
LAYER_2
 10
-50.6513
 20
203.5309
 11
-50.6513
 21
181.613
  0
LINE
  8
LAYER_2
  6
AIGENLINE001
 10
-24.6429
 20
108.8647
 11
-24.6429
 21
85.5186
  0
LINE
  8
LAYER_2
  6
AIGENLINE001
 10
69.1679
 20
220.2296
 11
69.1679
 21
170.5524
  0
LINE
  8
LAYER_2
 10
-24.6429
 20
203.5309
 11
-50.6513
 21
203.5309
  0
LINE
  8
LAYER_2
 10
-50.6513
 20
181.613
 11
-24.6429
 21
181.613
  0
LINE
  8
LAYER_2
 10
-53.4515
 20
175.7429
 11
-50.6513
 21
181.613
  0
LINE
  8
LAYER_2
 10
-50.6513
 20
203.5309
 11
-53.2004
 21
204.5588
  0
LINE
  8
LAYER_2
 10
-52.7752
 20
217.5357
 11
-24.6429
 21
217.5357
  0
LINE
  8
LAYER_2
 10
-53.5755
 20
216.7358
 11
-53.5755
 21
205.1317
  0
ARC
  8
LAYER_2
 10
4.3571
 20
175.5355
 40
0.9999
 50
270.0085314
 51
0.008658223649
  0
LINE
  8
LAYER_2
 10
4.3572
 20
174.5356
 11
-53.6431
 21
174.5356
  0
ARC
  8
LAYER_2
 10
-53.6429
 20
175.5355
 40
0.9999
 50
179.9891128
 51
269.9879666
  0
LINE
  8
LAYER_2
 10
-54.6428
 20
175.5357
 11
-54.6428
 21
217.5355
  0
ARC
  8
LAYER_2
 10
-53.6429
 20
217.5358
 40
0.9999
 50
90.01391661
 51
180.0147327
  0
LINE
  8
LAYER_2
 10
-53.6431
 20
218.5357
 11
4.3572
 21
218.5357
  0
ARC
  8
LAYER_2
 10
4.357
 20
217.5357
 40
1
 50
359.9874964
 51
89.98958528
  0
LINE
  8
LAYER_2
 10
5.357
 20
217.5355
 11
5.357
 21
175.5357
  0
ARC
  8
LAYER_2
 10
4.8573
 20
99.2131
 40
0.4997
 50
269.9777371
 51
359.9763987
  0
LINE
  8
LAYER_2
 10
4.8571
 20
98.7134
 11
-54.143
 21
98.7134
  0
ARC
  8
LAYER_2
 10
-54.1431
 20
99.2131
 40
0.4997
 50
180.0191444
 51
270.0152571
  0
LINE
  8
LAYER_2
 10
-54.6428
 20
99.2129
 11
-54.6428
 21
105.2136
  0
ARC
  8
LAYER_2
 10
-54.1431
 20
105.2134
 40
0.4997
 50
89.9869173
 51
179.9786811
  0
LINE
  8
LAYER_2
 10
-54.143
 20
105.7131
 11
4.8571
 21
105.7131
  0
ARC
  8
LAYER_2
 10
4.8573
 20
105.2134
 40
0.4997
 50
0.02577545027
 51
90.02008868
  0
LINE
  8
LAYER_2
 10
5.357
 20
105.2136
 11
5.357
 21
99.2129
  0
ARC
  8
LAYER_2
 10
3.8571
 20
176.0355
 40
1
 50
269.9957268
 51
359.992814
  0
LINE
  8
LAYER_2
 10
3.857
 20
175.0355
 11
-53.1428
 21
175.0355
  0
ARC
  8
LAYER_2
 10
-53.143
 20
176.0355
 40
1
 50
180.007822
 51
270.009366
  0
LINE
  8
LAYER_2
 10
-54.143
 20
176.0354
 11
-54.143
 21
217.0355
  0
ARC
  8
LAYER_2
 10
-53.143
 20
217.0354
 40
1
 50
89.99002723
 51
179.9927849
  0
LINE
  8
LAYER_2
 10
-53.1428
 20
218.0354
 11
3.857
 21
218.0354
  0
ARC
  8
LAYER_2
 10
3.8571
 20
217.0354
 40
1
 50
0.00657919875
 51
90.00487995
  0
LINE
  8
LAYER_2
 10
4.8571
 20
217.0355
 11
4.8571
 21
176.0354
  0
LINE
  8
LAYER_2
  6
AIGENLINE001
 10
-31.0239
 20
196.0357
 11
-18.7308
 21
196.0357
  0
CIRCLE
  8
LAYER_2
 10
-24.6429
 20
196.0357
 40
4
  0
CIRCLE
  8
LAYER_2
 10
-24.6429
 20
196.0357
 40
2.25
  0
ARC
  8
LAYER_2
 10
-52.7754
 20
216.7356
 40
0.8001
 50
89.98573408
 51
179.9856216
  0
ARC
  8
LAYER_2
 10
-52.8429
 20
203.9553
 40
1.1152
 50
132.2042655
 51
162.4072746
  0
ARC
  8
LAYER_2
 10
-52.9363
 20
203.9943
 40
1.0244
 50
98.2691083
 51
129.7955227
  0
ARC
  8
LAYER_2
 10
-52.7793
 20
203.4623
 40
1.5755
 50
87.05688439
 51
101.1397745
  0
LINE
  8
LAYER_2
 10
-24.6429
 20
205.0357
 11
3.4125
 21
205.0357
  0
LINE
  8
LAYER_2
 10
1.3655
 20
203.5309
 11
1.3655
 21
181.613
  0
LINE
  8
LAYER_2
 10
-24.6429
 20
203.5309
 11
1.3655
 21
203.5309
  0
LINE
  8
LAYER_2
 10
1.3655
 20
181.613
 11
-24.6429
 21
181.613
  0
LINE
  8
LAYER_2
 10
4.1656
 20
175.7429
 11
1.3655
 21
181.613
  0
LINE
  8
LAYER_2
 10
1.3655
 20
203.5309
 11
3.9145
 21
204.5588
  0
LINE
  8
LAYER_2
 10
3.4894
 20
217.5357
 11
-24.6429
 21
217.5357
  0
LINE
  8
LAYER_2
 10
4.2897
 20
216.7358
 11
4.2897
 21
205.1317
  0
ARC
  8
LAYER_2
 10
3.4896
 20
216.7356
 40
0.8001
 50
0.01716368812
 51
90.01148061
  0
ARC
  8
LAYER_2
 10
3.5572
 20
203.9556
 40
1.1149
 50
17.58515537
 51
47.79592958
  0
ARC
  8
LAYER_2
 10
3.6505
 20
203.9943
 40
1.0244
 50
50.20541579
 51
81.73224874
  0
ARC
  8
LAYER_2
 10
3.4934
 20
203.4621
 40
1.5757
 50
78.86097901
 51
92.94272364
  0
LINE
  8
LAYER_2
 10
-18.82
 20
190.2127
 11
-13.0526
 21
190.2127
  0
LINE
  8
LAYER_2
 10
53.7249
 20
201.0399
 11
63.3636
 21
201.0399
  0
INSERT
  8
LAYER_2
  2
AIGNBL02010002
 10
0
 20
0
 30
0
  0
CIRCLE
  8
LAYER_2
  6
AIGENLINE002
 10
69.1679
 20
195.2358
 40
4
  0
CIRCLE
  8
LAYER_2
  6
AIGENLINE002
 10
69.1679
 20
195.2358
 40
2.25
  0
INSERT
  8
LAYER_2
  2
AIGNBL02010003
 10
0
 20
0
 30
0
  0
LINE
  8
LAYER_2
 10
44.3446
 20
178.9126
 11
49.3021
 21
178.9126
  0
INSERT
  8
LAYER_2
  2
AIGNBL02010004
 10
0
 20
0
 30
0
  0
LINE
  8
LAYER_2
 10
5.357
 20
174.1356
 11
5.357
 21
156.3486
  0
LINE
  8
LAYER_2
 10
-54.6428
 20
174.1356
 11
-54.6428
 21
156.3486
  0
INSERT
  8
LAYER_2
  2
AIGNBL02010005
 10
0
 20
0
 30
0
  0
LINE
  8
LAYER_2
 10
-54.143
 20
175.0906
 11
-54.143
 21
163.298
  0
LINE
  8
LAYER_2
 10
4.8571
 20
175.0906
 11
4.8571
 21
163.298
  0
LINE
  8
LAYER_2
 10
-55.0431
 20
174.5356
 11
-63.0723
 21
174.5356
  0
INSERT
  8
LAYER_2
  2
AIGNBL02010006
 10
0
 20
0
 30
0
  0
LINE
  8
LAYER_2
 10
91.6678
 20
98.0133
 11
91.6678
 21
79.6992
  0
LINE
  8
LAYER_2
 10
69.1675
 20
85.0784
 11
69.1675
 21
79.6992
  0
INSERT
  8
LAYER_2
  2
AIGNBL02010007
 10
0
 20
0
 30
0
  0
INSERT
  8
LAYER_2
  2
AIGNBL02010008
 10
0
 20
0
 30
0
  0
LINE
  8
LAYER_2
 10
39.9679
 20
173.7858
 11
39.9679
 21
161.7484
  0
LINE
  8
LAYER_2
 10
98.3678
 20
173.7858
 11
98.3678
 21
161.7484
  0
INSERT
  8
LAYER_2
  2
AIGNBL02010009
 10
0
 20
0
 30
0
  0
LINE
  8
LAYER_2
 10
-55.0431
 20
218.5357
 11
-63.0723
 21
218.5357
  0
LINE
  8
LAYER_2
  6
AIGENLINE001
 10
76.18
 20
195.2358
 11
62.0689
 21
195.2358
  0
INSERT
  8
LAYER_2
  2
AIGNBL0201000A
 10
0
 20
0
 30
0
  0
LINE
  8
LAYER_2
 10
108.4316
 20
216.9358
 11
98.7681
 21
216.9358
  0
LINE
  8
LAYER_2
 10
108.4316
 20
174.5356
 11
98.7681
 21
174.5356
  0
INSERT
  8
LAYER_2
  2
AIGNBL0201000B
 10
0
 20
0
 30
0
  0
LINE
  8
LAYER_2
 10
83.9356
 20
195.2358
 11
76.88
 21
195.2358
  0
ARC
  8
LAYER_2
 10
97.368
 20
175.5358
 40
0.9998
 50
270.0009221
 51
0.00480838879
  0
LINE
  8
LAYER_2
 10
97.368
 20
174.536
 11
40.9677
 21
174.536
  0
ARC
  8
LAYER_2
 10
40.9677
 20
175.5358
 40
0.9998
 50
179.9961739
 51
269.9980957
  0
LINE
  8
LAYER_2
 10
39.9679
 20
175.5359
 11
39.9679
 21
215.9358
  0
ARC
  8
LAYER_2
 10
40.9678
 20
215.9359
 40
0.9999
 50
90.00451167
 51
180.0069486
  0
LINE
  8
LAYER_2
 10
40.9677
 20
216.9358
 11
97.368
 21
216.9358
  0
ARC
  8
LAYER_2
 10
97.3679
 20
215.9359
 40
0.9999
 50
359.9920692
 51
89.99647049
  0
LINE
  8
LAYER_2
 10
98.3678
 20
215.9358
 11
98.3678
 21
175.5359
  0
LINE
  8
LAYER_2
 10
-52.6429
 20
98.7134
 11
-51.3931
 21
88.7129
  0
LINE
  8
LAYER_2
 10
3.3571
 20
98.7134
 11
2.1072
 21
88.7129
  0
LINE
  8
LAYER_2
 10
-51.3931
 20
88.7129
 11
2.1072
 21
88.7129
  0
LINE
  8
LAYER_2
  6
AIGENLINE001
 10
84.9678
 20
107.3433
 11
84.9678
 21
102.3252
  0
LINE
  8
LAYER_2
 10
12.9706
 20
218.5357
 11
12.9706
 21
169.9054
  0
LINE
  8
LAYER_2
 10
12.3781
 20
207.2473
 11
12.9706
 21
205.0357
  0
LINE
  8
LAYER_2
 10
12.9706
 20
205.0357
 11
13.5632
 21
207.2473
  0
LINE
  8
LAYER_2
 10
13.5632
 20
207.2473
 11
12.3781
 21
207.2473
  0
LINE
  8
LAYER_2
 10
12.3781
 20
177.2471
 11
12.9706
 21
175.0355
  0
LINE
  8
LAYER_2
 10
12.9706
 20
175.0355
 11
13.5632
 21
177.2471
  0
LINE
  8
LAYER_2
 10
13.5632
 20
177.2471
 11
12.3781
 21
177.2471
  0
LINE
  8
LAYER_2
 10
13.5632
 20
216.3241
 11
12.9706
 21
218.5357
  0
LINE
  8
LAYER_2
 10
12.9706
 20
218.5357
 11
12.3781
 21
216.3241
  0
LINE
  8
LAYER_2
 10
12.3781
 20
216.3241
 11
13.5632
 21
216.3241
  0
LINE
  8
LAYER_2
 10
13.5632
 20
172.324
 11
12.9706
 21
174.5356
  0
LINE
  8
LAYER_2
 10
12.9706
 20
174.5356
 11
12.3781
 21
172.324
  0
LINE
  8
LAYER_2
 10
12.3781
 20
172.324
 11
13.5632
 21
172.324
  0
LINE
  8
LAYER_2
 10
13.5632
 20
202.8241
 11
12.9706
 21
205.0357
  0
LINE
  8
LAYER_2
 10
12.9706
 20
205.0357
 11
12.3781
 21
202.8241
  0
LINE
  8
LAYER_2
 10
12.3781
 20
202.8241
 11
13.5632
 21
202.8241
  0
LINE
  8
LAYER_2
 10
13.6707
 20
218.5357
 11
6.1073
 21
218.5357
  0
LINE
  8
LAYER_2
 10
13.6707
 20
205.0357
 11
6.1073
 21
205.0357
  0
LINE
  8
LAYER_2
 10
13.6707
 20
174.5356
 11
6.1073
 21
174.5356
  0
LINE
  8
LAYER_2
 10
13.6707
 20
175.0355
 11
6.1073
 21
175.0355
  0
INSERT
  8
LAYER_2
  2
AIGNBL0201000C
 10
0
 20
0
 30
0
  0
INSERT
  8
LAYER_2
  2
AIGNBL0201000D
 10
0
 20
0
 30
0
  0
LINE
  8
LAYER_2
 10
101.0157
 20
88.7129
 11
90.1082
 21
88.7129
  0
LINE
  8
LAYER_2
 10
91.6678
 20
98.7134
 11
47.6677
 21
98.7134
  0
LINE
  8
LAYER_2
 10
47.6677
 20
98.7134
 11
47.6677
 21
105.2129
  0
ARC
  8
LAYER_2
 10
48.1678
 20
105.213
 40
0.5001
 50
90.0195457
 51
180.0148283
  0
LINE
  8
LAYER_2
 10
48.1676
 20
105.7131
 11
91.1679
 21
105.7131
  0
ARC
  8
LAYER_2
 10
91.1677
 20
105.213
 40
0.5001
 50
359.9848006
 51
89.98082535
  0
LINE
  8
LAYER_2
 10
91.6678
 20
105.2129
 11
91.6678
 21
98.7134
  0
LINE
  8
LAYER_2
 10
88.6202
 20
111.8378
 11
88.6202
 21
101.3489
  0
LINE
  8
LAYER_2
 10
88.0277
 20
107.9248
 11
88.6202
 21
105.7131
  0
LINE
  8
LAYER_2
 10
88.6202
 20
105.7131
 11
89.2128
 21
107.9248
  0
LINE
  8
LAYER_2
 10
89.2128
 20
107.9248
 11
88.0277
 21
107.9248
  0
LINE
  8
LAYER_2
 10
89.2128
 20
102.5016
 11
88.6202
 21
104.7133
  0
LINE
  8
LAYER_2
 10
88.6202
 20
104.7133
 11
88.0277
 21
102.5016
  0
LINE
  8
LAYER_2
 10
88.0277
 20
102.5016
 11
89.2128
 21
102.5016
  0
LINE
  8
LAYER_2
 10
101.0157
 20
105.7131
 11
92.5735
 21
105.7131
  0
LINE
  8
LAYER_2
 10
49.6676
 20
98.7134
 11
50.9175
 21
88.7129
  0
LINE
  8
LAYER_2
 10
50.9175
 20
88.7129
 11
88.9176
 21
88.7129
  0
LINE
  8
LAYER_2
  6
AIGENLINE001
 10
69.1679
 20
96.7221
 11
69.1679
 21
85.7784
  0
LINE
  8
LAYER_2
 10
89.6679
 20
98.7134
 11
88.9176
 21
88.7129
  0
LINE
  8
LAYER_2
  6
AIGENLINE001
 10
75.9058
 20
101.7133
 11
80.2418
 21
101.7133
  0
LINE
  8
LAYER_2
  6
AIGENLINE002
 10
66.9179
 20
92.497
 11
71.4178
 21
92.497
  0
LINE
  8
LAYER_2
  6
AIGENLINE002
 10
66.9179
 20
92.497
 11
66.9179
 21
88.7129
  0
LINE
  8
LAYER_2
  6
AIGENLINE002
 10
73.168
 20
93.7132
 11
65.1678
 21
93.7132
  0
ARC
  8
LAYER_2
  6
AIGENLINE002
 10
64.8813
 20
91.4336
 40
2.2975
 50
27.57015277
 51
82.83652242
  0
ARC
  8
LAYER_2
  6
AIGENLINE002
 10
73.4545
 20
91.4335
 40
2.2976
 50
97.16245832
 51
152.4277982
  0
LINE
  8
LAYER_2
  6
AIGENLINE002
 10
78.8572
 20
104.7133
 11
90.0283
 21
104.7133
  0
ARC
  8
LAYER_2
  6
AIGENLINE002
 10
89.9645
 20
105.4813
 40
0.7706
 50
274.7507056
 51
332.7230465
  0
ARC
  8
LAYER_2
  6
AIGENLINE002
 10
91.3933
 20
105.0727
 40
0.7459
 50
127.0802869
 51
175.7378399
  0
ARC
  8
LAYER_2
  6
AIGENLINE002
 10
91.1607
 20
105.1708
 40
0.5423
 50
89.24068821
 51
113.6074869
  0
LINE
  8
LAYER_2
  6
AIGENLINE002
 10
73.8039
 20
89.5887
 11
72.6677
 21
89.5887
  0
LINE
  8
LAYER_2
  6
AIGENLINE002
 10
72.6677
 20
89.5887
 11
72.6677
 21
89.0898
  0
ARC
  8
LAYER_2
  6
AIGENLINE002
 10
72.3029
 20
89.0274
 40
0.3701
 50
317.0288763
 51
9.700469523
  0
ARC
  8
LAYER_2
  6
AIGENLINE002
 10
72.3927
 20
89.0068
 40
0.294
 50
268.4890471
 51
308.0032008
  0
LINE
  8
LAYER_2
  6
AIGENLINE002
 10
63.6323
 20
91.9906
 11
64.9087
 21
91.9906
  0
ARC
  8
LAYER_2
  6
AIGENLINE002
 10
64.788
 20
91.0486
 40
0.9497
 50
50.35510516
 51
82.69562085
  0
ARC
  8
LAYER_2
  6
AIGENLINE002
 10
64.8458
 20
91.1654
 40
0.8234
 50
356.915733
 51
48.26866797
  0
LINE
  8
LAYER_2
  6
AIGENLINE002
 10
65.668
 20
91.1211
 11
65.668
 21
88.7129
  0
LINE
  8
LAYER_2
  6
AIGENLINE002
 10
71.4178
 20
92.497
 11
71.4178
 21
88.7129
  0
LINE
  8
LAYER_2
  6
AIGENLINE002
 10
64.1377
 20
93.7132
 11
55.7664
 21
93.7132
  0
ARC
  8
LAYER_2
  6
AIGENLINE002
 10
55.7773
 20
95.6728
 40
1.9596
 50
246.8479029
 51
269.6803098
  0
ARC
  8
LAYER_2
  6
AIGENLINE002
 10
56.1838
 20
96.5454
 40
2.9219
 50
215.5144142
 51
246.2459245
  0
LINE
  8
LAYER_2
  6
AIGENLINE002
 10
53.8055
 20
94.848
 11
48.9379
 21
105.2611
  0
ARC
  8
LAYER_2
  6
AIGENLINE002
 10
48.1502
 20
104.8011
 40
0.9122
 50
30.28444907
 51
88.90806178
  0
LINE
  8
LAYER_2
  6
AIGENLINE002
 10
73.168
 20
93.7132
 11
75.2829
 21
93.7132
  0
ARC
  8
LAYER_2
  6
AIGENLINE002
 10
75.1872
 20
95.4502
 40
1.7396
 50
273.1526296
 51
296.8294918
  0
ARC
  8
LAYER_2
  6
AIGENLINE002
 10
75.0946
 20
95.6536
 40
1.963
 50
296.561626
 51
318.235671
  0
ARC
  8
LAYER_2
  6
AIGENLINE002
 10
74.7032
 20
95.982
 40
2.4737
 50
318.6021274
 51
338.3096026
  0
ARC
  8
LAYER_2
  6
AIGENLINE002
 10
73.4039
 20
96.4984
 40
3.8718
 50
338.3150875
 51
352.2554772
  0
LINE
  8
LAYER_2
  6
AIGENLINE002
 10
77.2404
 20
95.9766
 11
78.1499
 21
103.9775
  0
ARC
  8
LAYER_2
  6
AIGENLINE002
 10
79.2456
 20
103.7953
 40
1.1108
 50
140.8539491
 51
170.5587625
  0
ARC
  8
LAYER_2
  6
AIGENLINE002
 10
78.8533
 20
104.0973
 40
0.616
 50
89.64052396
 51
139.6029058
  0
LINE
  8
LAYER_2
  6
AIGENLINE001
 10
-24.6429
 20
220.8463
 11
-24.6429
 21
172.3645
  0
CIRCLE
  8
LAYER_2
 10
-24.6429
 20
211.8356
 40
1.75
  0
LINE
  8
LAYER_2
  6
AIGENLINE001
 10
-28.0171
 20
211.8356
 11
-20.9939
 21
211.8356
  0
LINE
  8
LAYER_2
 10
-19.4677
 20
206.6606
 11
-13.3168
 21
206.6606
  0
INSERT
  8
LAYER_2
  2
AIGNBL0201000E
 10
0
 20
0
 30
0
  0
LINE
  8
LAYER_2
 10
-33.6374
 20
224.6555
 11
-33.6374
 21
205.0357
  0
LINE
  8
LAYER_2
 10
-28.7171
 20
211.8356
 11
-34.3374
 21
211.8356
  0
LINE
  8
LAYER_2
 10
-34.23
 20
207.2473
 11
-33.6374
 21
205.0357
  0
LINE
  8
LAYER_2
 10
-33.6374
 20
205.0357
 11
-33.0448
 21
207.2473
  0
LINE
  8
LAYER_2
 10
-33.0448
 20
207.2473
 11
-34.23
 21
207.2473
  0
LINE
  8
LAYER_2
 10
-33.0448
 20
209.6241
 11
-33.6374
 21
211.8356
  0
LINE
  8
LAYER_2
 10
-33.6374
 20
211.8356
 11
-34.23
 21
209.6241
  0
LINE
  8
LAYER_2
 10
-34.23
 20
209.6241
 11
-33.0448
 21
209.6241
  0
LINE
  8
LAYER_2
 10
-34.23
 20
214.0472
 11
-33.6374
 21
211.8356
  0
LINE
  8
LAYER_2
 10
-33.6374
 20
211.8356
 11
-33.0448
 21
214.0472
  0
LINE
  8
LAYER_2
 10
-33.0448
 20
214.0472
 11
-34.23
 21
214.0472
  0
LINE
  8
LAYER_2
 10
-34.23
 20
220.7472
 11
-33.6374
 21
218.5357
  0
LINE
  8
LAYER_2
 10
-33.6374
 20
218.5357
 11
-33.0448
 21
220.7472
  0
LINE
  8
LAYER_2
 10
-33.0448
 20
220.7472
 11
-34.23
 21
220.7472
  0
LINE
  8
LAYER_2
 10
-33.0448
 20
215.3242
 11
-33.6374
 21
217.5357
  0
LINE
  8
LAYER_2
 10
-33.6374
 20
217.5357
 11
-34.23
 21
215.3242
  0
LINE
  8
LAYER_2
 10
-34.23
 20
215.3242
 11
-33.0448
 21
215.3242
  0
INSERT
  8
LAYER_2
  2
AIGNBL0201000F
 10
0
 20
0
 30
0
  0
LINE
  8
LAYER_2
 10
14.8881
 20
105.7131
 11
6.1049
 21
105.7131
  0
LINE
  8
LAYER_2
 10
14.8881
 20
98.7134
 11
6.1049
 21
98.7134
  0
LINE
  8
LAYER_2
 10
-28.0489
 20
229.1078
 11
-57.0976
 21
229.1078
  0
LINE
  8
LAYER_2
 10
-50.6813
 20
215.8969
 11
-57.0976
 21
229.1078
  0
CIRCLE
  8
LAYER_2
 10
-50.6813
 20
215.8969
 40
0.436
  0
LINE
  8
LAYER_3
 10
126.9566
 20
57.1559
 11
293.4567
 21
57.1559
  0
LINE
  8
LAYER_3
 10
213.4567
 20
37.1557
 11
293.4567
 21
37.1557
  0
LINE
  8
LAYER_3
 10
126.9566
 20
44.6564
 11
213.4567
 21
44.6564
  0
LINE
  8
LAYER_3
 10
126.9566
 20
30.6562
 11
213.4567
 21
30.6562
  0
LINE
  8
LAYER_3
 10
138.4563
 20
30.6562
 11
138.4563
 21
44.6564
  0
LINE
  8
LAYER_3
 10
213.4567
 20
17.1562
 11
213.4567
 21
57.1559
  0
LINE
  8
LAYER_3
 10
126.9566
 20
17.1562
 11
126.9566
 21
57.1559
  0
LINE
  8
LAYER_3
 10
194.4563
 20
30.6562
 11
194.4563
 21
57.1559
  0
LINE
  8
LAYER_3
 10
175.4566
 20
30.6562
 11
175.4566
 21
57.1559
  0
LINE
  8
LAYER_3
 10
293.4567
 20
17.1562
 11
-83.0433
 21
17.1562
  0
LINE
  8
LAYER_3
 10
-83.0433
 20
17.1562
 11
-83.0433
 21
280.1562
  0
LINE
  8
LAYER_3
 10
-83.0433
 20
280.1562
 11
293.4567
 21
280.1562
  0
LINE
  8
LAYER_3
 10
293.4567
 20
280.1562
 11
293.4567
 21
17.1562
  0
TEXT
  8
LAYER_3
 10
153.4949
 20
49.1839
 11
153.4949
 21
49.1839
 40
4.4979
 41
0.5
 72
1
  1
セラトレーディング株式会社
  0
TEXT
  8
LAYER_3
 10
127.9281
 20
40.658
 11
127.9281
 21
40.658
 40
3.0923
 41
0.5
  1
製図
  0
TEXT
  8
LAYER_3
 10
127.9281
 20
26.4587
 11
127.9281
 21
26.4587
 40
3.0923
 41
0.5
  1
備考
  0
TEXT
  8
LAYER_3
 10
139.5463
 20
40.658
 11
139.5463
 21
40.658
 40
3.0923
 41
0.5
  1
検図
  0
TEXT
  8
LAYER_3
 10
176.4998
 20
40.658
 11
176.4998
 21
40.658
 40
3.0923
 41
0.5
  1
日付
  0
TEXT
  8
LAYER_3
 10
219.0853
 20
45.4728
 11
219.0853
 21
45.4728
 40
3.9357
 41
0.5
  1
TR2　洗面器
  0
TEXT
  8
LAYER_3
 10
253.4564
 20
20.3547
 11
253.4564
 21
20.3547
 40
3.9357
 41
0.5
 72
1
  1
SB5109Y
  0
TEXT
  8
LAYER_3
 10
195.5498
 20
40.658
 11
195.5498
 21
40.658
 40
3.0923
 41
0.5
  1
尺度
  0
TEXT
  8
LAYER_3
 10
195.5498
 20
53.0652
 11
195.5498
 21
53.0652
 40
3.0923
 41
0.5
  1
単位
  0
TEXT
  8
LAYER_3
 10
203.2744
 20
48.0691
 11
203.2744
 21
48.0691
 40
3.6546
 41
0.5
 72
1
  1
mm
  0
TEXT
  8
LAYER_3
 10
214.5116
 20
53.0652
 11
214.5116
 21
53.0652
 40
3.0923
 41
0.5
  1
名称
  0
TEXT
  8
LAYER_3
 10
214.5116
 20
32.9265
 11
214.5116
 21
32.9265
 40
3.0923
 41
0.5
  1
品番
  0
LINE
  8
LAYER_3
 10
213.4567
 20
27.156
 11
293.4567
 21
27.156
  0
TEXT
  8
LAYER_3
 10
214.5116
 20
22.9268
 11
214.5116
 21
22.9268
 40
3.0923
 41
0.5
  1
図番
  0
INSERT
  8
LAYER_3
  2
AIGNBL03010002
 10
0
 20
0
 30
0
  0
LINE
  8
LAYER_3
 10
-83.0433
 20
148.6576
 11
-104.7936
 21
148.6576
  0
LINE
  8
LAYER_3
 10
105.2067
 20
297.1763
 11
105.2067
 21
280.1562
  0
LINE
  8
LAYER_3
 10
105.2067
 20
17.1562
 11
105.2067
 21
0.176
  0
LINE
  8
LAYER_3
 10
315.2069
 20
148.6576
 11
293.4567
 21
148.6576
  0
TEXT
  8
LAYER_3
 10
293.4567
 20
12.8082
 11
293.4567
 21
12.8082
 40
3.3734
 41
0.5
 72
2
  1
A3
  0
TEXT
  8
LAYER_3
 10
177.6925
 20
34.4651
 11
177.6925
 21
34.4651
 40
3.6546
 41
0.5
  1
23.03.03
  0
TEXT
  8
LAYER_3
 10
132.6465
 20
34.8502
 11
132.6465
 21
34.8502
 40
3.6546
 41
0.5
 72
1
  1
土山
  0
TEXT
  8
LAYER_3
 10
151.2204
 20
34.8502
 11
151.2204
 21
34.8502
 40
3.6546
 41
0.5
 72
1
  1
井田
  0
TEXT
  8
LAYER_3
 10
253.4564
 20
30.3551
 11
253.4564
 21
30.3551
 40
3.9357
 41
0.5
 72
1
  1
図中の表参照
  0
TEXT
  8
LAYER_3
 10
203.8663
 20
34.4651
 11
203.8663
 21
34.4651
 40
3.6546
 41
0.5
 72
1
  1
1 ： 10
  0
LINE
  8
LAYER_3
 10
241.2201
 20
273.1563
 11
293.4567
 21
273.1563
  0
LINE
  8
LAYER_3
 10
241.2201
 20
259.1564
 11
293.4567
 21
259.1564
  0
TEXT
  8
LAYER_3
 10
253.3096
 20
275.3071
 11
253.3096
 21
275.3071
 40
3.3734
 41
0.5
 72
1
  1
品番
  0
TEXT
  8
LAYER_3
 10
279.3773
 20
275.3071
 11
279.3773
 21
275.3071
 40
3.3734
 41
0.5
 72
1
  1
色
  0
TEXT
  8
LAYER_3
 10
281.8908
 20
261.307
 11
281.8908
 21
261.307
 40
3.3734
 41
0.5
 72
1
  1
マットブラック
  0
LINE
  8
LAYER_3
 10
265.5934
 20
280.1562
 11
265.5934
 21
252.1565
  0
LINE
  8
LAYER_3
 10
241.2201
 20
252.1565
 11
293.4567
 21
252.1565
  0
LINE
  8
LAYER_3
 10
241.2201
 20
280.1562
 11
241.2201
 21
252.1565
  0
TEXT
  8
LAYER_3
 10
253.3096
 20
254.3073
 11
253.3096
 21
254.3073
 40
3.3734
 41
0.5
 72
1
  1
SB5109Y-41
  0
TEXT
  8
LAYER_3
 10
281.7122
 20
254.3071
 11
281.7122
 21
254.3071
 40
3.3734
 41
0.5
 72
1
  1
マットホワイト
  0
TEXT
  8
LAYER_3
 10
253.3096
 20
261.3072
 11
253.3096
 21
261.3072
 40
3.3734
 41
0.5
 72
1
  1
SB5109Y-37
  0
LINE
  8
LAYER_3
 10
241.2201
 20
266.1564
 11
293.4567
 21
266.1564
  0
TEXT
  8
LAYER_3
 10
280.5017
 20
268.307
 11
280.5017
 21
268.307
 40
3.3734
 41
0.5
 72
1
  1
ホワイト
  0
TEXT
  8
LAYER_3
 10
253.3096
 20
268.3071
 11
253.3096
 21
268.3071
 40
3.3734
 41
0.5
 72
1
  1
SB5109Y
  0
LINE
  8
LAYER_3
 10
126.9566
 20
85.2675
 11
290.1597
 21
85.2675
  0
TEXT
  8
LAYER_3
 10
129.4953
 20
79.6251
 11
129.4953
 21
79.6251
 40
3.9357
 41
0.5
  1
特記事項
  0
LINE
  8
LAYER_3
 10
126.9566
 20
116.3175
 11
290.1597
 21
116.3175
  0
TEXT
  8
LAYER_3
 10
159.4952
 20
95.138
 11
159.4952
 21
95.138
 40
3.9357
 41
0.5
  1
7.8L
  0
TEXT
  8
LAYER_3
 10
129.4953
 20
95.138
 11
129.4953
 21
95.138
 40
3.9357
 41
0.5
  1
実容量
  0
LINE
  8
LAYER_3
 10
290.1597
 20
124.0799
 11
126.9566
 21
124.0799
  0
LINE
  8
LAYER_3
 10
126.9566
 20
124.0799
 11
126.9566
 21
61.9804
  0
LINE
  8
LAYER_3
 10
126.9566
 20
61.9804
 11
290.1597
 21
61.9804
  0
LINE
  8
LAYER_3
 10
290.1597
 20
61.9804
 11
290.1597
 21
124.0799
  0
LINE
  8
LAYER_3
 10
156.9565
 20
124.0799
 11
156.9565
 21
61.9804
  0
TEXT
  8
LAYER_3
 10
159.4952
 20
118.4255
 11
159.4952
 21
118.4255
 40
3.9357
 41
0.5
  1
一般住宅用（屋内用）
  0
TEXT
  8
LAYER_3
 10
129.4953
 20
118.4255
 11
129.4953
 21
118.4255
 40
3.9357
 41
0.5
  1
用途
  0
LINE
  8
LAYER_3
 10
126.9566
 20
100.7925
 11
290.1597
 21
100.7925
  0
TEXT
  8
LAYER_3
 10
159.4952
 20
87.3759
 11
159.4952
 21
87.3759
 40
3.9357
 41
0.5
  1
18.0kg
  0
TEXT
  8
LAYER_3
 10
129.4953
 20
87.3759
 11
129.4953
 21
87.3759
 40
3.9357
 41
0.5
  1
本体重量
  0
LINE
  8
LAYER_3
 10
126.9566
 20
93.0303
 11
290.1597
 21
93.0303
  0
TEXT
  8
LAYER_3
 10
159.4952
 20
102.9005
 11
159.4952
 21
102.9005
 40
3.9357
 41
0.5
  1
あり
  0
TEXT
  8
LAYER_3
 10
129.4953
 20
102.9005
 11
129.4953
 21
102.9005
 40
3.9357
 41
0.5
  1
オーバーフロー
  0
LINE
  8
LAYER_3
 10
126.9566
 20
108.5549
 11
290.1597
 21
108.5549
  0
TEXT
  8
LAYER_3
 10
159.4952
 20
110.663
 11
159.4952
 21
110.663
 40
3.9357
 41
0.5
  1
ハーフベッセル
  0
LINE
  8
LAYER_3
 10
156.9565
 20
77.505
 11
290.1597
 21
77.505
  0
TEXT
  8
LAYER_3
 10
159.4952
 20
79.6131
 11
159.4952
 21
79.6131
 40
3.9357
 41
0.5
  1
陶器製品は製造の過程で寸法公差や反りが生じます。
  0
LINE
  8
LAYER_3
 10
156.9565
 20
69.7425
 11
290.1597
 21
69.7425
  0
TEXT
  8
LAYER_3
 10
159.4952
 20
71.8506
 11
159.4952
 21
71.8506
 40
3.9357
 41
0.5
  1
水はねや水があふれるおそれがありますので、止水栓で適切な流量に調整してください。
  0
LINE
  8
LAYER_3
 10
126.9566
 20
61.98
 11
290.1597
 21
61.98
  0
TEXT
  8
LAYER_3
 10
159.4952
 20
64.0881
 11
159.4952
 21
64.0881
 40
3.9357
 41
0.5
  1
破損するおそれがありますので、60℃以上の熱湯を流さないでください。
  0
TEXT
  8
LAYER_3
 10
129.4953
 20
110.663
 11
129.4953
 21
110.663
 40
3.9357
 41
0.5
  1
分類
  0
ENDSEC
  0
EOF
