  0
SECTION
  2
HEADER
  9
$ACADVER
  1
AC1009
  9
$INSBASE
 10
0.0
 20
0.0
 30
0.0
  9
$EXTMIN
 10
-104.794
 20
0.176045
 30
0.0
  9
$EXTMAX
 10
315.209
 20
297.178
 30
0.0
  9
$LIMMIN
 10
0.0
 20
0.0
  9
$LIMMAX
 10
12.0
 20
9.0
  9
$ORTHOMODE
 70
     0
  9
$REGENMODE
 70
     1
  9
$FILLMODE
 70
     1
  9
$QTEXTMODE
 70
     0
  9
$MIRRTEXT
 70
     1
  9
$DRAGMODE
 70
     2
  9
$LTSCALE
 40
1.0
  9
$OSMODE
 70
    37
  9
$ATTMODE
 70
     1
  9
$TEXTSIZE
 40
0.0
  9
$TRACEWID
 40
0.05
  9
$TEXTSTYLE
  7
STANDARD
  9
$CLAYER
  8
0
  9
$CELTYPE
  6
CONTINUOUS
  9
$CECOLOR
 62
   256
  9
$DIMSCALE
 40
1.0
  9
$DIMASZ
 40
0.18
  9
$DIMEXO
 40
0.0625
  9
$DIMDLI
 40
0.38
  9
$DIMRND
 40
0.0
  9
$DIMDLE
 40
0.0
  9
$DIMEXE
 40
0.18
  9
$DIMTP
 40
0.0
  9
$DIMTM
 40
0.0
  9
$DIMTXT
 40
0.18
  9
$DIMCEN
 40
0.09
  9
$DIMTSZ
 40
0.0
  9
$DIMTOL
 70
     0
  9
$DIMLIM
 70
     0
  9
$DIMTIH
 70
     1
  9
$DIMTOH
 70
     1
  9
$DIMSE1
 70
     0
  9
$DIMSE2
 70
     0
  9
$DIMTAD
 70
     0
  9
$DIMZIN
 70
     0
  9
$DIMBLK
  1

  9
$DIMASO
 70
     1
  9
$DIMSHO
 70
     1
  9
$DIMPOST
  1

  9
$DIMAPOST
  1

  9
$DIMALT
 70
     0
  9
$DIMALTD
 70
     2
  9
$DIMALTF
 40
25.399999999999999
  9
$DIMLFAC
 40
1.0
  9
$DIMTOFL
 70
     0
  9
$DIMTVP
 40
0.0
  9
$DIMTIX
 70
     0
  9
$DIMSOXD
 70
     0
  9
$DIMSAH
 70
     0
  9
$DIMBLK1
  1

  9
$DIMBLK2
  1

  9
$DIMSTYLE
  2
STANDARD
  9
$DIMCLRD
 70
     0
  9
$DIMCLRE
 70
     0
  9
$DIMCLRT
 70
     0
  9
$DIMTFAC
 40
1.0
  9
$DIMGAP
 40
0.09
  9
$LUNITS
 70
     2
  9
$LUPREC
 70
     4
  9
$SKETCHINC
 40
0.1
  9
$FILLETRAD
 40
0.0
  9
$AUNITS
 70
     0
  9
$AUPREC
 70
     0
  9
$MENU
  1
.
  9
$ELEVATION
 40
0.0
  9
$PELEVATION
 40
0.0
  9
$THICKNESS
 40
0.0
  9
$LIMCHECK
 70
     0
  9
$BLIPMODE
 70
     0
  9
$CHAMFERA
 40
0.0
  9
$CHAMFERB
 40
0.0
  9
$SKPOLY
 70
     0
  9
$TDCREATE
 40
2444972.375
  9
$TDUPDATE
 40
2458941.2531096409
  9
$TDINDWG
 40
0.0000403009
  9
$TDUSRTIMER
 40
0.0000403009
  9
$USRTIMER
 70
     1
  9
$ANGBASE
 50
0.0
  9
$ANGDIR
 70
     0
  9
$PDMODE
 70
     0
  9
$PDSIZE
 40
0.0
  9
$PLINEWID
 40
0.0
  9
$COORDS
 70
     1
  9
$SPLFRAME
 70
     0
  9
$SPLINETYPE
 70
     6
  9
$SPLINESEGS
 70
     8
  9
$ATTDIA
 70
     1
  9
$ATTREQ
 70
     1
  9
$HANDLING
 70
     1
  9
$HANDSEED
  5
359
  9
$SURFTAB1
 70
     6
  9
$SURFTAB2
 70
     6
  9
$SURFTYPE
 70
     6
  9
$SURFU
 70
     6
  9
$SURFV
 70
     6
  9
$UCSNAME
  2

  9
$UCSORG
 10
0.0
 20
0.0
 30
0.0
  9
$UCSXDIR
 10
1.0
 20
0.0
 30
0.0
  9
$UCSYDIR
 10
0.0
 20
1.0
 30
0.0
  9
$PUCSNAME
  2

  9
$PUCSORG
 10
0.0
 20
0.0
 30
0.0
  9
$PUCSXDIR
 10
1.0
 20
0.0
 30
0.0
  9
$PUCSYDIR
 10
0.0
 20
1.0
 30
0.0
  9
$USERI1
 70
     0
  9
$USERI2
 70
     0
  9
$USERI3
 70
     0
  9
$USERI4
 70
     0
  9
$USERI5
 70
     0
  9
$USERR1
 40
0.0
  9
$USERR2
 40
0.0
  9
$USERR3
 40
0.0
  9
$USERR4
 40
0.0
  9
$USERR5
 40
0.0
  9
$WORLDVIEW
 70
     1
  9
$SHADEDGE
 70
     3
  9
$SHADEDIF
 70
    70
  9
$TILEMODE
 70
     1
  9
$MAXACTVP
 70
    48
  9
$PLIMCHECK
 70
     0
  9
$PEXTMIN
 10
1.0000000000000000E+020
 20
1.0000000000000000E+020
 30
1.0000000000000000E+020
  9
$PEXTMAX
 10
-1.0000000000000000E+020
 20
-1.0000000000000000E+020
 30
-1.0000000000000000E+020
  9
$PLIMMIN
 10
0.0
 20
0.0
  9
$PLIMMAX
 10
12.0
 20
9.0
  9
$UNITMODE
 70
     0
  9
$VISRETAIN
 70
     1
  9
$PLINEGEN
 70
     0
  9
$PSLTSCALE
 70
     1
  0
ENDSEC
  0
SECTION
  2
TABLES
  0
TABLE
  2
VPORT
 70
     1
  0
VPORT
  2
*ACTIVE
 70
     0
 10
0.0
 20
0.0
 11
1.0
 21
1.0
 12
165.63430585535349
 22
148.589
 13
0.0
 23
0.0
 14
1.0
 24
1.0
 15
0.0
 25
0.0
 16
0.0
 26
0.0
 36
1.0
 17
0.0
 27
0.0
 37
0.0
 40
279.17601342455151
 41
2.0982367758186391
 42
50.0
 43
0.0
 44
0.0
 50
0.0
 51
0.0
 71
     0
 72
   100
 73
     1
 74
     1
 75
     0
 76
     0
 77
     0
 78
     0
  0
ENDTAB
  0
TABLE
  2
LTYPE
 70
     4
  0
LTYPE
  2
CONTINUOUS
 70
     0
  3
Solid line
 72
    65
 73
     0
 40
0.0
  0
LTYPE
  2
AIGENLINE001
 70
     0
  3
generate AI->DXF Converter
 72
    65
 73
     6
 40
7.4083750000000004
 49
3.5278
 49
-0.776115
 49
0.776115
 49
-0.776115
 49
0.776115
 49
-0.776115
  0
LTYPE
  2
AIGENLINE002
 70
     0
  3
generate AI->DXF Converter
 72
    65
 73
     2
 40
1.5522299999999991
 49
0.776115
 49
-0.776115
  0
LTYPE
  2
AIGENLINE003
 70
     0
  3
generate AI->DXF Converter
 72
    65
 73
     4
 40
5.8561449999999988
 49
3.5278
 49
-0.776115
 49
0.776115
 49
-0.776115
  0
ENDTAB
  0
TABLE
  2
LAYER
 70
     4
  0
LAYER
  2
0
 70
     0
 62
     7
  6
CONTINUOUS
  0
LAYER
  2
____
 70
     0
 62
     7
  6
CONTINUOUS
  0
LAYER
  2
_________1
 70
     0
 62
     7
  6
CONTINUOUS
  0
LAYER
  2
_________2
 70
     0
 62
     7
  6
CONTINUOUS
  0
ENDTAB
  0
TABLE
  2
STYLE
 70
     1
  0
STYLE
  2
STANDARD
 70
     0
 40
0.0
 41
0.0
 50
0.0
 71
     0
 42
0.0
  3
TXT
  4
EXTFONT.SHX
  0
ENDTAB
  0
TABLE
  2
VIEW
 70
     0
  0
ENDTAB
  0
TABLE
  2
UCS
 70
     0
  0
ENDTAB
  0
TABLE
  2
APPID
 70
     3
  0
APPID
  2
ACAD
 70
     0
  0
APPID
  2
ACAD_NAV_VCDISPLAY
 70
     0
  0
APPID
  2
ACAD_MLEADERVER
 70
     0
  0
ENDTAB
  0
TABLE
  2
DIMSTYLE
 70
     1
  0
DIMSTYLE
  2
STANDARD
 70
     0
  3

  4

  5

  6

  7

 40
1.0
 41
0.18
 42
0.0625
 43
0.38
 44
0.18
 45
0.0
 46
0.0
 47
0.0
 48
0.0
140
0.18
141
0.09
142
0.0
143
25.399999999999999
144
1.0
145
0.0
146
1.0
147
0.09
 71
     0
 72
     0
 73
     1
 74
     1
 75
     0
 76
     0
 77
     0
 78
     0
170
     0
171
     2
172
     0
173
     0
174
     0
175
     0
176
     0
177
     0
178
     0
  0
ENDTAB
  0
ENDSEC
  0
SECTION
  2
BLOCKS
  0
BLOCK
  8
0
  2
$MODEL_SPACE
 70
     0
 10
0.0
 20
0.0
 30
0.0
  3
$MODEL_SPACE
  1

  0
ENDBLK
  5
1A
  8
0
  0
BLOCK
 67
     1
  8
0
  2
$PAPER_SPACE
 70
     0
 10
0.0
 20
0.0
 30
0.0
  3
$PAPER_SPACE
  1

  0
ENDBLK
  5
17
 67
     1
  8
0
  0
BLOCK
  8
____
  2
AIGNBL01010002
 70
     0
 10
0.0
 20
0.0
 30
0.0
  3
AIGNBL01010002
  1

  0
TEXT
  5
28
  8
____
 62
     7
 10
100.46229200000001
 20
144.68299999999999
 30
0.0
 40
3.0923400000000001
  1
壁仕上げ面
 41
0.5
 72
     2
 11
109.327
 21
144.68299999999999
 31
0.0
  0
ENDBLK
  5
29
  8
____
  0
BLOCK
  8
____
  2
AIGNBL01010003
 70
     0
 10
0.0
 20
0.0
 30
0.0
  3
AIGNBL01010003
  1

  0
TEXT
  5
2C
  8
____
 62
     7
 10
32.320835000000002
 20
247.36099999999999
 30
0.0
 40
3.0923400000000001
  1
300
 41
0.5
 72
     1
 11
34.124699999999997
 21
247.36099999999999
 31
0.0
  0
ENDBLK
  5
2D
  8
____
  0
BLOCK
  8
____
  2
AIGNBL01010004
 70
     0
 10
0.0
 20
0.0
 30
0.0
  3
AIGNBL01010004
  1

  0
TEXT
  5
30
  8
____
 62
     7
 10
36.311207500000002
 20
110.30500000000001
 30
0.0
 40
3.0923400000000001
  1
(205)
 41
0.5
 72
     1
 11
39.274700000000003
 21
110.30500000000001
 31
0.0
  0
ENDBLK
  5
31
  8
____
  0
BLOCK
  8
____
  2
AIGNBL01010005
 70
     0
 10
0.0
 20
0.0
 30
0.0
  3
AIGNBL01010005
  1

  0
TEXT
  5
34
  8
____
 62
     7
 10
-44.189792500000003
 20
110.30500000000001
 30
0.0
 40
3.0923400000000001
  1
(205)
 41
0.5
 72
     1
 11
-41.226300000000002
 21
110.30500000000001
 31
0.0
  0
ENDBLK
  5
35
  8
____
  0
BLOCK
  8
____
  2
AIGNBL01010006
 70
     0
 10
0.0
 20
0.0
 30
0.0
  3
AIGNBL01010006
  1

  0
TEXT
  5
38
  8
____
 62
     7
 10
-3.8104740000000001
 20
110.30500000000001
 30
0.0
 40
3.0923400000000001
  1
(600)
 41
0.5
 72
     1
 11
-0.975829
 21
110.30500000000001
 31
0.0
  0
ENDBLK
  5
39
  8
____
  0
BLOCK
  8
____
  2
AIGNBL01010007
 70
     0
 10
0.0
 20
0.0
 30
0.0
  3
AIGNBL01010007
  1

  0
TEXT
  5
3C
  8
____
 62
     7
 10
58.5105
 20
225.28498250000001
 30
0.0
 40
3.0923400000000001
  1
130
 50
90.0
 41
0.5
 72
     1
 11
58.5105
 21
226.96000000000001
 31
0.0
  0
ENDBLK
  5
3D
  8
____
  0
BLOCK
  8
____
  2
AIGNBL01010008
 70
     0
 10
0.0
 20
0.0
 30
0.0
  3
AIGNBL01010008
  1

  0
TEXT
  5
40
  8
____
 62
     7
 10
97.820687500000005
 20
110.30500000000001
 30
0.0
 40
3.0923400000000001
  1
260
 41
0.5
 72
     1
 11
99.753399999999999
 21
110.30500000000001
 31
0.0
  0
ENDBLK
  5
41
  8
____
  0
BLOCK
  8
____
  2
AIGNBL01010009
 70
     0
 10
0.0
 20
0.0
 30
0.0
  3
AIGNBL01010009
  1

  0
TEXT
  5
44
  8
____
 62
     7
 10
81.340800000000002
 20
128.32037249999999
 30
0.0
 40
3.0923400000000001
  1
90
 50
90.0
 41
0.5
 72
     1
 11
81.340800000000002
 21
129.47999999999999
 31
0.0
  0
ENDBLK
  5
45
  8
____
  0
BLOCK
  8
____
  2
AIGNBL0101000A
 70
     0
 10
0.0
 20
0.0
 30
0.0
  3
AIGNBL0101000A
  1

  0
TEXT
  5
48
  8
____
 62
     7
 10
17.720434999999998
 20
176.488
 30
0.0
 40
3.0923400000000001
  1
600
 41
0.5
 72
     1
 11
19.5243
 21
176.488
 31
0.0
  0
ENDBLK
  5
49
  8
____
  0
BLOCK
  8
____
  2
AIGNBL0101000B
 70
     0
 10
0.0
 20
0.0
 30
0.0
  3
AIGNBL0101000B
  1

  0
TEXT
  5
4C
  8
____
 62
     7
 10
-71.213800000000006
 20
125.30498249999999
 30
0.0
 40
3.0923400000000001
  1
140
 50
90.0
 41
0.5
 72
     1
 11
-71.213800000000006
 21
126.98
 31
0.0
  0
ENDBLK
  5
4D
  8
____
  0
BLOCK
  8
____
  2
AIGNBL0101000C
 70
     0
 10
0.0
 20
0.0
 30
0.0
  3
AIGNBL0101000C
  1

  0
TEXT
  5
50
  8
____
 62
     7
 10
66.611299999999986
 20
208.5262875
 30
0.0
 40
3.0923400000000001
  1
460
 50
90.0
 41
0.5
 72
     1
 11
66.611299999999986
 21
210.459
 31
0.0
  0
ENDBLK
  5
51
  8
____
  0
BLOCK
  8
____
  2
AIGNBL0101000D
 70
     0
 10
0.0
 20
0.0
 30
0.0
  3
AIGNBL0101000D
  1

  0
TEXT
  5
54
  8
____
 62
     7
 10
-3.0373890000000001
 20
167.81999999999999
 30
0.0
 40
3.0923400000000001
  1
1010
 41
0.5
 72
     1
 11
-0.975829
 21
167.81999999999999
 31
0.0
  0
ENDBLK
  5
55
  8
____
  0
BLOCK
  8
____
  2
AIGNBL0101000E
 70
     0
 10
0.0
 20
0.0
 30
0.0
  3
AIGNBL0101000E
  1

  0
TEXT
  5
58
  8
____
 62
     7
 10
-61.862099999999991
 20
138.997185
 30
0.0
 40
3.0923400000000001
  1
(60)
 50
90.0
 41
0.5
 72
     2
 11
-61.862099999999991
 21
143.37799999999999
 31
0.0
  0
ENDBLK
  5
59
  8
____
  0
BLOCK
  8
____
  2
AIGNBL0101000F
 70
     0
 10
0.0
 20
0.0
 30
0.0
  3
AIGNBL0101000F
  1

  0
TEXT
  5
5C
  8
____
 62
     7
 10
6.8621600000000003
 20
213.88499999999999
 30
0.0
 40
3.0923400000000001
  1
%%c45
 41
0.5
  0
ENDBLK
  5
5D
  8
____
  0
BLOCK
  8
____
  2
AIGNBL01010010
 70
     0
 10
0.0
 20
0.0
 30
0.0
  3
AIGNBL01010010
  1

  0
TEXT
  5
60
  8
____
 62
     7
 10
3.1493500000000001
 20
237.09800000000001
 30
0.0
 40
3.0923400000000001
  1
%%c35
 41
0.5
  0
ENDBLK
  5
61
  8
____
  0
BLOCK
  8
____
  2
AIGNBL01010011
 70
     0
 10
0.0
 20
0.0
 30
0.0
  3
AIGNBL01010011
  1

  0
TEXT
  5
64
  8
____
 62
     7
 10
26.516400000000001
 20
237.19305
 30
0.0
 40
3.0923400000000001
  1
65
 50
90.0
 41
0.5
 72
     2
 11
26.516400000000001
 21
239.77000000000001
 31
0.0
  0
ENDBLK
  5
65
  8
____
  0
BLOCK
  8
____
  2
AIGNBL01010012
 70
     0
 10
0.0
 20
0.0
 30
0.0
  3
AIGNBL01010012
  1

  0
TEXT
  5
68
  8
____
 62
     7
 10
-32.344611999999998
 20
243.39099999999999
 30
0.0
 40
3.0923400000000001
  1
メーカーロゴ
 41
0.5
 72
     2
 11
-21.624500000000001
 21
243.39099999999999
 31
0.0
  0
ENDBLK
  5
69
  8
____
  0
BLOCK
  8
____
  2
AIGNBL01010013
 70
     0
 10
0.0
 20
0.0
 30
0.0
  3
AIGNBL01010013
  1

  0
TEXT
  5
6C
  8
____
 62
     7
 10
-42.614782999999989
 20
78.712000000000003
 30
0.0
 40
3.0923400000000001
  1
取付ボルト\U+00D72セット付（尺度1：4）
 41
0.5
 72
     1
 11
-27.307700000000001
 21
78.712000000000003
 31
0.0
  0
ENDBLK
  5
6D
  8
____
  0
BLOCK
  8
____
  2
AIGNBL01010014
 70
     0
 10
0.0
 20
0.0
 30
0.0
  3
AIGNBL01010014
  1

  0
TEXT
  5
70
  8
____
 62
     7
 10
-20.310527499999999
 20
64.462599999999995
 30
0.0
 40
3.0923400000000001
  1
60
 41
0.5
 72
     1
 11
-19.1509
 21
64.462599999999995
 31
0.0
  0
ENDBLK
  5
71
  8
____
  0
BLOCK
  8
____
  2
AIGNBL01010015
 70
     0
 10
0.0
 20
0.0
 30
0.0
  3
AIGNBL01010015
  1

  0
TEXT
  5
74
  8
____
 62
     7
 10
-29.656580000000002
 20
64.461600000000004
 30
0.0
 40
3.0923400000000001
  1
15
 41
0.5
 72
     1
 11
-28.625800000000002
 21
64.461600000000004
 31
0.0
  0
ENDBLK
  5
75
  8
____
  0
BLOCK
  8
____
  2
AIGNBL01010016
 70
     0
 10
0.0
 20
0.0
 30
0.0
  3
AIGNBL01010016
  1

  0
TEXT
  5
78
  8
____
 62
     7
 10
-37.314275000000002
 20
64.461600000000004
 30
0.0
 40
3.0923400000000001
  1
45
 41
0.5
 72
     1
 11
-36.025799999999997
 21
64.461600000000004
 31
0.0
  0
ENDBLK
  5
79
  8
____
  0
BLOCK
  8
____
  2
AIGNBL01010017
 70
     0
 10
0.0
 20
0.0
 30
0.0
  3
AIGNBL01010017
  1

  0
TEXT
  5
7C
  8
____
 62
     7
 10
-38.156659500000011
 20
72.992000000000004
 30
0.0
 40
3.0923400000000001
  1
※%%c12\U+00D760樹脂プラグ付
 41
0.5
 72
     1
 11
-27.307700000000001
 21
72.992000000000004
 31
0.0
  0
ENDBLK
  5
7D
  8
____
  0
BLOCK
  8
_________1
  2
AIGNBL02010002
 70
     0
 10
0.0
 20
0.0
 30
0.0
  3
AIGNBL02010002
  1

  0
LINE
  5
80
  8
_________1
 62
     7
 10
47.313999999999993
 20
247.24700000000001
 30
0.0
 11
49.525599999999997
 21
246.654
 31
0.0
  0
LINE
  5
81
  8
_________1
 62
     7
 10
49.525599999999997
 20
246.654
 30
0.0
 11
47.313999999999993
 21
246.06200000000001
 31
0.0
  0
LINE
  5
82
  8
_________1
 62
     7
 10
47.313999999999993
 20
246.06200000000001
 30
0.0
 11
47.313999999999993
 21
247.24700000000001
 31
0.0
  0
LINE
  5
83
  8
_________1
 62
     7
 10
20.935300000000002
 20
246.07599999999999
 30
0.0
 11
18.723700000000001
 21
246.66900000000001
 31
0.0
  0
LINE
  5
84
  8
_________1
 62
     7
 10
18.723700000000001
 20
246.66900000000001
 30
0.0
 11
20.935300000000002
 21
247.261
 31
0.0
  0
LINE
  5
85
  8
_________1
 62
     7
 10
20.935300000000002
 20
247.261
 30
0.0
 11
20.935300000000002
 21
246.07599999999999
 31
0.0
  0
LINE
  5
86
  8
_________1
 62
     7
 10
49.524799999999999
 20
246.661
 30
0.0
 11
18.724599999999999
 21
246.661
 31
0.0
  0
ENDBLK
  5
87
  8
_________1
  0
BLOCK
  8
_________1
  2
AIGNBL02010003
 70
     0
 10
0.0
 20
0.0
 30
0.0
  3
AIGNBL02010003
  1

  0
LINE
  5
8A
  8
_________1
 62
     7
 10
31.235199999999999
 20
110.19
 30
0.0
 11
29.023599999999998
 21
109.598
 31
0.0
  0
LINE
  5
8B
  8
_________1
 62
     7
 10
29.023599999999998
 20
109.598
 30
0.0
 11
31.235199999999999
 21
109.005
 31
0.0
  0
LINE
  5
8C
  8
_________1
 62
     7
 10
31.235199999999999
 20
109.005
 30
0.0
 11
31.235199999999999
 21
110.19
 31
0.0
  0
LINE
  5
8D
  8
_________1
 62
     7
 10
47.313999999999993
 20
109.02
 30
0.0
 11
49.525599999999997
 21
109.61199999999999
 31
0.0
  0
LINE
  5
8E
  8
_________1
 62
     7
 10
49.525599999999997
 20
109.61199999999999
 30
0.0
 11
47.313999999999993
 21
110.205
 31
0.0
  0
LINE
  5
8F
  8
_________1
 62
     7
 10
47.313999999999993
 20
110.205
 30
0.0
 11
47.313999999999993
 21
109.02
 31
0.0
  0
LINE
  5
90
  8
_________1
 62
     7
 10
29.0244
 20
109.605
 30
0.0
 11
49.524799999999999
 21
109.605
 31
0.0
  0
ENDBLK
  5
91
  8
_________1
  0
BLOCK
  8
_________1
  2
AIGNBL02010004
 70
     0
 10
0.0
 20
0.0
 30
0.0
  3
AIGNBL02010004
  1

  0
LINE
  5
94
  8
_________1
 62
     7
 10
-49.265700000000002
 20
110.19
 30
0.0
 11
-51.4773
 21
109.598
 31
0.0
  0
LINE
  5
95
  8
_________1
 62
     7
 10
-51.4773
 20
109.598
 30
0.0
 11
-49.265700000000002
 21
109.005
 31
0.0
  0
LINE
  5
96
  8
_________1
 62
     7
 10
-49.265700000000002
 20
109.005
 30
0.0
 11
-49.265700000000002
 21
110.19
 31
0.0
  0
LINE
  5
97
  8
_________1
 62
     7
 10
-33.186799999999998
 20
109.02
 30
0.0
 11
-30.975200000000001
 21
109.61199999999999
 31
0.0
  0
LINE
  5
98
  8
_________1
 62
     7
 10
-30.975200000000001
 20
109.61199999999999
 30
0.0
 11
-33.186799999999998
 21
110.205
 31
0.0
  0
LINE
  5
99
  8
_________1
 62
     7
 10
-33.186799999999998
 20
110.205
 30
0.0
 11
-33.186799999999998
 21
109.02
 31
0.0
  0
LINE
  5
9A
  8
_________1
 62
     7
 10
-51.476399999999991
 20
109.605
 30
0.0
 11
-30.976099999999999
 21
109.605
 31
0.0
  0
ENDBLK
  5
9B
  8
_________1
  0
BLOCK
  8
_________1
  2
AIGNBL02010005
 70
     0
 10
0.0
 20
0.0
 30
0.0
  3
AIGNBL02010005
  1

  0
LINE
  5
9E
  8
_________1
 62
     7
 10
-28.7654
 20
110.19
 30
0.0
 11
-30.976900000000001
 21
109.598
 31
0.0
  0
LINE
  5
9F
  8
_________1
 62
     7
 10
-30.976900000000001
 20
109.598
 30
0.0
 11
-28.7654
 21
109.005
 31
0.0
  0
LINE
  5
A0
  8
_________1
 62
     7
 10
-28.7654
 20
109.005
 30
0.0
 11
-28.7654
 21
110.19
 31
0.0
  0
LINE
  5
A1
  8
_________1
 62
     7
 10
26.8139
 20
109.02
 30
0.0
 11
29.025500000000001
 21
109.61199999999999
 31
0.0
  0
LINE
  5
A2
  8
_________1
 62
     7
 10
29.025500000000001
 20
109.61199999999999
 30
0.0
 11
26.8139
 21
110.205
 31
0.0
  0
LINE
  5
A3
  8
_________1
 62
     7
 10
26.8139
 20
110.205
 30
0.0
 11
26.8139
 21
109.02
 31
0.0
  0
LINE
  5
A4
  8
_________1
 62
     7
 10
-30.976099999999999
 20
109.605
 30
0.0
 11
29.0246
 21
109.605
 31
0.0
  0
ENDBLK
  5
A5
  8
_________1
  0
BLOCK
  8
_________1
  2
AIGNBL02010006
 70
     0
 10
0.0
 20
0.0
 30
0.0
  3
AIGNBL02010006
  1

  0
LINE
  5
A8
  8
_________1
 62
     7
 10
59.796900000000001
 20
222.672
 30
0.0
 11
59.204300000000003
 21
220.46100000000001
 31
0.0
  0
LINE
  5
A9
  8
_________1
 62
     7
 10
59.204300000000003
 20
220.46100000000001
 30
0.0
 11
58.611800000000002
 21
222.672
 31
0.0
  0
LINE
  5
AA
  8
_________1
 62
     7
 10
58.611800000000002
 20
222.672
 30
0.0
 11
59.796900000000001
 21
222.672
 31
0.0
  0
LINE
  5
AB
  8
_________1
 62
     7
 10
58.62619999999999
 20
231.24700000000001
 30
0.0
 11
59.218800000000002
 21
233.459
 31
0.0
  0
LINE
  5
AC
  8
_________1
 62
     7
 10
59.218800000000002
 20
233.459
 30
0.0
 11
59.811399999999992
 21
231.24700000000001
 31
0.0
  0
LINE
  5
AD
  8
_________1
 62
     7
 10
59.811399999999992
 20
231.24700000000001
 30
0.0
 11
58.62619999999999
 21
231.24700000000001
 31
0.0
  0
LINE
  5
AE
  8
_________1
 62
     7
 10
59.211599999999997
 20
220.46199999999999
 30
0.0
 11
59.211599999999997
 21
233.458
 31
0.0
  0
ENDBLK
  5
AF
  8
_________1
  0
BLOCK
  8
_________1
  2
AIGNBL02010007
 70
     0
 10
0.0
 20
0.0
 30
0.0
  3
AIGNBL02010007
  1

  0
LINE
  5
B2
  8
_________1
 62
     7
 10
110.54300000000001
 20
109.02
 30
0.0
 11
112.755
 21
109.61199999999999
 31
0.0
  0
LINE
  5
B3
  8
_________1
 62
     7
 10
112.755
 20
109.61199999999999
 30
0.0
 11
110.54300000000001
 21
110.205
 31
0.0
  0
LINE
  5
B4
  8
_________1
 62
     7
 10
110.54300000000001
 20
110.205
 30
0.0
 11
110.54300000000001
 21
109.02
 31
0.0
  0
LINE
  5
B5
  8
_________1
 62
     7
 10
88.964100000000016
 20
110.19
 30
0.0
 11
86.752499999999998
 21
109.598
 31
0.0
  0
LINE
  5
B6
  8
_________1
 62
     7
 10
86.752499999999998
 20
109.598
 30
0.0
 11
88.964100000000016
 21
109.005
 31
0.0
  0
LINE
  5
B7
  8
_________1
 62
     7
 10
88.964100000000016
 20
109.005
 30
0.0
 11
88.964100000000016
 21
110.19
 31
0.0
  0
LINE
  5
B8
  8
_________1
 62
     7
 10
112.754
 20
109.605
 30
0.0
 11
86.753399999999999
 21
109.605
 31
0.0
  0
ENDBLK
  5
B9
  8
_________1
  0
BLOCK
  8
_________1
  2
AIGNBL02010008
 70
     0
 10
0.0
 20
0.0
 30
0.0
  3
AIGNBL02010008
  1

  0
LINE
  5
BC
  8
_________1
 62
     7
 10
81.455500000000001
 20
127.19
 30
0.0
 11
82.048100000000005
 21
124.979
 31
0.0
  0
LINE
  5
BD
  8
_________1
 62
     7
 10
82.048100000000005
 20
124.979
 30
0.0
 11
82.640600000000006
 21
127.19
 31
0.0
  0
LINE
  5
BE
  8
_________1
 62
     7
 10
82.640600000000006
 20
127.19
 30
0.0
 11
81.455500000000001
 21
127.19
 31
0.0
  0
LINE
  5
BF
  8
_________1
 62
     7
 10
82.626099999999994
 20
131.77000000000001
 30
0.0
 11
82.033600000000007
 21
133.98099999999999
 31
0.0
  0
LINE
  5
C0
  8
_________1
 62
     7
 10
82.033600000000007
 20
133.98099999999999
 30
0.0
 11
81.440999999999988
 21
131.77000000000001
 31
0.0
  0
LINE
  5
C1
  8
_________1
 62
     7
 10
81.440999999999988
 20
131.77000000000001
 30
0.0
 11
82.626099999999994
 21
131.77000000000001
 31
0.0
  0
LINE
  5
C2
  8
_________1
 62
     7
 10
82.040800000000004
 20
124.98
 30
0.0
 11
82.040800000000004
 21
133.97999999999999
 31
0.0
  0
ENDBLK
  5
C3
  8
_________1
  0
BLOCK
  8
_________1
  2
AIGNBL02010009
 70
     0
 10
0.0
 20
0.0
 30
0.0
  3
AIGNBL02010009
  1

  0
LINE
  5
C6
  8
_________1
 62
     7
 10
47.313200000000002
 20
176.374
 30
0.0
 11
49.524799999999999
 21
175.78100000000001
 31
0.0
  0
LINE
  5
C7
  8
_________1
 62
     7
 10
49.524799999999999
 20
175.78100000000001
 30
0.0
 11
47.313200000000002
 21
175.18899999999999
 31
0.0
  0
LINE
  5
C8
  8
_________1
 62
     7
 10
47.313200000000002
 20
175.18899999999999
 30
0.0
 11
47.313200000000002
 21
176.374
 31
0.0
  0
LINE
  5
C9
  8
_________1
 62
     7
 10
-8.2653499999999998
 20
175.203
 30
0.0
 11
-10.476900000000001
 21
175.79599999999999
 31
0.0
  0
LINE
  5
CA
  8
_________1
 62
     7
 10
-10.476900000000001
 20
175.79599999999999
 30
0.0
 11
-8.2653499999999998
 21
176.38800000000001
 31
0.0
  0
LINE
  5
CB
  8
_________1
 62
     7
 10
-8.2653499999999998
 20
176.38800000000001
 30
0.0
 11
-8.2653499999999998
 21
175.203
 31
0.0
  0
LINE
  5
CC
  8
_________1
 62
     7
 10
49.523899999999998
 20
175.78800000000001
 30
0.0
 11
-10.476100000000001
 21
175.78800000000001
 31
0.0
  0
ENDBLK
  5
CD
  8
_________1
  0
BLOCK
  8
_________1
  2
AIGNBL0201000A
 70
     0
 10
0.0
 20
0.0
 30
0.0
  3
AIGNBL0201000A
  1

  0
LINE
  5
D0
  8
_________1
 62
     7
 10
-69.9285
 20
131.77000000000001
 30
0.0
 11
-70.521000000000001
 21
133.98099999999999
 31
0.0
  0
LINE
  5
D1
  8
_________1
 62
     7
 10
-70.521000000000001
 20
133.98099999999999
 30
0.0
 11
-71.113600000000005
 21
131.77000000000001
 31
0.0
  0
LINE
  5
D2
  8
_________1
 62
     7
 10
-71.113600000000005
 20
131.77000000000001
 30
0.0
 11
-69.9285
 21
131.77000000000001
 31
0.0
  0
LINE
  5
D3
  8
_________1
 62
     7
 10
-71.099100000000007
 20
122.19
 30
0.0
 11
-70.506600000000006
 21
119.979
 31
0.0
  0
LINE
  5
D4
  8
_________1
 62
     7
 10
-70.506600000000006
 20
119.979
 30
0.0
 11
-69.914000000000001
 21
122.19
 31
0.0
  0
LINE
  5
D5
  8
_________1
 62
     7
 10
-69.914000000000001
 20
122.19
 30
0.0
 11
-71.099100000000007
 21
122.19
 31
0.0
  0
LINE
  5
D6
  8
_________1
 62
     7
 10
-70.513800000000003
 20
133.97999999999999
 30
0.0
 11
-70.513800000000003
 21
119.98
 31
0.0
  0
ENDBLK
  5
D7
  8
_________1
  0
BLOCK
  8
_________1
  2
AIGNBL0201000B
 70
     0
 10
0.0
 20
0.0
 30
0.0
  3
AIGNBL0201000B
  1

  0
LINE
  5
DA
  8
_________1
 62
     7
 10
67.896699999999996
 20
189.66999999999999
 30
0.0
 11
67.304199999999994
 21
187.458
 31
0.0
  0
LINE
  5
DB
  8
_________1
 62
     7
 10
67.304199999999994
 20
187.458
 30
0.0
 11
66.711600000000004
 21
189.66999999999999
 31
0.0
  0
LINE
  5
DC
  8
_________1
 62
     7
 10
66.711600000000004
 20
189.66999999999999
 30
0.0
 11
67.896699999999996
 21
189.66999999999999
 31
0.0
  0
LINE
  5
DD
  8
_________1
 62
     7
 10
66.726100000000002
 20
231.24700000000001
 30
0.0
 11
67.318600000000004
 21
233.459
 31
0.0
  0
LINE
  5
DE
  8
_________1
 62
     7
 10
67.318600000000004
 20
233.459
 30
0.0
 11
67.911199999999994
 21
231.24700000000001
 31
0.0
  0
LINE
  5
DF
  8
_________1
 62
     7
 10
67.911199999999994
 20
231.24700000000001
 30
0.0
 11
66.726100000000002
 21
231.24700000000001
 31
0.0
  0
LINE
  5
E0
  8
_________1
 62
     7
 10
67.311400000000006
 20
187.459
 30
0.0
 11
67.311400000000006
 21
233.458
 31
0.0
  0
ENDBLK
  5
E1
  8
_________1
  0
BLOCK
  8
_________1
  2
AIGNBL0201000C
 70
     0
 10
0.0
 20
0.0
 30
0.0
  3
AIGNBL0201000C
  1

  0
LINE
  5
E4
  8
_________1
 62
     7
 10
47.313999999999993
 20
167.70599999999999
 30
0.0
 11
49.525599999999997
 21
167.113
 31
0.0
  0
LINE
  5
E5
  8
_________1
 62
     7
 10
49.525599999999997
 20
167.113
 30
0.0
 11
47.313999999999993
 21
166.52099999999999
 31
0.0
  0
LINE
  5
E6
  8
_________1
 62
     7
 10
47.313999999999993
 20
166.52099999999999
 30
0.0
 11
47.313999999999993
 21
167.70599999999999
 31
0.0
  0
LINE
  5
E7
  8
_________1
 62
     7
 10
-49.265700000000002
 20
166.535
 30
0.0
 11
-51.4773
 21
167.12799999999999
 31
0.0
  0
LINE
  5
E8
  8
_________1
 62
     7
 10
-51.4773
 20
167.12799999999999
 30
0.0
 11
-49.265700000000002
 21
167.72
 31
0.0
  0
LINE
  5
E9
  8
_________1
 62
     7
 10
-49.265700000000002
 20
167.72
 30
0.0
 11
-49.265700000000002
 21
166.535
 31
0.0
  0
LINE
  5
EA
  8
_________1
 62
     7
 10
49.524799999999999
 20
167.12
 30
0.0
 11
-51.476399999999991
 21
167.12
 31
0.0
  0
ENDBLK
  5
EB
  8
_________1
  0
BLOCK
  8
_________1
  2
AIGNBL0201000D
 70
     0
 10
0.0
 20
0.0
 30
0.0
  3
AIGNBL0201000D
  1

  0
LINE
  5
EE
  8
_________1
 62
     7
 10
15.988799999999999
 20
211.03299999999999
 30
0.0
 11
17.133800000000001
 21
209.05099999999999
 31
0.0
  0
LINE
  5
EF
  8
_________1
 62
     7
 10
17.133800000000001
 20
209.05099999999999
 30
0.0
 11
15.1508
 21
210.19499999999999
 31
0.0
  0
LINE
  5
F0
  8
_________1
 62
     7
 10
15.1508
 20
210.19499999999999
 30
0.0
 11
15.988799999999999
 21
211.03299999999999
 31
0.0
  0
LINE
  5
F1
  8
_________1
 62
     7
 10
21.4605
 20
203.886
 30
0.0
 11
20.3155
 21
205.869
 31
0.0
  0
LINE
  5
F2
  8
_________1
 62
     7
 10
20.3155
 20
205.869
 30
0.0
 11
22.298500000000001
 21
204.72399999999999
 31
0.0
  0
LINE
  5
F3
  8
_________1
 62
     7
 10
22.298500000000001
 20
204.72399999999999
 30
0.0
 11
21.4605
 21
203.886
 31
0.0
  0
LINE
  5
F4
  8
_________1
 62
     7
 10
24.023700000000002
 20
202.161
 30
0.0
 11
12.9993
 21
213.185
 31
0.0
  0
ENDBLK
  5
F5
  8
_________1
  0
BLOCK
  8
_________1
  2
AIGNBL0201000E
 70
     0
 10
0.0
 20
0.0
 30
0.0
  3
AIGNBL0201000E
  1

  0
LINE
  5
F8
  8
_________1
 62
     7
 10
16.342099999999999
 20
230.18000000000001
 30
0.0
 11
17.487100000000002
 21
228.197
 31
0.0
  0
LINE
  5
F9
  8
_________1
 62
     7
 10
17.487100000000002
 20
228.197
 30
0.0
 11
15.504099999999999
 21
229.34200000000001
 31
0.0
  0
LINE
  5
FA
  8
_________1
 62
     7
 10
15.504099999999999
 20
229.34200000000001
 30
0.0
 11
16.342099999999999
 21
230.18000000000001
 31
0.0
  0
LINE
  5
FB
  8
_________1
 62
     7
 10
21.107199999999999
 20
223.74000000000001
 30
0.0
 11
19.962199999999999
 21
225.72200000000001
 31
0.0
  0
LINE
  5
FC
  8
_________1
 62
     7
 10
19.962199999999999
 20
225.72200000000001
 30
0.0
 11
21.9452
 21
224.578
 31
0.0
  0
LINE
  5
FD
  8
_________1
 62
     7
 10
21.9452
 20
224.578
 30
0.0
 11
21.107199999999999
 21
223.74000000000001
 31
0.0
  0
LINE
  5
FE
  8
_________1
 62
     7
 10
22.947900000000001
 20
222.73599999999999
 30
0.0
 11
9.2864899999999988
 21
236.398
 31
0.0
  0
ENDBLK
  5
FF
  8
_________1
  0
BLOCK
  8
_________1
  2
AIGNBL0201000F
 70
     0
 10
0.0
 20
0.0
 30
0.0
  3
AIGNBL0201000F
  1

  0
LINE
  5
102
  8
_________1
 62
     7
 10
26.623899999999999
 20
224.74799999999999
 30
0.0
 11
27.2164
 21
226.96000000000001
 31
0.0
  0
LINE
  5
103
  8
_________1
 62
     7
 10
27.2164
 20
226.96000000000001
 30
0.0
 11
27.809000000000001
 21
224.74799999999999
 31
0.0
  0
LINE
  5
104
  8
_________1
 62
     7
 10
27.809000000000001
 20
224.74799999999999
 30
0.0
 11
26.623899999999999
 21
224.74799999999999
 31
0.0
  0
LINE
  5
105
  8
_________1
 62
     7
 10
27.809000000000001
 20
235.67099999999999
 30
0.0
 11
27.2164
 21
233.46000000000001
 31
0.0
  0
LINE
  5
106
  8
_________1
 62
     7
 10
27.2164
 20
233.46000000000001
 30
0.0
 11
26.623899999999999
 21
235.67099999999999
 31
0.0
  0
LINE
  5
107
  8
_________1
 62
     7
 10
26.623899999999999
 20
235.67099999999999
 30
0.0
 11
27.809000000000001
 21
235.67099999999999
 31
0.0
  0
LINE
  5
108
  8
_________1
 62
     7
 10
27.2164
 20
239.77000000000001
 30
0.0
 11
27.2164
 21
223.22499999999999
 31
0.0
  0
ENDBLK
  5
109
  8
_________1
  0
BLOCK
  8
_________1
  2
AIGNBL02010010
 70
     0
 10
0.0
 20
0.0
 30
0.0
  3
AIGNBL02010010
  1

  0
LINE
  5
10C
  8
_________1
 62
     7
 10
-45.722399999999993
 20
232.96299999999999
 30
0.0
 11
-47.505200000000002
 21
231.52699999999999
 31
0.0
  0
LINE
  5
10D
  8
_________1
 62
     7
 10
-47.505200000000002
 20
231.52699999999999
 30
0.0
 11
-46.679400000000001
 21
233.66200000000001
 31
0.0
  0
LINE
  5
10E
  8
_________1
 62
     7
 10
-46.679400000000001
 20
233.66200000000001
 30
0.0
 11
-45.722399999999993
 21
232.96299999999999
 31
0.0
  0
LINE
  5
10F
  8
_________1
 62
     7
 10
-47.505200000000002
 20
231.52699999999999
 30
0.0
 11
-39.342700000000001
 21
242.691
 31
0.0
  0
ENDBLK
  5
110
  8
_________1
  0
BLOCK
  8
_________1
  2
AIGNBL02010011
 70
     0
 10
0.0
 20
0.0
 30
0.0
  3
AIGNBL02010011
  1

  0
LINE
  5
113
  8
_________1
 62
     7
 10
-32.6113
 20
63.177199999999999
 30
0.0
 11
-30.3995
 21
63.769799999999989
 31
0.0
  0
LINE
  5
114
  8
_________1
 62
     7
 10
-30.3995
 20
63.769799999999989
 30
0.0
 11
-32.6113
 21
64.362399999999994
 31
0.0
  0
LINE
  5
115
  8
_________1
 62
     7
 10
-32.6113
 20
64.362399999999994
 30
0.0
 11
-32.6113
 21
63.177199999999999
 31
0.0
  0
LINE
  5
116
  8
_________1
 62
     7
 10
-13.8621
 20
63.177199999999999
 30
0.0
 11
-11.650399999999999
 21
63.769799999999989
 31
0.0
  0
LINE
  5
117
  8
_________1
 62
     7
 10
-11.650399999999999
 20
63.769799999999989
 30
0.0
 11
-13.8621
 21
64.362399999999994
 31
0.0
  0
LINE
  5
118
  8
_________1
 62
     7
 10
-13.8621
 20
64.362399999999994
 30
0.0
 11
-13.8621
 21
63.177199999999999
 31
0.0
  0
LINE
  5
119
  8
_________1
 62
     7
 10
-24.440000000000001
 20
64.347899999999996
 30
0.0
 11
-26.651800000000001
 21
63.755299999999998
 31
0.0
  0
LINE
  5
11A
  8
_________1
 62
     7
 10
-26.651800000000001
 20
63.755299999999998
 30
0.0
 11
-24.440000000000001
 21
63.16279999999999
 31
0.0
  0
LINE
  5
11B
  8
_________1
 62
     7
 10
-24.440000000000001
 20
63.16279999999999
 30
0.0
 11
-24.440000000000001
 21
64.347899999999996
 31
0.0
  0
LINE
  5
11C
  8
_________1
 62
     7
 10
-39.439700000000002
 20
64.347899999999996
 30
0.0
 11
-41.651499999999992
 21
63.755299999999998
 31
0.0
  0
LINE
  5
11D
  8
_________1
 62
     7
 10
-41.651499999999992
 20
63.755299999999998
 30
0.0
 11
-39.439700000000002
 21
63.16279999999999
 31
0.0
  0
LINE
  5
11E
  8
_________1
 62
     7
 10
-39.439700000000002
 20
63.16279999999999
 30
0.0
 11
-39.439700000000002
 21
64.347899999999996
 31
0.0
  0
LINE
  5
11F
  8
_________1
 62
     7
 10
-11.651400000000001
 20
63.762599999999999
 30
0.0
 11
-41.650399999999998
 21
63.762599999999999
 31
0.0
  0
ENDBLK
  5
120
  8
_________1
  0
BLOCK
  8
_________2
  2
AIGNBL03010002
 70
     0
 10
0.0
 20
0.0
 30
0.0
  3
AIGNBL03010002
  1

  0
LINE
  5
123
  8
_________2
 62
     7
 10
186.649
 20
51.052199999999999
 30
0.0
 11
184.46299999999999
 21
51.052199999999999
 31
0.0
  0
LINE
  5
124
  8
_________2
 62
     7
 10
187.142
 20
51.052199999999999
 30
0.0
 11
186.88900000000001
 21
51.052199999999999
 31
0.0
  0
LINE
  5
125
  8
_________2
 62
     7
 10
187.63399999999999
 20
51.052199999999999
 30
0.0
 11
190.559
 21
51.052199999999999
 31
0.0
  0
LINE
  5
126
  8
_________2
 62
     7
 10
187.142
 20
51.052199999999999
 30
0.0
 11
187.39400000000001
 21
51.052199999999999
 31
0.0
  0
LINE
  5
127
  8
_________2
 62
     7
 10
180.745
 20
51.052199999999999
 30
0.0
 11
178.55799999999999
 21
51.052199999999999
 31
0.0
  0
LINE
  5
128
  8
_________2
 62
     7
 10
181.23699999999999
 20
51.052199999999999
 30
0.0
 11
180.98599999999999
 21
51.052199999999999
 31
0.0
  0
LINE
  5
129
  8
_________2
 62
     7
 10
181.23699999999999
 20
51.544800000000002
 30
0.0
 11
181.23699999999999
 21
53.7318
 31
0.0
  0
LINE
  5
12A
  8
_________2
 62
     7
 10
181.23699999999999
 20
51.052199999999999
 30
0.0
 11
181.23699999999999
 21
51.304299999999998
 31
0.0
  0
LINE
  5
12B
  8
_________2
 62
     7
 10
181.72999999999999
 20
51.052199999999999
 30
0.0
 11
183.917
 21
51.052199999999999
 31
0.0
  0
LINE
  5
12C
  8
_________2
 62
     7
 10
181.23699999999999
 20
51.052199999999999
 30
0.0
 11
181.489
 21
51.052199999999999
 31
0.0
  0
LINE
  5
12D
  8
_________2
 62
     7
 10
181.23699999999999
 20
50.560200000000002
 30
0.0
 11
181.23699999999999
 21
48.373199999999997
 31
0.0
  0
LINE
  5
12E
  8
_________2
 62
     7
 10
181.23699999999999
 20
51.052199999999999
 30
0.0
 11
181.23699999999999
 21
50.800699999999999
 31
0.0
  0
LINE
  5
12F
  8
_________2
 62
     7
 10
184.94799999999989
 20
49.832599999999999
 30
0.0
 11
190.12599999999989
 21
48.9679
 31
0.0
  0
LINE
  5
130
  8
_________2
 62
     7
 10
184.94799999999989
 20
52.271700000000003
 30
0.0
 11
190.12599999999989
 21
53.137099999999997
 31
0.0
  0
LINE
  5
131
  8
_________2
 62
     7
 10
190.12599999999989
 20
48.9679
 30
0.0
 11
190.12599999999989
 21
53.137099999999997
 31
0.0
  0
LINE
  5
132
  8
_________2
 62
     7
 10
184.94799999999989
 20
49.832599999999999
 30
0.0
 11
184.94799999999989
 21
52.271700000000003
 31
0.0
  0
ARC
  5
133
  8
_________2
 62
     7
 10
181.190651
 20
51.004810999999989
 30
0.0
 40
1.2677780000000001
 50
2.1403449999999991
 51
87.892005999999995
  0
ARC
  5
134
  8
_________2
 62
     7
 10
181.28420199999999
 20
51.005241999999988
 30
0.0
 40
1.2673579999999991
 50
92.121564999999975
 51
177.87840600000001
  0
ARC
  5
135
  8
_________2
 62
     7
 10
181.28381400000001
 20
51.098689
 30
0.0
 40
1.2669559999999991
 50
182.10473099999999
 51
267.89529900000002
  0
ARC
  5
136
  8
_________2
 62
     7
 10
181.19038399999999
 20
51.099775000000001
 30
0.0
 40
1.268054
 50
272.11960599999998
 51
357.84804300000002
  0
ARC
  5
137
  8
_________2
 62
     7
 10
181.23728399999999
 20
51.05215900000001
 30
0.0
 40
2.0849849999999992
 50
0.00001
 51
89.999980000000008
  0
ARC
  5
138
  8
_________2
 62
     7
 10
181.317331
 20
50.972827000000002
 30
0.0
 40
2.1657969999999991
 50
92.118111999999996
 51
177.90079600000001
  0
ARC
  5
139
  8
_________2
 62
     7
 10
181.31728799999999
 20
51.132162999999998
 30
0.0
 40
2.1657779999999991
 50
182.11700400000001
 51
267.88302499999998
  0
ARC
  5
13A
  8
_________2
 62
     7
 10
181.15730300000001
 20
51.132855999999997
 30
0.0
 40
2.166469999999999
 50
272.115725
 51
357.86534699999999
  0
ENDBLK
  5
13B
  8
_________2
  0
ENDSEC
  0
SECTION
  2
ENTITIES
  0
INSERT
  5
13C
  8
____
 62
     7
  2
AIGNBL01010002
 10
0.0
 20
0.0
 30
0.0
  0
INSERT
  5
13D
  8
____
 62
     7
  2
AIGNBL01010003
 10
0.0
 20
0.0
 30
0.0
  0
INSERT
  5
13E
  8
____
 62
     7
  2
AIGNBL01010004
 10
0.0
 20
0.0
 30
0.0
  0
INSERT
  5
13F
  8
____
 62
     7
  2
AIGNBL01010005
 10
0.0
 20
0.0
 30
0.0
  0
INSERT
  5
140
  8
____
 62
     7
  2
AIGNBL01010006
 10
0.0
 20
0.0
 30
0.0
  0
INSERT
  5
141
  8
____
 62
     7
  2
AIGNBL01010007
 10
0.0
 20
0.0
 30
0.0
  0
INSERT
  5
142
  8
____
 62
     7
  2
AIGNBL01010008
 10
0.0
 20
0.0
 30
0.0
  0
INSERT
  5
143
  8
____
 62
     7
  2
AIGNBL01010009
 10
0.0
 20
0.0
 30
0.0
  0
INSERT
  5
144
  8
____
 62
     7
  2
AIGNBL0101000A
 10
0.0
 20
0.0
 30
0.0
  0
INSERT
  5
145
  8
____
 62
     7
  2
AIGNBL0101000B
 10
0.0
 20
0.0
 30
0.0
  0
INSERT
  5
146
  8
____
 62
     7
  2
AIGNBL0101000C
 10
0.0
 20
0.0
 30
0.0
  0
INSERT
  5
147
  8
____
 62
     7
  2
AIGNBL0101000D
 10
0.0
 20
0.0
 30
0.0
  0
INSERT
  5
148
  8
____
 62
     7
  2
AIGNBL0101000E
 10
0.0
 20
0.0
 30
0.0
  0
INSERT
  5
149
  8
____
 62
     7
  2
AIGNBL0101000F
 10
0.0
 20
0.0
 30
0.0
  0
INSERT
  5
14A
  8
____
 62
     7
  2
AIGNBL01010010
 10
0.0
 20
0.0
 30
0.0
  0
INSERT
  5
14B
  8
____
 62
     7
  2
AIGNBL01010011
 10
0.0
 20
0.0
 30
0.0
  0
INSERT
  5
14C
  8
____
 62
     7
  2
AIGNBL01010012
 10
0.0
 20
0.0
 30
0.0
  0
INSERT
  5
14D
  8
____
 62
     7
  2
AIGNBL01010013
 10
0.0
 20
0.0
 30
0.0
  0
INSERT
  5
14E
  8
____
 62
     7
  2
AIGNBL01010014
 10
0.0
 20
0.0
 30
0.0
  0
INSERT
  5
14F
  8
____
 62
     7
  2
AIGNBL01010015
 10
0.0
 20
0.0
 30
0.0
  0
INSERT
  5
150
  8
____
 62
     7
  2
AIGNBL01010016
 10
0.0
 20
0.0
 30
0.0
  0
INSERT
  5
151
  8
____
 62
     7
  2
AIGNBL01010017
 10
0.0
 20
0.0
 30
0.0
  0
TEXT
  5
152
  8
____
 62
     7
 10
-77.847200000000001
 20
22.237500000000001
 30
0.0
 40
3.6545800000000002
  1
※（　）内寸法は取付ボルト位置の参考寸法です。
 41
0.5
  0
LINE
  5
153
  8
_________1
 62
     7
 10
112.754
 20
146.12899999999999
 30
0.0
 11
110.07299999999999
 21
144.58099999999999
 31
0.0
  0
LINE
  5
154
  8
_________1
 62
     7
 10
110.07299999999999
 20
147.67599999999999
 30
0.0
 11
110.07299999999999
 21
144.58099999999999
 31
0.0
  0
LINE
  5
155
  8
_________1
 62
     7
 10
112.754
 20
146.12899999999999
 30
0.0
 11
110.07299999999999
 21
147.67599999999999
 31
0.0
  0
INSERT
  5
156
  8
_________1
 62
     7
  2
AIGNBL02010002
 10
0.0
 20
0.0
 30
0.0
  0
LINE
  5
157
  8
_________1
 62
     7
 10
18.724599999999999
 20
235.411
 30
0.0
 11
18.724599999999999
 21
247.36099999999999
 31
0.0
  0
LINE
  5
158
  8
_________1
 62
     7
 10
49.524799999999999
 20
234.185
 30
0.0
 11
49.524799999999999
 21
247.36099999999999
 31
0.0
  0
INSERT
  5
159
  8
_________1
 62
     7
  2
AIGNBL02010003
 10
0.0
 20
0.0
 30
0.0
  0
LINE
  5
15A
  8
_________1
 62
     7
 10
49.524799999999999
 20
118.655
 30
0.0
 11
49.524799999999999
 21
108.905
 31
0.0
  0
INSERT
  5
15B
  8
_________1
 62
     7
  2
AIGNBL02010004
 10
0.0
 20
0.0
 30
0.0
  0
LINE
  5
15C
  8
_________1
 62
     7
 10
-51.476399999999991
 20
118.655
 30
0.0
 11
-51.476399999999991
 21
108.905
 31
0.0
  0
INSERT
  5
15D
  8
_________1
 62
     7
  2
AIGNBL02010005
 10
0.0
 20
0.0
 30
0.0
  0
LINE
  5
15E
  8
_________1
 62
     7
 10
29.0246
 20
124.16800000000001
 30
0.0
 11
29.0246
 21
108.905
 31
0.0
  0
LINE
  5
15F
  8
_________1
 62
     7
 10
-30.976299999999998
 20
124.01000000000001
 30
0.0
 11
-30.976299999999998
 21
108.905
 31
0.0
  0
LINE
  5
160
  8
_________1
 62
     7
 10
-61.161999999999999
 20
133.97999999999999
 30
0.0
 11
-61.161999999999999
 21
127.98
 31
0.0
  0
LINE
  5
161
  8
_________1
 62
     7
 10
-34.946100000000001
 20
127.98
 30
0.0
 11
-61.862200000000001
 21
127.98
 31
0.0
  0
INSERT
  5
162
  8
_________1
 62
     7
  2
AIGNBL02010006
 10
0.0
 20
0.0
 30
0.0
  0
INSERT
  5
163
  8
_________1
 62
     7
  2
AIGNBL02010007
 10
0.0
 20
0.0
 30
0.0
  0
LINE
  5
164
  8
_________1
 62
     7
 10
86.753399999999999
 20
117.732
 30
0.0
 11
86.753399999999999
 21
108.905
 31
0.0
  0
INSERT
  5
165
  8
_________1
 62
     7
  2
AIGNBL02010008
 10
0.0
 20
0.0
 30
0.0
  0
LINE
  5
166
  8
_________1
 62
     7
 10
49.450000000000003
 20
220.46000000000001
 30
0.0
 11
59.910600000000002
 21
220.46000000000001
 31
0.0
  0
INSERT
  5
167
  8
_________1
 62
     7
  2
AIGNBL02010009
 10
0.0
 20
0.0
 30
0.0
  0
LINE
  5
168
  8
_________1
 62
     7
 10
-10.475899999999999
 20
187.535
 30
0.0
 11
-10.475899999999999
 21
175.08799999999999
 31
0.0
  0
INSERT
  5
169
  8
_________1
 62
     7
  2
AIGNBL0201000A
 10
0.0
 20
0.0
 30
0.0
  0
LINE
  5
16A
  8
_________1
 62
     7
 10
-52.8018
 20
119.98
 30
0.0
 11
-71.213800000000006
 21
119.98
 31
0.0
  0
LINE
  5
16B
  8
_________1
 62
     7
 10
-52.6021
 20
133.97999999999999
 30
0.0
 11
-71.213800000000006
 21
133.97999999999999
 31
0.0
  0
INSERT
  5
16C
  8
_________1
 62
     7
  2
AIGNBL0201000B
 10
0.0
 20
0.0
 30
0.0
  0
LINE
  5
16D
  8
_________1
 62
     7
 10
50.248899999999999
 20
187.459
 30
0.0
 11
68.011399999999995
 21
187.459
 31
0.0
  0
LINE
  5
16E
  8
_________1
 62
     7
 10
50.249600000000001
 20
233.46000000000001
 30
0.0
 11
68.011399999999995
 21
233.46000000000001
 31
0.0
  0
INSERT
  5
16F
  8
_________1
 62
     7
  2
AIGNBL0201000C
 10
0.0
 20
0.0
 30
0.0
  0
LINE
  5
170
  8
_________1
 62
     7
 10
-51.476399999999991
 20
186.73500000000001
 30
0.0
 11
-51.476399999999991
 21
166.41999999999999
 31
0.0
  0
LINE
  5
171
  8
_________1
 62
     7
 10
49.524799999999999
 20
186.73500000000001
 30
0.0
 11
49.524799999999999
 21
166.41999999999999
 31
0.0
  0
LINE
  5
172
  8
_________1
  6
AIGENLINE001
 62
     7
 10
112.754
 20
101.71299999999999
 30
0.0
 11
112.754
 21
149.37
 31
0.0
  0
ARC
  5
173
  8
_________1
  6
AIGENLINE002
 62
     7
 10
99.333543000000006
 20
129.48799199999999
 30
0.0
 40
0.20803
 50
182.22672499999999
 51
267.97053599999998
  0
ARC
  5
174
  8
_________1
  6
AIGENLINE002
 62
     7
 10
99.334132999999994
 20
132.07157699999999
 30
0.0
 40
0.208675
 50
92.185411000000016
 51
177.41941700000001
  0
LINE
  5
175
  8
_________1
  6
AIGENLINE002
 62
     7
 10
99.125699999999995
 20
132.08099999999999
 30
0.0
 11
99.125699999999995
 21
129.47999999999999
 31
0.0
  0
LINE
  5
176
  8
_________1
  6
AIGENLINE002
 62
     7
 10
83.169599999999988
 20
124.98
 30
0.0
 11
90.337199999999996
 21
124.98
 31
0.0
  0
ARC
  5
177
  8
_________1
  6
AIGENLINE002
 62
     7
 10
90.337800999999985
 20
124.776279
 30
0.0
 40
0.203619
 50
90.175907999999978
 51
134.84795800000001
  0
ARC
  5
178
  8
_________1
  6
AIGENLINE002
 62
     7
 10
83.168030000000002
 20
124.775237
 30
0.0
 40
0.204667
 50
45.271180000000001
 51
89.557963999999998
  0
LINE
  5
179
  8
_________1
  6
AIGENLINE002
 62
     7
 10
90.337199999999996
 20
124.98
 30
0.0
 11
98.684700000000021
 21
124.98
 31
0.0
  0
ARC
  5
17A
  8
_________1
  6
AIGENLINE002
 62
     7
 10
-50.156735999999988
 20
133.49952999999999
 30
0.0
 40
0.519741
 50
182.11163999999999
 51
267.86865699999998
  0
ARC
  5
17B
  8
_________1
  6
AIGENLINE002
 62
     7
 10
111.434682
 20
133.49972
 30
0.0
 40
0.5199310000000001
 50
272.13181300000002
 51
357.86819700000001
  0
ARC
  5
17C
  8
_________1
  6
AIGENLINE002
 62
     7
 10
68.694760999999986
 20
125.188001
 30
0.0
 40
0.208223
 50
188.37724
 51
268.06079999999997
  0
ARC
  5
17D
  8
_________1
  6
AIGENLINE002
 62
     7
 10
98.678793999999996
 20
125.187715
 30
0.0
 40
0.207901
 50
271.62659400000001
 51
351.68952899999999
  0
ARC
  5
17E
  8
_________1
  6
AIGENLINE002
 62
     7
 10
99.938520999999994
 20
132.77391499999999
 30
0.0
 40
0.206321
 50
91.667552000000001
 51
172.2628629999999
  0
LINE
  5
17F
  8
_________1
  6
AIGENLINE002
 62
     7
 10
22.308499999999999
 20
124.98
 30
0.0
 11
15.140599999999999
 21
124.98
 31
0.0
  0
ARC
  5
180
  8
_________1
  6
AIGENLINE002
 62
     7
 10
15.139798000000001
 20
124.777102
 30
0.0
 40
0.202797
 50
45.056032000000009
 51
89.773111999999998
  0
LINE
  5
181
  8
_________1
  6
AIGENLINE002
 62
     7
 10
15.140599999999999
 20
124.98
 30
0.0
 11
-9.4077500000000001
 21
124.98
 31
0.0
  0
ARC
  5
182
  8
_________1
  6
AIGENLINE002
 62
     7
 10
22.309908
 20
124.77526
 30
0.0
 40
0.204642
 50
90.390613000000016
 51
134.73111900000001
  0
ARC
  5
183
  8
_________1
  6
AIGENLINE002
 62
     7
 10
47.583283000000002
 20
125.188012
 30
0.0
 40
0.208229
 50
271.89281
 51
351.61991999999998
  0
ARC
  5
184
  8
_________1
  6
AIGENLINE002
 62
     7
 10
-9.4018280000000001
 20
125.18694600000001
 30
0.0
 40
0.207134
 50
188.12665000000001
 51
268.360659
  0
ARC
  5
185
  8
_________1
  6
AIGENLINE002
 62
     7
 10
-10.660373999999999
 20
132.77391499999999
 30
0.0
 40
0.206321
 50
7.7371169999999996
 51
88.332427999999993
  0
LINE
  5
186
  8
_________1
  6
AIGENLINE002
 62
     7
 10
20.974399999999999
 20
123.70399999999999
 30
0.0
 11
20.974399999999999
 21
119.98
 31
0.0
  0
LINE
  5
187
  8
_________1
  6
AIGENLINE002
 62
     7
 10
16.474599999999999
 20
123.70399999999999
 30
0.0
 11
16.474599999999999
 21
119.98
 31
0.0
  0
LINE
  5
188
  8
_________1
  6
AIGENLINE002
 62
     7
 10
20.974399999999999
 20
123.70399999999999
 30
0.0
 11
22.165900000000001
 21
124.92100000000001
 31
0.0
  0
LINE
  5
189
  8
_________1
  6
AIGENLINE002
 62
     7
 10
16.474599999999999
 20
123.70399999999999
 30
0.0
 11
15.283099999999999
 21
124.92100000000001
 31
0.0
  0
LINE
  5
18A
  8
_________1
  6
AIGENLINE002
 62
     7
 10
20.974399999999999
 20
123.70399999999999
 30
0.0
 11
16.474599999999999
 21
123.70399999999999
 31
0.0
  0
LINE
  5
18B
  8
_________1
  6
AIGENLINE002
 62
     7
 10
-50.676099999999998
 20
133.58099999999999
 30
0.0
 11
-50.676099999999998
 21
133.47999999999999
 31
0.0
  0
LINE
  5
18C
  8
_________1
  6
AIGENLINE002
 62
     7
 10
-50.176099999999998
 20
132.97999999999999
 30
0.0
 11
-10.654400000000001
 21
132.97999999999999
 31
0.0
  0
ARC
  5
18D
  8
_________1
  6
AIGENLINE002
 62
     7
 10
-51.09151
 20
133.56484699999999
 30
0.0
 40
0.415698
 50
2.2237589999999989
 51
87.899687000000014
  0
LINE
  5
18E
  8
_________1
  6
AIGENLINE002
 62
     7
 10
47.590200000000003
 20
124.98
 30
0.0
 11
22.308499999999999
 21
124.98
 31
0.0
  0
ARC
  5
18F
  8
_________1
  6
AIGENLINE002
 62
     7
 10
49.12487500000001
 20
133.580546
 30
0.0
 40
0.3997199999999999
 50
89.938271999999998
 51
179.938242
  0
LINE
  5
190
  8
_________1
  6
AIGENLINE002
 62
     7
 10
47.78929999999999
 20
125.158
 30
0.0
 11
48.725200000000001
 21
133.58099999999999
 31
0.0
  0
LINE
  5
191
  8
_________1
  6
AIGENLINE002
 62
     7
 10
-9.6068800000000003
 20
125.158
 30
0.0
 11
-10.4559
 21
132.80199999999999
 31
0.0
  0
ARC
  5
192
  8
_________1
  6
AIGENLINE002
 62
     7
 10
29.485838000000001
 20
128.018371
 30
0.0
 40
1.0393019999999991
 50
272.13093900000013
 51
357.87894
  0
ARC
  5
193
  8
_________1
  6
AIGENLINE002
 62
     7
 10
29.486422000000001
 20
127.941665
 30
0.0
 40
1.03871
 50
2.1098020000000002
 51
87.900058999999999
  0
ARC
  5
194
  8
_________1
  6
AIGENLINE002
 62
     7
 10
28.563153
 20
127.940932
 30
0.0
 40
1.0394639999999991
 50
92.128997999999996
 51
177.85123200000001
  0
ARC
  5
195
  8
_________1
  6
AIGENLINE002
 62
     7
 10
28.56279000000001
 20
128.018158
 30
0.0
 40
1.0390740000000001
 50
182.10978499999999
 51
267.89024499999999
  0
LINE
  5
196
  8
_________1
  6
AIGENLINE002
 62
     7
 10
29.5245
 20
126.98
 30
0.0
 11
28.5245
 21
126.98
 31
0.0
  0
LINE
  5
197
  8
_________1
  6
AIGENLINE002
 62
     7
 10
29.5245
 20
128.97999999999999
 30
0.0
 11
28.5245
 21
128.97999999999999
 31
0.0
  0
ARC
  5
198
  8
_________1
  6
AIGENLINE002
 62
     7
 10
-31.437521
 20
127.941106
 30
0.0
 40
1.03929
 50
92.12960099999998
 51
177.86049800000001
  0
ARC
  5
199
  8
_________1
  6
AIGENLINE002
 62
     7
 10
-31.437722000000001
 20
128.018146
 30
0.0
 40
1.0390680000000001
 50
182.10912500000001
 51
267.881035
  0
ARC
  5
19A
  8
_________1
  6
AIGENLINE002
 62
     7
 10
-30.514841000000001
 20
128.018371
 30
0.0
 40
1.0393019999999991
 50
272.13093900000013
 51
357.87894
  0
ARC
  5
19B
  8
_________1
  6
AIGENLINE002
 62
     7
 10
-30.514257000000001
 20
127.941665
 30
0.0
 40
1.03871
 50
2.1098020000000002
 51
87.900058999999999
  0
LINE
  5
19C
  8
_________1
  6
AIGENLINE002
 62
     7
 10
-31.476099999999999
 20
126.98
 30
0.0
 11
-30.476199999999999
 21
126.98
 31
0.0
  0
LINE
  5
19D
  8
_________1
  6
AIGENLINE002
 62
     7
 10
-31.476099999999999
 20
128.97999999999999
 30
0.0
 11
-30.476199999999999
 21
128.97999999999999
 31
0.0
  0
ARC
  5
19E
  8
_________1
  6
AIGENLINE002
 62
     7
 10
18.782104
 20
130.72254899999999
 30
0.0
 40
1.5586139999999991
 50
92.115943999999999
 51
177.884027
  0
ARC
  5
19F
  8
_________1
  6
AIGENLINE002
 62
     7
 10
18.667396
 20
130.72311500000001
 30
0.0
 40
1.5580350000000001
 50
2.095931999999999
 51
87.897478000000007
  0
ARC
  5
1A0
  8
_________1
  6
AIGENLINE002
 62
     7
 10
18.666843
 20
130.83763200000001
 30
0.0
 40
1.5586079999999991
 50
272.12212099999999
 51
357.88446900000002
  0
ARC
  5
1A1
  8
_________1
  6
AIGENLINE002
 62
     7
 10
18.781721999999998
 20
130.83726200000001
 30
0.0
 40
1.5582180000000001
 50
182.10246100000001
 51
267.89756899999998
  0
ARC
  5
1A2
  8
_________1
  6
AIGENLINE002
 62
     7
 10
18.762460999999998
 20
130.74183500000001
 30
0.0
 40
1.038726
 50
92.091222999999999
 51
177.88900699999999
  0
ARC
  5
1A3
  8
_________1
  6
AIGENLINE002
 62
     7
 10
18.685936999999999
 20
130.741297
 30
0.0
 40
1.03929
 50
2.1394820000000001
 51
87.870378999999986
  0
ARC
  5
1A4
  8
_________1
  6
AIGENLINE002
 62
     7
 10
18.686136999999999
 20
130.81833700000001
 30
0.0
 40
1.039069
 50
272.11900200000002
 51
357.89087699999999
  0
ARC
  5
1A5
  8
_________1
  6
AIGENLINE002
 62
     7
 10
18.763192
 20
130.81873100000001
 30
0.0
 40
1.0394709999999989
 50
182.13007200000001
 51
267.869958
  0
LINE
  5
1A6
  8
_________1
  6
AIGENLINE002
 62
     7
 10
84.503600000000006
 20
123.70399999999999
 30
0.0
 11
89.003399999999985
 21
123.70399999999999
 31
0.0
  0
LINE
  5
1A7
  8
_________1
  6
AIGENLINE002
 62
     7
 10
89.003399999999985
 20
123.70399999999999
 30
0.0
 11
90.194199999999995
 21
124.92100000000001
 31
0.0
  0
LINE
  5
1A8
  8
_________1
  6
AIGENLINE002
 62
     7
 10
84.503600000000006
 20
123.70399999999999
 30
0.0
 11
83.312100000000001
 21
124.92100000000001
 31
0.0
  0
LINE
  5
1A9
  8
_________1
  6
AIGENLINE002
 62
     7
 10
89.003399999999985
 20
123.70399999999999
 30
0.0
 11
89.003399999999985
 21
119.98
 31
0.0
  0
LINE
  5
1AA
  8
_________1
  6
AIGENLINE002
 62
     7
 10
84.503600000000006
 20
123.70399999999999
 30
0.0
 11
84.503600000000006
 21
119.98
 31
0.0
  0
ARC
  5
1AB
  8
_________1
  6
AIGENLINE002
 62
     7
 10
112.368464
 20
133.566068
 30
0.0
 40
0.414479
 50
92.110846999999978
 51
177.93858
  0
LINE
  5
1AC
  8
_________1
  6
AIGENLINE002
 62
     7
 10
98.884500000000003
 20
125.158
 30
0.0
 11
99.734100000000012
 21
132.80199999999999
 31
0.0
  0
ARC
  5
1AD
  8
_________1
  6
AIGENLINE002
 62
     7
 10
67.138320999999991
 20
133.565687
 30
0.0
 40
0.414854
 50
2.1121470000000002
 51
87.912554999999998
  0
LINE
  5
1AE
  8
_________1
  6
AIGENLINE002
 62
     7
 10
68.488799999999998
 20
125.158
 30
0.0
 11
67.552899999999994
 21
133.58099999999999
 31
0.0
  0
LINE
  5
1AF
  8
_________1
  6
AIGENLINE002
 62
     7
 10
68.687700000000007
 20
124.98
 30
0.0
 11
83.169599999999988
 21
124.98
 31
0.0
  0
LINE
  5
1B0
  8
_________1
  6
AIGENLINE002
 62
     7
 10
111.45399999999999
 20
132.97999999999999
 30
0.0
 11
99.932500000000005
 21
132.97999999999999
 31
0.0
  0
LINE
  5
1B1
  8
_________1
  6
AIGENLINE002
 62
     7
 10
111.95399999999999
 20
133.58099999999999
 30
0.0
 11
111.95399999999999
 21
133.47999999999999
 31
0.0
  0
LINE
  5
1B2
  8
_________1
  6
AIGENLINE003
 62
     7
 10
86.753399999999999
 20
126.74299999999999
 30
0.0
 11
86.753399999999999
 21
118.432
 31
0.0
  0
LINE
  5
1B3
  8
_________1
  6
AIGENLINE003
 62
     7
 10
115.398
 20
127.98
 30
0.0
 11
110.10899999999999
 21
127.98
 31
0.0
  0
LINE
  5
1B4
  8
_________1
  6
AIGENLINE003
 62
     7
 10
106.254
 20
137.37299999999999
 30
0.0
 11
106.254
 21
130.745
 31
0.0
  0
LINE
  5
1B5
  8
_________1
  6
AIGENLINE003
 62
     7
 10
31.6691
 20
127.98
 30
0.0
 11
26.379999999999999
 21
127.98
 31
0.0
  0
LINE
  5
1B6
  8
_________1
  6
AIGENLINE003
 62
     7
 10
29.0244
 20
229.50399999999999
 30
0.0
 11
29.0244
 21
236.80500000000001
 31
0.0
  0
LINE
  5
1B7
  8
_________1
  6
AIGENLINE003
 62
     7
 10
-30.976099999999999
 20
229.50399999999999
 30
0.0
 11
-30.976099999999999
 21
236.80500000000001
 31
0.0
  0
LINE
  5
1B8
  8
_________1
  6
AIGENLINE003
 62
     7
 10
29.0244
 20
125.33499999999999
 30
0.0
 11
29.0244
 21
130.624
 31
0.0
  0
LINE
  5
1B9
  8
_________1
  6
AIGENLINE003
 62
     7
 10
-30.976099999999999
 20
125.33499999999999
 30
0.0
 11
-30.976099999999999
 21
130.624
 31
0.0
  0
LINE
  5
1BA
  8
_________1
  6
AIGENLINE003
 62
     7
 10
-33.620699999999999
 20
127.98
 30
0.0
 11
-28.331600000000002
 21
127.98
 31
0.0
  0
LINE
  5
1BB
  8
_________1
  6
AIGENLINE003
 62
     7
 10
18.724599999999999
 20
118.071
 30
0.0
 11
18.724599999999999
 21
136.14500000000001
 31
0.0
  0
LINE
  5
1BC
  8
_________1
  6
AIGENLINE003
 62
     7
 10
21.369
 20
130.78
 30
0.0
 11
16.079899999999999
 21
130.78
 31
0.0
  0
LINE
  5
1BD
  8
_________1
  6
AIGENLINE003
 62
     7
 10
23.959900000000001
 20
207.46000000000001
 30
0.0
 11
13.489699999999999
 21
207.46000000000001
 31
0.0
  0
LINE
  5
1BE
  8
_________1
  6
AIGENLINE003
 62
     7
 10
22.1294
 20
226.96000000000001
 30
0.0
 11
15.319599999999999
 21
226.96000000000001
 31
0.0
  0
LINE
  5
1BF
  8
_________1
  6
AIGENLINE003
 62
     7
 10
18.724599999999999
 20
234.55099999999999
 30
0.0
 11
18.724599999999999
 21
199.05000000000001
 31
0.0
  0
LINE
  5
1C0
  8
_________1
 62
     7
 10
-49.337400000000002
 20
230.02799999999999
 30
0.0
 11
-44.337499999999991
 21
230.02799999999999
 31
0.0
  0
LINE
  5
1C1
  8
_________1
 62
     7
 10
-44.337499999999991
 20
230.02799999999999
 30
0.0
 11
-44.337499999999991
 21
231.52799999999999
 31
0.0
  0
LINE
  5
1C2
  8
_________1
 62
     7
 10
-44.337499999999991
 20
231.52799999999999
 30
0.0
 11
-49.337400000000002
 21
231.52799999999999
 31
0.0
  0
LINE
  5
1C3
  8
_________1
 62
     7
 10
-49.337400000000002
 20
231.52799999999999
 30
0.0
 11
-49.337400000000002
 21
230.02799999999999
 31
0.0
  0
ARC
  5
1C4
  8
_________1
 62
     7
 10
-9.8535579999999996
 20
188.88198700000001
 30
0.0
 40
0.622757
 50
182.05959799999999
 51
267.92397900000009
  0
ARC
  5
1C5
  8
_________1
 62
     7
 10
48.102800000000002
 20
219.83776800000001
 30
0.0
 40
0.622757
 50
2.0595959999999991
 51
87.923942000000025
  0
ARC
  5
1C6
  8
_________1
 62
     7
 10
-9.8530039999999985
 20
219.83721399999999
 30
0.0
 40
0.6233310000000002
 50
92.125053000000008
 51
177.89136999999999
  0
ARC
  5
1C7
  8
_________1
 62
     7
 10
17.432247
 20
220.46798699999999
 30
0.0
 40
0.207844
 50
182.17026300000001
 51
267.78035299999999
  0
ARC
  5
1C8
  8
_________1
 62
     7
 10
20.016956
 20
220.467726
 30
0.0
 40
0.207572
 50
272.15029800000002
 51
357.89912600000002
  0
LINE
  5
1C9
  8
_________1
 62
     7
 10
20.024699999999999
 20
220.25999999999999
 30
0.0
 11
17.424199999999999
 21
220.25999999999999
 31
0.0
  0
LINE
  5
1CA
  8
_________1
 62
     7
 10
66.753299999999996
 20
119.98
 30
0.0
 11
66.753299999999996
 21
133.78
 31
0.0
  0
ARC
  5
1CB
  8
_________1
 62
     7
 10
66.961062999999996
 20
133.772504
 30
0.0
 40
0.207921
 50
92.242936999999984
 51
177.905148
  0
LINE
  5
1CC
  8
_________1
 62
     7
 10
66.952899999999985
 20
133.97999999999999
 30
0.0
 11
112.554
 21
133.97999999999999
 31
0.0
  0
ARC
  5
1CD
  8
_________1
 62
     7
 10
112.54564499999999
 20
133.77240399999999
 30
0.0
 40
0.208018
 50
2.1214300000000001
 51
87.779859000000002
  0
LINE
  5
1CE
  8
_________1
 62
     7
 10
112.754
 20
133.78
 30
0.0
 11
112.754
 21
119.98
 31
0.0
  0
LINE
  5
1CF
  8
_________1
 62
     7
 10
112.754
 20
119.98
 30
0.0
 11
66.753299999999996
 21
119.98
 31
0.0
  0
LINE
  5
1D0
  8
_________1
 62
     7
 10
49.524799999999999
 20
119.98
 30
0.0
 11
49.524799999999999
 21
133.78
 31
0.0
  0
ARC
  5
1D1
  8
_________1
 62
     7
 10
49.316978999999989
 20
133.772492
 30
0.0
 40
0.207927
 50
2.0981450000000001
 51
87.803145000000015
  0
LINE
  5
1D2
  8
_________1
 62
     7
 10
49.3249
 20
133.97999999999999
 30
0.0
 11
-51.2759
 21
133.97999999999999
 31
0.0
  0
ARC
  5
1D3
  8
_________1
 62
     7
 10
-51.267889000000011
 20
133.771716
 30
0.0
 40
0.208705
 50
92.205041999999978
 51
177.69639799999999
  0
LINE
  5
1D4
  8
_________1
 62
     7
 10
-51.476399999999991
 20
133.78
 30
0.0
 11
-51.476399999999991
 21
119.98
 31
0.0
  0
LINE
  5
1D5
  8
_________1
 62
     7
 10
-51.476399999999991
 20
119.98
 30
0.0
 11
49.524799999999999
 21
119.98
 31
0.0
  0
ARC
  5
1D6
  8
_________1
 62
     7
 10
18.724471000000001
 20
207.45953499999999
 30
0.0
 40
3.4999809999999991
 50
89.998589999999993
 51
179.99856
  0
ARC
  5
1D7
  8
_________1
 62
     7
 10
18.724900999999999
 20
207.45927699999999
 30
0.0
 40
3.5002399999999998
 50
0.005649
 51
90.005618999999996
  0
ARC
  5
1D8
  8
_________1
 62
     7
 10
18.591165
 20
207.593729
 30
0.0
 40
3.6364489999999989
 50
272.102193
 51
357.88653799999997
  0
ARC
  5
1D9
  8
_________1
 62
     7
 10
18.858191999999999
 20
207.593436
 30
0.0
 40
3.6361650000000001
 50
182.10903500000001
 51
267.89381500000002
  0
ARC
  5
1DA
  8
_________1
 62
     7
 10
18.724557000000001
 20
207.459621
 30
0.0
 40
2.2500059999999991
 50
90.0
 51
179.99996999999999
  0
ARC
  5
1DB
  8
_________1
 62
     7
 10
18.637633000000001
 20
207.37287699999999
 30
0.0
 40
2.338366999999999
 50
2.1259579999999998
 51
87.869646000000003
  0
ARC
  5
1DC
  8
_________1
 62
     7
 10
18.638428999999999
 20
207.54575
 30
0.0
 40
2.3375490000000001
 50
272.11157100000003
 51
357.88843900000001
  0
ARC
  5
1DD
  8
_________1
 62
     7
 10
18.811475000000002
 20
207.546718
 30
0.0
 40
2.338546
 50
182.134432
 51
267.8699840000001
  0
ARC
  5
1DE
  8
_________1
 62
     7
 10
18.791761000000001
 20
226.892642
 30
0.0
 40
1.818393999999999
 50
92.118015999999983
 51
177.881955
  0
ARC
  5
1DF
  8
_________1
 62
     7
 10
18.656943999999999
 20
226.892234
 30
0.0
 40
1.818816999999999
 50
2.130395
 51
87.869595000000004
  0
ARC
  5
1E0
  8
_________1
 62
     7
 10
18.657724000000002
 20
227.02668
 30
0.0
 40
1.8180089999999991
 50
272.10677099999998
 51
357.89323899999999
  0
ARC
  5
1E1
  8
_________1
 62
     7
 10
18.792169000000001
 20
227.02745899999999
 30
0.0
 40
1.818816999999999
 50
182.130415
 51
267.86961500000001
  0
LINE
  5
1E2
  8
_________1
 62
     7
 10
-10.475899999999999
 20
219.86000000000001
 30
0.0
 11
-10.475899999999999
 21
188.86000000000001
 31
0.0
  0
LINE
  5
1E3
  8
_________1
 62
     7
 10
48.125399999999999
 20
220.46000000000001
 30
0.0
 11
-9.8761200000000002
 21
220.46000000000001
 31
0.0
  0
LINE
  5
1E4
  8
_________1
 62
     7
 10
48.725200000000001
 20
188.86000000000001
 30
0.0
 11
48.725200000000001
 21
232.06
 31
0.0
  0
ARC
  5
1E5
  8
_________1
 62
     7
 10
48.125360000000001
 20
232.06034299999999
 30
0.0
 40
0.599795
 50
0.00001
 51
89.999980000000008
  0
LINE
  5
1E6
  8
_________1
 62
     7
 10
48.125399999999999
 20
232.66
 30
0.0
 11
-50.076300000000003
 21
232.66
 31
0.0
  0
ARC
  5
1E7
  8
_________1
 62
     7
 10
-50.076329999999999
 20
232.06034299999999
 30
0.0
 40
0.599795
 50
90.0
 51
179.99996999999999
  0
LINE
  5
1E8
  8
_________1
 62
     7
 10
-50.676099999999998
 20
232.06
 30
0.0
 11
-50.676099999999998
 21
188.86000000000001
 31
0.0
  0
ARC
  5
1E9
  8
_________1
 62
     7
 10
-50.053215999999999
 20
188.882541
 30
0.0
 40
0.6233310000000002
 50
182.10863000000001
 51
267.87494700000002
  0
LINE
  5
1EA
  8
_________1
 62
     7
 10
-50.076300000000003
 20
188.25999999999999
 30
0.0
 11
48.125399999999999
 21
188.25999999999999
 31
0.0
  0
ARC
  5
1EB
  8
_________1
 62
     7
 10
48.102800000000002
 20
188.88198700000001
 30
0.0
 40
0.622757
 50
272.07605799999999
 51
357.940404
  0
LINE
  5
1EC
  8
_________1
 62
     7
 10
-51.476399999999991
 20
188.059
 30
0.0
 11
-51.476399999999991
 21
232.86099999999999
 31
0.0
  0
ARC
  5
1ED
  8
_________1
 62
     7
 10
-50.854368000000001
 20
232.83766600000001
 30
0.0
 40
0.622482
 50
92.049549999999996
 51
177.88456300000001
  0
LINE
  5
1EE
  8
_________1
 62
     7
 10
-50.876600000000003
 20
233.46000000000001
 30
0.0
 11
48.924799999999991
 21
233.46000000000001
 31
0.0
  0
ARC
  5
1EF
  8
_________1
 62
     7
 10
48.902304999999998
 20
232.837255
 30
0.0
 40
0.6229010000000002
 50
2.1518440000000001
 51
87.930456000000007
  0
LINE
  5
1F0
  8
_________1
 62
     7
 10
49.524799999999999
 20
232.86099999999999
 30
0.0
 11
49.524799999999999
 21
188.059
 31
0.0
  0
ARC
  5
1F1
  8
_________1
 62
     7
 10
48.902025999999999
 20
188.082257
 30
0.0
 40
0.623163
 50
272.094291
 51
357.88926600000002
  0
LINE
  5
1F2
  8
_________1
 62
     7
 10
48.924799999999991
 20
187.46000000000001
 30
0.0
 11
-50.876600000000003
 21
187.46000000000001
 31
0.0
  0
ARC
  5
1F3
  8
_________1
 62
     7
 10
-50.876631000000003
 20
188.05930499999999
 30
0.0
 40
0.599795
 50
179.99996999999999
 51
270.00002000000001
  0
LINE
  5
1F4
  8
_________1
 62
     7
 10
-61.161999999999999
 20
143.37799999999999
 30
0.0
 11
-61.161999999999999
 21
133.97999999999999
 31
0.0
  0
LINE
  5
1F5
  8
_________1
 62
     7
 10
-61.161999999999999
 20
127.98
 30
0.0
 11
-61.161999999999999
 21
124.34099999999999
 31
0.0
  0
LINE
  5
1F6
  8
_________1
 62
     7
 10
-60.569499999999998
 20
125.76900000000001
 30
0.0
 11
-61.161999999999999
 21
127.98
 31
0.0
  0
LINE
  5
1F7
  8
_________1
 62
     7
 10
-61.161999999999999
 20
127.98
 30
0.0
 11
-61.754600000000011
 21
125.76900000000001
 31
0.0
  0
LINE
  5
1F8
  8
_________1
 62
     7
 10
-61.754600000000011
 20
125.76900000000001
 30
0.0
 11
-60.569499999999998
 21
125.76900000000001
 31
0.0
  0
LINE
  5
1F9
  8
_________1
 62
     7
 10
-61.754600000000011
 20
136.19200000000001
 30
0.0
 11
-61.161999999999999
 21
133.97999999999999
 31
0.0
  0
LINE
  5
1FA
  8
_________1
 62
     7
 10
-61.161999999999999
 20
133.97999999999999
 30
0.0
 11
-60.569499999999998
 21
136.19200000000001
 31
0.0
  0
LINE
  5
1FB
  8
_________1
 62
     7
 10
-60.569499999999998
 20
136.19200000000001
 30
0.0
 11
-61.754600000000011
 21
136.19200000000001
 31
0.0
  0
INSERT
  5
1FC
  8
_________1
 62
     7
  2
AIGNBL0201000D
 10
0.0
 20
0.0
 30
0.0
  0
LINE
  5
1FD
  8
_________1
 62
     7
 10
12.9993
 20
213.185
 30
0.0
 11
6.8621600000000003
 21
213.185
 31
0.0
  0
LINE
  5
1FE
  8
_________1
 62
     7
 10
9.2864899999999988
 20
236.398
 30
0.0
 11
3.1493500000000001
 21
236.398
 31
0.0
  0
INSERT
  5
1FF
  8
_________1
 62
     7
  2
AIGNBL0201000E
 10
0.0
 20
0.0
 30
0.0
  0
INSERT
  5
200
  8
_________1
 62
     7
  2
AIGNBL0201000F
 10
0.0
 20
0.0
 30
0.0
  0
LINE
  5
201
  8
_________1
 62
     7
 10
22.8294
 20
226.96000000000001
 30
0.0
 11
27.916499999999999
 21
226.96000000000001
 31
0.0
  0
INSERT
  5
202
  8
_________1
 62
     7
  2
AIGNBL02010010
 10
0.0
 20
0.0
 30
0.0
  0
LINE
  5
203
  8
_________1
 62
     7
 10
-39.342700000000001
 20
242.691
 30
0.0
 11
-21.624500000000001
 21
242.691
 31
0.0
  0
INSERT
  5
204
  8
_________1
 62
     7
  2
AIGNBL02010011
 10
0.0
 20
0.0
 30
0.0
  0
LINE
  5
205
  8
_________1
 62
     7
 10
-41.650399999999998
 20
64.4619
 30
0.0
 11
-41.650399999999998
 21
57.536200000000001
 31
0.0
  0
LINE
  5
206
  8
_________1
 62
     7
 10
-30.3994
 20
64.462599999999995
 30
0.0
 11
-30.401299999999999
 21
57.534500000000001
 31
0.0
  0
LINE
  5
207
  8
_________1
 62
     7
 10
-26.651900000000001
 20
64.4619
 30
0.0
 11
-26.649899999999999
 21
57.534500000000001
 31
0.0
  0
LINE
  5
208
  8
_________1
 62
     7
 10
-11.651400000000001
 20
64.462599999999995
 30
0.0
 11
-11.651899999999999
 21
57.534500000000001
 31
0.0
  0
LINE
  5
209
  8
_________1
  6
AIGENLINE003
 62
     7
 10
-65.242599999999996
 20
55.709600000000002
 30
0.0
 11
-6.3540000000000001
 21
55.710299999999997
 31
0.0
  0
LINE
  5
20A
  8
_________1
 62
     7
 10
-58.862200000000001
 20
58.208999999999989
 30
0.0
 11
-58.703099999999992
 21
57.800800000000002
 31
0.0
  0
LINE
  5
20B
  8
_________1
 62
     7
 10
-58.863999999999997
 20
53.210900000000002
 30
0.0
 11
-58.703099999999992
 21
53.619100000000003
 31
0.0
  0
LINE
  5
20C
  8
_________1
 62
     7
 10
-60.701900000000002
 20
53.618400000000001
 30
0.0
 11
-60.5426
 21
53.210900000000002
 31
0.0
  0
LINE
  5
20D
  8
_________1
 62
     7
 10
-60.703800000000001
 20
57.800800000000002
 30
0.0
 11
-60.543500000000002
 21
58.210799999999999
 31
0.0
  0
LINE
  5
20E
  8
_________1
 62
     7
 10
-60.701900000000002
 20
53.618400000000001
 30
0.0
 11
-60.703800000000001
 21
57.800800000000002
 31
0.0
  0
LINE
  5
20F
  8
_________1
 62
     7
 10
-58.863999999999997
 20
53.210900000000002
 30
0.0
 11
-58.703099999999992
 21
53.619100000000003
 31
0.0
  0
LINE
  5
210
  8
_________1
 62
     7
 10
-58.701999999999998
 20
55.709600000000002
 30
0.0
 11
-58.703099999999992
 21
57.800800000000002
 31
0.0
  0
LINE
  5
211
  8
_________1
 62
     7
 10
-58.703099999999992
 20
53.619100000000003
 30
0.0
 11
-58.701999999999998
 21
55.709600000000002
 31
0.0
  0
LINE
  5
212
  8
_________1
 62
     7
 10
-60.543500000000002
 20
54.459699999999991
 30
0.0
 11
-58.862200000000001
 21
54.457999999999998
 31
0.0
  0
LINE
  5
213
  8
_________1
 62
     7
 10
-60.5426
 20
53.210900000000002
 30
0.0
 11
-58.863999999999997
 21
53.210900000000002
 31
0.0
  0
LINE
  5
214
  8
_________1
 62
     7
 10
-60.5426
 20
56.9602
 30
0.0
 11
-58.863999999999997
 21
56.9602
 31
0.0
  0
LINE
  5
215
  8
_________1
 62
     7
 10
-60.543500000000002
 20
58.210799999999999
 30
0.0
 11
-58.862200000000001
 21
58.208999999999989
 31
0.0
  0
ARC
  5
216
  8
_________1
 62
     7
 10
-58.572592000000007
 20
57.399174000000002
 30
0.0
 40
2.1314310000000001
 50
157.61831599999999
 51
168.50632100000001
  0
ARC
  5
217
  8
_________1
 62
     7
 10
-59.608428000000004
 20
57.588391000000001
 30
0.0
 40
1.078867
 50
167.392202
 51
180.154653
  0
ARC
  5
218
  8
_________1
 62
     7
 10
-59.586011999999997
 20
56.580644999999997
 30
0.0
 40
1.029129999999999
 50
158.35817700000001
 51
167.30066400000001
  0
ARC
  5
219
  8
_________1
 62
     7
 10
-57.021915999999997
 20
56.021151000000003
 30
0.0
 40
3.65354
 50
167.58089899999999
 51
175.333822
  0
ARC
  5
21A
  8
_________1
 62
     7
 10
-53.016092999999998
 20
55.717084
 30
0.0
 40
7.6708569999999998
 50
175.504232
 51
180.050678
  0
ARC
  5
21B
  8
_________1
 62
     7
 10
-58.519379000000001
 20
57.787896999999987
 30
0.0
 40
2.1859790000000001
 50
191.61550199999999
 51
202.24969300000001
  0
ARC
  5
21C
  8
_________1
 62
     7
 10
-59.595064999999998
 20
57.587800999999999
 30
0.0
 40
1.0922279999999991
 50
180.121804
 51
192.69530800000001
  0
LINE
  5
21D
  8
_________1
 62
     7
 10
-60.686900000000001
 20
53.835099999999997
 30
0.0
 11
-60.5426
 21
53.210900000000002
 31
0.0
  0
ARC
  5
21E
  8
_________1
 62
     7
 10
-59.584040000000002
 20
54.841628
 30
0.0
 40
1.031833
 50
192.780068
 51
201.72308899999999
  0
ARC
  5
21F
  8
_________1
 62
     7
 10
-57.001243000000002
 20
55.402267000000002
 30
0.0
 40
3.6747449999999988
 50
184.688581
 51
192.39669799999999
  0
ARC
  5
220
  8
_________1
 62
     7
 10
-53.005229
 20
55.699263999999992
 30
0.0
 40
7.6817250000000001
 50
179.917652
 51
184.46013199999999
  0
ARC
  5
221
  8
_________1
 62
     7
 10
-58.587274999999998
 20
53.651566000000003
 30
0.0
 40
2.1157499999999989
 50
157.54405499999999
 51
168.505402
  0
ARC
  5
222
  8
_________1
 62
     7
 10
-59.606189000000001
 20
53.835963999999997
 30
0.0
 40
1.080757999999999
 50
167.320729
 51
180.02623199999999
  0
LINE
  5
223
  8
_________1
 62
     7
 10
-58.717500000000001
 20
57.584400000000002
 30
0.0
 11
-58.862200000000001
 21
58.208999999999989
 31
0.0
  0
ARC
  5
224
  8
_________1
 62
     7
 10
-59.809573999999998
 20
56.584431000000002
 30
0.0
 40
1.0175350000000001
 50
13.005912
 51
21.671498
  0
ARC
  5
225
  8
_________1
 62
     7
 10
-62.333119000000003
 20
56.023007999999997
 30
0.0
 40
3.6027519999999988
 50
4.707948
 51
12.673423
  0
ARC
  5
226
  8
_________1
 62
     7
 10
-66.530253000000002
 20
55.694299999999998
 30
0.0
 40
7.8127229999999992
 50
0.112305
 51
4.5840949999999987
  0
ARC
  5
227
  8
_________1
 62
     7
 10
-60.911532999999999
 20
57.799563999999997
 30
0.0
 40
2.2129379999999998
 50
337.70950900000003
 51
348.21044999999998
  0
ARC
  5
228
  8
_________1
 62
     7
 10
-59.800238999999998
 20
57.590992999999997
 30
0.0
 40
1.0827139999999991
 50
346.99927300000002
 51
359.65353800000003
  0
ARC
  5
229
  8
_________1
 62
     7
 10
-60.908991999999998
 20
54.045448999999998
 30
0.0
 40
2.208769999999999
 50
337.79956400000009
 51
348.29665100000011
  0
ARC
  5
22A
  8
_________1
 62
     7
 10
-59.806167000000002
 20
53.83761299999999
 30
0.0
 40
1.086902
 50
347.23244399999999
 51
359.886999
  0
ARC
  5
22B
  8
_________1
 62
     7
 10
-59.779492000000012
 20
54.823143999999992
 30
0.0
 40
0.986242
 50
338.44212399999998
 51
347.37132500000013
  0
ARC
  5
22C
  8
_________1
 62
     7
 10
-62.477241000000006
 20
55.413626000000001
 30
0.0
 40
3.7478489999999991
 50
347.57949000000002
 51
355.23413199999999
  0
ARC
  5
22D
  8
_________1
 62
     7
 10
-66.757754000000006
 20
55.733778000000001
 30
0.0
 40
8.0402450000000005
 50
355.49493899999999
 51
359.82780200000002
  0
LINE
  5
22E
  8
_________1
 62
     7
 10
-58.7194
 20
53.835099999999997
 30
0.0
 11
-58.862200000000001
 21
54.460799999999999
 31
0.0
  0
LINE
  5
22F
  8
_________1
 62
     7
 10
-41.650100000000002
 20
56.584699999999998
 30
0.0
 11
-41.650399999999998
 21
54.834600000000002
 31
0.0
  0
LINE
  5
230
  8
_________1
 62
     7
 10
-41.400100000000002
 20
56.834400000000002
 30
0.0
 11
-41.401899999999991
 21
54.586500000000001
 31
0.0
  0
LINE
  5
231
  8
_________1
 62
     7
 10
-30.3994
 20
56.834400000000002
 30
0.0
 11
-30.401299999999999
 21
54.586500000000001
 31
0.0
  0
LINE
  5
232
  8
_________1
 62
     7
 10
-26.651900000000001
 20
56.834400000000002
 30
0.0
 11
-26.651900000000001
 21
54.586500000000001
 31
0.0
  0
LINE
  5
233
  8
_________1
 62
     7
 10
-14.065200000000001
 20
57.336399999999998
 30
0.0
 11
-12.784800000000001
 21
54.085900000000002
 31
0.0
  0
LINE
  5
234
  8
_________1
 62
     7
 10
-15.1737
 20
57.335700000000003
 30
0.0
 11
-13.8955
 21
54.085900000000002
 31
0.0
  0
LINE
  5
235
  8
_________1
 62
     7
 10
-16.283000000000001
 20
57.334699999999998
 30
0.0
 11
-15.004
 21
54.0852
 31
0.0
  0
LINE
  5
236
  8
_________1
 62
     7
 10
-17.3932
 20
57.335700000000003
 30
0.0
 11
-16.113299999999999
 21
54.0852
 31
0.0
  0
LINE
  5
237
  8
_________1
 62
     7
 10
-18.503699999999998
 20
57.334699999999998
 30
0.0
 11
-17.223500000000001
 21
54.0852
 31
0.0
  0
LINE
  5
238
  8
_________1
 62
     7
 10
-19.613600000000002
 20
57.335700000000003
 30
0.0
 11
-18.332000000000001
 21
54.0852
 31
0.0
  0
LINE
  5
239
  8
_________1
 62
     7
 10
-20.722899999999999
 20
57.335700000000003
 30
0.0
 11
-19.442699999999999
 21
54.0852
 31
0.0
  0
LINE
  5
23A
  8
_________1
 62
     7
 10
-21.831700000000001
 20
57.334699999999998
 30
0.0
 11
-20.550599999999999
 21
54.0852
 31
0.0
  0
LINE
  5
23B
  8
_________1
 62
     7
 10
-22.941199999999998
 20
57.335700000000003
 30
0.0
 11
-21.661300000000001
 21
54.085900000000002
 31
0.0
  0
LINE
  5
23C
  8
_________1
 62
     7
 10
-24.050899999999999
 20
57.335700000000003
 30
0.0
 11
-22.770700000000001
 21
54.0852
 31
0.0
  0
LINE
  5
23D
  8
_________1
 62
     7
 10
-25.1616
 20
57.335700000000003
 30
0.0
 11
-23.881699999999999
 21
54.0852
 31
0.0
  0
LINE
  5
23E
  8
_________1
 62
     7
 10
-26.270900000000001
 20
57.335700000000003
 30
0.0
 11
-24.991399999999999
 21
54.085900000000002
 31
0.0
  0
LINE
  5
23F
  8
_________1
 62
     7
 10
-11.651400000000001
 20
55.709600000000002
 30
0.0
 11
-13.1523
 21
54.584800000000001
 31
0.0
  0
LINE
  5
240
  8
_________1
 62
     7
 10
-29.1509
 20
56.5854
 30
0.0
 11
-29.402000000000001
 21
56.835099999999997
 31
0.0
  0
LINE
  5
241
  8
_________1
 62
     7
 10
-29.402000000000001
 20
54.585500000000003
 30
0.0
 11
-29.151399999999999
 21
54.8352
 31
0.0
  0
LINE
  5
242
  8
_________1
 62
     7
 10
-26.651900000000001
 20
54.834600000000002
 30
0.0
 11
-29.151399999999999
 21
54.8352
 31
0.0
  0
LINE
  5
243
  8
_________1
 62
     7
 10
-26.651900000000001
 20
56.584699999999998
 30
0.0
 11
-29.1509
 21
56.5854
 31
0.0
  0
LINE
  5
244
  8
_________1
 62
     7
 10
-41.400100000000002
 20
56.834400000000002
 30
0.0
 11
-29.402000000000001
 21
56.835099999999997
 31
0.0
  0
LINE
  5
245
  8
_________1
 62
     7
 10
-41.401899999999991
 20
54.586500000000001
 30
0.0
 11
-29.402000000000001
 21
54.585500000000003
 31
0.0
  0
LINE
  5
246
  8
_________1
 62
     7
 10
-41.650399999999998
 20
54.834600000000002
 30
0.0
 11
-30.401599999999998
 21
54.834600000000002
 31
0.0
  0
LINE
  5
247
  8
_________1
 62
     7
 10
-41.650100000000002
 20
56.584699999999998
 30
0.0
 11
-30.401599999999998
 21
56.5854
 31
0.0
  0
LINE
  5
248
  8
_________1
 62
     7
 10
-41.650100000000002
 20
56.584699999999998
 30
0.0
 11
-41.400100000000002
 21
56.834400000000002
 31
0.0
  0
LINE
  5
249
  8
_________1
 62
     7
 10
-30.401599999999998
 20
56.5854
 30
0.0
 11
-30.150600000000001
 21
56.835099999999997
 31
0.0
  0
LINE
  5
24A
  8
_________1
 62
     7
 10
-30.401599999999998
 20
54.834600000000002
 30
0.0
 11
-30.150600000000001
 21
54.586500000000001
 31
0.0
  0
LINE
  5
24B
  8
_________1
 62
     7
 10
-41.401899999999991
 20
54.586500000000001
 30
0.0
 11
-41.650399999999998
 21
54.834600000000002
 31
0.0
  0
LINE
  5
24C
  8
_________1
 62
     7
 10
-13.1523
 20
56.836199999999998
 30
0.0
 11
-26.651900000000001
 21
56.835099999999997
 31
0.0
  0
LINE
  5
24D
  8
_________1
 62
     7
 10
-13.1523
 20
54.584800000000001
 30
0.0
 11
-26.651900000000001
 21
54.586500000000001
 31
0.0
  0
LINE
  5
24E
  8
_________1
 62
     7
 10
-13.1523
 20
56.836199999999998
 30
0.0
 11
-11.651400000000001
 21
55.709600000000002
 31
0.0
  0
LINE
  5
24F
  8
_________1
 62
     7
 10
-53.881500000000003
 20
59.459600000000002
 30
0.0
 11
-53.881500000000003
 21
51.959600000000002
 31
0.0
  0
LINE
  5
250
  8
_________1
 62
     7
 10
-54.381500000000003
 20
59.459600000000002
 30
0.0
 11
-53.881500000000003
 21
59.459600000000002
 31
0.0
  0
LINE
  5
251
  8
_________1
 62
     7
 10
-54.381500000000003
 20
51.959600000000002
 30
0.0
 11
-54.381500000000003
 21
59.459600000000002
 31
0.0
  0
LINE
  5
252
  8
_________1
 62
     7
 10
-53.881500000000003
 20
51.959600000000002
 30
0.0
 11
-54.381500000000003
 21
51.959600000000002
 31
0.0
  0
LINE
  5
253
  8
_________1
 62
     7
 10
-50.162500000000001
 20
58.772300000000001
 30
0.0
 11
-50.162500000000001
 21
52.646900000000002
 31
0.0
  0
LINE
  5
254
  8
_________1
 62
     7
 10
-50.412700000000001
 20
58.772300000000001
 30
0.0
 11
-50.162500000000001
 21
58.772300000000001
 31
0.0
  0
LINE
  5
255
  8
_________1
 62
     7
 10
-50.412700000000001
 20
52.646900000000002
 30
0.0
 11
-50.412700000000001
 21
58.772300000000001
 31
0.0
  0
LINE
  5
256
  8
_________1
 62
     7
 10
-50.162500000000001
 20
52.646900000000002
 30
0.0
 11
-50.412700000000001
 21
52.646900000000002
 31
0.0
  0
LINE
  5
257
  8
_________1
 62
     7
 10
-49.412599999999991
 20
60.459400000000002
 30
0.0
 11
-49.412599999999991
 21
50.959499999999998
 31
0.0
  0
LINE
  5
258
  8
_________1
 62
     7
 10
-50.162500000000001
 20
60.459400000000002
 30
0.0
 11
-49.412599999999991
 21
60.459400000000002
 31
0.0
  0
LINE
  5
259
  8
_________1
 62
     7
 10
-50.162500000000001
 20
50.959499999999998
 30
0.0
 11
-50.162500000000001
 21
60.459400000000002
 31
0.0
  0
LINE
  5
25A
  8
_________1
 62
     7
 10
-49.412599999999991
 20
50.959499999999998
 30
0.0
 11
-50.162500000000001
 21
50.959499999999998
 31
0.0
  0
LINE
  5
25B
  8
_________1
 62
     7
 10
-45.912399999999991
 20
57.334699999999998
 30
0.0
 11
-45.912399999999991
 21
54.084200000000003
 31
0.0
  0
LINE
  5
25C
  8
_________1
 62
     7
 10
-49.412599999999991
 20
57.334699999999998
 30
0.0
 11
-45.912399999999991
 21
57.334699999999998
 31
0.0
  0
LINE
  5
25D
  8
_________1
 62
     7
 10
-49.412599999999991
 20
54.084200000000003
 30
0.0
 11
-49.412599999999991
 21
57.334699999999998
 31
0.0
  0
LINE
  5
25E
  8
_________1
 62
     7
 10
-45.912399999999991
 20
54.084200000000003
 30
0.0
 11
-49.412599999999991
 21
54.084200000000003
 31
0.0
  0
TEXT
  5
25F
  8
_________2
 62
     7
 10
159.49600000000001
 20
103.04000000000001
 30
0.0
 40
3.9357000000000002
  1
6.1L
 41
0.5
  0
TEXT
  5
260
  8
_________2
 62
     7
 10
129.49600000000001
 20
102.899
 30
0.0
 40
3.9357000000000002
  1
実容量
 41
0.5
  0
LINE
  5
261
  8
_________2
 62
     7
 10
126.95699999999999
 20
108.554
 30
0.0
 11
286.959
 21
108.554
 31
0.0
  0
TEXT
  5
262
  8
_________2
 62
     7
 10
159.49600000000001
 20
110.80200000000001
 30
0.0
 40
3.9357000000000002
  1
あり
 41
0.5
  0
TEXT
  5
263
  8
_________2
 62
     7
 10
129.49600000000001
 20
118.42400000000001
 30
0.0
 40
3.9357000000000002
  1
分類
 41
0.5
  0
TEXT
  5
264
  8
_________2
 62
     7
 10
129.49600000000001
 20
126.187
 30
0.0
 40
3.9357000000000002
  1
用途
 41
0.5
  0
TEXT
  5
265
  8
_________2
 62
     7
 10
159.49600000000001
 20
126.187
 30
0.0
 40
3.9357000000000002
  1
一般住宅用（屋内用）
 41
0.5
  0
LINE
  5
266
  8
_________2
 62
     7
 10
156.95699999999999
 20
131.84100000000001
 30
0.0
 11
156.95699999999999
 21
61.980800000000002
 31
0.0
  0
LINE
  5
267
  8
_________2
 62
     7
 10
286.959
 20
131.84100000000001
 30
0.0
 11
126.95699999999999
 21
131.84100000000001
 31
0.0
  0
LINE
  5
268
  8
_________2
 62
     7
 10
126.95699999999999
 20
131.84100000000001
 30
0.0
 11
126.95699999999999
 21
61.980800000000002
 31
0.0
  0
LINE
  5
269
  8
_________2
 62
     7
 10
126.95699999999999
 20
61.980800000000002
 30
0.0
 11
286.959
 21
61.980800000000002
 31
0.0
  0
LINE
  5
26A
  8
_________2
 62
     7
 10
286.959
 20
61.980800000000002
 30
0.0
 11
286.959
 21
131.84100000000001
 31
0.0
  0
TEXT
  5
26B
  8
_________2
 62
     7
 10
159.49600000000001
 20
118.42400000000001
 30
0.0
 40
3.9357000000000002
  1
壁付
 41
0.5
  0
LINE
  5
26C
  8
_________2
 62
     7
 10
126.95699999999999
 20
124.07899999999999
 30
0.0
 11
286.959
 21
124.07899999999999
 31
0.0
  0
TEXT
  5
26D
  8
_________2
 62
     7
 10
129.49600000000001
 20
110.66200000000001
 30
0.0
 40
3.9357000000000002
  1
オーバーフロー
 41
0.5
  0
LINE
  5
26E
  8
_________2
 62
     7
 10
126.95699999999999
 20
116.316
 30
0.0
 11
286.959
 21
116.316
 31
0.0
  0
TEXT
  5
26F
  8
_________2
 62
     7
 10
129.49600000000001
 20
95.277799999999985
 30
0.0
 40
3.9357000000000002
  1
本体重量
 41
0.5
  0
TEXT
  5
270
  8
_________2
 62
     7
 10
129.49600000000001
 20
87.515600000000006
 30
0.0
 40
3.9357000000000002
  1
設置条件
 41
0.5
  0
TEXT
  5
271
  8
_________2
 62
     7
 10
159.49600000000001
 20
64.100499999999997
 30
0.0
 40
3.9357000000000002
  1
破損するおそれがありますので、60℃以上の熱湯を流さないでください。
 41
0.5
  0
LINE
  5
272
  8
_________2
 62
     7
 10
156.95699999999999
 20
69.742999999999995
 30
0.0
 11
286.959
 21
69.742999999999995
 31
0.0
  0
TEXT
  5
273
  8
_________2
 62
     7
 10
159.49600000000001
 20
71.862700000000004
 30
0.0
 40
3.9357000000000002
  1
水はねや水があふれるおそれがありますので、止水栓で適切な流量に調整してください。
 41
0.5
  0
LINE
  5
274
  8
_________2
 62
     7
 10
156.95699999999999
 20
77.505099999999999
 30
0.0
 11
286.959
 21
77.505099999999999
 31
0.0
  0
TEXT
  5
275
  8
_________2
 62
     7
 10
129.49600000000001
 20
79.624899999999997
 30
0.0
 40
3.9357000000000002
  1
特記事項
 41
0.5
  0
TEXT
  5
276
  8
_________2
 62
     7
 10
159.49600000000001
 20
95.277799999999985
 30
0.0
 40
3.9357000000000002
  1
25.0kg
 41
0.5
  0
LINE
  5
277
  8
_________2
 62
     7
 10
126.95699999999999
 20
100.792
 30
0.0
 11
286.959
 21
100.792
 31
0.0
  0
TEXT
  5
278
  8
_________2
 62
     7
 10
159.49600000000001
 20
87.515600000000006
 30
0.0
 40
3.9357000000000002
  1
壁面の仕上げは厚さ13mm以下とし、取付部には厚さ30mm以上の補強木を入れてください。
 41
0.5
  0
TEXT
  5
27B
  8
_________2
 62
     7
 10
159.49600000000001
 20
79.624899999999997
 30
0.0
 40
3.9357000000000002
  1
陶器製品は製造の過程で寸法公差や反りが生じます。
 41
0.5
  0
LINE
  5
27C
  8
_________2
 62
     7
 10
126.95699999999999
 20
93.029499999999999
 30
0.0
 11
286.959
 21
93.029499999999999
 31
0.0
  0
LINE
  5
27D
  8
_________2
 62
     7
 10
126.95699999999999
 20
85.267300000000006
 30
0.0
 11
286.959
 21
85.267300000000006
 31
0.0
  0
TEXT
  5
27E
  8
_________2
 62
     7
 10
200.0002361666667
 20
34.465299999999999
 30
0.0
 40
3.6545800000000002
  1
1 ： 10
 41
0.5
 72
     1
 11
203.86799999999999
 21
34.465299999999999
 31
0.0
  0
TEXT
  5
27F
  8
_________2
 62
     7
 10
248.37438750000001
 20
30.3553
 30
0.0
 40
3.9357000000000002
  1
SB5120
 41
0.5
 72
     1
 11
253.458
 21
30.3553
 31
0.0
  0
TEXT
  5
280
  8
_________2
 62
     7
 10
149.27189066666671
 20
34.850499999999997
 30
0.0
 40
3.6545800000000002
  1
井伊
 41
0.5
 72
     1
 11
151.221
 21
34.850499999999997
 31
0.0
  0
TEXT
  5
281
  8
_________2
 62
     7
 10
130.69789066666669
 20
34.850499999999997
 30
0.0
 40
3.6545800000000002
  1
飯塚
 41
0.5
 72
     1
 11
132.64699999999999
 21
34.850499999999997
 31
0.0
  0
TEXT
  5
282
  8
_________2
 62
     7
 10
177.69399999999999
 20
34.465299999999999
 30
0.0
 40
3.6545800000000002
  1
20.03.25
 41
0.5
  0
TEXT
  5
283
  8
_________2
 62
     7
 10
290.64778333333328
 20
12.808299999999999
 30
0.0
 40
3.3734599999999988
  1
A3
 41
0.5
 72
     2
 11
293.459
 21
12.808299999999999
 31
0.0
  0
LINE
  5
284
  8
_________2
 62
     7
 10
315.209
 20
148.65899999999999
 30
0.0
 11
293.459
 21
148.65899999999999
 31
0.0
  0
LINE
  5
285
  8
_________2
 62
     7
 10
105.20699999999999
 20
17.156300000000002
 30
0.0
 11
105.20699999999999
 21
0.176045
 31
0.0
  0
LINE
  5
286
  8
_________2
 62
     7
 10
105.20699999999999
 20
297.178
 30
0.0
 11
105.20699999999999
 21
280.15800000000002
 31
0.0
  0
LINE
  5
287
  8
_________2
 62
     7
 10
-83.043899999999994
 20
148.65899999999999
 30
0.0
 11
-104.794
 21
148.65899999999999
 31
0.0
  0
INSERT
  5
288
  8
_________2
 62
     7
  2
AIGNBL03010002
 10
0.0
 20
0.0
 30
0.0
  0
TEXT
  5
289
  8
_________2
 62
     7
 10
214.51300000000001
 20
22.9269
 30
0.0
 40
3.0923400000000001
  1
図番
 41
0.5
  0
LINE
  5
28A
  8
_________2
 62
     7
 10
213.458
 20
27.156099999999999
 30
0.0
 11
293.459
 21
27.156099999999999
 31
0.0
  0
TEXT
  5
28B
  8
_________2
 62
     7
 10
214.51300000000001
 20
32.926699999999997
 30
0.0
 40
3.0923400000000001
  1
品番
 41
0.5
  0
TEXT
  5
28C
  8
_________2
 62
     7
 10
214.51300000000001
 20
53.0655
 30
0.0
 40
3.0923400000000001
  1
名称
 41
0.5
  0
TEXT
  5
28D
  8
_________2
 62
     7
 10
201.75325833333329
 20
48.069400000000002
 30
0.0
 40
3.6545800000000002
  1
mm
 41
0.5
 72
     1
 11
203.27600000000001
 21
48.069400000000002
 31
0.0
  0
TEXT
  5
28E
  8
_________2
 62
     7
 10
195.55099999999999
 20
53.0655
 30
0.0
 40
3.0923400000000001
  1
単位
 41
0.5
  0
TEXT
  5
28F
  8
_________2
 62
     7
 10
195.55099999999999
 20
40.658200000000001
 30
0.0
 40
3.0923400000000001
  1
尺度
 41
0.5
  0
TEXT
  5
290
  8
_________2
 62
     7
 10
248.37438750000001
 20
20.354800000000001
 30
0.0
 40
3.9357000000000002
  1
SB5120
 41
0.5
 72
     1
 11
253.458
 21
20.354800000000001
 31
0.0
  0
TEXT
  5
291
  8
_________2
 62
     7
 10
219.08699999999999
 20
45.473100000000002
 30
0.0
 40
3.9357000000000002
  1
TR2 洗面器
 41
0.5
  0
TEXT
  5
292
  8
_________2
 62
     7
 10
176.501
 20
40.658200000000001
 30
0.0
 40
3.0923400000000001
  1
日付
 41
0.5
  0
TEXT
  5
293
  8
_________2
 62
     7
 10
139.547
 20
40.658200000000001
 30
0.0
 40
3.0923400000000001
  1
検図
 41
0.5
  0
TEXT
  5
294
  8
_________2
 62
     7
 10
127.929
 20
26.4588
 30
0.0
 40
3.0923400000000001
  1
備考
 41
0.5
  0
TEXT
  5
295
  8
_________2
 62
     7
 10
127.929
 20
40.658200000000001
 30
0.0
 40
3.0923400000000001
  1
製図
 41
0.5
  0
TEXT
  5
296
  8
_________2
 62
     7
 10
133.69596533333331
 20
49.184199999999997
 30
0.0
 40
4.4979399999999989
  1
セラトレーディング株式会社
 41
0.5
 72
     1
 11
151.08799999999999
 21
49.184199999999997
 31
0.0
  0
LINE
  5
297
  8
_________2
 62
     7
 10
293.459
 20
17.156300000000002
 30
0.0
 11
-83.043899999999994
 21
17.156300000000002
 31
0.0
  0
LINE
  5
298
  8
_________2
 62
     7
 10
-83.043899999999994
 20
17.156300000000002
 30
0.0
 11
-83.043899999999994
 21
280.15800000000002
 31
0.0
  0
LINE
  5
299
  8
_________2
 62
     7
 10
-83.043899999999994
 20
280.15800000000002
 30
0.0
 11
293.459
 21
280.15800000000002
 31
0.0
  0
LINE
  5
29A
  8
_________2
 62
     7
 10
293.459
 20
280.15800000000002
 30
0.0
 11
293.459
 21
17.156300000000002
 31
0.0
  0
LINE
  5
29B
  8
_________2
 62
     7
 10
175.458
 20
30.656400000000001
 30
0.0
 11
175.458
 21
57.156199999999998
 31
0.0
  0
LINE
  5
29C
  8
_________2
 62
     7
 10
194.458
 20
30.656400000000001
 30
0.0
 11
194.458
 21
57.156199999999998
 31
0.0
  0
LINE
  5
29D
  8
_________2
 62
     7
 10
126.95699999999999
 20
17.156300000000002
 30
0.0
 11
126.95699999999999
 21
57.156199999999998
 31
0.0
  0
LINE
  5
29E
  8
_________2
 62
     7
 10
213.458
 20
17.156300000000002
 30
0.0
 11
213.458
 21
57.156199999999998
 31
0.0
  0
LINE
  5
29F
  8
_________2
 62
     7
 10
138.45699999999999
 20
30.656400000000001
 30
0.0
 11
138.45699999999999
 21
44.65659999999999
 31
0.0
  0
LINE
  5
2A0
  8
_________2
 62
     7
 10
126.95699999999999
 20
30.656400000000001
 30
0.0
 11
213.458
 21
30.656400000000001
 31
0.0
  0
LINE
  5
2A1
  8
_________2
 62
     7
 10
126.95699999999999
 20
44.65659999999999
 30
0.0
 11
213.458
 21
44.65659999999999
 31
0.0
  0
LINE
  5
2A2
  8
_________2
 62
     7
 10
213.458
 20
37.15590000000001
 30
0.0
 11
293.459
 21
37.15590000000001
 31
0.0
  0
LINE
  5
2A3
  8
_________2
 62
     7
 10
126.95699999999999
 20
57.156199999999998
 30
0.0
 11
293.459
 21
57.156199999999998
 31
0.0
  0
ENDSEC
  0
EOF
