  0
SECTION
  2
HEADER
  9
$ACADVER
  1
AC1009
  9
$INSBASE
 10
0.0
 20
0.0
 30
0.0
  9
$EXTMIN
 10
-104.794
 20
0.176045
 30
0.0
  9
$EXTMAX
 10
315.209
 20
297.178
 30
0.0
  9
$LIMMIN
 10
0.0
 20
0.0
  9
$LIMMAX
 10
12.0
 20
9.0
  9
$ORTHOMODE
 70
     0
  9
$REGENMODE
 70
     1
  9
$FILLMODE
 70
     1
  9
$QTEXTMODE
 70
     0
  9
$MIRRTEXT
 70
     1
  9
$DRAGMODE
 70
     2
  9
$LTSCALE
 40
1.0
  9
$OSMODE
 70
    37
  9
$ATTMODE
 70
     1
  9
$TEXTSIZE
 40
0.0
  9
$TRACEWID
 40
0.05
  9
$TEXTSTYLE
  7
STANDARD
  9
$CLAYER
  8
0
  9
$CELTYPE
  6
CONTINUOUS
  9
$CECOLOR
 62
   256
  9
$DIMSCALE
 40
1.0
  9
$DIMASZ
 40
0.18
  9
$DIMEXO
 40
0.0625
  9
$DIMDLI
 40
0.38
  9
$DIMRND
 40
0.0
  9
$DIMDLE
 40
0.0
  9
$DIMEXE
 40
0.18
  9
$DIMTP
 40
0.0
  9
$DIMTM
 40
0.0
  9
$DIMTXT
 40
0.18
  9
$DIMCEN
 40
0.09
  9
$DIMTSZ
 40
0.0
  9
$DIMTOL
 70
     0
  9
$DIMLIM
 70
     0
  9
$DIMTIH
 70
     1
  9
$DIMTOH
 70
     1
  9
$DIMSE1
 70
     0
  9
$DIMSE2
 70
     0
  9
$DIMTAD
 70
     0
  9
$DIMZIN
 70
     0
  9
$DIMBLK
  1

  9
$DIMASO
 70
     1
  9
$DIMSHO
 70
     1
  9
$DIMPOST
  1

  9
$DIMAPOST
  1

  9
$DIMALT
 70
     0
  9
$DIMALTD
 70
     2
  9
$DIMALTF
 40
25.399999999999999
  9
$DIMLFAC
 40
1.0
  9
$DIMTOFL
 70
     0
  9
$DIMTVP
 40
0.0
  9
$DIMTIX
 70
     0
  9
$DIMSOXD
 70
     0
  9
$DIMSAH
 70
     0
  9
$DIMBLK1
  1

  9
$DIMBLK2
  1

  9
$DIMSTYLE
  2
STANDARD
  9
$DIMCLRD
 70
     0
  9
$DIMCLRE
 70
     0
  9
$DIMCLRT
 70
     0
  9
$DIMTFAC
 40
1.0
  9
$DIMGAP
 40
0.09
  9
$LUNITS
 70
     2
  9
$LUPREC
 70
     4
  9
$SKETCHINC
 40
0.1
  9
$FILLETRAD
 40
0.0
  9
$AUNITS
 70
     0
  9
$AUPREC
 70
     0
  9
$MENU
  1
.
  9
$ELEVATION
 40
0.0
  9
$PELEVATION
 40
0.0
  9
$THICKNESS
 40
0.0
  9
$LIMCHECK
 70
     0
  9
$BLIPMODE
 70
     0
  9
$CHAMFERA
 40
0.0
  9
$CHAMFERB
 40
0.0
  9
$SKPOLY
 70
     0
  9
$TDCREATE
 40
2444972.375
  9
$TDUPDATE
 40
2459033.24784132
  9
$TDINDWG
 40
0.0000403125
  9
$TDUSRTIMER
 40
0.0000403125
  9
$USRTIMER
 70
     1
  9
$ANGBASE
 50
0.0
  9
$ANGDIR
 70
     0
  9
$PDMODE
 70
     0
  9
$PDSIZE
 40
0.0
  9
$PLINEWID
 40
0.0
  9
$COORDS
 70
     1
  9
$SPLFRAME
 70
     0
  9
$SPLINETYPE
 70
     6
  9
$SPLINESEGS
 70
     8
  9
$ATTDIA
 70
     1
  9
$ATTREQ
 70
     1
  9
$HANDLING
 70
     1
  9
$HANDSEED
  5
35D
  9
$SURFTAB1
 70
     6
  9
$SURFTAB2
 70
     6
  9
$SURFTYPE
 70
     6
  9
$SURFU
 70
     6
  9
$SURFV
 70
     6
  9
$UCSNAME
  2

  9
$UCSORG
 10
0.0
 20
0.0
 30
0.0
  9
$UCSXDIR
 10
1.0
 20
0.0
 30
0.0
  9
$UCSYDIR
 10
0.0
 20
1.0
 30
0.0
  9
$PUCSNAME
  2

  9
$PUCSORG
 10
0.0
 20
0.0
 30
0.0
  9
$PUCSXDIR
 10
1.0
 20
0.0
 30
0.0
  9
$PUCSYDIR
 10
0.0
 20
1.0
 30
0.0
  9
$USERI1
 70
     0
  9
$USERI2
 70
     0
  9
$USERI3
 70
     0
  9
$USERI4
 70
     0
  9
$USERI5
 70
     0
  9
$USERR1
 40
0.0
  9
$USERR2
 40
0.0
  9
$USERR3
 40
0.0
  9
$USERR4
 40
0.0
  9
$USERR5
 40
0.0
  9
$WORLDVIEW
 70
     1
  9
$SHADEDGE
 70
     3
  9
$SHADEDIF
 70
    70
  9
$TILEMODE
 70
     1
  9
$MAXACTVP
 70
    48
  9
$PLIMCHECK
 70
     0
  9
$PEXTMIN
 10
1.0000000000000000E+020
 20
1.0000000000000000E+020
 30
1.0000000000000000E+020
  9
$PEXTMAX
 10
-1.0000000000000000E+020
 20
-1.0000000000000000E+020
 30
-1.0000000000000000E+020
  9
$PLIMMIN
 10
0.0
 20
0.0
  9
$PLIMMAX
 10
12.0
 20
9.0
  9
$UNITMODE
 70
     0
  9
$VISRETAIN
 70
     1
  9
$PLINEGEN
 70
     0
  9
$PSLTSCALE
 70
     1
  0
ENDSEC
  0
SECTION
  2
TABLES
  0
TABLE
  2
VPORT
 70
     1
  0
VPORT
  2
*ACTIVE
 70
     0
 10
0.0
 20
0.0
 11
1.0
 21
1.0
 12
165.63430585535349
 22
148.589
 13
0.0
 23
0.0
 14
1.0
 24
1.0
 15
0.0
 25
0.0
 16
0.0
 26
0.0
 36
1.0
 17
0.0
 27
0.0
 37
0.0
 40
279.17601342455151
 41
2.0982367758186391
 42
50.0
 43
0.0
 44
0.0
 50
0.0
 51
0.0
 71
     0
 72
   100
 73
     1
 74
     1
 75
     0
 76
     0
 77
     0
 78
     0
  0
ENDTAB
  0
TABLE
  2
LTYPE
 70
     4
  0
LTYPE
  2
CONTINUOUS
 70
     0
  3
Solid line
 72
    65
 73
     0
 40
0.0
  0
LTYPE
  2
AIGENLINE001
 70
     0
  3
generate AI->DXF Converter
 72
    65
 73
     6
 40
7.4083750000000004
 49
3.5278
 49
-0.776115
 49
0.776115
 49
-0.776115
 49
0.776115
 49
-0.776115
  0
LTYPE
  2
AIGENLINE002
 70
     0
  3
generate AI->DXF Converter
 72
    65
 73
     2
 40
1.5522299999999991
 49
0.776115
 49
-0.776115
  0
LTYPE
  2
AIGENLINE003
 70
     0
  3
generate AI->DXF Converter
 72
    65
 73
     4
 40
5.8561449999999988
 49
3.5278
 49
-0.776115
 49
0.776115
 49
-0.776115
  0
ENDTAB
  0
TABLE
  2
LAYER
 70
     4
  0
LAYER
  2
0
 70
     0
 62
     7
  6
CONTINUOUS
  0
LAYER
  2
____
 70
     0
 62
     7
  6
CONTINUOUS
  0
LAYER
  2
_________1
 70
     0
 62
     7
  6
CONTINUOUS
  0
LAYER
  2
_________2
 70
     0
 62
     7
  6
CONTINUOUS
  0
ENDTAB
  0
TABLE
  2
STYLE
 70
     1
  0
STYLE
  2
STANDARD
 70
     0
 40
0.0
 41
0.0
 50
0.0
 71
     0
 42
0.0
  3
TXT
  4
EXTFONT.SHX
  0
ENDTAB
  0
TABLE
  2
VIEW
 70
     0
  0
ENDTAB
  0
TABLE
  2
UCS
 70
     0
  0
ENDTAB
  0
TABLE
  2
APPID
 70
     3
  0
APPID
  2
ACAD
 70
     0
  0
APPID
  2
ACAD_NAV_VCDISPLAY
 70
     0
  0
APPID
  2
ACAD_MLEADERVER
 70
     0
  0
ENDTAB
  0
TABLE
  2
DIMSTYLE
 70
     1
  0
DIMSTYLE
  2
STANDARD
 70
     0
  3

  4

  5

  6

  7

 40
1.0
 41
0.18
 42
0.0625
 43
0.38
 44
0.18
 45
0.0
 46
0.0
 47
0.0
 48
0.0
140
0.18
141
0.09
142
0.0
143
25.399999999999999
144
1.0
145
0.0
146
1.0
147
0.09
 71
     0
 72
     0
 73
     1
 74
     1
 75
     0
 76
     0
 77
     0
 78
     0
170
     0
171
     2
172
     0
173
     0
174
     0
175
     0
176
     0
177
     0
178
     0
  0
ENDTAB
  0
ENDSEC
  0
SECTION
  2
BLOCKS
  0
BLOCK
  8
0
  2
$MODEL_SPACE
 70
     0
 10
0.0
 20
0.0
 30
0.0
  3
$MODEL_SPACE
  1

  0
ENDBLK
  5
1A
  8
0
  0
BLOCK
 67
     1
  8
0
  2
$PAPER_SPACE
 70
     0
 10
0.0
 20
0.0
 30
0.0
  3
$PAPER_SPACE
  1

  0
ENDBLK
  5
17
 67
     1
  8
0
  0
BLOCK
  8
____
  2
AIGNBL01010002
 70
     0
 10
0.0
 20
0.0
 30
0.0
  3
AIGNBL01010002
  1

  0
TEXT
  5
28
  8
____
 62
     7
 10
103.185292
 20
145.011
 30
0.0
 40
3.0923400000000001
  1
壁仕上げ面
 41
0.5
 72
     2
 11
112.05
 21
145.011
 31
0.0
  0
ENDBLK
  5
29
  8
____
  0
BLOCK
  8
____
  2
AIGNBL01010003
 70
     0
 10
0.0
 20
0.0
 30
0.0
  3
AIGNBL01010003
  1

  0
TEXT
  5
2C
  8
____
 62
     7
 10
-40.537111999999993
 20
241.93600000000001
 30
0.0
 40
3.0923400000000001
  1
メーカーロゴ
 41
0.5
 72
     2
 11
-29.817
 21
241.93600000000001
 31
0.0
  0
ENDBLK
  5
2D
  8
____
  0
BLOCK
  8
____
  2
AIGNBL01010004
 70
     0
 10
0.0
 20
0.0
 30
0.0
  3
AIGNBL01010004
  1

  0
TEXT
  5
30
  8
____
 62
     7
 10
9.1598800000000011
 20
213.88499999999999
 30
0.0
 40
3.0923400000000001
  1
%%c45
 41
0.5
  0
ENDBLK
  5
31
  8
____
  0
BLOCK
  8
____
  2
AIGNBL01010005
 70
     0
 10
0.0
 20
0.0
 30
0.0
  3
AIGNBL01010005
  1

  0
TEXT
  5
34
  8
____
 62
     7
 10
5.4469000000000003
 20
237.09800000000001
 30
0.0
 40
3.0923400000000001
  1
%%c35
 41
0.5
  0
ENDBLK
  5
35
  8
____
  0
BLOCK
  8
____
  2
AIGNBL01010006
 70
     0
 10
0.0
 20
0.0
 30
0.0
  3
AIGNBL01010006
  1

  0
TEXT
  5
38
  8
____
 62
     7
 10
39.619235000000003
 20
250.56
 30
0.0
 40
3.0923400000000001
  1
400
 41
0.5
 72
     1
 11
41.423099999999998
 21
250.56
 31
0.0
  0
ENDBLK
  5
39
  8
____
  0
BLOCK
  8
____
  2
AIGNBL01010007
 70
     0
 10
0.0
 20
0.0
 30
0.0
  3
AIGNBL01010007
  1

  0
TEXT
  5
3C
  8
____
 62
     7
 10
45.980960000000003
 20
109.199
 30
0.0
 40
3.0923400000000001
  1
(255)
 41
0.5
 72
     1
 11
49.073300000000003
 21
109.199
 31
0.0
  0
ENDBLK
  5
3D
  8
____
  0
BLOCK
  8
____
  2
AIGNBL01010008
 70
     0
 10
0.0
 20
0.0
 30
0.0
  3
AIGNBL01010008
  1

  0
TEXT
  5
40
  8
____
 62
     7
 10
-49.520139999999998
 20
109.199
 30
0.0
 40
3.0923400000000001
  1
(255)
 41
0.5
 72
     1
 11
-46.427799999999998
 21
109.199
 31
0.0
  0
ENDBLK
  5
41
  8
____
  0
BLOCK
  8
____
  2
AIGNBL01010009
 70
     0
 10
0.0
 20
0.0
 30
0.0
  3
AIGNBL01010009
  1

  0
TEXT
  5
44
  8
____
 62
     7
 10
-1.5117149999999999
 20
109.199
 30
0.0
 40
3.0923400000000001
  1
(700)
 41
0.5
 72
     1
 11
1.3229299999999991
 21
109.199
 31
0.0
  0
ENDBLK
  5
45
  8
____
  0
BLOCK
  8
____
  2
AIGNBL0101000A
 70
     0
 10
0.0
 20
0.0
 30
0.0
  3
AIGNBL0101000A
  1

  0
TEXT
  5
48
  8
____
 62
     7
 10
-67.463800000000006
 20
139.29118500000001
 30
0.0
 40
3.0923400000000001
  1
(60)
 50
90.0
 41
0.5
 72
     2
 11
-67.463800000000006
 21
143.672
 31
0.0
  0
ENDBLK
  5
49
  8
____
  0
BLOCK
  8
____
  2
AIGNBL0101000B
 70
     0
 10
0.0
 20
0.0
 30
0.0
  3
AIGNBL0101000B
  1

  0
TEXT
  5
4C
  8
____
 62
     7
 10
70.808499999999995
 20
225.28498250000001
 30
0.0
 40
3.0923400000000001
  1
130
 50
90.0
 41
0.5
 72
     1
 11
70.808499999999995
 21
226.96000000000001
 31
0.0
  0
ENDBLK
  5
4D
  8
____
  0
BLOCK
  8
____
  2
AIGNBL0101000C
 70
     0
 10
0.0
 20
0.0
 30
0.0
  3
AIGNBL0101000C
  1

  0
TEXT
  5
50
  8
____
 62
     7
 10
29.2258
 20
237.19305
 30
0.0
 40
3.0923400000000001
  1
65
 50
90.0
 41
0.5
 72
     2
 11
29.2258
 21
239.77000000000001
 31
0.0
  0
ENDBLK
  5
51
  8
____
  0
BLOCK
  8
____
  2
AIGNBL0101000D
 70
     0
 10
0.0
 20
0.0
 30
0.0
  3
AIGNBL0101000D
  1

  0
TEXT
  5
54
  8
____
 62
     7
 10
100.6192875
 20
109.199
 30
0.0
 40
3.0923400000000001
  1
260
 41
0.5
 72
     1
 11
102.55200000000001
 21
109.199
 31
0.0
  0
ENDBLK
  5
55
  8
____
  0
BLOCK
  8
____
  2
AIGNBL0101000E
 70
     0
 10
0.0
 20
0.0
 30
0.0
  3
AIGNBL0101000E
  1

  0
TEXT
  5
58
  8
____
 62
     7
 10
84.140799999999999
 20
128.6143725
 30
0.0
 40
3.0923400000000001
  1
90
 50
90.0
 41
0.5
 72
     1
 11
84.140799999999999
 21
129.774
 31
0.0
  0
ENDBLK
  5
59
  8
____
  0
BLOCK
  8
____
  2
AIGNBL0101000F
 70
     0
 10
0.0
 20
0.0
 30
0.0
  3
AIGNBL0101000F
  1

  0
TEXT
  5
5C
  8
____
 62
     7
 10
20.019034999999999
 20
176.488
 30
0.0
 40
3.0923400000000001
  1
800
 41
0.5
 72
     1
 11
21.822900000000001
 21
176.488
 31
0.0
  0
ENDBLK
  5
5D
  8
____
  0
BLOCK
  8
____
  2
AIGNBL01010010
 70
     0
 10
0.0
 20
0.0
 30
0.0
  3
AIGNBL01010010
  1

  0
TEXT
  5
60
  8
____
 62
     7
 10
-74.352500000000006
 20
125.59898250000001
 30
0.0
 40
3.0923400000000001
  1
140
 50
90.0
 41
0.5
 72
     1
 11
-74.352500000000006
 21
127.274
 31
0.0
  0
ENDBLK
  5
61
  8
____
  0
BLOCK
  8
____
  2
AIGNBL01010011
 70
     0
 10
0.0
 20
0.0
 30
0.0
  3
AIGNBL01010011
  1

  0
TEXT
  5
64
  8
____
 62
     7
 10
80.161199999999994
 20
208.5272875
 30
0.0
 40
3.0923400000000001
  1
460
 50
90.0
 41
0.5
 72
     1
 11
80.161199999999994
 21
210.46000000000001
 31
0.0
  0
ENDBLK
  5
65
  8
____
  0
BLOCK
  8
____
  2
AIGNBL01010012
 70
     0
 10
0.0
 20
0.0
 30
0.0
  3
AIGNBL01010012
  1

  0
TEXT
  5
68
  8
____
 62
     7
 10
-0.8676574999999999
 20
167.119
 30
0.0
 40
3.0923400000000001
  1
1210
 41
0.5
 72
     1
 11
1.3227500000000001
 21
167.119
 31
0.0
  0
ENDBLK
  5
69
  8
____
  0
BLOCK
  8
____
  2
AIGNBL01010013
 70
     0
 10
0.0
 20
0.0
 30
0.0
  3
AIGNBL01010013
  1

  0
TEXT
  5
6C
  8
____
 62
     7
 10
-42.614782999999989
 20
78.712000000000003
 30
0.0
 40
3.0923400000000001
  1
取付ボルト\U+00D72セット付（尺度1：4）
 41
0.5
 72
     1
 11
-27.307700000000001
 21
78.712000000000003
 31
0.0
  0
ENDBLK
  5
6D
  8
____
  0
BLOCK
  8
____
  2
AIGNBL01010014
 70
     0
 10
0.0
 20
0.0
 30
0.0
  3
AIGNBL01010014
  1

  0
TEXT
  5
70
  8
____
 62
     7
 10
-20.310527499999999
 20
64.462599999999995
 30
0.0
 40
3.0923400000000001
  1
60
 41
0.5
 72
     1
 11
-19.1509
 21
64.462599999999995
 31
0.0
  0
ENDBLK
  5
71
  8
____
  0
BLOCK
  8
____
  2
AIGNBL01010015
 70
     0
 10
0.0
 20
0.0
 30
0.0
  3
AIGNBL01010015
  1

  0
TEXT
  5
74
  8
____
 62
     7
 10
-29.656580000000002
 20
64.461600000000004
 30
0.0
 40
3.0923400000000001
  1
15
 41
0.5
 72
     1
 11
-28.625800000000002
 21
64.461600000000004
 31
0.0
  0
ENDBLK
  5
75
  8
____
  0
BLOCK
  8
____
  2
AIGNBL01010016
 70
     0
 10
0.0
 20
0.0
 30
0.0
  3
AIGNBL01010016
  1

  0
TEXT
  5
78
  8
____
 62
     7
 10
-37.314275000000002
 20
64.461600000000004
 30
0.0
 40
3.0923400000000001
  1
45
 41
0.5
 72
     1
 11
-36.025799999999997
 21
64.461600000000004
 31
0.0
  0
ENDBLK
  5
79
  8
____
  0
BLOCK
  8
____
  2
AIGNBL01010017
 70
     0
 10
0.0
 20
0.0
 30
0.0
  3
AIGNBL01010017
  1

  0
TEXT
  5
7C
  8
____
 62
     7
 10
-38.156659500000011
 20
72.992000000000004
 30
0.0
 40
3.0923400000000001
  1
※%%c12\U+00D760樹脂プラグ付
 41
0.5
 72
     1
 11
-27.307700000000001
 21
72.992000000000004
 31
0.0
  0
ENDBLK
  5
7D
  8
____
  0
BLOCK
  8
_________1
  2
AIGNBL02010002
 70
     0
 10
0.0
 20
0.0
 30
0.0
  3
AIGNBL02010002
  1

  0
LINE
  5
80
  8
_________1
 62
     7
 10
-52.8431
 20
232.96299999999999
 30
0.0
 11
-54.626000000000012
 21
231.52699999999999
 31
0.0
  0
LINE
  5
81
  8
_________1
 62
     7
 10
-54.626000000000012
 20
231.52699999999999
 30
0.0
 11
-53.800199999999997
 21
233.66200000000001
 31
0.0
  0
LINE
  5
82
  8
_________1
 62
     7
 10
-53.800199999999997
 20
233.66200000000001
 30
0.0
 11
-52.8431
 21
232.96299999999999
 31
0.0
  0
LINE
  5
83
  8
_________1
 62
     7
 10
-54.626000000000012
 20
231.52699999999999
 30
0.0
 11
-47.535200000000003
 21
241.23599999999999
 31
0.0
  0
ENDBLK
  5
84
  8
_________1
  0
BLOCK
  8
_________1
  2
AIGNBL02010003
 70
     0
 10
0.0
 20
0.0
 30
0.0
  3
AIGNBL02010003
  1

  0
LINE
  5
87
  8
_________1
 62
     7
 10
18.2865
 20
211.03299999999999
 30
0.0
 11
19.4315
 21
209.05099999999999
 31
0.0
  0
LINE
  5
88
  8
_________1
 62
     7
 10
19.4315
 20
209.05099999999999
 30
0.0
 11
17.448499999999999
 21
210.19499999999999
 31
0.0
  0
LINE
  5
89
  8
_________1
 62
     7
 10
17.448499999999999
 20
210.19499999999999
 30
0.0
 11
18.2865
 21
211.03299999999999
 31
0.0
  0
LINE
  5
8A
  8
_________1
 62
     7
 10
23.758199999999999
 20
203.886
 30
0.0
 11
22.613199999999999
 21
205.869
 31
0.0
  0
LINE
  5
8B
  8
_________1
 62
     7
 10
22.613199999999999
 20
205.869
 30
0.0
 11
24.5962
 21
204.72399999999999
 31
0.0
  0
LINE
  5
8C
  8
_________1
 62
     7
 10
24.5962
 20
204.72399999999999
 30
0.0
 11
23.758199999999999
 21
203.886
 31
0.0
  0
LINE
  5
8D
  8
_________1
 62
     7
 10
26.321400000000001
 20
202.161
 30
0.0
 11
15.297000000000001
 21
213.185
 31
0.0
  0
ENDBLK
  5
8E
  8
_________1
  0
BLOCK
  8
_________1
  2
AIGNBL02010004
 70
     0
 10
0.0
 20
0.0
 30
0.0
  3
AIGNBL02010004
  1

  0
LINE
  5
91
  8
_________1
 62
     7
 10
59.612900000000003
 20
250.44499999999999
 30
0.0
 11
61.8245
 21
249.85300000000001
 31
0.0
  0
LINE
  5
92
  8
_________1
 62
     7
 10
61.8245
 20
249.85300000000001
 30
0.0
 11
59.612900000000003
 21
249.25999999999999
 31
0.0
  0
LINE
  5
93
  8
_________1
 62
     7
 10
59.612900000000003
 20
249.25999999999999
 30
0.0
 11
59.612900000000003
 21
250.44499999999999
 31
0.0
  0
LINE
  5
94
  8
_________1
 62
     7
 10
23.233000000000001
 20
249.27500000000001
 30
0.0
 11
21.0214
 21
249.86699999999999
 31
0.0
  0
LINE
  5
95
  8
_________1
 62
     7
 10
21.0214
 20
249.86699999999999
 30
0.0
 11
23.233000000000001
 21
250.46000000000001
 31
0.0
  0
LINE
  5
96
  8
_________1
 62
     7
 10
23.233000000000001
 20
250.46000000000001
 30
0.0
 11
23.233000000000001
 21
249.27500000000001
 31
0.0
  0
LINE
  5
97
  8
_________1
 62
     7
 10
61.823700000000002
 20
249.86000000000001
 30
0.0
 11
21.022300000000001
 21
249.86000000000001
 31
0.0
  0
ENDBLK
  5
98
  8
_________1
  0
BLOCK
  8
_________1
  2
AIGNBL02010005
 70
     0
 10
0.0
 20
0.0
 30
0.0
  3
AIGNBL02010005
  1

  0
LINE
  5
9B
  8
_________1
 62
     7
 10
18.639600000000002
 20
230.18000000000001
 30
0.0
 11
19.784600000000001
 21
228.197
 31
0.0
  0
LINE
  5
9C
  8
_________1
 62
     7
 10
19.784600000000001
 20
228.197
 30
0.0
 11
17.801600000000001
 21
229.34200000000001
 31
0.0
  0
LINE
  5
9D
  8
_________1
 62
     7
 10
17.801600000000001
 20
229.34200000000001
 30
0.0
 11
18.639600000000002
 21
230.18000000000001
 31
0.0
  0
LINE
  5
9E
  8
_________1
 62
     7
 10
23.404699999999998
 20
223.74000000000001
 30
0.0
 11
22.259799999999998
 21
225.72200000000001
 31
0.0
  0
LINE
  5
9F
  8
_________1
 62
     7
 10
22.259799999999998
 20
225.72200000000001
 30
0.0
 11
24.242799999999999
 21
224.578
 31
0.0
  0
LINE
  5
A0
  8
_________1
 62
     7
 10
24.242799999999999
 20
224.578
 30
0.0
 11
23.404699999999998
 21
223.74000000000001
 31
0.0
  0
LINE
  5
A1
  8
_________1
 62
     7
 10
25.2455
 20
222.73599999999999
 30
0.0
 11
11.584
 21
236.398
 31
0.0
  0
ENDBLK
  5
A2
  8
_________1
  0
BLOCK
  8
_________1
  2
AIGNBL02010006
 70
     0
 10
0.0
 20
0.0
 30
0.0
  3
AIGNBL02010006
  1

  0
LINE
  5
A5
  8
_________1
 62
     7
 10
38.533799999999999
 20
109.084
 30
0.0
 11
36.322200000000002
 21
108.492
 31
0.0
  0
LINE
  5
A6
  8
_________1
 62
     7
 10
36.322200000000002
 20
108.492
 30
0.0
 11
38.533799999999999
 21
107.899
 31
0.0
  0
LINE
  5
A7
  8
_________1
 62
     7
 10
38.533799999999999
 20
107.899
 30
0.0
 11
38.533799999999999
 21
109.084
 31
0.0
  0
LINE
  5
A8
  8
_________1
 62
     7
 10
59.612900000000003
 20
107.913
 30
0.0
 11
61.8245
 21
108.506
 31
0.0
  0
LINE
  5
A9
  8
_________1
 62
     7
 10
61.8245
 20
108.506
 30
0.0
 11
59.612900000000003
 21
109.099
 31
0.0
  0
LINE
  5
AA
  8
_________1
 62
     7
 10
59.612900000000003
 20
109.099
 30
0.0
 11
59.612900000000003
 21
107.913
 31
0.0
  0
LINE
  5
AB
  8
_________1
 62
     7
 10
36.323099999999997
 20
108.499
 30
0.0
 11
61.823700000000002
 21
108.499
 31
0.0
  0
ENDBLK
  5
AC
  8
_________1
  0
BLOCK
  8
_________1
  2
AIGNBL02010007
 70
     0
 10
0.0
 20
0.0
 30
0.0
  3
AIGNBL02010007
  1

  0
LINE
  5
AF
  8
_________1
 62
     7
 10
-56.967399999999998
 20
109.084
 30
0.0
 11
-59.178999999999988
 21
108.492
 31
0.0
  0
LINE
  5
B0
  8
_________1
 62
     7
 10
-59.178999999999988
 20
108.492
 30
0.0
 11
-56.967399999999998
 21
107.899
 31
0.0
  0
LINE
  5
B1
  8
_________1
 62
     7
 10
-56.967399999999998
 20
107.899
 30
0.0
 11
-56.967399999999998
 21
109.084
 31
0.0
  0
LINE
  5
B2
  8
_________1
 62
     7
 10
-35.888800000000003
 20
107.913
 30
0.0
 11
-33.677199999999999
 21
108.506
 31
0.0
  0
LINE
  5
B3
  8
_________1
 62
     7
 10
-33.677199999999999
 20
108.506
 30
0.0
 11
-35.888800000000003
 21
109.099
 31
0.0
  0
LINE
  5
B4
  8
_________1
 62
     7
 10
-35.888800000000003
 20
109.099
 30
0.0
 11
-35.888800000000003
 21
107.913
 31
0.0
  0
LINE
  5
B5
  8
_________1
 62
     7
 10
-59.17819999999999
 20
108.499
 30
0.0
 11
-33.678100000000001
 21
108.499
 31
0.0
  0
ENDBLK
  5
B6
  8
_________1
  0
BLOCK
  8
_________1
  2
AIGNBL02010008
 70
     0
 10
0.0
 20
0.0
 30
0.0
  3
AIGNBL02010008
  1

  0
LINE
  5
B9
  8
_________1
 62
     7
 10
-31.466699999999999
 20
109.084
 30
0.0
 11
-33.6783
 21
108.492
 31
0.0
  0
LINE
  5
BA
  8
_________1
 62
     7
 10
-33.6783
 20
108.492
 30
0.0
 11
-31.466699999999999
 21
107.899
 31
0.0
  0
LINE
  5
BB
  8
_________1
 62
     7
 10
-31.466699999999999
 20
107.899
 30
0.0
 11
-31.466699999999999
 21
109.084
 31
0.0
  0
LINE
  5
BC
  8
_________1
 62
     7
 10
34.112299999999998
 20
107.913
 30
0.0
 11
36.323900000000002
 21
108.506
 31
0.0
  0
LINE
  5
BD
  8
_________1
 62
     7
 10
36.323900000000002
 20
108.506
 30
0.0
 11
34.112299999999998
 21
109.099
 31
0.0
  0
LINE
  5
BE
  8
_________1
 62
     7
 10
34.112299999999998
 20
109.099
 30
0.0
 11
34.112299999999998
 21
107.913
 31
0.0
  0
LINE
  5
BF
  8
_________1
 62
     7
 10
-33.677399999999999
 20
108.499
 30
0.0
 11
36.323099999999997
 21
108.499
 31
0.0
  0
ENDBLK
  5
C0
  8
_________1
  0
BLOCK
  8
_________1
  2
AIGNBL02010009
 70
     0
 10
0.0
 20
0.0
 30
0.0
  3
AIGNBL02010009
  1

  0
LINE
  5
C3
  8
_________1
 62
     7
 10
-66.171199999999985
 20
126.063
 30
0.0
 11
-66.763800000000003
 21
128.274
 31
0.0
  0
LINE
  5
C4
  8
_________1
 62
     7
 10
-66.763800000000003
 20
128.274
 30
0.0
 11
-67.356300000000005
 21
126.063
 31
0.0
  0
LINE
  5
C5
  8
_________1
 62
     7
 10
-67.356300000000005
 20
126.063
 30
0.0
 11
-66.171199999999985
 21
126.063
 31
0.0
  0
LINE
  5
C6
  8
_________1
 62
     7
 10
-67.356300000000005
 20
136.48599999999999
 30
0.0
 11
-66.763800000000003
 21
134.274
 31
0.0
  0
LINE
  5
C7
  8
_________1
 62
     7
 10
-66.763800000000003
 20
134.274
 30
0.0
 11
-66.171199999999985
 21
136.48599999999999
 31
0.0
  0
LINE
  5
C8
  8
_________1
 62
     7
 10
-66.171199999999985
 20
136.48599999999999
 30
0.0
 11
-67.356300000000005
 21
136.48599999999999
 31
0.0
  0
LINE
  5
C9
  8
_________1
 62
     7
 10
-66.763800000000003
 20
134.274
 30
0.0
 11
-66.763800000000003
 21
128.274
 31
0.0
  0
ENDBLK
  5
CA
  8
_________1
  0
BLOCK
  8
_________1
  2
AIGNBL0201000A
 70
     0
 10
0.0
 20
0.0
 30
0.0
  3
AIGNBL0201000A
  1

  0
LINE
  5
CD
  8
_________1
 62
     7
 10
70.923299999999998
 20
231.249
 30
0.0
 11
71.515799999999999
 21
233.46100000000001
 31
0.0
  0
LINE
  5
CE
  8
_________1
 62
     7
 10
71.515799999999999
 20
233.46100000000001
 30
0.0
 11
72.108400000000003
 21
231.249
 31
0.0
  0
LINE
  5
CF
  8
_________1
 62
     7
 10
72.108400000000003
 20
231.249
 30
0.0
 11
70.923299999999998
 21
231.249
 31
0.0
  0
LINE
  5
D0
  8
_________1
 62
     7
 10
72.093900000000005
 20
222.67099999999999
 30
0.0
 11
71.501300000000001
 21
220.459
 31
0.0
  0
LINE
  5
D1
  8
_________1
 62
     7
 10
71.501300000000001
 20
220.459
 30
0.0
 11
70.908799999999999
 21
222.67099999999999
 31
0.0
  0
LINE
  5
D2
  8
_________1
 62
     7
 10
70.908799999999999
 20
222.67099999999999
 30
0.0
 11
72.093900000000005
 21
222.67099999999999
 31
0.0
  0
LINE
  5
D3
  8
_________1
 62
     7
 10
71.508600000000001
 20
233.46000000000001
 30
0.0
 11
71.508600000000001
 21
220.46000000000001
 31
0.0
  0
ENDBLK
  5
D4
  8
_________1
  0
BLOCK
  8
_________1
  2
AIGNBL0201000B
 70
     0
 10
0.0
 20
0.0
 30
0.0
  3
AIGNBL0201000B
  1

  0
LINE
  5
D7
  8
_________1
 62
     7
 10
29.333300000000001
 20
224.74799999999999
 30
0.0
 11
29.925799999999999
 21
226.96000000000001
 31
0.0
  0
LINE
  5
D8
  8
_________1
 62
     7
 10
29.925799999999999
 20
226.96000000000001
 30
0.0
 11
30.5184
 21
224.74799999999999
 31
0.0
  0
LINE
  5
D9
  8
_________1
 62
     7
 10
30.5184
 20
224.74799999999999
 30
0.0
 11
29.333300000000001
 21
224.74799999999999
 31
0.0
  0
LINE
  5
DA
  8
_________1
 62
     7
 10
30.5184
 20
235.67099999999999
 30
0.0
 11
29.925799999999999
 21
233.46000000000001
 31
0.0
  0
LINE
  5
DB
  8
_________1
 62
     7
 10
29.925799999999999
 20
233.46000000000001
 30
0.0
 11
29.333300000000001
 21
235.67099999999999
 31
0.0
  0
LINE
  5
DC
  8
_________1
 62
     7
 10
29.333300000000001
 20
235.67099999999999
 30
0.0
 11
30.5184
 21
235.67099999999999
 31
0.0
  0
LINE
  5
DD
  8
_________1
 62
     7
 10
29.925799999999999
 20
239.77000000000001
 30
0.0
 11
29.925799999999999
 21
223.22499999999999
 31
0.0
  0
ENDBLK
  5
DE
  8
_________1
  0
BLOCK
  8
_________1
  2
AIGNBL0201000C
 70
     0
 10
0.0
 20
0.0
 30
0.0
  3
AIGNBL0201000C
  1

  0
LINE
  5
E1
  8
_________1
 62
     7
 10
113.342
 20
107.913
 30
0.0
 11
115.553
 21
108.506
 31
0.0
  0
LINE
  5
E2
  8
_________1
 62
     7
 10
115.553
 20
108.506
 30
0.0
 11
113.342
 21
109.099
 31
0.0
  0
LINE
  5
E3
  8
_________1
 62
     7
 10
113.342
 20
109.099
 30
0.0
 11
113.342
 21
107.913
 31
0.0
  0
LINE
  5
E4
  8
_________1
 62
     7
 10
91.762799999999999
 20
109.084
 30
0.0
 11
89.550999999999988
 21
108.492
 31
0.0
  0
LINE
  5
E5
  8
_________1
 62
     7
 10
89.550999999999988
 20
108.492
 30
0.0
 11
91.762799999999999
 21
107.899
 31
0.0
  0
LINE
  5
E6
  8
_________1
 62
     7
 10
91.762799999999999
 20
107.899
 30
0.0
 11
91.762799999999999
 21
109.084
 31
0.0
  0
LINE
  5
E7
  8
_________1
 62
     7
 10
115.55200000000001
 20
108.499
 30
0.0
 11
89.552000000000007
 21
108.499
 31
0.0
  0
ENDBLK
  5
E8
  8
_________1
  0
BLOCK
  8
_________1
  2
AIGNBL0201000D
 70
     0
 10
0.0
 20
0.0
 30
0.0
  3
AIGNBL0201000D
  1

  0
LINE
  5
EB
  8
_________1
 62
     7
 10
84.255499999999984
 20
127.48399999999999
 30
0.0
 11
84.848100000000017
 21
125.273
 31
0.0
  0
LINE
  5
EC
  8
_________1
 62
     7
 10
84.848100000000017
 20
125.273
 30
0.0
 11
85.440599999999989
 21
127.48399999999999
 31
0.0
  0
LINE
  5
ED
  8
_________1
 62
     7
 10
85.440599999999989
 20
127.48399999999999
 30
0.0
 11
84.255499999999984
 21
127.48399999999999
 31
0.0
  0
LINE
  5
EE
  8
_________1
 62
     7
 10
85.426199999999994
 20
132.06399999999999
 30
0.0
 11
84.833600000000004
 21
134.27600000000001
 31
0.0
  0
LINE
  5
EF
  8
_________1
 62
     7
 10
84.833600000000004
 20
134.27600000000001
 30
0.0
 11
84.241000000000014
 21
132.06399999999999
 31
0.0
  0
LINE
  5
F0
  8
_________1
 62
     7
 10
84.241000000000014
 20
132.06399999999999
 30
0.0
 11
85.426199999999994
 21
132.06399999999999
 31
0.0
  0
LINE
  5
F1
  8
_________1
 62
     7
 10
84.840800000000002
 20
125.274
 30
0.0
 11
84.840800000000002
 21
134.274
 31
0.0
  0
ENDBLK
  5
F2
  8
_________1
  0
BLOCK
  8
_________1
  2
AIGNBL0201000E
 70
     0
 10
0.0
 20
0.0
 30
0.0
  3
AIGNBL0201000E
  1

  0
LINE
  5
F5
  8
_________1
 62
     7
 10
59.612099999999998
 20
176.38
 30
0.0
 11
61.823700000000002
 21
175.78700000000001
 31
0.0
  0
LINE
  5
F6
  8
_________1
 62
     7
 10
61.823700000000002
 20
175.78700000000001
 30
0.0
 11
59.612099999999998
 21
175.19499999999999
 31
0.0
  0
LINE
  5
F7
  8
_________1
 62
     7
 10
59.612099999999998
 20
175.19499999999999
 30
0.0
 11
59.612099999999998
 21
176.38
 31
0.0
  0
LINE
  5
F8
  8
_________1
 62
     7
 10
-15.9671
 20
175.202
 30
0.0
 11
-18.178699999999999
 21
175.79499999999999
 31
0.0
  0
LINE
  5
F9
  8
_________1
 62
     7
 10
-18.178699999999999
 20
175.79499999999999
 30
0.0
 11
-15.9671
 21
176.387
 31
0.0
  0
LINE
  5
FA
  8
_________1
 62
     7
 10
-15.9671
 20
176.387
 30
0.0
 11
-15.9671
 21
175.202
 31
0.0
  0
LINE
  5
FB
  8
_________1
 62
     7
 10
61.823700000000002
 20
175.78700000000001
 30
0.0
 11
-18.177800000000001
 21
175.78700000000001
 31
0.0
  0
ENDBLK
  5
FC
  8
_________1
  0
BLOCK
  8
_________1
  2
AIGNBL0201000F
 70
     0
 10
0.0
 20
0.0
 30
0.0
  3
AIGNBL0201000F
  1

  0
LINE
  5
FF
  8
_________1
 62
     7
 10
-73.079899999999995
 20
132.06399999999999
 30
0.0
 11
-73.672499999999999
 21
134.27600000000001
 31
0.0
  0
LINE
  5
100
  8
_________1
 62
     7
 10
-73.672499999999999
 20
134.27600000000001
 30
0.0
 11
-74.265000000000001
 21
132.06399999999999
 31
0.0
  0
LINE
  5
101
  8
_________1
 62
     7
 10
-74.265000000000001
 20
132.06399999999999
 30
0.0
 11
-73.079899999999995
 21
132.06399999999999
 31
0.0
  0
LINE
  5
102
  8
_________1
 62
     7
 10
-74.250500000000002
 20
122.485
 30
0.0
 11
-73.658000000000001
 21
120.273
 31
0.0
  0
LINE
  5
103
  8
_________1
 62
     7
 10
-73.658000000000001
 20
120.273
 30
0.0
 11
-73.065399999999997
 21
122.485
 31
0.0
  0
LINE
  5
104
  8
_________1
 62
     7
 10
-73.065399999999997
 20
122.485
 30
0.0
 11
-74.250500000000002
 21
122.485
 31
0.0
  0
LINE
  5
105
  8
_________1
 62
     7
 10
-73.665199999999999
 20
134.274
 30
0.0
 11
-73.665199999999999
 21
120.274
 31
0.0
  0
ENDBLK
  5
106
  8
_________1
  0
BLOCK
  8
_________1
  2
AIGNBL02010010
 70
     0
 10
0.0
 20
0.0
 30
0.0
  3
AIGNBL02010010
  1

  0
LINE
  5
109
  8
_________1
 62
     7
 10
80.275899999999993
 20
231.249
 30
0.0
 11
80.868399999999994
 21
233.46100000000001
 31
0.0
  0
LINE
  5
10A
  8
_________1
 62
     7
 10
80.868399999999994
 20
233.46100000000001
 30
0.0
 11
81.460999999999999
 21
231.249
 31
0.0
  0
LINE
  5
10B
  8
_________1
 62
     7
 10
81.460999999999999
 20
231.249
 30
0.0
 11
80.275899999999993
 21
231.249
 31
0.0
  0
LINE
  5
10C
  8
_________1
 62
     7
 10
81.4465
 20
189.66999999999999
 30
0.0
 11
80.853999999999985
 21
187.459
 31
0.0
  0
LINE
  5
10D
  8
_________1
 62
     7
 10
80.853999999999985
 20
187.459
 30
0.0
 11
80.261399999999995
 21
189.66999999999999
 31
0.0
  0
LINE
  5
10E
  8
_________1
 62
     7
 10
80.261399999999995
 20
189.66999999999999
 30
0.0
 11
81.4465
 21
189.66999999999999
 31
0.0
  0
LINE
  5
10F
  8
_________1
 62
     7
 10
80.861199999999997
 20
233.46000000000001
 30
0.0
 11
80.861199999999997
 21
187.46000000000001
 31
0.0
  0
ENDBLK
  5
110
  8
_________1
  0
BLOCK
  8
_________1
  2
AIGNBL02010011
 70
     0
 10
0.0
 20
0.0
 30
0.0
  3
AIGNBL02010011
  1

  0
LINE
  5
113
  8
_________1
 62
     7
 10
59.613100000000003
 20
167.00399999999999
 30
0.0
 11
61.8247
 21
166.41200000000001
 31
0.0
  0
LINE
  5
114
  8
_________1
 62
     7
 10
61.8247
 20
166.41200000000001
 30
0.0
 11
59.613100000000003
 21
165.81899999999999
 31
0.0
  0
LINE
  5
115
  8
_________1
 62
     7
 10
59.613100000000003
 20
165.81899999999999
 30
0.0
 11
59.613100000000003
 21
167.00399999999999
 31
0.0
  0
LINE
  5
116
  8
_________1
 62
     7
 10
-56.9681
 20
165.833
 30
0.0
 11
-59.179699999999997
 21
166.42599999999999
 31
0.0
  0
LINE
  5
117
  8
_________1
 62
     7
 10
-59.179699999999997
 20
166.42599999999999
 30
0.0
 11
-56.9681
 21
167.01900000000001
 31
0.0
  0
LINE
  5
118
  8
_________1
 62
     7
 10
-56.9681
 20
167.01900000000001
 30
0.0
 11
-56.9681
 21
165.833
 31
0.0
  0
LINE
  5
119
  8
_________1
 62
     7
 10
61.823799999999999
 20
166.41900000000001
 30
0.0
 11
-59.178800000000003
 21
166.41900000000001
 31
0.0
  0
ENDBLK
  5
11A
  8
_________1
  0
BLOCK
  8
_________1
  2
AIGNBL02010012
 70
     0
 10
0.0
 20
0.0
 30
0.0
  3
AIGNBL02010012
  1

  0
LINE
  5
11D
  8
_________1
 62
     7
 10
-32.6113
 20
63.177199999999999
 30
0.0
 11
-30.3995
 21
63.769799999999989
 31
0.0
  0
LINE
  5
11E
  8
_________1
 62
     7
 10
-30.3995
 20
63.769799999999989
 30
0.0
 11
-32.6113
 21
64.362399999999994
 31
0.0
  0
LINE
  5
11F
  8
_________1
 62
     7
 10
-32.6113
 20
64.362399999999994
 30
0.0
 11
-32.6113
 21
63.177199999999999
 31
0.0
  0
LINE
  5
120
  8
_________1
 62
     7
 10
-13.8621
 20
63.177199999999999
 30
0.0
 11
-11.650399999999999
 21
63.769799999999989
 31
0.0
  0
LINE
  5
121
  8
_________1
 62
     7
 10
-11.650399999999999
 20
63.769799999999989
 30
0.0
 11
-13.8621
 21
64.362399999999994
 31
0.0
  0
LINE
  5
122
  8
_________1
 62
     7
 10
-13.8621
 20
64.362399999999994
 30
0.0
 11
-13.8621
 21
63.177199999999999
 31
0.0
  0
LINE
  5
123
  8
_________1
 62
     7
 10
-24.440000000000001
 20
64.347899999999996
 30
0.0
 11
-26.651800000000001
 21
63.755299999999998
 31
0.0
  0
LINE
  5
124
  8
_________1
 62
     7
 10
-26.651800000000001
 20
63.755299999999998
 30
0.0
 11
-24.440000000000001
 21
63.16279999999999
 31
0.0
  0
LINE
  5
125
  8
_________1
 62
     7
 10
-24.440000000000001
 20
63.16279999999999
 30
0.0
 11
-24.440000000000001
 21
64.347899999999996
 31
0.0
  0
LINE
  5
126
  8
_________1
 62
     7
 10
-39.439700000000002
 20
64.347899999999996
 30
0.0
 11
-41.651499999999992
 21
63.755299999999998
 31
0.0
  0
LINE
  5
127
  8
_________1
 62
     7
 10
-41.651499999999992
 20
63.755299999999998
 30
0.0
 11
-39.439700000000002
 21
63.16279999999999
 31
0.0
  0
LINE
  5
128
  8
_________1
 62
     7
 10
-39.439700000000002
 20
63.16279999999999
 30
0.0
 11
-39.439700000000002
 21
64.347899999999996
 31
0.0
  0
LINE
  5
129
  8
_________1
 62
     7
 10
-11.651400000000001
 20
63.762599999999999
 30
0.0
 11
-41.650399999999998
 21
63.762599999999999
 31
0.0
  0
ENDBLK
  5
12A
  8
_________1
  0
BLOCK
  8
_________2
  2
AIGNBL03010002
 70
     0
 10
0.0
 20
0.0
 30
0.0
  3
AIGNBL03010002
  1

  0
LINE
  5
12D
  8
_________2
 62
     7
 10
186.649
 20
51.052199999999999
 30
0.0
 11
184.46299999999999
 21
51.052199999999999
 31
0.0
  0
LINE
  5
12E
  8
_________2
 62
     7
 10
187.142
 20
51.052199999999999
 30
0.0
 11
186.88900000000001
 21
51.052199999999999
 31
0.0
  0
LINE
  5
12F
  8
_________2
 62
     7
 10
187.63399999999999
 20
51.052199999999999
 30
0.0
 11
190.559
 21
51.052199999999999
 31
0.0
  0
LINE
  5
130
  8
_________2
 62
     7
 10
187.142
 20
51.052199999999999
 30
0.0
 11
187.39400000000001
 21
51.052199999999999
 31
0.0
  0
LINE
  5
131
  8
_________2
 62
     7
 10
180.745
 20
51.052199999999999
 30
0.0
 11
178.55799999999999
 21
51.052199999999999
 31
0.0
  0
LINE
  5
132
  8
_________2
 62
     7
 10
181.23699999999999
 20
51.052199999999999
 30
0.0
 11
180.98599999999999
 21
51.052199999999999
 31
0.0
  0
LINE
  5
133
  8
_________2
 62
     7
 10
181.23699999999999
 20
51.544800000000002
 30
0.0
 11
181.23699999999999
 21
53.7318
 31
0.0
  0
LINE
  5
134
  8
_________2
 62
     7
 10
181.23699999999999
 20
51.052199999999999
 30
0.0
 11
181.23699999999999
 21
51.304299999999998
 31
0.0
  0
LINE
  5
135
  8
_________2
 62
     7
 10
181.72999999999999
 20
51.052199999999999
 30
0.0
 11
183.917
 21
51.052199999999999
 31
0.0
  0
LINE
  5
136
  8
_________2
 62
     7
 10
181.23699999999999
 20
51.052199999999999
 30
0.0
 11
181.489
 21
51.052199999999999
 31
0.0
  0
LINE
  5
137
  8
_________2
 62
     7
 10
181.23699999999999
 20
50.560200000000002
 30
0.0
 11
181.23699999999999
 21
48.373199999999997
 31
0.0
  0
LINE
  5
138
  8
_________2
 62
     7
 10
181.23699999999999
 20
51.052199999999999
 30
0.0
 11
181.23699999999999
 21
50.800699999999999
 31
0.0
  0
LINE
  5
139
  8
_________2
 62
     7
 10
184.94799999999989
 20
49.832599999999999
 30
0.0
 11
190.12599999999989
 21
48.9679
 31
0.0
  0
LINE
  5
13A
  8
_________2
 62
     7
 10
184.94799999999989
 20
52.271700000000003
 30
0.0
 11
190.12599999999989
 21
53.137099999999997
 31
0.0
  0
LINE
  5
13B
  8
_________2
 62
     7
 10
190.12599999999989
 20
48.9679
 30
0.0
 11
190.12599999999989
 21
53.137099999999997
 31
0.0
  0
LINE
  5
13C
  8
_________2
 62
     7
 10
184.94799999999989
 20
49.832599999999999
 30
0.0
 11
184.94799999999989
 21
52.271700000000003
 31
0.0
  0
ARC
  5
13D
  8
_________2
 62
     7
 10
181.190651
 20
51.004810999999989
 30
0.0
 40
1.2677780000000001
 50
2.1403449999999991
 51
87.892005999999995
  0
ARC
  5
13E
  8
_________2
 62
     7
 10
181.28420199999999
 20
51.005241999999988
 30
0.0
 40
1.2673579999999991
 50
92.121564999999975
 51
177.87840600000001
  0
ARC
  5
13F
  8
_________2
 62
     7
 10
181.28381400000001
 20
51.098689
 30
0.0
 40
1.2669559999999991
 50
182.10473099999999
 51
267.89529900000002
  0
ARC
  5
140
  8
_________2
 62
     7
 10
181.19038399999999
 20
51.099775000000001
 30
0.0
 40
1.268054
 50
272.11960599999998
 51
357.84804300000002
  0
ARC
  5
141
  8
_________2
 62
     7
 10
181.23728399999999
 20
51.05215900000001
 30
0.0
 40
2.0849849999999992
 50
0.00001
 51
89.999980000000008
  0
ARC
  5
142
  8
_________2
 62
     7
 10
181.317331
 20
50.972827000000002
 30
0.0
 40
2.1657969999999991
 50
92.118111999999996
 51
177.90079600000001
  0
ARC
  5
143
  8
_________2
 62
     7
 10
181.31728799999999
 20
51.132162999999998
 30
0.0
 40
2.1657779999999991
 50
182.11700400000001
 51
267.88302499999998
  0
ARC
  5
144
  8
_________2
 62
     7
 10
181.15730300000001
 20
51.132855999999997
 30
0.0
 40
2.166469999999999
 50
272.115725
 51
357.86534699999999
  0
ENDBLK
  5
145
  8
_________2
  0
ENDSEC
  0
SECTION
  2
ENTITIES
  0
INSERT
  5
146
  8
____
 62
     7
  2
AIGNBL01010002
 10
0.0
 20
0.0
 30
0.0
  0
INSERT
  5
147
  8
____
 62
     7
  2
AIGNBL01010003
 10
0.0
 20
0.0
 30
0.0
  0
INSERT
  5
148
  8
____
 62
     7
  2
AIGNBL01010004
 10
0.0
 20
0.0
 30
0.0
  0
INSERT
  5
149
  8
____
 62
     7
  2
AIGNBL01010005
 10
0.0
 20
0.0
 30
0.0
  0
INSERT
  5
14A
  8
____
 62
     7
  2
AIGNBL01010006
 10
0.0
 20
0.0
 30
0.0
  0
INSERT
  5
14B
  8
____
 62
     7
  2
AIGNBL01010007
 10
0.0
 20
0.0
 30
0.0
  0
INSERT
  5
14C
  8
____
 62
     7
  2
AIGNBL01010008
 10
0.0
 20
0.0
 30
0.0
  0
INSERT
  5
14D
  8
____
 62
     7
  2
AIGNBL01010009
 10
0.0
 20
0.0
 30
0.0
  0
INSERT
  5
14E
  8
____
 62
     7
  2
AIGNBL0101000A
 10
0.0
 20
0.0
 30
0.0
  0
INSERT
  5
14F
  8
____
 62
     7
  2
AIGNBL0101000B
 10
0.0
 20
0.0
 30
0.0
  0
INSERT
  5
150
  8
____
 62
     7
  2
AIGNBL0101000C
 10
0.0
 20
0.0
 30
0.0
  0
INSERT
  5
151
  8
____
 62
     7
  2
AIGNBL0101000D
 10
0.0
 20
0.0
 30
0.0
  0
INSERT
  5
152
  8
____
 62
     7
  2
AIGNBL0101000E
 10
0.0
 20
0.0
 30
0.0
  0
INSERT
  5
153
  8
____
 62
     7
  2
AIGNBL0101000F
 10
0.0
 20
0.0
 30
0.0
  0
INSERT
  5
154
  8
____
 62
     7
  2
AIGNBL01010010
 10
0.0
 20
0.0
 30
0.0
  0
INSERT
  5
155
  8
____
 62
     7
  2
AIGNBL01010011
 10
0.0
 20
0.0
 30
0.0
  0
INSERT
  5
156
  8
____
 62
     7
  2
AIGNBL01010012
 10
0.0
 20
0.0
 30
0.0
  0
INSERT
  5
157
  8
____
 62
     7
  2
AIGNBL01010013
 10
0.0
 20
0.0
 30
0.0
  0
INSERT
  5
158
  8
____
 62
     7
  2
AIGNBL01010014
 10
0.0
 20
0.0
 30
0.0
  0
INSERT
  5
159
  8
____
 62
     7
  2
AIGNBL01010015
 10
0.0
 20
0.0
 30
0.0
  0
INSERT
  5
15A
  8
____
 62
     7
  2
AIGNBL01010016
 10
0.0
 20
0.0
 30
0.0
  0
INSERT
  5
15B
  8
____
 62
     7
  2
AIGNBL01010017
 10
0.0
 20
0.0
 30
0.0
  0
TEXT
  5
15C
  8
____
 62
     7
 10
-77.847200000000001
 20
22.237500000000001
 30
0.0
 40
3.6545800000000002
  1
※（　）内寸法は取付ボルト位置の参考寸法です。
 41
0.5
  0
LINE
  5
15D
  8
_________1
 62
     7
 10
115.55200000000001
 20
146.423
 30
0.0
 11
112.873
 21
144.876
 31
0.0
  0
LINE
  5
15E
  8
_________1
 62
     7
 10
112.873
 20
147.97
 30
0.0
 11
112.873
 21
144.876
 31
0.0
  0
LINE
  5
15F
  8
_________1
 62
     7
 10
115.55200000000001
 20
146.423
 30
0.0
 11
112.873
 21
147.97
 31
0.0
  0
INSERT
  5
160
  8
_________1
 62
     7
  2
AIGNBL02010002
 10
0.0
 20
0.0
 30
0.0
  0
LINE
  5
161
  8
_________1
 62
     7
 10
-47.535200000000003
 20
241.23599999999999
 30
0.0
 11
-29.817
 21
241.23599999999999
 31
0.0
  0
INSERT
  5
162
  8
_________1
 62
     7
  2
AIGNBL02010003
 10
0.0
 20
0.0
 30
0.0
  0
LINE
  5
163
  8
_________1
 62
     7
 10
15.297000000000001
 20
213.185
 30
0.0
 11
9.1598800000000011
 21
213.185
 31
0.0
  0
LINE
  5
164
  8
_________1
 62
     7
 10
11.584
 20
236.398
 30
0.0
 11
5.4469000000000003
 21
236.398
 31
0.0
  0
INSERT
  5
165
  8
_________1
 62
     7
  2
AIGNBL02010004
 10
0.0
 20
0.0
 30
0.0
  0
INSERT
  5
166
  8
_________1
 62
     7
  2
AIGNBL02010005
 10
0.0
 20
0.0
 30
0.0
  0
LINE
  5
167
  8
_________1
 62
     7
 10
21.022300000000001
 20
235.40299999999999
 30
0.0
 11
21.022300000000001
 21
250.56
 31
0.0
  0
LINE
  5
168
  8
_________1
 62
     7
 10
61.823700000000002
 20
234.185
 30
0.0
 11
61.823700000000002
 21
250.56
 31
0.0
  0
INSERT
  5
169
  8
_________1
 62
     7
  2
AIGNBL02010006
 10
0.0
 20
0.0
 30
0.0
  0
LINE
  5
16A
  8
_________1
 62
     7
 10
61.823700000000002
 20
118.949
 30
0.0
 11
61.823700000000002
 21
107.79900000000001
 31
0.0
  0
INSERT
  5
16B
  8
_________1
 62
     7
  2
AIGNBL02010007
 10
0.0
 20
0.0
 30
0.0
  0
LINE
  5
16C
  8
_________1
 62
     7
 10
-59.17819999999999
 20
118.949
 30
0.0
 11
-59.17819999999999
 21
107.79900000000001
 31
0.0
  0
INSERT
  5
16D
  8
_________1
 62
     7
  2
AIGNBL02010008
 10
0.0
 20
0.0
 30
0.0
  0
LINE
  5
16E
  8
_________1
 62
     7
 10
36.323099999999997
 20
124.30500000000001
 30
0.0
 11
36.323099999999997
 21
107.79900000000001
 31
0.0
  0
LINE
  5
16F
  8
_________1
 62
     7
 10
-33.677399999999999
 20
124.30500000000001
 30
0.0
 11
-33.677399999999999
 21
107.79900000000001
 31
0.0
  0
LINE
  5
170
  8
_________1
 62
     7
 10
-66.763800000000003
 20
143.672
 30
0.0
 11
-66.763800000000003
 21
134.274
 31
0.0
  0
LINE
  5
171
  8
_________1
 62
     7
 10
-66.763800000000003
 20
128.274
 30
0.0
 11
-66.763800000000003
 21
124.63500000000001
 31
0.0
  0
INSERT
  5
172
  8
_________1
 62
     7
  2
AIGNBL02010009
 10
0.0
 20
0.0
 30
0.0
  0
LINE
  5
173
  8
_________1
 62
     7
 10
-37.647399999999998
 20
128.274
 30
0.0
 11
-67.463800000000006
 21
128.274
 31
0.0
  0
INSERT
  5
174
  8
_________1
 62
     7
  2
AIGNBL0201000A
 10
0.0
 20
0.0
 30
0.0
  0
INSERT
  5
175
  8
_________1
 62
     7
  2
AIGNBL0201000B
 10
0.0
 20
0.0
 30
0.0
  0
LINE
  5
176
  8
_________1
 62
     7
 10
24.427299999999999
 20
226.96000000000001
 30
0.0
 11
30.625900000000001
 21
226.96000000000001
 31
0.0
  0
INSERT
  5
177
  8
_________1
 62
     7
  2
AIGNBL0201000C
 10
0.0
 20
0.0
 30
0.0
  0
LINE
  5
178
  8
_________1
 62
     7
 10
89.552000000000007
 20
117.401
 30
0.0
 11
89.552000000000007
 21
107.79900000000001
 31
0.0
  0
INSERT
  5
179
  8
_________1
 62
     7
  2
AIGNBL0201000D
 10
0.0
 20
0.0
 30
0.0
  0
LINE
  5
17A
  8
_________1
 62
     7
 10
61.74839999999999
 20
220.46000000000001
 30
0.0
 11
72.209500000000006
 21
220.46000000000001
 31
0.0
  0
INSERT
  5
17B
  8
_________1
 62
     7
  2
AIGNBL0201000E
 10
0.0
 20
0.0
 30
0.0
  0
LINE
  5
17C
  8
_________1
 62
     7
 10
-18.177800000000001
 20
187.535
 30
0.0
 11
-18.177800000000001
 21
175.08699999999999
 31
0.0
  0
INSERT
  5
17D
  8
_________1
 62
     7
  2
AIGNBL0201000F
 10
0.0
 20
0.0
 30
0.0
  0
LINE
  5
17E
  8
_________1
 62
     7
 10
-60.503
 20
120.274
 30
0.0
 11
-74.365399999999994
 21
120.274
 31
0.0
  0
LINE
  5
17F
  8
_________1
 62
     7
 10
-60.30319999999999
 20
134.274
 30
0.0
 11
-74.365399999999994
 21
134.274
 31
0.0
  0
INSERT
  5
180
  8
_________1
 62
     7
  2
AIGNBL02010010
 10
0.0
 20
0.0
 30
0.0
  0
LINE
  5
181
  8
_________1
 62
     7
 10
62.547800000000002
 20
187.46000000000001
 30
0.0
 11
81.561300000000003
 21
187.46000000000001
 31
0.0
  0
LINE
  5
182
  8
_________1
 62
     7
 10
62.547800000000002
 20
233.46000000000001
 30
0.0
 11
81.561300000000003
 21
233.46000000000001
 31
0.0
  0
INSERT
  5
183
  8
_________1
 62
     7
  2
AIGNBL02010011
 10
0.0
 20
0.0
 30
0.0
  0
LINE
  5
184
  8
_________1
 62
     7
 10
-59.17819999999999
 20
186.73400000000001
 30
0.0
 11
-59.17819999999999
 21
165.71899999999999
 31
0.0
  0
LINE
  5
185
  8
_________1
 62
     7
 10
61.823700000000002
 20
186.73400000000001
 30
0.0
 11
61.823700000000002
 21
165.71899999999999
 31
0.0
  0
LINE
  5
186
  8
_________1
  6
AIGENLINE001
 62
     7
 10
115.55200000000001
 20
100.226
 30
0.0
 11
115.55200000000001
 21
149.66300000000001
 31
0.0
  0
ARC
  5
187
  8
_________1
  6
AIGENLINE002
 62
     7
 10
102.134393
 20
129.782433
 30
0.0
 40
0.209372
 50
182.18054599999999
 51
267.42570000000001
  0
ARC
  5
188
  8
_________1
  6
AIGENLINE002
 62
     7
 10
102.132256
 20
132.366196
 30
0.0
 40
0.207211
 50
92.009826000000004
 51
177.99014399999999
  0
LINE
  5
189
  8
_________1
  6
AIGENLINE002
 62
     7
 10
101.925
 20
132.37299999999999
 30
0.0
 11
101.925
 21
129.774
 31
0.0
  0
LINE
  5
18A
  8
_________1
  6
AIGENLINE002
 62
     7
 10
85.968400000000003
 20
125.274
 30
0.0
 11
93.135999999999996
 21
125.274
 31
0.0
  0
ARC
  5
18B
  8
_________1
  6
AIGENLINE002
 62
     7
 10
93.136673000000002
 20
125.074112
 30
0.0
 40
0.199655
 50
90.196353999999999
 51
135.731167
  0
ARC
  5
18C
  8
_________1
  6
AIGENLINE002
 62
     7
 10
85.969484999999992
 20
125.074173
 30
0.0
 40
0.199595
 50
44.260871000000002
 51
90.304865000000007
  0
LINE
  5
18D
  8
_________1
  6
AIGENLINE002
 62
     7
 10
93.135999999999996
 20
125.274
 30
0.0
 11
101.486
 21
125.274
 31
0.0
  0
ARC
  5
18E
  8
_________1
  6
AIGENLINE002
 62
     7
 10
-57.85866
 20
133.793902
 30
0.0
 40
0.5198990000000001
 50
182.12854799999999
 51
267.87148200000001
  0
ARC
  5
18F
  8
_________1
  6
AIGENLINE002
 62
     7
 10
114.234165
 20
133.79359500000001
 30
0.0
 40
0.5195940000000001
 50
272.13532400000003
 51
357.90415999999999
  0
ARC
  5
190
  8
_________1
  6
AIGENLINE002
 62
     7
 10
71.493312000000003
 20
125.481801
 30
0.0
 40
0.208124
 50
188.3620699999999
 51
268.32184699999999
  0
ARC
  5
191
  8
_________1
  6
AIGENLINE002
 62
     7
 10
101.479955
 20
125.47887900000001
 30
0.0
 40
0.2052
 50
271.665684
 51
352.34188999999998
  0
ARC
  5
192
  8
_________1
  6
AIGENLINE002
 62
     7
 10
102.738274
 20
133.06653399999999
 30
0.0
 40
0.207912
 50
91.628968000000015
 51
171.68711500000001
  0
LINE
  5
193
  8
_________1
  6
AIGENLINE002
 62
     7
 10
34.606699999999996
 20
125.274
 30
0.0
 11
27.438099999999999
 21
125.274
 31
0.0
  0
ARC
  5
194
  8
_________1
  6
AIGENLINE002
 62
     7
 10
27.438452999999999
 20
125.0757
 30
0.0
 40
0.198066
 50
44.075625000000002
 51
90.096283000000014
  0
LINE
  5
195
  8
_________1
  6
AIGENLINE002
 62
     7
 10
27.438099999999999
 20
125.274
 30
0.0
 11
-17.110299999999999
 21
125.274
 31
0.0
  0
ARC
  5
196
  8
_________1
  6
AIGENLINE002
 62
     7
 10
34.604745000000001
 20
125.077973
 30
0.0
 40
0.195802
 50
89.422075000000007
 51
136.20826
  0
ARC
  5
197
  8
_________1
  6
AIGENLINE002
 62
     7
 10
59.882017000000012
 20
125.481309
 30
0.0
 40
0.207626
 50
271.610411
 51
351.75479300000001
  0
ARC
  5
198
  8
_________1
  6
AIGENLINE002
 62
     7
 10
-17.104376999999999
 20
125.47928
 30
0.0
 40
0.2056010000000001
 50
187.755796
 51
268.33602000000002
  0
ARC
  5
199
  8
_________1
  6
AIGENLINE002
 62
     7
 10
-18.362907
 20
133.06729200000001
 30
0.0
 40
0.207154
 50
8.1314530000000005
 51
88.355817000000002
  0
LINE
  5
19A
  8
_________1
  6
AIGENLINE002
 62
     7
 10
23.272300000000001
 20
123.997
 30
0.0
 11
23.272300000000001
 21
120.274
 31
0.0
  0
LINE
  5
19B
  8
_________1
  6
AIGENLINE002
 62
     7
 10
18.772400000000001
 20
123.997
 30
0.0
 11
18.772400000000001
 21
120.274
 31
0.0
  0
LINE
  5
19C
  8
_________1
  6
AIGENLINE002
 62
     7
 10
23.272300000000001
 20
123.997
 30
0.0
 11
24.463799999999999
 21
125.21299999999999
 31
0.0
  0
LINE
  5
19D
  8
_________1
  6
AIGENLINE002
 62
     7
 10
18.772400000000001
 20
123.997
 30
0.0
 11
17.581
 21
125.21299999999999
 31
0.0
  0
LINE
  5
19E
  8
_________1
  6
AIGENLINE002
 62
     7
 10
23.272300000000001
 20
123.997
 30
0.0
 11
18.772400000000001
 21
123.997
 31
0.0
  0
LINE
  5
19F
  8
_________1
  6
AIGENLINE002
 62
     7
 10
-58.3782
 20
133.87299999999999
 30
0.0
 11
-58.3782
 21
133.77500000000001
 31
0.0
  0
LINE
  5
1A0
  8
_________1
  6
AIGENLINE002
 62
     7
 10
-57.878
 20
133.274
 30
0.0
 11
-18.356999999999999
 21
133.274
 31
0.0
  0
ARC
  5
1A1
  8
_________1
  6
AIGENLINE002
 62
     7
 10
-58.794206000000003
 20
133.858487
 30
0.0
 40
0.416275
 50
2.062351
 51
87.888394999999988
  0
LINE
  5
1A2
  8
_________1
  6
AIGENLINE002
 62
     7
 10
59.887900000000002
 20
125.274
 30
0.0
 11
34.606699999999996
 21
125.274
 31
0.0
  0
ARC
  5
1A3
  8
_________1
  6
AIGENLINE002
 62
     7
 10
61.439163999999998
 20
133.858194
 30
0.0
 40
0.416598
 50
92.224178999999992
 51
177.89898199999999
  0
LINE
  5
1A4
  8
_________1
  6
AIGENLINE002
 62
     7
 10
60.087499999999999
 20
125.452
 30
0.0
 11
61.022799999999997
 21
133.87299999999999
 31
0.0
  0
LINE
  5
1A5
  8
_________1
  6
AIGENLINE002
 62
     7
 10
-17.3081
 20
125.452
 30
0.0
 11
-18.157800000000002
 21
133.09700000000001
 31
0.0
  0
ARC
  5
1A6
  8
_________1
  6
AIGENLINE002
 62
     7
 10
36.784314999999999
 20
128.31257400000001
 30
0.0
 40
1.039293
 50
272.13116500000001
 51
357.89844699999998
  0
ARC
  5
1A7
  8
_________1
  6
AIGENLINE002
 62
     7
 10
36.784543999999997
 20
128.236222
 30
0.0
 40
1.039069
 50
2.109122999999999
 51
87.880997999999991
  0
ARC
  5
1A8
  8
_________1
  6
AIGENLINE002
 62
     7
 10
35.861678000000012
 20
128.23598200000001
 30
0.0
 40
1.0393179999999991
 50
92.131738999999996
 51
177.87810099999999
  0
ARC
  5
1A9
  8
_________1
  6
AIGENLINE002
 62
     7
 10
35.861766000000003
 20
128.31267399999999
 30
0.0
 40
1.0393959999999991
 50
182.10686100000001
 51
267.86356599999999
  0
LINE
  5
1AA
  8
_________1
  6
AIGENLINE002
 62
     7
 10
36.823
 20
127.274
 30
0.0
 11
35.823
 21
127.274
 31
0.0
  0
LINE
  5
1AB
  8
_________1
  6
AIGENLINE002
 62
     7
 10
36.823
 20
129.27500000000001
 30
0.0
 11
35.823
 21
129.27500000000001
 31
0.0
  0
ARC
  5
1AC
  8
_________1
  6
AIGENLINE002
 62
     7
 10
-34.177371999999998
 20
128.27454900000001
 30
0.0
 40
1.000032
 50
90.004935000000003
 51
180.00494499999999
  0
ARC
  5
1AD
  8
_________1
  6
AIGENLINE002
 62
     7
 10
-34.138710000000003
 20
128.31267399999999
 30
0.0
 40
1.0393959999999991
 50
182.10686100000001
 51
267.86356599999999
  0
ARC
  5
1AE
  8
_________1
  6
AIGENLINE002
 62
     7
 10
-33.216177000000002
 20
128.312769
 30
0.0
 40
1.0394879999999991
 50
272.13165299999997
 51
357.88809000000009
  0
ARC
  5
1AF
  8
_________1
  6
AIGENLINE002
 62
     7
 10
-33.177512999999998
 20
128.274463
 30
0.0
 40
1.0001180000000001
 50
0.00001
 51
89.999980000000008
  0
LINE
  5
1B0
  8
_________1
  6
AIGENLINE002
 62
     7
 10
-34.177500000000002
 20
127.274
 30
0.0
 11
-33.177500000000002
 21
127.274
 31
0.0
  0
LINE
  5
1B1
  8
_________1
  6
AIGENLINE002
 62
     7
 10
-34.177500000000002
 20
129.27500000000001
 30
0.0
 11
-33.177500000000002
 21
129.27500000000001
 31
0.0
  0
ARC
  5
1B2
  8
_________1
  6
AIGENLINE002
 62
     7
 10
21.079971
 20
131.015761
 30
0.0
 40
1.5585869999999999
 50
92.121371999999994
 51
177.885178
  0
ARC
  5
1B3
  8
_________1
  6
AIGENLINE002
 62
     7
 10
20.965097
 20
131.01609500000001
 30
0.0
 40
1.5582339999999999
 50
2.102981999999999
 51
87.897008
  0
ARC
  5
1B4
  8
_________1
  6
AIGENLINE002
 62
     7
 10
20.96472
 20
131.13083399999999
 30
0.0
 40
1.558624999999999
 50
272.11633699999999
 51
357.88367299999999
  0
ARC
  5
1B5
  8
_________1
  6
AIGENLINE002
 62
     7
 10
21.022364
 20
131.07319000000001
 30
0.0
 40
1.4999180000000001
 50
179.99668
 51
269.9967299999999
  0
ARC
  5
1B6
  8
_________1
  6
AIGENLINE002
 62
     7
 10
21.060687000000001
 20
131.03504599999999
 30
0.0
 40
1.039058
 50
92.118435999999988
 51
177.89140399999999
  0
ARC
  5
1B7
  8
_________1
  6
AIGENLINE002
 62
     7
 10
20.983637999999999
 20
131.03481500000001
 30
0.0
 40
1.039296999999999
 50
2.1207869999999991
 51
87.869333999999995
  0
ARC
  5
1B8
  8
_________1
  6
AIGENLINE002
 62
     7
 10
20.984186999999999
 20
131.111546
 30
0.0
 40
1.038740999999999
 50
272.10152900000003
 51
357.88861000000003
  0
ARC
  5
1B9
  8
_________1
  6
AIGENLINE002
 62
     7
 10
21.060912999999999
 20
131.11209099999999
 30
0.0
 40
1.039305999999999
 50
182.140322
 51
267.86957899999999
  0
LINE
  5
1BA
  8
_________1
  6
AIGENLINE002
 62
     7
 10
87.302000000000007
 20
123.997
 30
0.0
 11
91.802000000000007
 21
123.997
 31
0.0
  0
LINE
  5
1BB
  8
_________1
  6
AIGENLINE002
 62
     7
 10
91.802000000000007
 20
123.997
 30
0.0
 11
92.993700000000004
 21
125.21299999999999
 31
0.0
  0
LINE
  5
1BC
  8
_________1
  6
AIGENLINE002
 62
     7
 10
87.302000000000007
 20
123.997
 30
0.0
 11
86.112399999999994
 21
125.21299999999999
 31
0.0
  0
LINE
  5
1BD
  8
_________1
  6
AIGENLINE002
 62
     7
 10
91.802000000000007
 20
123.997
 30
0.0
 11
91.802000000000007
 21
120.274
 31
0.0
  0
LINE
  5
1BE
  8
_________1
  6
AIGENLINE002
 62
     7
 10
87.302000000000007
 20
123.997
 30
0.0
 11
87.302000000000007
 21
120.274
 31
0.0
  0
ARC
  5
1BF
  8
_________1
  6
AIGENLINE002
 62
     7
 10
115.169391
 20
133.85851199999999
 30
0.0
 40
0.416249
 50
92.108281999999988
 51
177.940932
  0
LINE
  5
1C0
  8
_________1
  6
AIGENLINE002
 62
     7
 10
101.68300000000001
 20
125.452
 30
0.0
 11
102.533
 21
133.09700000000001
 31
0.0
  0
ARC
  5
1C1
  8
_________1
  6
AIGENLINE002
 62
     7
 10
69.936049999999994
 20
133.85813300000001
 30
0.0
 40
0.4166280000000001
 50
2.1092390000000001
 51
87.890750999999995
  0
LINE
  5
1C2
  8
_________1
  6
AIGENLINE002
 62
     7
 10
71.287400000000005
 20
125.452
 30
0.0
 11
70.352400000000003
 21
133.87299999999999
 31
0.0
  0
LINE
  5
1C3
  8
_________1
  6
AIGENLINE002
 62
     7
 10
71.487200000000001
 20
125.274
 30
0.0
 11
85.968400000000003
 21
125.274
 31
0.0
  0
LINE
  5
1C4
  8
_________1
  6
AIGENLINE002
 62
     7
 10
114.254
 20
133.274
 30
0.0
 11
102.732
 21
133.274
 31
0.0
  0
LINE
  5
1C5
  8
_________1
  6
AIGENLINE002
 62
     7
 10
114.753
 20
133.87299999999999
 30
0.0
 11
114.753
 21
133.77500000000001
 31
0.0
  0
LINE
  5
1C6
  8
_________1
  6
AIGENLINE003
 62
     7
 10
89.552000000000007
 20
127.038
 30
0.0
 11
89.552000000000007
 21
118.72499999999999
 31
0.0
  0
LINE
  5
1C7
  8
_________1
  6
AIGENLINE003
 62
     7
 10
118.197
 20
128.274
 30
0.0
 11
112.908
 21
128.274
 31
0.0
  0
LINE
  5
1C8
  8
_________1
  6
AIGENLINE003
 62
     7
 10
36.322899999999997
 20
230.815
 30
0.0
 11
36.322899999999997
 21
237.94999999999999
 31
0.0
  0
LINE
  5
1C9
  8
_________1
  6
AIGENLINE003
 62
     7
 10
-33.677599999999998
 20
230.815
 30
0.0
 11
-33.677599999999998
 21
237.94999999999999
 31
0.0
  0
LINE
  5
1CA
  8
_________1
  6
AIGENLINE003
 62
     7
 10
109.05200000000001
 20
137.667
 30
0.0
 11
109.05200000000001
 21
131.03800000000001
 31
0.0
  0
LINE
  5
1CB
  8
_________1
  6
AIGENLINE003
 62
     7
 10
36.323099999999997
 20
125.63
 30
0.0
 11
36.323099999999997
 21
130.91900000000001
 31
0.0
  0
LINE
  5
1CC
  8
_________1
  6
AIGENLINE003
 62
     7
 10
38.967500000000001
 20
128.274
 30
0.0
 11
33.678400000000011
 21
128.274
 31
0.0
  0
LINE
  5
1CD
  8
_________1
  6
AIGENLINE003
 62
     7
 10
-33.677399999999999
 20
125.63
 30
0.0
 11
-33.677399999999999
 21
130.91900000000001
 31
0.0
  0
LINE
  5
1CE
  8
_________1
  6
AIGENLINE003
 62
     7
 10
-36.322000000000003
 20
128.274
 30
0.0
 11
-31.032900000000001
 21
128.274
 31
0.0
  0
LINE
  5
1CF
  8
_________1
  6
AIGENLINE003
 62
     7
 10
21.022300000000001
 20
117.261
 30
0.0
 11
21.022300000000001
 21
137.00399999999999
 31
0.0
  0
LINE
  5
1D0
  8
_________1
  6
AIGENLINE003
 62
     7
 10
23.666899999999998
 20
131.07299999999989
 30
0.0
 11
18.377800000000001
 21
131.07299999999989
 31
0.0
  0
LINE
  5
1D1
  8
_________1
  6
AIGENLINE003
 62
     7
 10
26.2578
 20
207.46000000000001
 30
0.0
 11
15.787599999999999
 21
207.46000000000001
 31
0.0
  0
LINE
  5
1D2
  8
_________1
  6
AIGENLINE003
 62
     7
 10
24.427299999999999
 20
226.96000000000001
 30
0.0
 11
17.618200000000002
 21
226.96000000000001
 31
0.0
  0
LINE
  5
1D3
  8
_________1
  6
AIGENLINE003
 62
     7
 10
21.022300000000001
 20
234.55000000000001
 30
0.0
 11
21.022300000000001
 21
199.05000000000001
 31
0.0
  0
LINE
  5
1D4
  8
_________1
 62
     7
 10
-57.038400000000003
 20
230.02799999999999
 30
0.0
 11
-52.038499999999999
 21
230.02799999999999
 31
0.0
  0
LINE
  5
1D5
  8
_________1
 62
     7
 10
-52.038499999999999
 20
230.02799999999999
 30
0.0
 11
-52.038499999999999
 21
231.52799999999999
 31
0.0
  0
LINE
  5
1D6
  8
_________1
 62
     7
 10
-52.038499999999999
 20
231.52799999999999
 30
0.0
 11
-57.038400000000003
 21
231.52799999999999
 31
0.0
  0
LINE
  5
1D7
  8
_________1
 62
     7
 10
-57.038400000000003
 20
231.52799999999999
 30
0.0
 11
-57.038400000000003
 21
230.02799999999999
 31
0.0
  0
ARC
  5
1D8
  8
_________1
 62
     7
 10
-17.555391
 20
188.880809
 30
0.0
 40
0.622787
 50
181.95102600000001
 51
267.91751599999998
  0
ARC
  5
1D9
  8
_________1
 62
     7
 10
60.400325000000002
 20
219.837774
 30
0.0
 40
0.6229230000000001
 50
2.058443
 51
87.925099000000003
  0
ARC
  5
1DA
  8
_________1
 62
     7
 10
-17.554714000000001
 20
219.837199
 30
0.0
 40
0.623525
 50
92.142260999999991
 51
177.89061000000001
  0
ARC
  5
1DB
  8
_________1
 62
     7
 10
19.730281000000002
 20
220.466161
 30
0.0
 40
0.207918
 50
181.6185439999999
 51
267.74241499999999
  0
ARC
  5
1DC
  8
_________1
 62
     7
 10
22.312759
 20
220.46779599999999
 30
0.0
 40
0.209658
 50
272.88918699999999
 51
357.94796100000002
  0
LINE
  5
1DD
  8
_________1
 62
     7
 10
22.3233
 20
220.25800000000001
 30
0.0
 11
19.722100000000001
 21
220.25800000000001
 31
0.0
  0
LINE
  5
1DE
  8
_________1
 62
     7
 10
69.552400000000006
 20
120.274
 30
0.0
 11
69.552400000000006
 21
134.07299999999989
 31
0.0
  0
ARC
  5
1DF
  8
_________1
 62
     7
 10
69.761285999999998
 20
134.06568899999999
 30
0.0
 40
0.208985
 50
92.476573000000002
 51
177.917181
  0
LINE
  5
1E0
  8
_________1
 62
     7
 10
69.752300000000005
 20
134.274
 30
0.0
 11
115.35299999999999
 21
134.274
 31
0.0
  0
ARC
  5
1E1
  8
_________1
 62
     7
 10
115.345034
 20
134.06725299999999
 30
0.0
 40
0.207387
 50
1.6665419999999991
 51
87.741759000000016
  0
LINE
  5
1E2
  8
_________1
 62
     7
 10
115.55200000000001
 20
134.07299999999989
 30
0.0
 11
115.55200000000001
 21
120.274
 31
0.0
  0
LINE
  5
1E3
  8
_________1
 62
     7
 10
115.55200000000001
 20
120.274
 30
0.0
 11
69.552400000000006
 21
120.274
 31
0.0
  0
LINE
  5
1E4
  8
_________1
 62
     7
 10
61.823700000000002
 20
120.274
 30
0.0
 11
61.823700000000002
 21
134.07299999999989
 31
0.0
  0
ARC
  5
1E5
  8
_________1
 62
     7
 10
61.614801999999997
 20
134.065652
 30
0.0
 40
0.209001
 50
2.0926419999999988
 51
87.661550000000005
  0
LINE
  5
1E6
  8
_________1
 62
     7
 10
61.6233
 20
134.274
 30
0.0
 11
-58.97829999999999
 21
134.274
 31
0.0
  0
ARC
  5
1E7
  8
_________1
 62
     7
 10
-58.970185999999991
 20
134.06655799999999
 30
0.0
 40
0.20808
 50
92.246014000000002
 51
178.14774
  0
LINE
  5
1E8
  8
_________1
 62
     7
 10
-59.17819999999999
 20
134.07299999999989
 30
0.0
 11
-59.17819999999999
 21
120.274
 31
0.0
  0
LINE
  5
1E9
  8
_________1
 62
     7
 10
-59.17819999999999
 20
120.274
 30
0.0
 11
61.823700000000002
 21
120.274
 31
0.0
  0
ARC
  5
1EA
  8
_________1
 62
     7
 10
21.156334999999999
 20
207.325737
 30
0.0
 40
3.6364230000000002
 50
92.112681000000023
 51
177.88728900000001
  0
ARC
  5
1EB
  8
_________1
 62
     7
 10
20.888650999999999
 20
207.326168
 30
0.0
 40
3.6359769999999991
 50
2.106158999999999
 51
87.893831000000006
  0
ARC
  5
1EC
  8
_________1
 62
     7
 10
20.888259999999999
 20
207.59381200000001
 30
0.0
 40
3.6363829999999999
 50
272.11211100000003
 51
357.887899
  0
ARC
  5
1ED
  8
_________1
 62
     7
 10
21.155937999999999
 20
207.59345400000001
 30
0.0
 40
3.636012
 50
182.10668899999999
 51
267.89334100000002
  0
ARC
  5
1EE
  8
_________1
 62
     7
 10
21.108599000000002
 20
207.373651
 30
0.0
 40
2.3377430000000001
 50
92.116123999999985
 51
177.88823199999999
  0
ARC
  5
1EF
  8
_________1
 62
     7
 10
20.935362999999999
 20
207.37288000000001
 30
0.0
 40
2.3385359999999991
 50
2.1299549999999989
 51
87.870035000000001
  0
ARC
  5
1F0
  8
_________1
 62
     7
 10
20.936122000000001
 20
207.54594900000001
 30
0.0
 40
2.3377500000000002
 50
272.11206800000002
 51
357.88794200000001
  0
ARC
  5
1F1
  8
_________1
 62
     7
 10
21.109217000000001
 20
207.54655500000001
 30
0.0
 40
2.3383829999999999
 50
182.12634199999999
 51
267.869302
  0
ARC
  5
1F2
  8
_________1
 62
     7
 10
21.089656999999999
 20
226.89264700000001
 30
0.0
 40
1.8185679999999991
 50
92.123310000000004
 51
177.88229999999999
  0
ARC
  5
1F3
  8
_________1
 62
     7
 10
20.954668999999999
 20
226.89241699999999
 30
0.0
 40
1.818806999999999
 50
2.1246640000000001
 51
87.869686999999999
  0
ARC
  5
1F4
  8
_________1
 62
     7
 10
20.955639000000001
 20
227.02666400000001
 30
0.0
 40
1.817815
 50
272.10087399999998
 51
357.89349499999997
  0
ARC
  5
1F5
  8
_________1
 62
     7
 10
21.089867999999999
 20
227.02761599999999
 30
0.0
 40
1.8187999999999991
 50
182.135366
 51
267.87030399999998
  0
LINE
  5
1F6
  8
_________1
 62
     7
 10
-18.177800000000001
 20
219.86000000000001
 30
0.0
 11
-18.177800000000001
 21
188.86000000000001
 31
0.0
  0
LINE
  5
1F7
  8
_________1
 62
     7
 10
60.422899999999998
 20
220.46000000000001
 30
0.0
 11
-17.577999999999999
 21
220.46000000000001
 31
0.0
  0
LINE
  5
1F8
  8
_________1
 62
     7
 10
61.022799999999997
 20
188.86000000000001
 30
0.0
 11
61.022799999999997
 21
232.06
 31
0.0
  0
ARC
  5
1F9
  8
_________1
 62
     7
 10
60.400125000000003
 20
232.036722
 30
0.0
 40
0.623142
 50
2.1089720000000001
 51
87.907471000000001
  0
LINE
  5
1FA
  8
_________1
 62
     7
 10
60.422899999999998
 20
232.65899999999999
 30
0.0
 11
-57.77879999999999
 21
232.65899999999999
 31
0.0
  0
ARC
  5
1FB
  8
_________1
 62
     7
 10
-57.75618399999999
 20
232.03744499999999
 30
0.0
 40
0.622413
 50
92.077772999999979
 51
177.955116
  0
LINE
  5
1FC
  8
_________1
 62
     7
 10
-58.3782
 20
232.06
 30
0.0
 11
-58.3782
 21
188.86000000000001
 31
0.0
  0
ARC
  5
1FD
  8
_________1
 62
     7
 10
-57.754100999999999
 20
188.882465
 30
0.0
 40
0.6245180000000001
 50
182.09764699999999
 51
267.737976
  0
LINE
  5
1FE
  8
_________1
 62
     7
 10
-57.77879999999999
 20
188.25800000000001
 30
0.0
 11
60.422899999999998
 21
188.25800000000001
 31
0.0
  0
ARC
  5
1FF
  8
_________1
 62
     7
 10
60.400252000000002
 20
188.88098199999999
 30
0.0
 40
0.622961
 50
272.08150999999998
 51
358.03353499999997
  0
LINE
  5
200
  8
_________1
 62
     7
 10
61.823700000000002
 20
188.059
 30
0.0
 11
61.823700000000002
 21
232.86099999999999
 31
0.0
  0
ARC
  5
201
  8
_________1
 62
     7
 10
61.201581999999988
 20
232.83761699999999
 30
0.0
 40
0.6225069999999999
 50
2.1198399999999991
 51
88.011789000000007
  0
LINE
  5
202
  8
_________1
 62
     7
 10
61.223199999999999
 20
233.46000000000001
 30
0.0
 11
-58.578400000000002
 21
233.46000000000001
 31
0.0
  0
ARC
  5
203
  8
_________1
 62
     7
 10
-58.55588199999999
 20
232.83744799999999
 30
0.0
 40
0.6227070000000001
 50
92.068864000000005
 51
177.86524900000001
  0
LINE
  5
204
  8
_________1
 62
     7
 10
-59.17819999999999
 20
232.86099999999999
 30
0.0
 11
-59.17819999999999
 21
188.059
 31
0.0
  0
ARC
  5
205
  8
_________1
 62
     7
 10
-58.556139999999999
 20
188.08155400000001
 30
0.0
 40
0.6224400000000001
 50
182.11190799999989
 51
267.953979
  0
LINE
  5
206
  8
_________1
 62
     7
 10
-58.578400000000002
 20
187.46000000000001
 30
0.0
 11
61.223199999999999
 21
187.46000000000001
 31
0.0
  0
ARC
  5
207
  8
_________1
 62
     7
 10
61.200684000000003
 20
188.08254199999999
 30
0.0
 40
0.6234380000000001
 50
272.06777899999997
 51
357.80059199999999
  0
INSERT
  5
208
  8
_________1
 62
     7
  2
AIGNBL02010012
 10
0.0
 20
0.0
 30
0.0
  0
LINE
  5
209
  8
_________1
 62
     7
 10
-41.650399999999998
 20
64.4619
 30
0.0
 11
-41.650399999999998
 21
57.536200000000001
 31
0.0
  0
LINE
  5
20A
  8
_________1
 62
     7
 10
-30.3994
 20
64.462599999999995
 30
0.0
 11
-30.401299999999999
 21
57.534500000000001
 31
0.0
  0
LINE
  5
20B
  8
_________1
 62
     7
 10
-26.651900000000001
 20
64.4619
 30
0.0
 11
-26.649899999999999
 21
57.534500000000001
 31
0.0
  0
LINE
  5
20C
  8
_________1
 62
     7
 10
-11.651400000000001
 20
64.462599999999995
 30
0.0
 11
-11.651899999999999
 21
57.534500000000001
 31
0.0
  0
LINE
  5
20D
  8
_________1
  6
AIGENLINE003
 62
     7
 10
-65.242599999999996
 20
55.709600000000002
 30
0.0
 11
-6.3540000000000001
 21
55.710299999999997
 31
0.0
  0
LINE
  5
20E
  8
_________1
 62
     7
 10
-58.862200000000001
 20
58.208999999999989
 30
0.0
 11
-58.703099999999992
 21
57.800800000000002
 31
0.0
  0
LINE
  5
20F
  8
_________1
 62
     7
 10
-58.863999999999997
 20
53.210900000000002
 30
0.0
 11
-58.703099999999992
 21
53.619100000000003
 31
0.0
  0
LINE
  5
210
  8
_________1
 62
     7
 10
-60.701900000000002
 20
53.618400000000001
 30
0.0
 11
-60.5426
 21
53.210900000000002
 31
0.0
  0
LINE
  5
211
  8
_________1
 62
     7
 10
-60.703800000000001
 20
57.800800000000002
 30
0.0
 11
-60.543500000000002
 21
58.210799999999999
 31
0.0
  0
LINE
  5
212
  8
_________1
 62
     7
 10
-60.701900000000002
 20
53.618400000000001
 30
0.0
 11
-60.703800000000001
 21
57.800800000000002
 31
0.0
  0
LINE
  5
213
  8
_________1
 62
     7
 10
-58.863999999999997
 20
53.210900000000002
 30
0.0
 11
-58.703099999999992
 21
53.619100000000003
 31
0.0
  0
LINE
  5
214
  8
_________1
 62
     7
 10
-58.701999999999998
 20
55.709600000000002
 30
0.0
 11
-58.703099999999992
 21
57.800800000000002
 31
0.0
  0
LINE
  5
215
  8
_________1
 62
     7
 10
-58.703099999999992
 20
53.619100000000003
 30
0.0
 11
-58.701999999999998
 21
55.709600000000002
 31
0.0
  0
LINE
  5
216
  8
_________1
 62
     7
 10
-60.543500000000002
 20
54.459699999999991
 30
0.0
 11
-58.862200000000001
 21
54.457999999999998
 31
0.0
  0
LINE
  5
217
  8
_________1
 62
     7
 10
-60.5426
 20
53.210900000000002
 30
0.0
 11
-58.863999999999997
 21
53.210900000000002
 31
0.0
  0
LINE
  5
218
  8
_________1
 62
     7
 10
-60.5426
 20
56.9602
 30
0.0
 11
-58.863999999999997
 21
56.9602
 31
0.0
  0
LINE
  5
219
  8
_________1
 62
     7
 10
-60.543500000000002
 20
58.210799999999999
 30
0.0
 11
-58.862200000000001
 21
58.208999999999989
 31
0.0
  0
ARC
  5
21A
  8
_________1
 62
     7
 10
-58.572592000000007
 20
57.399174000000002
 30
0.0
 40
2.1314310000000001
 50
157.61831599999999
 51
168.50632100000001
  0
ARC
  5
21B
  8
_________1
 62
     7
 10
-59.608428000000004
 20
57.588391000000001
 30
0.0
 40
1.078867
 50
167.392202
 51
180.154653
  0
ARC
  5
21C
  8
_________1
 62
     7
 10
-59.586011999999997
 20
56.580644999999997
 30
0.0
 40
1.029129999999999
 50
158.35817700000001
 51
167.30066400000001
  0
ARC
  5
21D
  8
_________1
 62
     7
 10
-57.021915999999997
 20
56.021151000000003
 30
0.0
 40
3.65354
 50
167.58089899999999
 51
175.333822
  0
ARC
  5
21E
  8
_________1
 62
     7
 10
-53.016092999999998
 20
55.717084
 30
0.0
 40
7.6708569999999998
 50
175.504232
 51
180.050678
  0
ARC
  5
21F
  8
_________1
 62
     7
 10
-58.519379000000001
 20
57.787896999999987
 30
0.0
 40
2.1859790000000001
 50
191.61550199999999
 51
202.24969300000001
  0
ARC
  5
220
  8
_________1
 62
     7
 10
-59.595064999999998
 20
57.587800999999999
 30
0.0
 40
1.0922279999999991
 50
180.121804
 51
192.69530800000001
  0
LINE
  5
221
  8
_________1
 62
     7
 10
-60.686900000000001
 20
53.835099999999997
 30
0.0
 11
-60.5426
 21
53.210900000000002
 31
0.0
  0
ARC
  5
222
  8
_________1
 62
     7
 10
-59.584040000000002
 20
54.841628
 30
0.0
 40
1.031833
 50
192.780068
 51
201.72308899999999
  0
ARC
  5
223
  8
_________1
 62
     7
 10
-57.001243000000002
 20
55.402267000000002
 30
0.0
 40
3.6747449999999988
 50
184.688581
 51
192.39669799999999
  0
ARC
  5
224
  8
_________1
 62
     7
 10
-53.005229
 20
55.699263999999992
 30
0.0
 40
7.6817250000000001
 50
179.917652
 51
184.46013199999999
  0
ARC
  5
225
  8
_________1
 62
     7
 10
-58.587274999999998
 20
53.651566000000003
 30
0.0
 40
2.1157499999999989
 50
157.54405499999999
 51
168.505402
  0
ARC
  5
226
  8
_________1
 62
     7
 10
-59.606189000000001
 20
53.835963999999997
 30
0.0
 40
1.080757999999999
 50
167.320729
 51
180.02623199999999
  0
LINE
  5
227
  8
_________1
 62
     7
 10
-58.717500000000001
 20
57.584400000000002
 30
0.0
 11
-58.862200000000001
 21
58.208999999999989
 31
0.0
  0
ARC
  5
228
  8
_________1
 62
     7
 10
-59.809573999999998
 20
56.584431000000002
 30
0.0
 40
1.0175350000000001
 50
13.005912
 51
21.671498
  0
ARC
  5
229
  8
_________1
 62
     7
 10
-62.333119000000003
 20
56.023007999999997
 30
0.0
 40
3.6027519999999988
 50
4.707948
 51
12.673423
  0
ARC
  5
22A
  8
_________1
 62
     7
 10
-66.530253000000002
 20
55.694299999999998
 30
0.0
 40
7.8127229999999992
 50
0.112305
 51
4.5840949999999987
  0
ARC
  5
22B
  8
_________1
 62
     7
 10
-60.911532999999999
 20
57.799563999999997
 30
0.0
 40
2.2129379999999998
 50
337.70950900000003
 51
348.21044999999998
  0
ARC
  5
22C
  8
_________1
 62
     7
 10
-59.800238999999998
 20
57.590992999999997
 30
0.0
 40
1.0827139999999991
 50
346.99927300000002
 51
359.65353800000003
  0
ARC
  5
22D
  8
_________1
 62
     7
 10
-60.908991999999998
 20
54.045448999999998
 30
0.0
 40
2.208769999999999
 50
337.79956400000009
 51
348.29665100000011
  0
ARC
  5
22E
  8
_________1
 62
     7
 10
-59.806167000000002
 20
53.83761299999999
 30
0.0
 40
1.086902
 50
347.23244399999999
 51
359.886999
  0
ARC
  5
22F
  8
_________1
 62
     7
 10
-59.779492000000012
 20
54.823143999999992
 30
0.0
 40
0.986242
 50
338.44212399999998
 51
347.37132500000013
  0
ARC
  5
230
  8
_________1
 62
     7
 10
-62.477241000000006
 20
55.413626000000001
 30
0.0
 40
3.7478489999999991
 50
347.57949000000002
 51
355.23413199999999
  0
ARC
  5
231
  8
_________1
 62
     7
 10
-66.757754000000006
 20
55.733778000000001
 30
0.0
 40
8.0402450000000005
 50
355.49493899999999
 51
359.82780200000002
  0
LINE
  5
232
  8
_________1
 62
     7
 10
-58.7194
 20
53.835099999999997
 30
0.0
 11
-58.862200000000001
 21
54.460799999999999
 31
0.0
  0
LINE
  5
233
  8
_________1
 62
     7
 10
-41.650100000000002
 20
56.584699999999998
 30
0.0
 11
-41.650399999999998
 21
54.834600000000002
 31
0.0
  0
LINE
  5
234
  8
_________1
 62
     7
 10
-41.400100000000002
 20
56.834400000000002
 30
0.0
 11
-41.401899999999991
 21
54.586500000000001
 31
0.0
  0
LINE
  5
235
  8
_________1
 62
     7
 10
-30.3994
 20
56.834400000000002
 30
0.0
 11
-30.401299999999999
 21
54.586500000000001
 31
0.0
  0
LINE
  5
236
  8
_________1
 62
     7
 10
-26.651900000000001
 20
56.834400000000002
 30
0.0
 11
-26.651900000000001
 21
54.586500000000001
 31
0.0
  0
LINE
  5
237
  8
_________1
 62
     7
 10
-14.065200000000001
 20
57.336399999999998
 30
0.0
 11
-12.784800000000001
 21
54.085900000000002
 31
0.0
  0
LINE
  5
238
  8
_________1
 62
     7
 10
-15.1737
 20
57.335700000000003
 30
0.0
 11
-13.8955
 21
54.085900000000002
 31
0.0
  0
LINE
  5
239
  8
_________1
 62
     7
 10
-16.283000000000001
 20
57.334699999999998
 30
0.0
 11
-15.004
 21
54.0852
 31
0.0
  0
LINE
  5
23A
  8
_________1
 62
     7
 10
-17.3932
 20
57.335700000000003
 30
0.0
 11
-16.113299999999999
 21
54.0852
 31
0.0
  0
LINE
  5
23B
  8
_________1
 62
     7
 10
-18.503699999999998
 20
57.334699999999998
 30
0.0
 11
-17.223500000000001
 21
54.0852
 31
0.0
  0
LINE
  5
23C
  8
_________1
 62
     7
 10
-19.613600000000002
 20
57.335700000000003
 30
0.0
 11
-18.332000000000001
 21
54.0852
 31
0.0
  0
LINE
  5
23D
  8
_________1
 62
     7
 10
-20.722899999999999
 20
57.335700000000003
 30
0.0
 11
-19.442699999999999
 21
54.0852
 31
0.0
  0
LINE
  5
23E
  8
_________1
 62
     7
 10
-21.831700000000001
 20
57.334699999999998
 30
0.0
 11
-20.550599999999999
 21
54.0852
 31
0.0
  0
LINE
  5
23F
  8
_________1
 62
     7
 10
-22.941199999999998
 20
57.335700000000003
 30
0.0
 11
-21.661300000000001
 21
54.085900000000002
 31
0.0
  0
LINE
  5
240
  8
_________1
 62
     7
 10
-24.050899999999999
 20
57.335700000000003
 30
0.0
 11
-22.770700000000001
 21
54.0852
 31
0.0
  0
LINE
  5
241
  8
_________1
 62
     7
 10
-25.1616
 20
57.335700000000003
 30
0.0
 11
-23.881699999999999
 21
54.0852
 31
0.0
  0
LINE
  5
242
  8
_________1
 62
     7
 10
-26.270900000000001
 20
57.335700000000003
 30
0.0
 11
-24.991399999999999
 21
54.085900000000002
 31
0.0
  0
LINE
  5
243
  8
_________1
 62
     7
 10
-11.651400000000001
 20
55.709600000000002
 30
0.0
 11
-13.1523
 21
54.584800000000001
 31
0.0
  0
LINE
  5
244
  8
_________1
 62
     7
 10
-29.1509
 20
56.5854
 30
0.0
 11
-29.402000000000001
 21
56.835099999999997
 31
0.0
  0
LINE
  5
245
  8
_________1
 62
     7
 10
-29.402000000000001
 20
54.585500000000003
 30
0.0
 11
-29.151399999999999
 21
54.8352
 31
0.0
  0
LINE
  5
246
  8
_________1
 62
     7
 10
-26.651900000000001
 20
54.834600000000002
 30
0.0
 11
-29.151399999999999
 21
54.8352
 31
0.0
  0
LINE
  5
247
  8
_________1
 62
     7
 10
-26.651900000000001
 20
56.584699999999998
 30
0.0
 11
-29.1509
 21
56.5854
 31
0.0
  0
LINE
  5
248
  8
_________1
 62
     7
 10
-41.400100000000002
 20
56.834400000000002
 30
0.0
 11
-29.402000000000001
 21
56.835099999999997
 31
0.0
  0
LINE
  5
249
  8
_________1
 62
     7
 10
-41.401899999999991
 20
54.586500000000001
 30
0.0
 11
-29.402000000000001
 21
54.585500000000003
 31
0.0
  0
LINE
  5
24A
  8
_________1
 62
     7
 10
-41.650399999999998
 20
54.834600000000002
 30
0.0
 11
-30.401599999999998
 21
54.834600000000002
 31
0.0
  0
LINE
  5
24B
  8
_________1
 62
     7
 10
-41.650100000000002
 20
56.584699999999998
 30
0.0
 11
-30.401599999999998
 21
56.5854
 31
0.0
  0
LINE
  5
24C
  8
_________1
 62
     7
 10
-41.650100000000002
 20
56.584699999999998
 30
0.0
 11
-41.400100000000002
 21
56.834400000000002
 31
0.0
  0
LINE
  5
24D
  8
_________1
 62
     7
 10
-30.401599999999998
 20
56.5854
 30
0.0
 11
-30.150600000000001
 21
56.835099999999997
 31
0.0
  0
LINE
  5
24E
  8
_________1
 62
     7
 10
-30.401599999999998
 20
54.834600000000002
 30
0.0
 11
-30.150600000000001
 21
54.586500000000001
 31
0.0
  0
LINE
  5
24F
  8
_________1
 62
     7
 10
-41.401899999999991
 20
54.586500000000001
 30
0.0
 11
-41.650399999999998
 21
54.834600000000002
 31
0.0
  0
LINE
  5
250
  8
_________1
 62
     7
 10
-13.1523
 20
56.836199999999998
 30
0.0
 11
-26.651900000000001
 21
56.835099999999997
 31
0.0
  0
LINE
  5
251
  8
_________1
 62
     7
 10
-13.1523
 20
54.584800000000001
 30
0.0
 11
-26.651900000000001
 21
54.586500000000001
 31
0.0
  0
LINE
  5
252
  8
_________1
 62
     7
 10
-13.1523
 20
56.836199999999998
 30
0.0
 11
-11.651400000000001
 21
55.709600000000002
 31
0.0
  0
LINE
  5
253
  8
_________1
 62
     7
 10
-53.881500000000003
 20
59.459600000000002
 30
0.0
 11
-53.881500000000003
 21
51.959600000000002
 31
0.0
  0
LINE
  5
254
  8
_________1
 62
     7
 10
-54.381500000000003
 20
59.459600000000002
 30
0.0
 11
-53.881500000000003
 21
59.459600000000002
 31
0.0
  0
LINE
  5
255
  8
_________1
 62
     7
 10
-54.381500000000003
 20
51.959600000000002
 30
0.0
 11
-54.381500000000003
 21
59.459600000000002
 31
0.0
  0
LINE
  5
256
  8
_________1
 62
     7
 10
-53.881500000000003
 20
51.959600000000002
 30
0.0
 11
-54.381500000000003
 21
51.959600000000002
 31
0.0
  0
LINE
  5
257
  8
_________1
 62
     7
 10
-50.162500000000001
 20
58.772300000000001
 30
0.0
 11
-50.162500000000001
 21
52.646900000000002
 31
0.0
  0
LINE
  5
258
  8
_________1
 62
     7
 10
-50.412700000000001
 20
58.772300000000001
 30
0.0
 11
-50.162500000000001
 21
58.772300000000001
 31
0.0
  0
LINE
  5
259
  8
_________1
 62
     7
 10
-50.412700000000001
 20
52.646900000000002
 30
0.0
 11
-50.412700000000001
 21
58.772300000000001
 31
0.0
  0
LINE
  5
25A
  8
_________1
 62
     7
 10
-50.162500000000001
 20
52.646900000000002
 30
0.0
 11
-50.412700000000001
 21
52.646900000000002
 31
0.0
  0
LINE
  5
25B
  8
_________1
 62
     7
 10
-49.412599999999991
 20
60.459400000000002
 30
0.0
 11
-49.412599999999991
 21
50.959499999999998
 31
0.0
  0
LINE
  5
25C
  8
_________1
 62
     7
 10
-50.162500000000001
 20
60.459400000000002
 30
0.0
 11
-49.412599999999991
 21
60.459400000000002
 31
0.0
  0
LINE
  5
25D
  8
_________1
 62
     7
 10
-50.162500000000001
 20
50.959499999999998
 30
0.0
 11
-50.162500000000001
 21
60.459400000000002
 31
0.0
  0
LINE
  5
25E
  8
_________1
 62
     7
 10
-49.412599999999991
 20
50.959499999999998
 30
0.0
 11
-50.162500000000001
 21
50.959499999999998
 31
0.0
  0
LINE
  5
25F
  8
_________1
 62
     7
 10
-45.912399999999991
 20
57.334699999999998
 30
0.0
 11
-45.912399999999991
 21
54.084200000000003
 31
0.0
  0
LINE
  5
260
  8
_________1
 62
     7
 10
-49.412599999999991
 20
57.334699999999998
 30
0.0
 11
-45.912399999999991
 21
57.334699999999998
 31
0.0
  0
LINE
  5
261
  8
_________1
 62
     7
 10
-49.412599999999991
 20
54.084200000000003
 30
0.0
 11
-49.412599999999991
 21
57.334699999999998
 31
0.0
  0
LINE
  5
262
  8
_________1
 62
     7
 10
-45.912399999999991
 20
54.084200000000003
 30
0.0
 11
-49.412599999999991
 21
54.084200000000003
 31
0.0
  0
TEXT
  5
263
  8
_________2
 62
     7
 10
159.49600000000001
 20
103.04000000000001
 30
0.0
 40
3.9357000000000002
  1
8.1L
 41
0.5
  0
TEXT
  5
264
  8
_________2
 62
     7
 10
129.49600000000001
 20
102.899
 30
0.0
 40
3.9357000000000002
  1
実容量
 41
0.5
  0
LINE
  5
265
  8
_________2
 62
     7
 10
126.95699999999999
 20
108.554
 30
0.0
 11
286.959
 21
108.554
 31
0.0
  0
TEXT
  5
266
  8
_________2
 62
     7
 10
159.49600000000001
 20
110.80200000000001
 30
0.0
 40
3.9357000000000002
  1
あり
 41
0.5
  0
TEXT
  5
267
  8
_________2
 62
     7
 10
129.49600000000001
 20
118.42400000000001
 30
0.0
 40
3.9357000000000002
  1
分類
 41
0.5
  0
TEXT
  5
268
  8
_________2
 62
     7
 10
129.49600000000001
 20
126.187
 30
0.0
 40
3.9357000000000002
  1
用途
 41
0.5
  0
TEXT
  5
269
  8
_________2
 62
     7
 10
159.49600000000001
 20
126.187
 30
0.0
 40
3.9357000000000002
  1
一般住宅用（屋内用）
 41
0.5
  0
LINE
  5
26A
  8
_________2
 62
     7
 10
156.95699999999999
 20
131.84100000000001
 30
0.0
 11
156.95699999999999
 21
61.980800000000002
 31
0.0
  0
LINE
  5
26B
  8
_________2
 62
     7
 10
286.959
 20
131.84100000000001
 30
0.0
 11
126.95699999999999
 21
131.84100000000001
 31
0.0
  0
LINE
  5
26C
  8
_________2
 62
     7
 10
126.95699999999999
 20
131.84100000000001
 30
0.0
 11
126.95699999999999
 21
61.980800000000002
 31
0.0
  0
LINE
  5
26D
  8
_________2
 62
     7
 10
126.95699999999999
 20
61.980800000000002
 30
0.0
 11
286.959
 21
61.980800000000002
 31
0.0
  0
LINE
  5
26E
  8
_________2
 62
     7
 10
286.959
 20
61.980800000000002
 30
0.0
 11
286.959
 21
131.84100000000001
 31
0.0
  0
TEXT
  5
26F
  8
_________2
 62
     7
 10
159.49600000000001
 20
118.42400000000001
 30
0.0
 40
3.9357000000000002
  1
壁付
 41
0.5
  0
LINE
  5
270
  8
_________2
 62
     7
 10
126.95699999999999
 20
124.07899999999999
 30
0.0
 11
286.959
 21
124.07899999999999
 31
0.0
  0
TEXT
  5
271
  8
_________2
 62
     7
 10
129.49600000000001
 20
110.66200000000001
 30
0.0
 40
3.9357000000000002
  1
オーバーフロー
 41
0.5
  0
LINE
  5
272
  8
_________2
 62
     7
 10
126.95699999999999
 20
116.316
 30
0.0
 11
286.959
 21
116.316
 31
0.0
  0
TEXT
  5
273
  8
_________2
 62
     7
 10
129.49600000000001
 20
95.277799999999985
 30
0.0
 40
3.9357000000000002
  1
本体重量
 41
0.5
  0
TEXT
  5
274
  8
_________2
 62
     7
 10
129.49600000000001
 20
87.515600000000006
 30
0.0
 40
3.9357000000000002
  1
設置条件
 41
0.5
  0
TEXT
  5
275
  8
_________2
 62
     7
 10
159.49600000000001
 20
64.100499999999997
 30
0.0
 40
3.9357000000000002
  1
破損するおそれがありますので、60℃以上の熱湯を流さないでください。
 41
0.5
  0
LINE
  5
276
  8
_________2
 62
     7
 10
156.95699999999999
 20
69.742999999999995
 30
0.0
 11
286.959
 21
69.742999999999995
 31
0.0
  0
TEXT
  5
277
  8
_________2
 62
     7
 10
159.49600000000001
 20
71.862700000000004
 30
0.0
 40
3.9357000000000002
  1
水はねや水があふれるおそれがありますので、止水栓で適切な流量に調整してください。
 41
0.5
  0
LINE
  5
278
  8
_________2
 62
     7
 10
156.95699999999999
 20
77.505099999999999
 30
0.0
 11
286.959
 21
77.505099999999999
 31
0.0
  0
TEXT
  5
279
  8
_________2
 62
     7
 10
129.49600000000001
 20
79.624899999999997
 30
0.0
 40
3.9357000000000002
  1
特記事項
 41
0.5
  0
TEXT
  5
27A
  8
_________2
 62
     7
 10
159.49600000000001
 20
95.277799999999985
 30
0.0
 40
3.9357000000000002
  1
29.0kg
 41
0.5
  0
LINE
  5
27B
  8
_________2
 62
     7
 10
126.95699999999999
 20
100.792
 30
0.0
 11
286.959
 21
100.792
 31
0.0
  0
TEXT
  5
27C
  8
_________2
 62
     7
 10
159.49600000000001
 20
87.515600000000006
 30
0.0
 40
3.9357000000000002
  1
壁面の仕上げは厚さ13mm以下とし、取付部には厚さ30mm以上の補強木を入れてください。
 41
0.5
  0
TEXT
  5
27F
  8
_________2
 62
     7
 10
159.49600000000001
 20
79.624899999999997
 30
0.0
 40
3.9357000000000002
  1
陶器製品は製造の過程で寸法公差や反りが生じます。
 41
0.5
  0
LINE
  5
280
  8
_________2
 62
     7
 10
126.95699999999999
 20
93.029499999999999
 30
0.0
 11
286.959
 21
93.029499999999999
 31
0.0
  0
LINE
  5
281
  8
_________2
 62
     7
 10
126.95699999999999
 20
85.267300000000006
 30
0.0
 11
286.959
 21
85.267300000000006
 31
0.0
  0
TEXT
  5
282
  8
_________2
 62
     7
 10
200.0002361666667
 20
34.465299999999999
 30
0.0
 40
3.6545800000000002
  1
1 ： 10
 41
0.5
 72
     1
 11
203.86799999999999
 21
34.465299999999999
 31
0.0
  0
TEXT
  5
283
  8
_________2
 62
     7
 10
248.21039999999999
 20
30.3553
 30
0.0
 40
3.9357000000000002
  1
SB5122
 41
0.5
 72
     1
 11
253.458
 21
30.3553
 31
0.0
  0
TEXT
  5
284
  8
_________2
 62
     7
 10
149.27189066666671
 20
34.850499999999997
 30
0.0
 40
3.6545800000000002
  1
井伊
 41
0.5
 72
     1
 11
151.221
 21
34.850499999999997
 31
0.0
  0
TEXT
  5
285
  8
_________2
 62
     7
 10
130.69789066666669
 20
34.850499999999997
 30
0.0
 40
3.6545800000000002
  1
飯塚
 41
0.5
 72
     1
 11
132.64699999999999
 21
34.850499999999997
 31
0.0
  0
TEXT
  5
286
  8
_________2
 62
     7
 10
177.69399999999999
 20
34.465299999999999
 30
0.0
 40
3.6545800000000002
  1
20.02.21
 41
0.5
  0
TEXT
  5
287
  8
_________2
 62
     7
 10
290.64778333333328
 20
12.808299999999999
 30
0.0
 40
3.3734599999999988
  1
A3
 41
0.5
 72
     2
 11
293.459
 21
12.808299999999999
 31
0.0
  0
LINE
  5
288
  8
_________2
 62
     7
 10
315.209
 20
148.65899999999999
 30
0.0
 11
293.459
 21
148.65899999999999
 31
0.0
  0
LINE
  5
289
  8
_________2
 62
     7
 10
105.20699999999999
 20
17.156300000000002
 30
0.0
 11
105.20699999999999
 21
0.176045
 31
0.0
  0
LINE
  5
28A
  8
_________2
 62
     7
 10
105.20699999999999
 20
297.178
 30
0.0
 11
105.20699999999999
 21
280.15800000000002
 31
0.0
  0
LINE
  5
28B
  8
_________2
 62
     7
 10
-83.043899999999994
 20
148.65899999999999
 30
0.0
 11
-104.794
 21
148.65899999999999
 31
0.0
  0
INSERT
  5
28C
  8
_________2
 62
     7
  2
AIGNBL03010002
 10
0.0
 20
0.0
 30
0.0
  0
TEXT
  5
28D
  8
_________2
 62
     7
 10
214.51300000000001
 20
22.9269
 30
0.0
 40
3.0923400000000001
  1
図番
 41
0.5
  0
LINE
  5
28E
  8
_________2
 62
     7
 10
213.458
 20
27.156099999999999
 30
0.0
 11
293.459
 21
27.156099999999999
 31
0.0
  0
TEXT
  5
28F
  8
_________2
 62
     7
 10
214.51300000000001
 20
32.926699999999997
 30
0.0
 40
3.0923400000000001
  1
品番
 41
0.5
  0
TEXT
  5
290
  8
_________2
 62
     7
 10
214.51300000000001
 20
53.0655
 30
0.0
 40
3.0923400000000001
  1
名称
 41
0.5
  0
TEXT
  5
291
  8
_________2
 62
     7
 10
201.75325833333329
 20
48.069400000000002
 30
0.0
 40
3.6545800000000002
  1
mm
 41
0.5
 72
     1
 11
203.27600000000001
 21
48.069400000000002
 31
0.0
  0
TEXT
  5
292
  8
_________2
 62
     7
 10
195.55099999999999
 20
53.0655
 30
0.0
 40
3.0923400000000001
  1
単位
 41
0.5
  0
TEXT
  5
293
  8
_________2
 62
     7
 10
195.55099999999999
 20
40.658200000000001
 30
0.0
 40
3.0923400000000001
  1
尺度
 41
0.5
  0
TEXT
  5
294
  8
_________2
 62
     7
 10
248.21039999999999
 20
20.354800000000001
 30
0.0
 40
3.9357000000000002
  1
SB5122
 41
0.5
 72
     1
 11
253.458
 21
20.354800000000001
 31
0.0
  0
TEXT
  5
295
  8
_________2
 62
     7
 10
219.08699999999999
 20
45.473100000000002
 30
0.0
 40
3.9357000000000002
  1
TR2 洗面器
 41
0.5
  0
TEXT
  5
296
  8
_________2
 62
     7
 10
176.501
 20
40.658200000000001
 30
0.0
 40
3.0923400000000001
  1
日付
 41
0.5
  0
TEXT
  5
297
  8
_________2
 62
     7
 10
139.547
 20
40.658200000000001
 30
0.0
 40
3.0923400000000001
  1
検図
 41
0.5
  0
TEXT
  5
298
  8
_________2
 62
     7
 10
127.929
 20
26.4588
 30
0.0
 40
3.0923400000000001
  1
備考
 41
0.5
  0
TEXT
  5
299
  8
_________2
 62
     7
 10
127.929
 20
40.658200000000001
 30
0.0
 40
3.0923400000000001
  1
製図
 41
0.5
  0
TEXT
  5
29A
  8
_________2
 62
     7
 10
133.69596533333331
 20
49.184199999999997
 30
0.0
 40
4.4979399999999989
  1
セラトレーディング株式会社
 41
0.5
 72
     1
 11
151.08799999999999
 21
49.184199999999997
 31
0.0
  0
LINE
  5
29B
  8
_________2
 62
     7
 10
293.459
 20
17.156300000000002
 30
0.0
 11
-83.043899999999994
 21
17.156300000000002
 31
0.0
  0
LINE
  5
29C
  8
_________2
 62
     7
 10
-83.043899999999994
 20
17.156300000000002
 30
0.0
 11
-83.043899999999994
 21
280.15800000000002
 31
0.0
  0
LINE
  5
29D
  8
_________2
 62
     7
 10
-83.043899999999994
 20
280.15800000000002
 30
0.0
 11
293.459
 21
280.15800000000002
 31
0.0
  0
LINE
  5
29E
  8
_________2
 62
     7
 10
293.459
 20
280.15800000000002
 30
0.0
 11
293.459
 21
17.156300000000002
 31
0.0
  0
LINE
  5
29F
  8
_________2
 62
     7
 10
175.458
 20
30.656400000000001
 30
0.0
 11
175.458
 21
57.156199999999998
 31
0.0
  0
LINE
  5
2A0
  8
_________2
 62
     7
 10
194.458
 20
30.656400000000001
 30
0.0
 11
194.458
 21
57.156199999999998
 31
0.0
  0
LINE
  5
2A1
  8
_________2
 62
     7
 10
126.95699999999999
 20
17.156300000000002
 30
0.0
 11
126.95699999999999
 21
57.156199999999998
 31
0.0
  0
LINE
  5
2A2
  8
_________2
 62
     7
 10
213.458
 20
17.156300000000002
 30
0.0
 11
213.458
 21
57.156199999999998
 31
0.0
  0
LINE
  5
2A3
  8
_________2
 62
     7
 10
138.45699999999999
 20
30.656400000000001
 30
0.0
 11
138.45699999999999
 21
44.65659999999999
 31
0.0
  0
LINE
  5
2A4
  8
_________2
 62
     7
 10
126.95699999999999
 20
30.656400000000001
 30
0.0
 11
213.458
 21
30.656400000000001
 31
0.0
  0
LINE
  5
2A5
  8
_________2
 62
     7
 10
126.95699999999999
 20
44.65659999999999
 30
0.0
 11
213.458
 21
44.65659999999999
 31
0.0
  0
LINE
  5
2A6
  8
_________2
 62
     7
 10
213.458
 20
37.15590000000001
 30
0.0
 11
293.459
 21
37.15590000000001
 31
0.0
  0
LINE
  5
2A7
  8
_________2
 62
     7
 10
126.95699999999999
 20
57.156199999999998
 30
0.0
 11
293.459
 21
57.156199999999998
 31
0.0
  0
ENDSEC
  0
EOF
