  0
SECTION
  2
HEADER
  9
$ACADVER
  1
AC1009
  9
$INSBASE
 10
0.0
 20
0.0
 30
0.0
  9
$EXTMIN
 10
0.0614953
 20
0.272164
 30
0.0
  9
$EXTMAX
 10
210.06399999999999
 20
297.27399999999989
 30
0.0
  9
$LIMMIN
 10
0.0
 20
0.0
  9
$LIMMAX
 10
12.0
 20
9.0
  9
$ORTHOMODE
 70
     0
  9
$REGENMODE
 70
     1
  9
$FILLMODE
 70
     1
  9
$QTEXTMODE
 70
     0
  9
$MIRRTEXT
 70
     1
  9
$DRAGMODE
 70
     2
  9
$LTSCALE
 40
1.0
  9
$OSMODE
 70
    37
  9
$ATTMODE
 70
     1
  9
$TEXTSIZE
 40
0.0
  9
$TRACEWID
 40
0.05
  9
$TEXTSTYLE
  7
STANDARD
  9
$CLAYER
  8
0
  9
$CELTYPE
  6
CONTINUOUS
  9
$CECOLOR
 62
   256
  9
$DIMSCALE
 40
1.0
  9
$DIMASZ
 40
0.18
  9
$DIMEXO
 40
0.0625
  9
$DIMDLI
 40
0.38
  9
$DIMRND
 40
0.0
  9
$DIMDLE
 40
0.0
  9
$DIMEXE
 40
0.18
  9
$DIMTP
 40
0.0
  9
$DIMTM
 40
0.0
  9
$DIMTXT
 40
0.18
  9
$DIMCEN
 40
0.09
  9
$DIMTSZ
 40
0.0
  9
$DIMTOL
 70
     0
  9
$DIMLIM
 70
     0
  9
$DIMTIH
 70
     1
  9
$DIMTOH
 70
     1
  9
$DIMSE1
 70
     0
  9
$DIMSE2
 70
     0
  9
$DIMTAD
 70
     0
  9
$DIMZIN
 70
     0
  9
$DIMBLK
  1

  9
$DIMASO
 70
     1
  9
$DIMSHO
 70
     1
  9
$DIMPOST
  1

  9
$DIMAPOST
  1

  9
$DIMALT
 70
     0
  9
$DIMALTD
 70
     2
  9
$DIMALTF
 40
25.399999999999999
  9
$DIMLFAC
 40
1.0
  9
$DIMTOFL
 70
     0
  9
$DIMTVP
 40
0.0
  9
$DIMTIX
 70
     0
  9
$DIMSOXD
 70
     0
  9
$DIMSAH
 70
     0
  9
$DIMBLK1
  1

  9
$DIMBLK2
  1

  9
$DIMSTYLE
  2
STANDARD
  9
$DIMCLRD
 70
     0
  9
$DIMCLRE
 70
     0
  9
$DIMCLRT
 70
     0
  9
$DIMTFAC
 40
1.0
  9
$DIMGAP
 40
0.09
  9
$LUNITS
 70
     2
  9
$LUPREC
 70
     4
  9
$SKETCHINC
 40
0.1
  9
$FILLETRAD
 40
0.0
  9
$AUNITS
 70
     0
  9
$AUPREC
 70
     0
  9
$MENU
  1
.
  9
$ELEVATION
 40
0.0
  9
$PELEVATION
 40
0.0
  9
$THICKNESS
 40
0.0
  9
$LIMCHECK
 70
     0
  9
$BLIPMODE
 70
     0
  9
$CHAMFERA
 40
0.0
  9
$CHAMFERB
 40
0.0
  9
$SKPOLY
 70
     0
  9
$TDCREATE
 40
2444972.375
  9
$TDUPDATE
 40
2456317.2472752081
  9
$TDINDWG
 40
0.0000085301
  9
$TDUSRTIMER
 40
0.0000085301
  9
$USRTIMER
 70
     1
  9
$ANGBASE
 50
0.0
  9
$ANGDIR
 70
     0
  9
$PDMODE
 70
     0
  9
$PDSIZE
 40
0.0
  9
$PLINEWID
 40
0.0
  9
$COORDS
 70
     1
  9
$SPLFRAME
 70
     0
  9
$SPLINETYPE
 70
     6
  9
$SPLINESEGS
 70
     8
  9
$ATTDIA
 70
     0
  9
$ATTREQ
 70
     1
  9
$HANDLING
 70
     1
  9
$HANDSEED
  5
228
  9
$SURFTAB1
 70
     6
  9
$SURFTAB2
 70
     6
  9
$SURFTYPE
 70
     6
  9
$SURFU
 70
     6
  9
$SURFV
 70
     6
  9
$UCSNAME
  2

  9
$UCSORG
 10
0.0
 20
0.0
 30
0.0
  9
$UCSXDIR
 10
1.0
 20
0.0
 30
0.0
  9
$UCSYDIR
 10
0.0
 20
1.0
 30
0.0
  9
$PUCSNAME
  2

  9
$PUCSORG
 10
0.0
 20
0.0
 30
0.0
  9
$PUCSXDIR
 10
1.0
 20
0.0
 30
0.0
  9
$PUCSYDIR
 10
0.0
 20
1.0
 30
0.0
  9
$USERI1
 70
     0
  9
$USERI2
 70
     0
  9
$USERI3
 70
     0
  9
$USERI4
 70
     0
  9
$USERI5
 70
     0
  9
$USERR1
 40
0.0
  9
$USERR2
 40
0.0
  9
$USERR3
 40
0.0
  9
$USERR4
 40
0.0
  9
$USERR5
 40
0.0
  9
$WORLDVIEW
 70
     1
  9
$SHADEDGE
 70
     3
  9
$SHADEDIF
 70
    70
  9
$TILEMODE
 70
     1
  9
$MAXACTVP
 70
    48
  9
$PLIMCHECK
 70
     0
  9
$PEXTMIN
 10
1.0000000000000000E+020
 20
1.0000000000000000E+020
 30
1.0000000000000000E+020
  9
$PEXTMAX
 10
-1.0000000000000000E+020
 20
-1.0000000000000000E+020
 30
-1.0000000000000000E+020
  9
$PLIMMIN
 10
0.0
 20
0.0
  9
$PLIMMAX
 10
12.0
 20
9.0
  9
$UNITMODE
 70
     0
  9
$VISRETAIN
 70
     1
  9
$PLINEGEN
 70
     0
  9
$PSLTSCALE
 70
     1
  0
ENDSEC
  0
SECTION
  2
TABLES
  0
TABLE
  2
VPORT
 70
     2
  0
VPORT
  2
*ACTIVE
 70
     0
 10
0.0
 20
0.0
 11
1.0
 21
1.0
 12
210.13847447279559
 22
148.63699999999989
 13
0.0
 23
0.0
 14
1.0
 24
1.0
 15
0.0
 25
0.0
 16
0.0
 26
0.0
 36
1.0
 17
0.0
 27
0.0
 37
0.0
 40
299.52040302267
 41
2.2894736842105261
 42
50.0
 43
0.0
 44
0.0
 50
0.0
 51
0.0
 71
     0
 72
   100
 73
     1
 74
     1
 75
     0
 76
     0
 77
     0
 78
     0
  0
ENDTAB
  0
TABLE
  2
LTYPE
 70
     4
  0
LTYPE
  2
CONTINUOUS
 70
     0
  3
Solid line
 72
    65
 73
     0
 40
0.0
  0
LTYPE
  2
AIGENLINE001
 70
     0
  3
generate AI->DXF Converter
 72
    65
 73
     4
 40
5.8561449999999988
 49
3.5278
 49
-0.776115
 49
0.776115
 49
-0.776115
  0
LTYPE
  2
AIGENLINE002
 70
     0
  3
generate AI->DXF Converter
 72
    65
 73
     2
 40
1.5522299999999991
 49
0.776115
 49
-0.776115
  0
LTYPE
  2
AIGENLINE003
 70
     0
  3
generate AI->DXF Converter
 72
    65
 73
     6
 40
7.4083750000000004
 49
3.5278
 49
-0.776115
 49
0.776115
 49
-0.776115
 49
0.776115
 49
-0.776115
  0
ENDTAB
  0
TABLE
  2
LAYER
 70
     2
  0
LAYER
  2
0
 70
     0
 62
     7
  6
CONTINUOUS
  0
LAYER
  2
_________2
 70
     0
 62
     7
  6
CONTINUOUS
  0
ENDTAB
  0
TABLE
  2
STYLE
 70
     1
  0
STYLE
  2
STANDARD
 70
     0
 40
0.0
 41
0.0
 50
0.0
 71
     0
 42
0.0
  3
TXT
  4
EXTFONT.SHX
  0
ENDTAB
  0
TABLE
  2
VIEW
 70
     0
  0
ENDTAB
  0
TABLE
  2
UCS
 70
     0
  0
ENDTAB
  0
TABLE
  2
APPID
 70
     1
  0
APPID
  2
ACAD
 70
     0
  0
ENDTAB
  0
TABLE
  2
DIMSTYLE
 70
     1
  0
DIMSTYLE
  2
STANDARD
 70
     0
  3

  4

  5

  6

  7

 40
1.0
 41
0.18
 42
0.0625
 43
0.38
 44
0.18
 45
0.0
 46
0.0
 47
0.0
 48
0.0
140
0.18
141
0.09
142
0.0
143
25.399999999999999
144
1.0
145
0.0
146
1.0
147
0.09
 71
     0
 72
     0
 73
     1
 74
     1
 75
     0
 76
     0
 77
     0
 78
     0
170
     0
171
     2
172
     0
173
     0
174
     0
175
     0
176
     0
177
     0
178
     0
  0
ENDTAB
  0
ENDSEC
  0
SECTION
  2
BLOCKS
  0
BLOCK
  8
0
  2
$MODEL_SPACE
 70
     0
 10
0.0
 20
0.0
 30
0.0
  3
$MODEL_SPACE
  1

  0
ENDBLK
  5
1A
  8
0
  0
BLOCK
 67
     1
  8
0
  2
$PAPER_SPACE
 70
     0
 10
0.0
 20
0.0
 30
0.0
  3
$PAPER_SPACE
  1

  0
ENDBLK
  5
17
 67
     1
  8
0
  0
ENDSEC
  0
SECTION
  2
ENTITIES
  0
TEXT
  5
24
  8
0
 62
     7
 10
137.20175999999989
 20
163.92099999999999
 30
0.0
 40
3.0923400000000001
  1
カウンター切込寸法
 41
0.5
 72
     1
 11
145.44799999999989
 21
163.92099999999999
 31
0.0
  0
TEXT
  5
25
  8
0
 62
     7
 10
150.58164600000001
 20
222.89699999999999
 30
0.0
 40
3.0923400000000001
  1
手洗器後端
 41
0.5
 72
     1
 11
155.01400000000001
 21
222.89699999999999
 31
0.0
  0
LINE
  5
26
  8
0
 62
     7
 10
156.76199999999989
 20
222.047
 30
0.0
 11
155.01400000000001
 21
219.01900000000001
 31
0.0
  0
LINE
  5
27
  8
0
 62
     7
 10
155.01400000000001
 20
219.01900000000001
 30
0.0
 11
153.26599999999991
 21
222.047
 31
0.0
  0
LINE
  5
28
  8
0
 62
     7
 10
153.26599999999991
 20
222.047
 30
0.0
 11
156.76199999999989
 21
222.047
 31
0.0
  0
TEXT
  5
29
  8
0
 62
     7
 10
159.28299999999999
 20
197.839
 30
0.0
 40
3.0923400000000001
  1
R10
 41
0.5
  0
TEXT
  5
2A
  8
0
 62
     7
 10
128.26296500000001
 20
197.839
 30
0.0
 40
3.0923400000000001
  1
R10
 41
0.5
 72
     2
 11
131.613
 21
197.839
 31
0.0
  0
TEXT
  5
2B
  8
0
 62
     7
 10
143.27684499999989
 20
100.371
 30
0.0
 40
3.092309999999999
  1
115
 41
0.5
 72
     1
 11
144.82299999999989
 21
100.371
 31
0.0
  0
TEXT
  5
2C
  8
0
 62
     7
 10
175.25999999999991
 20
210.28584499999991
 30
0.0
 40
3.092309999999999
  1
115
 50
90.0
 41
0.5
 72
     1
 11
175.25999999999991
 21
211.83199999999991
 31
0.0
  0
TEXT
  5
2D
  8
0
 62
     7
 10
182.24700000000001
 20
204.71515249999999
 30
0.0
 40
3.092309999999999
  1
200
 50
90.0
 41
0.5
 72
     1
 11
182.24700000000001
 21
206.51900000000001
 31
0.0
  0
TEXT
  5
2E
  8
0
 62
     7
 10
151.0153062499999
 20
180.19499999999991
 30
0.0
 40
3.092309999999999
  1
240
 41
0.5
 72
     1
 11
152.94799999999989
 21
180.19499999999991
 31
0.0
  0
TEXT
  5
2F
  8
0
 62
     7
 10
128.77299874999991
 20
180.19499999999991
 30
0.0
 40
3.092309999999999
  1
120
 41
0.5
 72
     1
 11
130.44799999999989
 21
180.19499999999991
 31
0.0
  0
TEXT
  5
30
  8
0
 62
     7
 10
143.5153062499999
 20
173.13200000000001
 30
0.0
 40
3.092309999999999
  1
360
 41
0.5
 72
     1
 11
145.44799999999989
 21
173.13200000000001
 31
0.0
  0
TEXT
  5
31
  8
0
 62
     7
 10
86.469420000000014
 20
210.57599999999999
 30
0.0
 40
3.092309999999999
  1
%%c35
 41
0.5
 72
     2
 11
90.592500000000001
 21
210.57599999999999
 31
0.0
  0
TEXT
  5
32
  8
0
 62
     7
 10
72.984120000000004
 20
210.57599999999999
 30
0.0
 40
3.092309999999999
  1
%%c45
 41
0.5
 72
     2
 11
77.107200000000006
 21
210.57599999999999
 31
0.0
  0
TEXT
  5
33
  8
0
 62
     7
 10
41.583300000000001
 20
180.166
 30
0.0
 40
3.092309999999999
  1
10
 41
0.5
  0
TEXT
  5
34
  8
0
 62
     7
 10
37.872199999999999
 20
184.38499999999991
 30
0.0
 40
3.092309999999999
  1
10
 50
90.0
 41
0.5
  0
TEXT
  5
35
  8
0
 62
     7
 10
37.872199999999999
 20
222.7531525
 30
0.0
 40
3.092309999999999
  1
10
 50
90.0
 41
0.5
 72
     2
 11
37.872199999999999
 21
224.55699999999999
 31
0.0
  0
TEXT
  5
36
  8
0
 62
     7
 10
80.360106250000015
 20
101.04899999999989
 30
0.0
 40
3.092309999999999
  1
260
 41
0.5
 72
     1
 11
82.292800000000014
 21
101.04899999999989
 31
0.0
  0
TEXT
  5
37
  8
0
 62
     7
 10
84.883083749999997
 20
194.16099999999989
 30
0.0
 40
3.092309999999999
  1
60
 41
0.5
 72
     1
 11
86.042699999999996
 21
194.16099999999989
 31
0.0
  0
TEXT
  5
38
  8
0
 62
     7
 10
93.007983749999994
 20
194.16099999999989
 30
0.0
 40
3.092309999999999
  1
70
 41
0.5
 72
     1
 11
94.167599999999993
 21
194.16099999999989
 31
0.0
  0
TEXT
  5
39
  8
0
 62
     7
 10
88.742798750000006
 20
180.166
 30
0.0
 40
3.092309999999999
  1
130
 41
0.5
 72
     1
 11
90.417800000000014
 21
180.166
 31
0.0
  0
TEXT
  5
3A
  8
0
 62
     7
 10
63.485306250000008
 20
180.166
 30
0.0
 40
3.092309999999999
  1
270
 41
0.5
 72
     1
 11
65.418000000000006
 21
180.166
 31
0.0
  0
TEXT
  5
3B
  8
0
 62
     7
 10
71.242998750000012
 20
173.125
 30
0.0
 40
3.092309999999999
  1
410
 41
0.5
 72
     1
 11
72.918000000000006
 21
173.125
 31
0.0
  0
TEXT
  5
3C
  8
0
 62
     7
 10
37.872199999999999
 20
202.96899874999991
 30
0.0
 40
3.092309999999999
  1
210
 50
90.0
 41
0.5
 72
     1
 11
37.872199999999999
 21
204.64400000000001
 31
0.0
  0
TEXT
  5
3D
  8
0
 62
     7
 10
86.200500000000005
 20
132.88915249999991
 30
0.0
 40
3.092309999999999
  1
10
 50
90.0
 41
0.5
 72
     2
 11
86.200500000000005
 21
134.6929999999999
 31
0.0
  0
TEXT
  5
3E
  8
0
 62
     7
 10
115.30500000000001
 20
118.66399874999991
 30
0.0
 40
3.092309999999999
  1
140
 50
90.0
 41
0.5
 72
     1
 11
115.30500000000001
 21
120.3389999999999
 31
0.0
  0
TEXT
  5
3F
  8
0
 62
     7
 10
107.3429999999999
 20
115.43038375
 30
0.0
 40
3.092309999999999
  1
80
 50
90.0
 41
0.5
 72
     1
 11
107.3429999999999
 21
116.59
 31
0.0
  0
TEXT
  5
40
  8
0
 62
     7
 10
76.261099999999999
 20
122.30438375
 30
0.0
 40
3.092309999999999
  1
90
 50
90.0
 41
0.5
 72
     1
 11
76.261099999999999
 21
123.4639999999999
 31
0.0
  0
TEXT
  5
41
  8
0
 62
     7
 10
106.99299999999999
 20
124.18038375
 30
0.0
 40
3.092309999999999
  1
60
 50
90.0
 41
0.5
 72
     1
 11
106.99299999999999
 21
125.34
 31
0.0
  0
TEXT
  5
42
  8
0
 62
     7
 10
106.727
 20
210.28584499999991
 30
0.0
 40
3.092309999999999
  1
115
 50
90.0
 41
0.5
 72
     1
 11
106.727
 21
211.83199999999991
 31
0.0
  0
TEXT
  5
43
  8
0
 62
     7
 10
37.872199999999999
 20
120.230845
 30
0.0
 40
3.092309999999999
  1
117
 50
90.0
 41
0.5
 72
     1
 11
37.872199999999999
 21
121.777
 31
0.0
  0
TEXT
  5
44
  8
0
 62
     7
 10
37.872199999999999
 20
105.9549999999999
 30
0.0
 40
3.092309999999999
  1
23
 50
90.0
 41
0.5
  0
TEXT
  5
45
  8
0
 62
     7
 10
29.0151
 20
202.71130625000001
 30
0.0
 40
3.092309999999999
  1
230
 50
90.0
 41
0.5
 72
     1
 11
29.0151
 21
204.64400000000001
 31
0.0
  0
TEXT
  5
46
  8
0
 62
     7
 10
93.008183750000001
 20
141.988
 30
0.0
 40
3.092309999999999
  1
70
 41
0.5
 72
     1
 11
94.167800000000014
 21
141.988
 31
0.0
  0
TEXT
  5
47
  8
0
 62
     7
 10
76.242898750000009
 20
141.988
 30
0.0
 40
3.092309999999999
  1
190
 41
0.5
 72
     1
 11
77.917900000000003
 21
141.988
 31
0.0
  0
TEXT
  5
48
  8
0
 62
     7
 10
51.996445000000001
 20
141.988
 30
0.0
 40
3.092309999999999
  1
100
 41
0.5
 72
     1
 11
53.5426
 21
141.988
 31
0.0
  0
TEXT
  5
49
  8
0
 62
     7
 10
61.758183750000001
 20
141.988
 30
0.0
 40
3.092309999999999
  1
50
 41
0.5
 72
     1
 11
62.9178
 21
141.988
 31
0.0
  0
TEXT
  5
4A
  8
0
 62
     7
 10
80.360106250000015
 20
230.04099999999991
 30
0.0
 40
3.092309999999999
  1
260
 41
0.5
 72
     1
 11
82.292800000000014
 21
230.04099999999991
 31
0.0
  0
TEXT
  5
4B
  8
0
 62
     7
 10
54.992998749999998
 20
230.04099999999991
 30
0.0
 40
3.092309999999999
  1
150
 41
0.5
 72
     1
 11
56.667999999999999
 21
230.04099999999991
 31
0.0
  0
LINE
  5
4C
  8
0
 62
     7
 10
89.792800000000014
 20
141.99600000000001
 30
0.0
 11
89.792800000000014
 21
124.77
 31
0.0
  0
LINE
  5
4D
  8
0
 62
     7
 10
87.492699999999999
 20
125.62899999999991
 30
0.0
 11
86.900499999999994
 21
127.8389999999999
 31
0.0
  0
LINE
  5
4E
  8
0
 62
     7
 10
86.900499999999994
 20
127.8389999999999
 30
0.0
 11
86.307900000000004
 21
125.62899999999991
 31
0.0
  0
LINE
  5
4F
  8
0
 62
     7
 10
86.307900000000004
 20
125.62899999999991
 30
0.0
 11
87.492699999999999
 21
125.62899999999991
 31
0.0
  0
LINE
  5
50
  8
0
 62
     7
 10
86.308300000000017
 20
131.30000000000001
 30
0.0
 11
86.900499999999994
 21
129.089
 31
0.0
  0
LINE
  5
51
  8
0
 62
     7
 10
86.900499999999994
 20
129.089
 30
0.0
 11
87.493099999999984
 21
131.30000000000001
 31
0.0
  0
LINE
  5
52
  8
0
 62
     7
 10
87.493099999999984
 20
131.30000000000001
 30
0.0
 11
86.308300000000017
 21
131.30000000000001
 31
0.0
  0
LINE
  5
53
  8
0
 62
     7
 10
86.900499999999994
 20
134.6929999999999
 30
0.0
 11
86.900499999999994
 21
124.649
 31
0.0
  0
LINE
  5
54
  8
0
 62
     7
 10
116.59
 20
126.87899999999991
 30
0.0
 11
115.998
 21
129.089
 31
0.0
  0
LINE
  5
55
  8
0
 62
     7
 10
115.998
 20
129.089
 30
0.0
 11
115.405
 21
126.87899999999991
 31
0.0
  0
LINE
  5
56
  8
0
 62
     7
 10
115.405
 20
126.87899999999991
 30
0.0
 11
116.59
 21
126.87899999999991
 31
0.0
  0
LINE
  5
57
  8
0
 62
     7
 10
115.42
 20
113.7999999999999
 30
0.0
 11
116.012
 21
111.589
 31
0.0
  0
LINE
  5
58
  8
0
 62
     7
 10
116.012
 20
111.589
 30
0.0
 11
116.605
 21
113.7999999999999
 31
0.0
  0
LINE
  5
59
  8
0
 62
     7
 10
116.605
 20
113.7999999999999
 30
0.0
 11
115.42
 21
113.7999999999999
 31
0.0
  0
LINE
  5
5A
  8
0
 62
     7
 10
116.005
 20
129.089
 30
0.0
 11
116.005
 21
111.589
 31
0.0
  0
LINE
  5
5B
  8
0
 62
     7
 10
166.43700000000001
 20
196.36799999999999
 30
0.0
 11
167.58199999999991
 21
194.38499999999991
 31
0.0
  0
LINE
  5
5C
  8
0
 62
     7
 10
167.58199999999991
 20
194.38499999999991
 30
0.0
 11
165.59999999999991
 21
195.53
 31
0.0
  0
LINE
  5
5D
  8
0
 62
     7
 10
165.59999999999991
 20
195.53
 30
0.0
 11
166.43700000000001
 21
196.36799999999999
 31
0.0
  0
LINE
  5
5E
  8
0
 62
     7
 10
167.58199999999991
 20
194.38499999999991
 30
0.0
 11
164.82799999999989
 21
197.13900000000001
 31
0.0
  0
LINE
  5
5F
  8
0
 62
     7
 10
164.82799999999989
 20
197.13900000000001
 30
0.0
 11
159.28299999999999
 21
197.13900000000001
 31
0.0
  0
LINE
  5
60
  8
0
 62
     7
 10
124.459
 20
196.36799999999999
 30
0.0
 11
123.31399999999989
 21
194.38499999999991
 31
0.0
  0
LINE
  5
61
  8
0
 62
     7
 10
123.31399999999989
 20
194.38499999999991
 30
0.0
 11
125.29600000000001
 21
195.53
 31
0.0
  0
LINE
  5
62
  8
0
 62
     7
 10
125.29600000000001
 20
195.53
 30
0.0
 11
124.459
 21
196.36799999999999
 31
0.0
  0
LINE
  5
63
  8
0
 62
     7
 10
123.31399999999989
 20
194.38499999999991
 30
0.0
 11
126.068
 21
197.13900000000001
 31
0.0
  0
LINE
  5
64
  8
0
 62
     7
 10
126.068
 20
197.13900000000001
 30
0.0
 11
131.613
 21
197.13900000000001
 31
0.0
  0
LINE
  5
65
  8
0
 62
     7
 10
137.94799999999989
 20
108.09099999999999
 30
0.0
 11
137.94799999999989
 21
98.956199999999995
 31
0.0
  0
LINE
  5
66
  8
0
 62
     7
 10
140.1579999999999
 20
100.24799999999991
 30
0.0
 11
137.94799999999989
 21
99.656200000000013
 31
0.0
  0
LINE
  5
67
  8
0
 62
     7
 10
137.94799999999989
 20
99.656200000000013
 30
0.0
 11
140.1579999999999
 21
99.063699999999997
 31
0.0
  0
LINE
  5
68
  8
0
 62
     7
 10
140.1579999999999
 20
99.063699999999997
 30
0.0
 11
140.1579999999999
 21
100.24799999999991
 31
0.0
  0
LINE
  5
69
  8
0
 62
     7
 10
150.11199999999999
 20
99.078100000000006
 30
0.0
 11
152.32299999999989
 21
99.670699999999997
 31
0.0
  0
LINE
  5
6A
  8
0
 62
     7
 10
152.32299999999989
 20
99.670699999999997
 30
0.0
 11
150.11199999999999
 21
100.26299999999991
 31
0.0
  0
LINE
  5
6B
  8
0
 62
     7
 10
150.11199999999999
 20
100.26299999999991
 30
0.0
 11
150.11199999999999
 21
99.078100000000006
 31
0.0
  0
LINE
  5
6C
  8
0
 62
     7
 10
137.94799999999989
 20
99.6631
 30
0.0
 11
152.32299999999989
 21
99.6631
 31
0.0
  0
LINE
  5
6D
  8
0
 62
     7
 10
152.32299999999989
 20
110.8889999999999
 30
0.0
 11
152.32299999999989
 21
98.970600000000005
 31
0.0
  0
LINE
  5
6E
  8
0
  6
AIGENLINE002
 62
     7
 10
90.397499999999994
 20
122.84
 30
0.0
 11
89.188599999999994
 21
122.84
 31
0.0
  0
ARC
  5
6F
  8
0
  6
AIGENLINE002
 62
     7
 10
89.235303999999999
 20
121.52086799999989
 30
0.0
 40
1.319061
 50
92.03021600000001
 51
177.02998700000001
  0
ARC
  5
70
  8
0
  6
AIGENLINE002
 62
     7
 10
89.216650000000001
 20
121.638595
 30
0.0
 40
1.2995739999999989
 50
182.177717
 51
268.76207999999991
  0
LINE
  5
71
  8
0
  6
AIGENLINE002
 62
     7
 10
89.188599999999994
 20
120.3389999999999
 30
0.0
 11
90.397499999999994
 21
120.3389999999999
 31
0.0
  0
ARC
  5
72
  8
0
  6
AIGENLINE002
 62
     7
 10
90.350789000000006
 20
121.6578659999999
 30
0.0
 40
1.3186789999999999
 50
272.02848599999999
 51
357.01570299999992
  0
ARC
  5
73
  8
0
  6
AIGENLINE002
 62
     7
 10
90.367987999999997
 20
121.53948099999999
 30
0.0
 40
1.3006429999999991
 50
2.191303
 51
88.701346999999984
  0
ARC
  5
74
  8
0
 62
     7
 10
124.54679299999999
 20
128.11531099999999
 30
0.0
 40
0.9745790000000001
 50
92.10377299999999
 51
177.8330379999999
  0
ARC
  5
75
  8
0
 62
     7
 10
151.35020499999999
 20
128.11630899999989
 30
0.0
 40
0.973559
 50
2.1104620000000001
 51
87.931640999999999
  0
LINE
  5
76
  8
0
 62
     7
 10
152.32299999999989
 20
128.15199999999999
 30
0.0
 11
152.32299999999989
 21
111.589
 31
0.0
  0
LINE
  5
77
  8
0
 62
     7
 10
151.07299999999989
 20
129.089
 30
0.0
 11
151.38499999999991
 21
129.089
 31
0.0
  0
LINE
  5
78
  8
0
 62
     7
 10
124.511
 20
129.089
 30
0.0
 11
124.82299999999989
 21
129.089
 31
0.0
  0
LINE
  5
79
  8
0
 62
     7
 10
124.82299999999989
 20
129.089
 30
0.0
 11
151.07299999999989
 21
129.089
 31
0.0
  0
LINE
  5
7A
  8
0
 62
     7
 10
123.57299999999989
 20
111.589
 30
0.0
 11
123.57299999999989
 21
128.15199999999999
 31
0.0
  0
LINE
  5
7B
  8
0
 62
     7
 10
152.32299999999989
 20
111.589
 30
0.0
 11
123.57299999999989
 21
111.589
 31
0.0
  0
LINE
  5
7C
  8
0
  6
AIGENLINE001
 62
     7
 10
148.71199999999999
 20
121.5889999999999
 30
0.0
 11
155.8179999999999
 21
121.5889999999999
 31
0.0
  0
LINE
  5
7D
  8
0
  6
AIGENLINE001
 62
     7
 10
148.71199999999999
 20
114.464
 30
0.0
 11
155.8179999999999
 21
114.464
 31
0.0
  0
LINE
  5
7E
  8
0
  6
AIGENLINE001
 62
     7
 10
137.94799999999989
 20
108.7909999999999
 30
0.0
 11
137.94799999999989
 21
131.08799999999999
 31
0.0
  0
ARC
  5
7F
  8
0
  6
AIGENLINE002
 62
     7
 10
59.792594000000001
 20
114.4641929999999
 30
0.0
 40
0.937244
 50
180.01053999999991
 51
270.01055000000002
  0
ARC
  5
80
  8
0
  6
AIGENLINE002
 62
     7
 10
59.828933999999997
 20
114.428212
 30
0.0
 40
0.9742420000000001
 50
92.12750299999999
 51
177.89352099999999
  0
ARC
  5
81
  8
0
  6
AIGENLINE002
 62
     7
 10
59.756926999999997
 20
114.42818200000001
 30
0.0
 40
0.9742599999999999
 50
2.1081650000000001
 51
87.891824999999997
  0
ARC
  5
82
  8
0
  6
AIGENLINE002
 62
     7
 10
59.757618999999991
 20
114.49988399999999
 30
0.0
 40
0.9735689999999999
 50
272.06892199999999
 51
357.88897500000002
  0
LINE
  5
83
  8
0
 62
     7
 10
47.293199999999999
 20
111.589
 30
0.0
 11
47.293199999999999
 21
128.404
 31
0.0
  0
LINE
  5
84
  8
0
 62
     7
 10
47.889899999999997
 20
129.089
 30
0.0
 11
48.408000000000001
 21
129.089
 31
0.0
  0
LINE
  5
85
  8
0
  6
AIGENLINE002
 62
     7
 10
48.826999999999991
 20
128.476
 30
0.0
 11
50.562600000000003
 21
119.1999999999999
 31
0.0
  0
LINE
  5
86
  8
0
 62
     7
 10
98.542800000000014
 20
128.405
 30
0.0
 11
98.542800000000014
 21
111.589
 31
0.0
  0
LINE
  5
87
  8
0
 62
     7
 10
47.293900000000001
 20
111.589
 30
0.0
 11
98.542800000000014
 21
111.589
 31
0.0
  0
LINE
  5
88
  8
0
 62
     7
 10
97.945700000000002
 20
129.089
 30
0.0
 11
49.522199999999998
 21
129.089
 31
0.0
  0
LINE
  5
89
  8
0
 62
     7
 10
48.408000000000001
 20
129.089
 30
0.0
 11
49.521500000000003
 21
129.089
 31
0.0
  0
LINE
  5
8A
  8
0
  6
AIGENLINE001
 62
     7
 10
92.255799999999994
 20
121.5889999999999
 30
0.0
 11
86.905799999999999
 21
121.5889999999999
 31
0.0
  0
LINE
  5
8B
  8
0
  6
AIGENLINE001
 62
     7
 10
89.792800000000014
 20
124.06999999999989
 30
0.0
 11
89.792800000000014
 21
119.0779999999999
 31
0.0
  0
LINE
  5
8C
  8
0
  6
AIGENLINE001
 62
     7
 10
59.7928
 20
112.20099999999999
 30
0.0
 11
59.7928
 21
116.727
 31
0.0
  0
LINE
  5
8D
  8
0
  6
AIGENLINE001
 62
     7
 10
62.055500000000002
 20
114.464
 30
0.0
 11
57.5304
 21
114.464
 31
0.0
  0
LINE
  5
8E
  8
0
  6
AIGENLINE001
 62
     7
 10
66.042900000000003
 20
119.90600000000001
 30
0.0
 11
66.042900000000003
 21
109.488
 31
0.0
  0
ARC
  5
8F
  8
0
 62
     7
 10
97.783388000000002
 20
128.40173599999989
 30
0.0
 40
0.759375
 50
0.248725
 51
42.064888000000003
  0
ARC
  5
90
  8
0
 62
     7
 10
97.927743999999976
 20
128.50648399999989
 30
0.0
 40
0.5823380000000001
 50
43.929808999999999
 51
88.23134300000001
  0
ARC
  5
91
  8
0
  6
AIGENLINE002
 62
     7
 10
97.836190000000016
 20
127.6086419999999
 30
0.0
 40
1.480591999999999
 50
89.96105
 51
99.395830000000018
  0
ARC
  5
92
  8
0
  6
AIGENLINE002
 62
     7
 10
97.730056999999974
 20
128.30619300000001
 30
0.0
 40
0.7751260000000001
 50
100.0736239999999
 51
115.0832939999999
  0
ARC
  5
93
  8
0
  6
AIGENLINE002
 62
     7
 10
97.613967999999986
 20
128.58019299999989
 30
0.0
 40
0.477879
 50
116.40431
 51
174.27453199999999
  0
ARC
  5
94
  8
0
  6
AIGENLINE002
 62
     7
 10
97.940860000000001
 20
128.52286599999999
 30
0.0
 40
0.809229
 50
172.54455699999991
 51
180.19587699999991
  0
ARC
  5
95
  8
0
  6
AIGENLINE002
 62
     7
 10
96.370825999999994
 20
128.52523799999989
 30
0.0
 40
0.760828
 50
317.99664799999999
 51
359.61307299999999
  0
ARC
  5
96
  8
0
  6
AIGENLINE002
 62
     7
 10
96.520022999999995
 20
128.41689899999989
 30
0.0
 40
0.577784
 50
271.61627499999997
 51
316.07922699999989
  0
ARC
  5
97
  8
0
  6
AIGENLINE002
 62
     7
 10
48.033715000000001
 20
128.31156399999989
 30
0.0
 40
0.8101079999999999
 50
11.711475
 51
61.854010999999993
  0
ARC
  5
98
  8
0
  6
AIGENLINE002
 62
     7
 10
48.146034999999998
 20
128.4772219999999
 30
0.0
 40
0.611412
 50
63.812404000000001
 51
89.015710000000027
  0
LINE
  5
99
  8
0
  6
AIGENLINE002
 62
     7
 10
48.156500000000001
 20
129.089
 30
0.0
 11
48.140000000000001
 21
129.089
 31
0.0
  0
LINE
  5
9A
  8
0
  6
AIGENLINE002
 62
     7
 10
52.085000000000001
 20
117.839
 30
0.0
 11
52.048499999999997
 21
117.83799999999989
 31
0.0
  0
ARC
  5
9B
  8
0
  6
AIGENLINE002
 62
     7
 10
52.049636
 20
119.0882439999999
 30
0.0
 40
1.2500759999999991
 50
241.92999
 51
269.94736399999988
  0
ARC
  5
9C
  8
0
  6
AIGENLINE002
 62
     7
 10
52.26093800000001
 20
119.516572
 30
0.0
 40
1.7275149999999999
 50
190.54688300000001
 51
242.43090099999989
  0
ARC
  5
9D
  8
0
 62
     7
 10
47.896040999999997
 20
128.52947900000001
 30
0.0
 40
0.559098
 50
90.630722999999989
 51
143.24637899999991
  0
ARC
  5
9E
  8
0
 62
     7
 10
48.021035999999988
 20
128.41449099999991
 30
0.0
 40
0.728259
 50
141.88225899999989
 51
180.79837000000001
  0
LINE
  5
9F
  8
0
  6
AIGENLINE002
 62
     7
 10
63.18
 20
117.839
 30
0.0
 11
52.085999999999999
 21
117.839
 31
0.0
  0
ARC
  5
A0
  8
0
  6
AIGENLINE002
 62
     7
 10
71.050993000000005
 20
115.915156
 30
0.0
 40
2.1955009999999988
 50
160.380044
 51
180.00135399999999
  0
ARC
  5
A1
  8
0
  6
AIGENLINE002
 62
     7
 10
70.880915000000002
 20
115.9618649999999
 30
0.0
 40
2.0196559999999999
 50
139.38467900000001
 51
160.0080899999999
  0
LINE
  5
A2
  8
0
  6
AIGENLINE002
 62
     7
 10
69.347800000000007
 20
117.277
 30
0.0
 11
69.347800000000007
 21
117.277
 31
0.0
  0
ARC
  5
A3
  8
0
  6
AIGENLINE002
 62
     7
 10
70.646615999999995
 20
116.141333
 30
0.0
 40
1.7255020000000001
 50
115.9035809999999
 51
138.826402
  0
ARC
  5
A4
  8
0
  6
AIGENLINE002
 62
     7
 10
70.535268000000002
 20
116.376706
 30
0.0
 40
1.464048
 50
102.91502699999999
 51
116.04352399999991
  0
ARC
  5
A5
  8
0
  6
AIGENLINE002
 62
     7
 10
70.516696999999994
 20
116.471082
 30
0.0
 40
1.367912
 50
89.190619999999996
 51
103.04036600000001
  0
LINE
  5
A6
  8
0
  6
AIGENLINE002
 62
     7
 10
68.855500000000006
 20
111.589
 30
0.0
 11
68.855500000000006
 21
115.91500000000001
 31
0.0
  0
ARC
  5
A7
  8
0
  6
AIGENLINE002
 62
     7
 10
61.040372999999988
 20
115.915155
 30
0.0
 40
2.1899310000000001
 50
359.99867999999992
 51
19.671911999999999
  0
ARC
  5
A8
  8
0
  6
AIGENLINE002
 62
     7
 10
61.204537000000002
 20
115.9618649999999
 30
0.0
 40
2.0196559999999999
 50
19.991889999999991
 51
40.615301000000009
  0
LINE
  5
A9
  8
0
  6
AIGENLINE002
 62
     7
 10
62.73769999999999
 20
117.277
 30
0.0
 11
62.73769999999999
 21
117.277
 31
0.0
  0
ARC
  5
AA
  8
0
  6
AIGENLINE002
 62
     7
 10
61.442652000000002
 20
116.146331
 30
0.0
 40
1.7193389999999991
 50
41.131932999999997
 51
64.138043999999994
  0
ARC
  5
AB
  8
0
  6
AIGENLINE002
 62
     7
 10
61.542887999999991
 20
116.355107
 30
0.0
 40
1.4868110000000001
 50
64.057383999999999
 51
76.984025000000003
  0
ARC
  5
AC
  8
0
  6
AIGENLINE002
 62
     7
 10
61.569099000000001
 20
116.471082
 30
0.0
 40
1.367912
 50
76.959614000000016
 51
90.809359999999984
  0
LINE
  5
AD
  8
0
  6
AIGENLINE002
 62
     7
 10
70.417900000000003
 20
111.589
 30
0.0
 11
70.417900000000003
 21
115.91500000000001
 31
0.0
  0
LINE
  5
AE
  8
0
  6
AIGENLINE002
 62
     7
 10
61.667900000000003
 20
111.589
 30
0.0
 11
61.667900000000003
 21
115.91500000000001
 31
0.0
  0
LINE
  5
AF
  8
0
  6
AIGENLINE002
 62
     7
 10
63.2303
 20
111.589
 30
0.0
 11
63.2303
 21
115.91500000000001
 31
0.0
  0
LINE
  5
B0
  8
0
  6
AIGENLINE002
 62
     7
 10
80.722499999999997
 20
117.839
 30
0.0
 11
71.852099999999993
 21
117.839
 31
0.0
  0
ARC
  5
B1
  8
0
  6
AIGENLINE002
 62
     7
 10
80.280187999999995
 20
119.64593000000001
 30
0.0
 40
2.0126580000000001
 50
322.24323399999992
 51
359.75175200000001
  0
ARC
  5
B2
  8
0
  6
AIGENLINE002
 62
     7
 10
80.631059999999991
 20
119.422808
 30
0.0
 40
1.5990949999999999
 50
284.06628299999988
 51
320.86580400000003
  0
ARC
  5
B3
  8
0
  6
AIGENLINE002
 62
     7
 10
80.719577999999984
 20
119.228126
 30
0.0
 40
1.389270999999999
 50
270.12227300000001
 51
282.47633300000001
  0
LINE
  5
B4
  8
0
  6
AIGENLINE002
 62
     7
 10
96.536299999999983
 20
127.8389999999999
 30
0.0
 11
82.999799999999993
 21
127.8389999999999
 31
0.0
  0
LINE
  5
B5
  8
0
  6
AIGENLINE002
 62
     7
 10
82.292800000000014
 20
127.03100000000001
 30
0.0
 11
82.292800000000014
 21
119.6369999999999
 31
0.0
  0
ARC
  5
B6
  8
0
  6
AIGENLINE002
 62
     7
 10
83.003063999999995
 20
127.187704
 30
0.0
 40
0.651653
 50
90.350597999999991
 51
138.10433399999991
  0
ARC
  5
B7
  8
0
  6
AIGENLINE002
 62
     7
 10
83.140144999999976
 20
127.047409
 30
0.0
 40
0.847475
 50
137.232832
 51
181.10135099999999
  0
LINE
  5
B8
  8
0
  6
AIGENLINE002
 62
     7
 10
71.852099999999993
 20
117.839
 30
0.0
 11
63.18
 21
117.839
 31
0.0
  0
LINE
  5
B9
  8
0
  6
AIGENLINE002
 62
     7
 10
68.856499999999997
 20
115.979
 30
0.0
 11
63.229300000000002
 21
115.979
 31
0.0
  0
LINE
  5
BA
  8
0
 62
     7
 10
176.5449999999999
 20
216.809
 30
0.0
 11
175.95299999999989
 21
219.01900000000001
 31
0.0
  0
LINE
  5
BB
  8
0
 62
     7
 10
175.95299999999989
 20
219.01900000000001
 30
0.0
 11
175.36000000000001
 21
216.809
 31
0.0
  0
LINE
  5
BC
  8
0
 62
     7
 10
175.36000000000001
 20
216.809
 30
0.0
 11
176.5449999999999
 21
216.809
 31
0.0
  0
LINE
  5
BD
  8
0
 62
     7
 10
175.375
 20
206.85499999999999
 30
0.0
 11
175.96700000000001
 21
204.64400000000001
 31
0.0
  0
LINE
  5
BE
  8
0
 62
     7
 10
175.96700000000001
 20
204.64400000000001
 30
0.0
 11
176.56
 21
206.85499999999999
 31
0.0
  0
LINE
  5
BF
  8
0
 62
     7
 10
176.56
 20
206.85499999999999
 30
0.0
 11
175.375
 21
206.85499999999999
 31
0.0
  0
LINE
  5
C0
  8
0
 62
     7
 10
175.96000000000001
 20
219.01900000000001
 30
0.0
 11
175.96000000000001
 21
204.64400000000001
 31
0.0
  0
LINE
  5
C1
  8
0
 62
     7
 10
183.53200000000001
 20
216.809
 30
0.0
 11
182.93999999999991
 21
219.01900000000001
 31
0.0
  0
LINE
  5
C2
  8
0
 62
     7
 10
182.93999999999991
 20
219.01900000000001
 30
0.0
 11
182.34700000000001
 21
216.809
 31
0.0
  0
LINE
  5
C3
  8
0
 62
     7
 10
182.34700000000001
 20
216.809
 30
0.0
 11
183.53200000000001
 21
216.809
 31
0.0
  0
LINE
  5
C4
  8
0
 62
     7
 10
182.36199999999999
 20
196.23099999999999
 30
0.0
 11
182.95400000000001
 21
194.02000000000001
 31
0.0
  0
LINE
  5
C5
  8
0
 62
     7
 10
182.95400000000001
 20
194.02000000000001
 30
0.0
 11
183.54699999999991
 21
196.23099999999999
 31
0.0
  0
LINE
  5
C6
  8
0
 62
     7
 10
183.54699999999991
 20
196.23099999999999
 30
0.0
 11
182.36199999999999
 21
196.23099999999999
 31
0.0
  0
LINE
  5
C7
  8
0
 62
     7
 10
182.947
 20
219.01900000000001
 30
0.0
 11
182.947
 21
194.02000000000001
 31
0.0
  0
ARC
  5
C8
  8
0
 62
     7
 10
166.69820000000001
 20
195.269419
 30
0.0
 40
1.249889
 50
270.00002000000001
 51
359.99998999999991
  0
ARC
  5
C9
  8
0
 62
     7
 10
124.1980269999999
 20
195.26959099999991
 30
0.0
 40
1.2500610000000001
 50
180.00790499999991
 51
270.00791499999991
  0
LINE
  5
CA
  8
0
 62
     7
 10
171.672
 20
219.01900000000001
 30
0.0
 11
167.94799999999989
 21
219.01900000000001
 31
0.0
  0
LINE
  5
CB
  8
0
 62
     7
 10
167.94799999999989
 20
219.01900000000001
 30
0.0
 11
167.94799999999989
 21
195.26900000000001
 31
0.0
  0
LINE
  5
CC
  8
0
  6
AIGENLINE003
 62
     7
 10
122.94799999999989
 20
219.01900000000001
 30
0.0
 11
167.94799999999989
 21
219.01900000000001
 31
0.0
  0
LINE
  5
CD
  8
0
 62
     7
 10
119.22499999999999
 20
219.01900000000001
 30
0.0
 11
122.94799999999989
 21
219.01900000000001
 31
0.0
  0
LINE
  5
CE
  8
0
  6
AIGENLINE001
 62
     7
 10
144.50999999999991
 20
204.64400000000001
 30
0.0
 11
131.38499999999991
 21
204.64400000000001
 31
0.0
  0
LINE
  5
CF
  8
0
  6
AIGENLINE001
 62
     7
 10
137.94799999999989
 20
211.14999999999989
 30
0.0
 11
137.94799999999989
 21
198.136
 31
0.0
  0
ARC
  5
D0
  8
0
  6
AIGENLINE002
 62
     7
 10
137.94800699999999
 20
204.64427099999989
 30
0.0
 40
2.8125939999999989
 50
0.00001
 51
89.999980000000008
  0
ARC
  5
D1
  8
0
  6
AIGENLINE002
 62
     7
 10
137.94818000000001
 20
204.64444399999999
 30
0.0
 40
2.8124220000000002
 50
90.003508999999994
 51
180.0035189999999
  0
ARC
  5
D2
  8
0
  6
AIGENLINE002
 62
     7
 10
137.94817900000001
 20
204.64409900000001
 30
0.0
 40
2.8124210000000001
 50
179.99646100000001
 51
269.99651099999988
  0
ARC
  5
D3
  8
0
  6
AIGENLINE002
 62
     7
 10
137.94800699999999
 20
204.64427199999989
 30
0.0
 40
2.8125939999999989
 50
270.00002000000001
 51
359.99998999999991
  0
LINE
  5
D4
  8
0
 62
     7
 10
124.19799999999989
 20
194.02000000000001
 30
0.0
 11
166.69799999999989
 21
194.02000000000001
 31
0.0
  0
LINE
  5
D5
  8
0
 62
     7
 10
122.94799999999989
 20
219.01900000000001
 30
0.0
 11
122.94799999999989
 21
195.26900000000001
 31
0.0
  0
ARC
  5
D6
  8
0
  6
AIGENLINE002
 62
     7
 10
137.94817900000001
 20
204.64409900000001
 30
0.0
 40
4.3751269999999991
 50
0.002266
 51
90.002235999999996
  0
ARC
  5
D7
  8
0
  6
AIGENLINE002
 62
     7
 10
137.94800799999999
 20
204.64427099999989
 30
0.0
 40
4.374954999999999
 50
90.0
 51
179.99996999999991
  0
ARC
  5
D8
  8
0
  6
AIGENLINE002
 62
     7
 10
137.94800699999999
 20
204.64427099999989
 30
0.0
 40
4.3749539999999989
 50
179.99996999999991
 51
270.00002000000001
  0
ARC
  5
D9
  8
0
  6
AIGENLINE002
 62
     7
 10
137.94817900000001
 20
204.64444499999999
 30
0.0
 40
4.3751269999999991
 50
269.99776400000002
 51
359.99773399999992
  0
LINE
  5
DA
  8
0
 62
     7
 10
125.1579999999999
 20
180.07299999999989
 30
0.0
 11
122.94799999999989
 21
179.48099999999999
 31
0.0
  0
LINE
  5
DB
  8
0
 62
     7
 10
122.94799999999989
 20
179.48099999999999
 30
0.0
 11
125.1579999999999
 21
178.88799999999989
 31
0.0
  0
LINE
  5
DC
  8
0
 62
     7
 10
125.1579999999999
 20
178.88799999999989
 30
0.0
 11
125.1579999999999
 21
180.07299999999989
 31
0.0
  0
LINE
  5
DD
  8
0
 62
     7
 10
135.73699999999991
 20
178.90299999999991
 30
0.0
 11
137.94799999999989
 21
179.495
 31
0.0
  0
LINE
  5
DE
  8
0
 62
     7
 10
137.94799999999989
 20
179.495
 30
0.0
 11
135.73699999999991
 21
180.08799999999999
 31
0.0
  0
LINE
  5
DF
  8
0
 62
     7
 10
135.73699999999991
 20
180.08799999999999
 30
0.0
 11
135.73699999999991
 21
178.90299999999991
 31
0.0
  0
LINE
  5
E0
  8
0
 62
     7
 10
122.94799999999989
 20
179.488
 30
0.0
 11
137.94799999999989
 21
179.488
 31
0.0
  0
LINE
  5
E1
  8
0
 62
     7
 10
92.483800000000002
 20
201.114
 30
0.0
 11
91.338999999999999
 21
203.09699999999989
 31
0.0
  0
LINE
  5
E2
  8
0
 62
     7
 10
91.338999999999999
 20
203.09699999999989
 30
0.0
 11
93.321700000000007
 21
201.953
 31
0.0
  0
LINE
  5
E3
  8
0
 62
     7
 10
93.321700000000007
 20
201.953
 30
0.0
 11
92.483800000000002
 21
201.114
 31
0.0
  0
LINE
  5
E4
  8
0
 62
     7
 10
87.100499999999997
 20
208.17299999999989
 30
0.0
 11
88.245300000000015
 21
206.19099999999989
 31
0.0
  0
LINE
  5
E5
  8
0
 62
     7
 10
88.245300000000015
 20
206.19099999999989
 30
0.0
 11
86.262600000000006
 21
207.33600000000001
 31
0.0
  0
LINE
  5
E6
  8
0
 62
     7
 10
86.262600000000006
 20
207.33600000000001
 30
0.0
 11
87.100499999999997
 21
208.17299999999989
 31
0.0
  0
LINE
  5
E7
  8
0
 62
     7
 10
93.930099999999996
 20
200.50599999999989
 30
0.0
 11
84.929699999999997
 21
209.50599999999989
 31
0.0
  0
LINE
  5
E8
  8
0
 62
     7
 10
84.929699999999997
 20
209.50599999999989
 30
0.0
 11
90.592500000000001
 21
209.50599999999989
 31
0.0
  0
LINE
  5
E9
  8
0
 62
     7
 10
62.909199999999991
 20
200.673
 30
0.0
 11
64.054000000000002
 21
202.65599999999989
 31
0.0
  0
LINE
  5
EA
  8
0
 62
     7
 10
64.054000000000002
 20
202.65599999999989
 30
0.0
 11
62.07139999999999
 21
201.51099999999991
 31
0.0
  0
LINE
  5
EB
  8
0
 62
     7
 10
62.07139999999999
 20
201.51099999999991
 30
0.0
 11
62.909199999999991
 21
200.673
 31
0.0
  0
LINE
  5
EC
  8
0
 62
     7
 10
69.176199999999994
 20
208.6149999999999
 30
0.0
 11
68.031400000000005
 21
206.6329999999999
 31
0.0
  0
LINE
  5
ED
  8
0
 62
     7
 10
68.031400000000005
 20
206.6329999999999
 30
0.0
 11
70.014399999999995
 21
207.77799999999991
 31
0.0
  0
LINE
  5
EE
  8
0
 62
     7
 10
70.014399999999995
 20
207.77799999999991
 30
0.0
 11
69.176199999999994
 21
208.6149999999999
 31
0.0
  0
LINE
  5
EF
  8
0
 62
     7
 10
61.904600000000002
 20
200.50599999999989
 30
0.0
 11
70.905000000000001
 21
209.50599999999989
 31
0.0
  0
LINE
  5
F0
  8
0
 62
     7
 10
70.905000000000001
 20
209.50599999999989
 30
0.0
 11
77.107200000000006
 21
209.50599999999989
 31
0.0
  0
LINE
  5
F1
  8
0
 62
     7
 10
39.157200000000003
 20
188.059
 30
0.0
 11
38.564599999999999
 21
190.26899999999989
 31
0.0
  0
LINE
  5
F2
  8
0
 62
     7
 10
38.564599999999999
 20
190.26899999999989
 30
0.0
 11
37.97209999999999
 21
188.059
 31
0.0
  0
LINE
  5
F3
  8
0
 62
     7
 10
37.97209999999999
 20
188.059
 30
0.0
 11
39.157200000000003
 21
188.059
 31
0.0
  0
LINE
  5
F4
  8
0
 62
     7
 10
39.157200000000003
 20
215.559
 30
0.0
 11
38.564599999999999
 21
217.76900000000001
 31
0.0
  0
LINE
  5
F5
  8
0
 62
     7
 10
38.564599999999999
 20
217.76900000000001
 30
0.0
 11
37.97209999999999
 21
215.559
 31
0.0
  0
LINE
  5
F6
  8
0
 62
     7
 10
37.97209999999999
 20
215.559
 30
0.0
 11
39.157200000000003
 21
215.559
 31
0.0
  0
LINE
  5
F7
  8
0
 62
     7
 10
37.987200000000001
 20
221.2299999999999
 30
0.0
 11
38.579099999999997
 21
219.01900000000001
 31
0.0
  0
LINE
  5
F8
  8
0
 62
     7
 10
38.579099999999997
 20
219.01900000000001
 30
0.0
 11
39.171700000000001
 21
221.2299999999999
 31
0.0
  0
LINE
  5
F9
  8
0
 62
     7
 10
39.171700000000001
 20
221.2299999999999
 30
0.0
 11
37.987200000000001
 21
221.2299999999999
 31
0.0
  0
LINE
  5
FA
  8
0
 62
     7
 10
37.987200000000001
 20
193.72999999999999
 30
0.0
 11
38.579099999999997
 21
191.51900000000001
 31
0.0
  0
LINE
  5
FB
  8
0
 62
     7
 10
38.579099999999997
 20
191.51900000000001
 30
0.0
 11
39.171700000000001
 21
193.72999999999999
 31
0.0
  0
LINE
  5
FC
  8
0
 62
     7
 10
39.171700000000001
 20
193.72999999999999
 30
0.0
 11
37.987200000000001
 21
193.72999999999999
 31
0.0
  0
LINE
  5
FD
  8
0
 62
     7
 10
38.572200000000002
 20
224.55699999999999
 30
0.0
 11
38.572200000000002
 21
184.38499999999991
 31
0.0
  0
LINE
  5
FE
  8
0
 62
     7
 10
39.157200000000003
 20
109.379
 30
0.0
 11
38.564599999999999
 21
111.589
 31
0.0
  0
LINE
  5
FF
  8
0
 62
     7
 10
38.564599999999999
 20
111.589
 30
0.0
 11
37.97209999999999
 21
109.379
 31
0.0
  0
LINE
  5
100
  8
0
 62
     7
 10
37.97209999999999
 20
109.379
 30
0.0
 11
39.157200000000003
 21
109.379
 31
0.0
  0
LINE
  5
101
  8
0
 62
     7
 10
39.157200000000003
 20
126.87899999999991
 30
0.0
 11
38.564599999999999
 21
129.089
 31
0.0
  0
LINE
  5
102
  8
0
 62
     7
 10
38.564599999999999
 20
129.089
 30
0.0
 11
37.97209999999999
 21
126.87899999999991
 31
0.0
  0
LINE
  5
103
  8
0
 62
     7
 10
37.97209999999999
 20
126.87899999999991
 30
0.0
 11
39.157200000000003
 21
126.87899999999991
 31
0.0
  0
LINE
  5
104
  8
0
 62
     7
 10
37.987200000000001
 20
116.6749999999999
 30
0.0
 11
38.579099999999997
 21
114.464
 31
0.0
  0
LINE
  5
105
  8
0
 62
     7
 10
38.579099999999997
 20
114.464
 30
0.0
 11
39.171700000000001
 21
116.6749999999999
 31
0.0
  0
LINE
  5
106
  8
0
 62
     7
 10
39.171700000000001
 20
116.6749999999999
 30
0.0
 11
37.987200000000001
 21
116.6749999999999
 31
0.0
  0
LINE
  5
107
  8
0
 62
     7
 10
38.572200000000002
 20
129.089
 30
0.0
 11
38.572200000000002
 21
105.9549999999999
 31
0.0
  0
LINE
  5
108
  8
0
 62
     7
 10
46.936300000000003
 20
129.089
 30
0.0
 11
37.864600000000003
 21
129.089
 31
0.0
  0
LINE
  5
109
  8
0
 62
     7
 10
56.830300000000001
 20
114.464
 30
0.0
 11
37.864600000000003
 21
114.464
 31
0.0
  0
LINE
  5
10A
  8
0
 62
     7
 10
46.5931
 20
111.589
 30
0.0
 11
37.864600000000003
 21
111.589
 31
0.0
  0
LINE
  5
10B
  8
0
 62
     7
 10
30.3002
 20
216.809
 30
0.0
 11
29.707899999999999
 21
219.01900000000001
 31
0.0
  0
LINE
  5
10C
  8
0
 62
     7
 10
29.707899999999999
 20
219.01900000000001
 30
0.0
 11
29.115400000000001
 21
216.809
 31
0.0
  0
LINE
  5
10D
  8
0
 62
     7
 10
29.115400000000001
 20
216.809
 30
0.0
 11
30.3002
 21
216.809
 31
0.0
  0
LINE
  5
10E
  8
0
 62
     7
 10
29.130199999999991
 20
192.4799999999999
 30
0.0
 11
29.7224
 21
190.26899999999989
 31
0.0
  0
LINE
  5
10F
  8
0
 62
     7
 10
29.7224
 20
190.26899999999989
 30
0.0
 11
30.315000000000001
 21
192.4799999999999
 31
0.0
  0
LINE
  5
110
  8
0
 62
     7
 10
30.315000000000001
 20
192.4799999999999
 30
0.0
 11
29.130199999999991
 21
192.4799999999999
 31
0.0
  0
LINE
  5
111
  8
0
 62
     7
 10
29.715199999999989
 20
219.01900000000001
 30
0.0
 11
29.715199999999989
 21
190.26899999999989
 31
0.0
  0
LINE
  5
112
  8
0
 62
     7
 10
57.5824
 20
140.68899999999991
 30
0.0
 11
59.7928
 21
141.28200000000001
 31
0.0
  0
LINE
  5
113
  8
0
 62
     7
 10
59.7928
 20
141.28200000000001
 30
0.0
 11
57.5824
 21
141.87399999999991
 31
0.0
  0
LINE
  5
114
  8
0
 62
     7
 10
57.5824
 20
141.87399999999991
 30
0.0
 11
57.5824
 21
140.68899999999991
 31
0.0
  0
LINE
  5
115
  8
0
 62
     7
 10
63.832500000000003
 20
140.68899999999991
 30
0.0
 11
66.042900000000003
 21
141.28200000000001
 31
0.0
  0
LINE
  5
116
  8
0
 62
     7
 10
66.042900000000003
 20
141.28200000000001
 30
0.0
 11
63.832500000000003
 21
141.87399999999991
 31
0.0
  0
LINE
  5
117
  8
0
 62
     7
 10
63.832500000000003
 20
141.87399999999991
 30
0.0
 11
63.832500000000003
 21
140.68899999999991
 31
0.0
  0
LINE
  5
118
  8
0
 62
     7
 10
49.503900000000002
 20
141.85900000000001
 30
0.0
 11
47.2928
 21
141.267
 31
0.0
  0
LINE
  5
119
  8
0
 62
     7
 10
47.2928
 20
141.267
 30
0.0
 11
49.503900000000002
 21
140.67400000000001
 31
0.0
  0
LINE
  5
11A
  8
0
 62
     7
 10
49.503900000000002
 20
140.67400000000001
 30
0.0
 11
49.503900000000002
 21
141.85900000000001
 31
0.0
  0
LINE
  5
11B
  8
0
 62
     7
 10
66.042900000000003
 20
141.274
 30
0.0
 11
47.2928
 21
141.274
 31
0.0
  0
LINE
  5
11C
  8
0
 62
     7
 10
87.582499999999996
 20
140.70299999999989
 30
0.0
 11
89.792800000000014
 21
141.29599999999991
 31
0.0
  0
LINE
  5
11D
  8
0
 62
     7
 10
89.792800000000014
 20
141.29599999999991
 30
0.0
 11
87.582499999999996
 21
141.88900000000001
 31
0.0
  0
LINE
  5
11E
  8
0
 62
     7
 10
87.582499999999996
 20
141.88900000000001
 30
0.0
 11
87.582499999999996
 21
140.70299999999989
 31
0.0
  0
LINE
  5
11F
  8
0
 62
     7
 10
96.332400000000007
 20
140.70299999999989
 30
0.0
 11
98.542800000000014
 21
141.29599999999991
 31
0.0
  0
LINE
  5
120
  8
0
 62
     7
 10
98.542800000000014
 20
141.29599999999991
 30
0.0
 11
96.332400000000007
 21
141.88900000000001
 31
0.0
  0
LINE
  5
121
  8
0
 62
     7
 10
96.332400000000007
 20
141.88900000000001
 30
0.0
 11
96.332400000000007
 21
140.70299999999989
 31
0.0
  0
LINE
  5
122
  8
0
 62
     7
 10
62.003799999999998
 20
141.87299999999991
 30
0.0
 11
59.7928
 21
141.28200000000001
 31
0.0
  0
LINE
  5
123
  8
0
 62
     7
 10
59.7928
 20
141.28200000000001
 30
0.0
 11
62.003799999999998
 21
140.68899999999991
 31
0.0
  0
LINE
  5
124
  8
0
 62
     7
 10
62.003799999999998
 20
140.68899999999991
 30
0.0
 11
62.003799999999998
 21
141.87299999999991
 31
0.0
  0
LINE
  5
125
  8
0
 62
     7
 10
92.003900000000002
 20
141.87299999999991
 30
0.0
 11
89.792800000000014
 21
141.28200000000001
 31
0.0
  0
LINE
  5
126
  8
0
 62
     7
 10
89.792800000000014
 20
141.28200000000001
 30
0.0
 11
92.003900000000002
 21
140.68899999999991
 31
0.0
  0
LINE
  5
127
  8
0
 62
     7
 10
92.003900000000002
 20
140.68899999999991
 30
0.0
 11
92.003900000000002
 21
141.87299999999991
 31
0.0
  0
LINE
  5
128
  8
0
 62
     7
 10
68.253999999999991
 20
141.87299999999991
 30
0.0
 11
66.042900000000003
 21
141.28200000000001
 31
0.0
  0
LINE
  5
129
  8
0
 62
     7
 10
66.042900000000003
 20
141.28200000000001
 30
0.0
 11
68.253999999999991
 21
140.68899999999991
 31
0.0
  0
LINE
  5
12A
  8
0
 62
     7
 10
68.253999999999991
 20
140.68899999999991
 30
0.0
 11
68.253999999999991
 21
141.87299999999991
 31
0.0
  0
LINE
  5
12B
  8
0
 62
     7
 10
98.542800000000014
 20
141.2879999999999
 30
0.0
 11
66.042900000000003
 21
141.2879999999999
 31
0.0
  0
LINE
  5
12C
  8
0
 62
     7
 10
47.2928
 20
141.99600000000001
 30
0.0
 11
47.2928
 21
129.35900000000001
 31
0.0
  0
LINE
  5
12D
  8
0
 62
     7
 10
59.7928
 20
141.99600000000001
 30
0.0
 11
59.7928
 21
116.727
 31
0.0
  0
LINE
  5
12E
  8
0
 62
     7
 10
66.042900000000003
 20
141.99600000000001
 30
0.0
 11
66.042900000000003
 21
120.60599999999999
 31
0.0
  0
LINE
  5
12F
  8
0
 62
     7
 10
98.542800000000014
 20
141.99600000000001
 30
0.0
 11
98.542800000000014
 21
129.35900000000001
 31
0.0
  0
LINE
  5
130
  8
0
 62
     7
 10
63.832500000000003
 20
228.75599999999989
 30
0.0
 11
66.042900000000003
 21
229.3479999999999
 31
0.0
  0
LINE
  5
131
  8
0
 62
     7
 10
66.042900000000003
 20
229.3479999999999
 30
0.0
 11
63.832500000000003
 21
229.93999999999991
 31
0.0
  0
LINE
  5
132
  8
0
 62
     7
 10
63.832500000000003
 20
229.93999999999991
 30
0.0
 11
63.832500000000003
 21
228.75599999999989
 31
0.0
  0
LINE
  5
133
  8
0
 62
     7
 10
49.503900000000002
 20
229.9259999999999
 30
0.0
 11
47.2928
 21
229.333
 31
0.0
  0
LINE
  5
134
  8
0
 62
     7
 10
47.2928
 20
229.333
 30
0.0
 11
49.503900000000002
 21
228.7409999999999
 31
0.0
  0
LINE
  5
135
  8
0
 62
     7
 10
49.503900000000002
 20
228.7409999999999
 30
0.0
 11
49.503900000000002
 21
229.9259999999999
 31
0.0
  0
LINE
  5
136
  8
0
 62
     7
 10
66.042900000000003
 20
229.34099999999989
 30
0.0
 11
47.2928
 21
229.34099999999989
 31
0.0
  0
LINE
  5
137
  8
0
 62
     7
 10
96.332400000000007
 20
228.77000000000001
 30
0.0
 11
98.542800000000014
 21
229.36199999999999
 31
0.0
  0
LINE
  5
138
  8
0
 62
     7
 10
98.542800000000014
 20
229.36199999999999
 30
0.0
 11
96.332400000000007
 21
229.9549999999999
 31
0.0
  0
LINE
  5
139
  8
0
 62
     7
 10
96.332400000000007
 20
229.9549999999999
 30
0.0
 11
96.332400000000007
 21
228.77000000000001
 31
0.0
  0
LINE
  5
13A
  8
0
 62
     7
 10
68.253999999999991
 20
229.93999999999991
 30
0.0
 11
66.042900000000003
 21
229.3479999999999
 31
0.0
  0
LINE
  5
13B
  8
0
 62
     7
 10
66.042900000000003
 20
229.3479999999999
 30
0.0
 11
68.253999999999991
 21
228.75499999999991
 31
0.0
  0
LINE
  5
13C
  8
0
 62
     7
 10
68.253999999999991
 20
228.75499999999991
 30
0.0
 11
68.253999999999991
 21
229.93999999999991
 31
0.0
  0
LINE
  5
13D
  8
0
 62
     7
 10
98.542800000000014
 20
229.3549999999999
 30
0.0
 11
66.042900000000003
 21
229.3549999999999
 31
0.0
  0
LINE
  5
13E
  8
0
 62
     7
 10
108.539
 20
119.37899999999991
 30
0.0
 11
107.947
 21
121.5889999999999
 31
0.0
  0
LINE
  5
13F
  8
0
 62
     7
 10
107.947
 20
121.5889999999999
 30
0.0
 11
107.355
 21
119.37899999999991
 31
0.0
  0
LINE
  5
140
  8
0
 62
     7
 10
107.355
 20
119.37899999999991
 30
0.0
 11
108.539
 21
119.37899999999991
 31
0.0
  0
LINE
  5
141
  8
0
 62
     7
 10
107.369
 20
113.7999999999999
 30
0.0
 11
107.962
 21
111.589
 31
0.0
  0
LINE
  5
142
  8
0
 62
     7
 10
107.962
 20
111.589
 30
0.0
 11
108.5539999999999
 21
113.7999999999999
 31
0.0
  0
LINE
  5
143
  8
0
 62
     7
 10
108.5539999999999
 20
113.7999999999999
 30
0.0
 11
107.369
 21
113.7999999999999
 31
0.0
  0
LINE
  5
144
  8
0
 62
     7
 10
107.95399999999989
 20
121.5889999999999
 30
0.0
 11
107.95399999999989
 21
111.589
 31
0.0
  0
LINE
  5
145
  8
0
 62
     7
 10
77.546099999999996
 20
126.87899999999991
 30
0.0
 11
76.953900000000004
 21
129.089
 31
0.0
  0
LINE
  5
146
  8
0
 62
     7
 10
76.953900000000004
 20
129.089
 30
0.0
 11
76.361400000000003
 21
126.87899999999991
 31
0.0
  0
LINE
  5
147
  8
0
 62
     7
 10
76.361400000000003
 20
126.87899999999991
 30
0.0
 11
77.546099999999996
 21
126.87899999999991
 31
0.0
  0
LINE
  5
148
  8
0
 62
     7
 10
76.376199999999997
 20
120.0499999999999
 30
0.0
 11
76.968400000000003
 21
117.839
 31
0.0
  0
LINE
  5
149
  8
0
 62
     7
 10
76.968400000000003
 20
117.839
 30
0.0
 11
77.561000000000007
 21
120.0499999999999
 31
0.0
  0
LINE
  5
14A
  8
0
 62
     7
 10
77.561000000000007
 20
120.0499999999999
 30
0.0
 11
76.376199999999997
 21
120.0499999999999
 31
0.0
  0
LINE
  5
14B
  8
0
 62
     7
 10
76.961200000000005
 20
129.089
 30
0.0
 11
76.961200000000005
 21
117.839
 31
0.0
  0
LINE
  5
14C
  8
0
 62
     7
 10
108.539
 20
126.87899999999991
 30
0.0
 11
107.947
 21
129.089
 31
0.0
  0
LINE
  5
14D
  8
0
 62
     7
 10
107.947
 20
129.089
 30
0.0
 11
107.355
 21
126.87899999999991
 31
0.0
  0
LINE
  5
14E
  8
0
 62
     7
 10
107.355
 20
126.87899999999991
 30
0.0
 11
108.539
 21
126.87899999999991
 31
0.0
  0
LINE
  5
14F
  8
0
 62
     7
 10
107.369
 20
123.7999999999999
 30
0.0
 11
107.962
 21
121.5889999999999
 31
0.0
  0
LINE
  5
150
  8
0
 62
     7
 10
107.962
 20
121.5889999999999
 30
0.0
 11
108.5539999999999
 21
123.7999999999999
 31
0.0
  0
LINE
  5
151
  8
0
 62
     7
 10
108.5539999999999
 20
123.7999999999999
 30
0.0
 11
107.369
 21
123.7999999999999
 31
0.0
  0
LINE
  5
152
  8
0
 62
     7
 10
107.95399999999989
 20
129.089
 30
0.0
 11
107.95399999999989
 21
121.5889999999999
 31
0.0
  0
LINE
  5
153
  8
0
 62
     7
 10
108.6579999999999
 20
121.5889999999999
 30
0.0
 11
92.955799999999996
 21
121.5889999999999
 31
0.0
  0
LINE
  5
154
  8
0
 62
     7
 10
116.69799999999989
 20
111.589
 30
0.0
 11
99.242800000000017
 21
111.589
 31
0.0
  0
LINE
  5
155
  8
0
 62
     7
 10
116.69799999999989
 20
129.089
 30
0.0
 11
98.752899999999997
 21
129.089
 31
0.0
  0
LINE
  5
156
  8
0
 62
     7
 10
108.539
 20
216.809
 30
0.0
 11
107.947
 21
219.01900000000001
 31
0.0
  0
LINE
  5
157
  8
0
 62
     7
 10
107.947
 20
219.01900000000001
 30
0.0
 11
107.355
 21
216.809
 31
0.0
  0
LINE
  5
158
  8
0
 62
     7
 10
107.355
 20
216.809
 30
0.0
 11
108.539
 21
216.809
 31
0.0
  0
LINE
  5
159
  8
0
 62
     7
 10
107.369
 20
206.85499999999999
 30
0.0
 11
107.962
 21
204.64400000000001
 31
0.0
  0
LINE
  5
15A
  8
0
 62
     7
 10
107.962
 20
204.64400000000001
 30
0.0
 11
108.5539999999999
 21
206.85499999999999
 31
0.0
  0
LINE
  5
15B
  8
0
 62
     7
 10
108.5539999999999
 20
206.85499999999999
 30
0.0
 11
107.369
 21
206.85499999999999
 31
0.0
  0
LINE
  5
15C
  8
0
 62
     7
 10
107.95399999999989
 20
219.01900000000001
 30
0.0
 11
107.95399999999989
 21
204.64400000000001
 31
0.0
  0
LINE
  5
15D
  8
0
 62
     7
 10
165.738
 20
178.90299999999991
 30
0.0
 11
167.94799999999989
 21
179.495
 31
0.0
  0
LINE
  5
15E
  8
0
 62
     7
 10
167.94799999999989
 20
179.495
 30
0.0
 11
165.738
 21
180.08799999999999
 31
0.0
  0
LINE
  5
15F
  8
0
 62
     7
 10
165.738
 20
180.08799999999999
 30
0.0
 11
165.738
 21
178.90299999999991
 31
0.0
  0
LINE
  5
160
  8
0
 62
     7
 10
140.15899999999991
 20
180.07299999999989
 30
0.0
 11
137.94799999999989
 21
179.48099999999999
 31
0.0
  0
LINE
  5
161
  8
0
 62
     7
 10
137.94799999999989
 20
179.48099999999999
 30
0.0
 11
140.15899999999991
 21
178.88799999999989
 31
0.0
  0
LINE
  5
162
  8
0
 62
     7
 10
140.15899999999991
 20
178.88799999999989
 30
0.0
 11
140.15899999999991
 21
180.07299999999989
 31
0.0
  0
LINE
  5
163
  8
0
 62
     7
 10
167.94799999999989
 20
179.488
 30
0.0
 11
137.94799999999989
 21
179.488
 31
0.0
  0
LINE
  5
164
  8
0
 62
     7
 10
165.738
 20
171.84700000000001
 30
0.0
 11
167.94799999999989
 21
172.43999999999991
 31
0.0
  0
LINE
  5
165
  8
0
 62
     7
 10
167.94799999999989
 20
172.43999999999991
 30
0.0
 11
165.738
 21
173.03200000000001
 31
0.0
  0
LINE
  5
166
  8
0
 62
     7
 10
165.738
 20
173.03200000000001
 30
0.0
 11
165.738
 21
171.84700000000001
 31
0.0
  0
LINE
  5
167
  8
0
 62
     7
 10
125.15899999999991
 20
173.017
 30
0.0
 11
122.94799999999989
 21
172.42500000000001
 31
0.0
  0
LINE
  5
168
  8
0
 62
     7
 10
122.94799999999989
 20
172.42500000000001
 30
0.0
 11
125.15899999999991
 21
171.83299999999991
 31
0.0
  0
LINE
  5
169
  8
0
 62
     7
 10
125.15899999999991
 20
171.83299999999991
 30
0.0
 11
125.15899999999991
 21
173.017
 31
0.0
  0
LINE
  5
16A
  8
0
 62
     7
 10
167.94799999999989
 20
172.43199999999999
 30
0.0
 11
122.94799999999989
 21
172.43199999999999
 31
0.0
  0
LINE
  5
16B
  8
0
 62
     7
 10
122.94799999999989
 20
193.51900000000001
 30
0.0
 11
122.94799999999989
 21
171.74000000000001
 31
0.0
  0
LINE
  5
16C
  8
0
 62
     7
 10
145.21000000000001
 20
204.64400000000001
 30
0.0
 11
176.66699999999989
 21
204.64400000000001
 31
0.0
  0
LINE
  5
16D
  8
0
 62
     7
 10
168.44799999999989
 20
194.02000000000001
 30
0.0
 11
183.6399999999999
 21
194.02000000000001
 31
0.0
  0
LINE
  5
16E
  8
0
 62
     7
 10
172.37200000000001
 20
219.01900000000001
 30
0.0
 11
183.6399999999999
 21
219.01900000000001
 31
0.0
  0
LINE
  5
16F
  8
0
 62
     7
 10
137.94799999999989
 20
197.43599999999989
 30
0.0
 11
137.94799999999989
 21
178.7949999999999
 31
0.0
  0
LINE
  5
170
  8
0
 62
     7
 10
167.94799999999989
 20
193.51900000000001
 30
0.0
 11
167.94799999999989
 21
171.74000000000001
 31
0.0
  0
LINE
  5
171
  8
0
 62
     7
 10
96.332400000000007
 20
99.778200000000012
 30
0.0
 11
98.542800000000014
 21
100.371
 31
0.0
  0
LINE
  5
172
  8
0
 62
     7
 10
98.542800000000014
 20
100.371
 30
0.0
 11
96.332400000000007
 21
100.96299999999999
 31
0.0
  0
LINE
  5
173
  8
0
 62
     7
 10
96.332400000000007
 20
100.96299999999999
 30
0.0
 11
96.332400000000007
 21
99.778200000000012
 31
0.0
  0
LINE
  5
174
  8
0
 62
     7
 10
68.253999999999991
 20
100.94799999999989
 30
0.0
 11
66.042900000000003
 21
100.35599999999999
 31
0.0
  0
LINE
  5
175
  8
0
 62
     7
 10
66.042900000000003
 20
100.35599999999999
 30
0.0
 11
68.253999999999991
 21
99.763700000000014
 31
0.0
  0
LINE
  5
176
  8
0
 62
     7
 10
68.253999999999991
 20
99.763700000000014
 30
0.0
 11
68.253999999999991
 21
100.94799999999989
 31
0.0
  0
LINE
  5
177
  8
0
 62
     7
 10
98.542800000000014
 20
100.363
 30
0.0
 11
66.042900000000003
 21
100.363
 31
0.0
  0
LINE
  5
178
  8
0
 62
     7
 10
66.042900000000003
 20
108.7879999999999
 30
0.0
 11
66.042900000000003
 21
99.6631
 31
0.0
  0
LINE
  5
179
  8
0
 62
     7
 10
98.542800000000014
 20
110.8889999999999
 30
0.0
 11
98.542800000000014
 21
99.6631
 31
0.0
  0
LINE
  5
17A
  8
0
 62
     7
 10
87.582099999999997
 20
192.89099999999991
 30
0.0
 11
89.792500000000004
 21
193.483
 31
0.0
  0
LINE
  5
17B
  8
0
 62
     7
 10
89.792500000000004
 20
193.483
 30
0.0
 11
87.582099999999997
 21
194.0749999999999
 31
0.0
  0
LINE
  5
17C
  8
0
 62
     7
 10
87.582099999999997
 20
194.0749999999999
 30
0.0
 11
87.582099999999997
 21
192.89099999999991
 31
0.0
  0
LINE
  5
17D
  8
0
 62
     7
 10
84.503900000000002
 20
194.06099999999989
 30
0.0
 11
82.292800000000014
 21
193.4679999999999
 31
0.0
  0
LINE
  5
17E
  8
0
 62
     7
 10
82.292800000000014
 20
193.4679999999999
 30
0.0
 11
84.503900000000002
 21
192.87599999999989
 31
0.0
  0
LINE
  5
17F
  8
0
 62
     7
 10
84.503900000000002
 20
192.87599999999989
 30
0.0
 11
84.503900000000002
 21
194.06099999999989
 31
0.0
  0
LINE
  5
180
  8
0
 62
     7
 10
90.417800000000014
 20
193.47599999999991
 30
0.0
 11
82.292800000000014
 21
193.47599999999991
 31
0.0
  0
LINE
  5
181
  8
0
 62
     7
 10
96.332400000000007
 20
192.89099999999991
 30
0.0
 11
98.542800000000014
 21
193.483
 31
0.0
  0
LINE
  5
182
  8
0
 62
     7
 10
98.542800000000014
 20
193.483
 30
0.0
 11
96.332400000000007
 21
194.0749999999999
 31
0.0
  0
LINE
  5
183
  8
0
 62
     7
 10
96.332400000000007
 20
194.0749999999999
 30
0.0
 11
96.332400000000007
 21
192.89099999999991
 31
0.0
  0
LINE
  5
184
  8
0
 62
     7
 10
92.003600000000006
 20
194.06099999999989
 30
0.0
 11
89.792500000000004
 21
193.4679999999999
 31
0.0
  0
LINE
  5
185
  8
0
 62
     7
 10
89.792500000000004
 20
193.4679999999999
 30
0.0
 11
92.003600000000006
 21
192.87599999999989
 31
0.0
  0
LINE
  5
186
  8
0
 62
     7
 10
92.003600000000006
 20
192.87599999999989
 30
0.0
 11
92.003600000000006
 21
194.06099999999989
 31
0.0
  0
LINE
  5
187
  8
0
 62
     7
 10
98.542800000000014
 20
193.47599999999991
 30
0.0
 11
90.417800000000014
 21
193.47599999999991
 31
0.0
  0
LINE
  5
188
  8
0
 62
     7
 10
96.332400000000007
 20
178.8959999999999
 30
0.0
 11
98.542800000000014
 21
179.488
 31
0.0
  0
LINE
  5
189
  8
0
 62
     7
 10
98.542800000000014
 20
179.488
 30
0.0
 11
96.332400000000007
 21
180.08099999999999
 31
0.0
  0
LINE
  5
18A
  8
0
 62
     7
 10
96.332400000000007
 20
180.08099999999999
 30
0.0
 11
96.332400000000007
 21
178.8959999999999
 31
0.0
  0
LINE
  5
18B
  8
0
 62
     7
 10
84.503900000000002
 20
180.06599999999989
 30
0.0
 11
82.292800000000014
 21
179.47399999999999
 31
0.0
  0
LINE
  5
18C
  8
0
 62
     7
 10
82.292800000000014
 20
179.47399999999999
 30
0.0
 11
84.503900000000002
 21
178.88099999999989
 31
0.0
  0
LINE
  5
18D
  8
0
 62
     7
 10
84.503900000000002
 20
178.88099999999989
 30
0.0
 11
84.503900000000002
 21
180.06599999999989
 31
0.0
  0
LINE
  5
18E
  8
0
 62
     7
 10
98.542800000000014
 20
179.48099999999999
 30
0.0
 11
82.292800000000014
 21
179.48099999999999
 31
0.0
  0
LINE
  5
18F
  8
0
 62
     7
 10
45.082500000000003
 20
178.88099999999989
 30
0.0
 11
47.2928
 21
179.47399999999999
 31
0.0
  0
LINE
  5
190
  8
0
 62
     7
 10
47.2928
 20
179.47399999999999
 30
0.0
 11
45.082500000000003
 21
180.06599999999989
 31
0.0
  0
LINE
  5
191
  8
0
 62
     7
 10
45.082500000000003
 20
180.06599999999989
 30
0.0
 11
45.082500000000003
 21
178.88099999999989
 31
0.0
  0
LINE
  5
192
  8
0
 62
     7
 10
80.082400000000007
 20
178.88099999999989
 30
0.0
 11
82.292800000000014
 21
179.47399999999999
 31
0.0
  0
LINE
  5
193
  8
0
 62
     7
 10
82.292800000000014
 20
179.47399999999999
 30
0.0
 11
80.082400000000007
 21
180.06599999999989
 31
0.0
  0
LINE
  5
194
  8
0
 62
     7
 10
80.082400000000007
 20
180.06599999999989
 30
0.0
 11
80.082400000000007
 21
178.88099999999989
 31
0.0
  0
LINE
  5
195
  8
0
 62
     7
 10
50.754199999999997
 20
180.0509999999999
 30
0.0
 11
48.543100000000003
 21
179.459
 31
0.0
  0
LINE
  5
196
  8
0
 62
     7
 10
48.543100000000003
 20
179.459
 30
0.0
 11
50.754199999999997
 21
178.86699999999999
 31
0.0
  0
LINE
  5
197
  8
0
 62
     7
 10
50.754199999999997
 20
178.86699999999999
 30
0.0
 11
50.754199999999997
 21
180.0509999999999
 31
0.0
  0
LINE
  5
198
  8
0
 62
     7
 10
82.292800000000014
 20
179.46599999999989
 30
0.0
 11
41.583300000000001
 21
179.46599999999989
 31
0.0
  0
LINE
  5
199
  8
0
 62
     7
 10
96.332400000000007
 20
171.84
 30
0.0
 11
98.542800000000014
 21
172.43199999999999
 31
0.0
  0
LINE
  5
19A
  8
0
 62
     7
 10
98.542800000000014
 20
172.43199999999999
 30
0.0
 11
96.332400000000007
 21
173.02500000000001
 31
0.0
  0
LINE
  5
19B
  8
0
 62
     7
 10
96.332400000000007
 20
173.02500000000001
 30
0.0
 11
96.332400000000007
 21
171.84
 31
0.0
  0
LINE
  5
19C
  8
0
 62
     7
 10
49.503900000000002
 20
173.00999999999999
 30
0.0
 11
47.2928
 21
172.41800000000001
 31
0.0
  0
LINE
  5
19D
  8
0
 62
     7
 10
47.2928
 20
172.41800000000001
 30
0.0
 11
49.503900000000002
 21
171.8249999999999
 31
0.0
  0
LINE
  5
19E
  8
0
 62
     7
 10
49.503900000000002
 20
171.8249999999999
 30
0.0
 11
49.503900000000002
 21
173.00999999999999
 31
0.0
  0
LINE
  5
19F
  8
0
 62
     7
 10
98.542800000000014
 20
172.42500000000001
 30
0.0
 11
47.2928
 21
172.42500000000001
 31
0.0
  0
LINE
  5
1A0
  8
0
 62
     7
 10
48.332900000000002
 20
217.76900000000001
 30
0.0
 11
37.864600000000003
 21
217.76900000000001
 31
0.0
  0
LINE
  5
1A1
  8
0
 62
     7
 10
108.6579999999999
 20
204.64400000000001
 30
0.0
 11
100.5989999999999
 21
204.64400000000001
 31
0.0
  0
LINE
  5
1A2
  8
0
 62
     7
 10
108.64700000000001
 20
219.01900000000001
 30
0.0
 11
98.752899999999997
 21
219.01900000000001
 31
0.0
  0
LINE
  5
1A3
  8
0
 62
     7
 10
46.936300000000003
 20
219.01900000000001
 30
0.0
 11
29.007899999999999
 21
219.01900000000001
 31
0.0
  0
LINE
  5
1A4
  8
0
 62
     7
 10
48.332900000000002
 20
191.51900000000001
 30
0.0
 11
37.864600000000003
 21
191.51900000000001
 31
0.0
  0
LINE
  5
1A5
  8
0
 62
     7
 10
46.936300000000003
 20
190.26899999999989
 30
0.0
 11
29.007899999999999
 21
190.26899999999989
 31
0.0
  0
LINE
  5
1A6
  8
0
 62
     7
 10
48.543100000000003
 20
191.31
 30
0.0
 11
48.543100000000003
 21
178.75899999999999
 31
0.0
  0
LINE
  5
1A7
  8
0
 62
     7
 10
47.2928
 20
190.06
 30
0.0
 11
47.2928
 21
171.7179999999999
 31
0.0
  0
LINE
  5
1A8
  8
0
 62
     7
 10
89.792500000000004
 20
200.19499999999991
 30
0.0
 11
89.792500000000004
 21
192.768
 31
0.0
  0
LINE
  5
1A9
  8
0
 62
     7
 10
82.292800000000014
 20
190.96000000000001
 30
0.0
 11
82.292800000000014
 21
178.774
 31
0.0
  0
LINE
  5
1AA
  8
0
 62
     7
 10
98.542800000000014
 20
190.06
 30
0.0
 11
98.542800000000014
 21
171.7179999999999
 31
0.0
  0
LINE
  5
1AB
  8
0
 62
     7
 10
47.2928
 20
230.06200000000001
 30
0.0
 11
47.2928
 21
219.2299999999999
 31
0.0
  0
LINE
  5
1AC
  8
0
 62
     7
 10
66.042900000000003
 20
230.06200000000001
 30
0.0
 11
66.042900000000003
 21
212.26599999999991
 31
0.0
  0
LINE
  5
1AD
  8
0
 62
     7
 10
98.542800000000014
 20
230.06200000000001
 30
0.0
 11
98.542800000000014
 21
219.2299999999999
 31
0.0
  0
ARC
  5
1AE
  8
0
 62
     7
 10
96.830659999999995
 20
192.391572
 30
0.0
 40
0.87276
 50
272.11814600000002
 51
357.90536099999991
  0
ARC
  5
1AF
  8
0
 62
     7
 10
81.420256999999992
 20
192.391965
 30
0.0
 40
0.8731670000000001
 50
272.14297599999992
 51
357.88053100000002
  0
ARC
  5
1B0
  8
0
 62
     7
 10
49.415649999999999
 20
192.391965
 30
0.0
 40
0.8731670000000001
 50
182.1194889999999
 51
267.85704399999992
  0
ARC
  5
1B1
  8
0
 62
     7
 10
81.419927999999999
 20
216.89660799999999
 30
0.0
 40
0.8734949999999999
 50
2.1167529999999992
 51
87.836253999999997
  0
ARC
  5
1B2
  8
0
 62
     7
 10
96.830331000000015
 20
216.89699999999999
 30
0.0
 40
0.8730879999999999
 50
2.091969999999999
 51
87.861036999999996
  0
ARC
  5
1B3
  8
0
 62
     7
 10
49.414893999999997
 20
216.89766599999999
 30
0.0
 40
0.8723969999999999
 50
92.095127000000019
 51
177.904843
  0
ARC
  5
1B4
  8
0
 62
     7
 10
66.042552999999998
 20
204.6446169999999
 30
0.0
 40
4.3753000000000002
 50
269.99550799999997
 51
359.99547899999988
  0
ARC
  5
1B5
  8
0
 62
     7
 10
66.042552999999998
 20
204.64392699999999
 30
0.0
 40
4.3746089999999986
 50
179.99545800000001
 51
269.99550799999997
  0
ARC
  5
1B6
  8
0
 62
     7
 10
66.04255400000001
 20
204.6446159999999
 30
0.0
 40
4.3746109999999989
 50
90.004512000000005
 51
180.00452200000001
  0
ARC
  5
1B7
  8
0
 62
     7
 10
66.042552999999998
 20
204.64392699999999
 30
0.0
 40
4.3753000000000002
 50
0.004521
 51
90.004491999999999
  0
ARC
  5
1B8
  8
0
 62
     7
 10
89.708028999999996
 20
204.72840099999991
 30
0.0
 40
2.273336
 50
272.1208299999999
 51
357.87918000000002
  0
ARC
  5
1B9
  8
0
 62
     7
 10
89.875522000000004
 20
204.72727699999999
 30
0.0
 40
2.272184999999999
 50
182.09356700000001
 51
267.89743900000002
  0
ARC
  5
1BA
  8
0
 62
     7
 10
89.876227999999998
 20
204.56056000000001
 30
0.0
 40
2.2729169999999992
 50
92.119702000000004
 51
177.8892919999999
  0
ARC
  5
1BB
  8
0
 62
     7
 10
89.708822999999995
 20
204.560937
 30
0.0
 40
2.272513
 50
2.1015579999999998
 51
87.898431999999985
  0
LINE
  5
1BC
  8
0
  6
AIGENLINE001
 62
     7
 10
89.792500000000004
 20
208.39400000000001
 30
0.0
 11
89.792500000000004
 21
200.89500000000001
 31
0.0
  0
ARC
  5
1BD
  8
0
 62
     7
 10
65.934325000000001
 20
204.75215600000001
 30
0.0
 40
2.9224700000000001
 50
272.11558799999989
 51
357.88442099999992
  0
ARC
  5
1BE
  8
0
 62
     7
 10
66.150508999999985
 20
204.7522139999999
 30
0.0
 40
2.9225430000000001
 50
182.116679
 51
267.87633199999988
  0
ARC
  5
1BF
  8
0
 62
     7
 10
66.150425999999996
 20
204.5364129999999
 30
0.0
 40
2.9224569999999992
 50
92.122101000000015
 51
177.8848879999999
  0
ARC
  5
1C0
  8
0
 62
     7
 10
65.933948000000001
 20
204.53601099999989
 30
0.0
 40
2.9228610000000002
 50
2.1226899999999991
 51
87.877300000000005
  0
LINE
  5
1C1
  8
0
  6
AIGENLINE001
 62
     7
 10
59.7928
 20
220.90199999999999
 30
0.0
 11
59.7928
 21
215.81700000000001
 31
0.0
  0
LINE
  5
1C2
  8
0
  6
AIGENLINE001
 62
     7
 10
89.792800000000014
 20
220.90199999999999
 30
0.0
 11
89.792800000000014
 21
215.81700000000001
 31
0.0
  0
LINE
  5
1C3
  8
0
  6
AIGENLINE001
 62
     7
 10
66.042900000000003
 20
211.74100000000001
 30
0.0
 11
66.042900000000003
 21
198.0679999999999
 31
0.0
  0
LINE
  5
1C4
  8
0
  6
AIGENLINE001
 62
     7
 10
100.0739999999999
 20
204.64400000000001
 30
0.0
 11
46.186999999999991
 21
204.64400000000001
 31
0.0
  0
LINE
  5
1C5
  8
0
 62
     7
 10
81.452900000000014
 20
217.76900000000001
 30
0.0
 11
96.862899999999996
 21
217.76900000000001
 31
0.0
  0
LINE
  5
1C6
  8
0
 62
     7
 10
96.862899999999996
 20
191.51900000000001
 30
0.0
 11
81.452900000000014
 21
191.51900000000001
 31
0.0
  0
LINE
  5
1C7
  8
0
 62
     7
 10
97.702799999999996
 20
192.36000000000001
 30
0.0
 11
97.702799999999996
 21
216.929
 31
0.0
  0
LINE
  5
1C8
  8
0
 62
     7
 10
82.292800000000014
 20
203.06
 30
0.0
 11
82.292800000000014
 21
192.36000000000001
 31
0.0
  0
LINE
  5
1C9
  8
0
 62
     7
 10
72.918000000000006
 20
190.26899999999989
 30
0.0
 11
97.702799999999996
 21
190.26899999999989
 31
0.0
  0
ARC
  5
1CA
  8
0
 62
     7
 10
97.670249999999996
 20
191.14165499999999
 30
0.0
 40
0.8730879999999999
 50
272.13896299999999
 51
357.90803
  0
LINE
  5
1CB
  8
0
 62
     7
 10
98.542800000000014
 20
191.11000000000001
 30
0.0
 11
98.542800000000014
 21
218.17899999999989
 31
0.0
  0
ARC
  5
1CC
  8
0
 62
     7
 10
97.670938000000007
 20
218.14754999999991
 30
0.0
 40
0.8724019999999999
 50
2.095461999999999
 51
87.904528000000013
  0
LINE
  5
1CD
  8
0
 62
     7
 10
97.702799999999996
 20
219.01900000000001
 30
0.0
 11
72.918000000000006
 21
219.01900000000001
 31
0.0
  0
LINE
  5
1CE
  8
0
 62
     7
 10
81.452900000000014
 20
217.76900000000001
 30
0.0
 11
49.383000000000003
 21
217.76900000000001
 31
0.0
  0
LINE
  5
1CF
  8
0
 62
     7
 10
49.383000000000003
 20
191.51900000000001
 30
0.0
 11
81.452900000000014
 21
191.51900000000001
 31
0.0
  0
LINE
  5
1D0
  8
0
 62
     7
 10
48.543100000000003
 20
192.36000000000001
 30
0.0
 11
48.543100000000003
 21
216.93000000000001
 31
0.0
  0
LINE
  5
1D1
  8
0
 62
     7
 10
82.292800000000014
 20
203.06
 30
0.0
 11
82.292800000000014
 21
216.929
 31
0.0
  0
LINE
  5
1D2
  8
0
 62
     7
 10
72.918000000000006
 20
190.26899999999989
 30
0.0
 11
48.133499999999991
 21
190.26899999999989
 31
0.0
  0
ARC
  5
1D3
  8
0
 62
     7
 10
48.165767999999993
 20
191.14209600000001
 30
0.0
 40
0.8735179999999999
 50
182.11989299999991
 51
267.88013699999988
  0
LINE
  5
1D4
  8
0
 62
     7
 10
47.2928
 20
191.11000000000001
 30
0.0
 11
47.2928
 21
218.17899999999989
 31
0.0
  0
ARC
  5
1D5
  8
0
 62
     7
 10
48.165331999999999
 20
218.1468569999999
 30
0.0
 40
0.873093
 50
92.092268000000004
 51
177.8607189999999
  0
LINE
  5
1D6
  8
0
 62
     7
 10
48.133499999999991
 20
219.01900000000001
 30
0.0
 11
72.918000000000006
 21
219.01900000000001
 31
0.0
  0
TEXT
  5
1D7
  8
_________2
 62
     7
 10
26.512799999999991
 20
61.42369999999999
 30
0.0
 40
3.9357000000000002
  1
※壁取付部には厚さ30mm以上の補強木を入れてください。
 41
0.5
  0
TEXT
  5
1D8
  8
_________2
 62
     7
 10
141.42552499999991
 20
30.451399999999989
 30
0.0
 40
3.9357000000000002
  1
SB803104
 41
0.5
 72
     1
 11
148.3129999999999
 21
30.451399999999989
 31
0.0
  0
TEXT
  5
1D9
  8
_________2
 62
     7
 10
141.42552499999991
 20
20.450600000000001
 30
0.0
 40
3.9357000000000002
  1
SB803104
 41
0.5
 72
     1
 11
148.3129999999999
 21
20.450600000000001
 31
0.0
  0
TEXT
  5
1DA
  8
_________2
 62
     7
 10
29.3491
 20
22.050799999999999
 30
0.0
 40
3.9357000000000002
  1
重量：7kg、オーバーフローなし
 41
0.5
  0
LINE
  5
1DB
  8
_________2
 62
     7
 10
210.06399999999999
 20
148.75499999999991
 30
0.0
 11
188.3129999999999
 21
148.75499999999991
 31
0.0
  0
LINE
  5
1DC
  8
_________2
 62
     7
 10
105.062
 20
17.252099999999992
 30
0.0
 11
105.062
 21
0.272164
 31
0.0
  0
LINE
  5
1DD
  8
_________2
 62
     7
 10
105.062
 20
297.27399999999989
 30
0.0
 11
105.062
 21
280.25400000000002
 31
0.0
  0
LINE
  5
1DE
  8
_________2
 62
     7
 10
21.811900000000001
 20
148.75499999999991
 30
0.0
 11
0.0614953
 21
148.75499999999991
 31
0.0
  0
LINE
  5
1DF
  8
_________2
 62
     7
 10
81.503200000000007
 20
51.1479
 30
0.0
 11
79.316900000000004
 21
51.1479
 31
0.0
  0
LINE
  5
1E0
  8
_________2
 62
     7
 10
81.995900000000006
 20
51.1479
 30
0.0
 11
81.743700000000004
 21
51.1479
 31
0.0
  0
LINE
  5
1E1
  8
_________2
 62
     7
 10
82.488500000000002
 20
51.1479
 30
0.0
 11
85.413399999999996
 21
51.1479
 31
0.0
  0
LINE
  5
1E2
  8
_________2
 62
     7
 10
81.995900000000006
 20
51.1479
 30
0.0
 11
82.248000000000005
 21
51.1479
 31
0.0
  0
LINE
  5
1E3
  8
_________2
 62
     7
 10
75.599699999999984
 20
51.1479
 30
0.0
 11
73.412700000000001
 21
51.1479
 31
0.0
  0
LINE
  5
1E4
  8
_________2
 62
     7
 10
76.0916
 20
51.1479
 30
0.0
 11
75.840100000000007
 21
51.1479
 31
0.0
  0
LINE
  5
1E5
  8
_________2
 62
     7
 10
76.0916
 20
51.640599999999999
 30
0.0
 11
76.0916
 21
53.827500000000001
 31
0.0
  0
LINE
  5
1E6
  8
_________2
 62
     7
 10
76.0916
 20
51.1479
 30
0.0
 11
76.0916
 21
51.400500000000001
 31
0.0
  0
LINE
  5
1E7
  8
_________2
 62
     7
 10
76.584299999999999
 20
51.1479
 30
0.0
 11
78.771199999999993
 21
51.1479
 31
0.0
  0
LINE
  5
1E8
  8
_________2
 62
     7
 10
76.0916
 20
51.1479
 30
0.0
 11
76.343800000000002
 21
51.1479
 31
0.0
  0
LINE
  5
1E9
  8
_________2
 62
     7
 10
76.0916
 20
50.655999999999999
 30
0.0
 11
76.0916
 21
48.4694
 31
0.0
  0
LINE
  5
1EA
  8
_________2
 62
     7
 10
76.0916
 20
51.1479
 30
0.0
 11
76.0916
 21
50.8964
 31
0.0
  0
LINE
  5
1EB
  8
_________2
 62
     7
 10
79.802700000000002
 20
49.928400000000011
 30
0.0
 11
84.980699999999999
 21
49.063600000000001
 31
0.0
  0
LINE
  5
1EC
  8
_________2
 62
     7
 10
79.802700000000002
 20
52.367800000000003
 30
0.0
 11
84.980699999999999
 21
53.2333
 31
0.0
  0
LINE
  5
1ED
  8
_________2
 62
     7
 10
84.980699999999999
 20
49.063600000000001
 30
0.0
 11
84.980699999999999
 21
53.2333
 31
0.0
  0
LINE
  5
1EE
  8
_________2
 62
     7
 10
79.802700000000002
 20
49.928400000000011
 30
0.0
 11
79.802700000000002
 21
52.367800000000003
 31
0.0
  0
ARC
  5
1EF
  8
_________2
 62
     7
 10
76.045031999999992
 20
51.100991
 30
0.0
 40
1.267714
 50
2.1220840000000001
 51
87.894083999999992
  0
ARC
  5
1F0
  8
_________2
 62
     7
 10
76.138563000000005
 20
51.101345000000002
 30
0.0
 40
1.267374999999999
 50
92.122849999999985
 51
177.893304
  0
ARC
  5
1F1
  8
_________2
 62
     7
 10
76.138538999999994
 20
51.194856000000001
 30
0.0
 40
1.267363
 50
182.12181499999991
 51
267.87821400000001
  0
ARC
  5
1F2
  8
_________2
 62
     7
 10
76.044727000000009
 20
51.195538999999997
 30
0.0
 40
1.2680439999999991
 50
272.11916400000001
 51
357.84848499999993
  0
ARC
  5
1F3
  8
_________2
 62
     7
 10
76.011246999999983
 20
51.067923
 30
0.0
 40
2.1668310000000002
 50
2.1161439999999989
 51
87.874379000000005
  0
ARC
  5
1F4
  8
_________2
 62
     7
 10
76.171678
 20
51.068944999999999
 30
0.0
 40
2.1657980000000001
 50
92.118487999999999
 51
177.90988599999989
  0
ARC
  5
1F5
  8
_________2
 62
     7
 10
76.17161999999999
 20
51.22793699999999
 30
0.0
 40
2.1657779999999991
 50
182.11700400000001
 51
267.88302499999992
  0
ARC
  5
1F6
  8
_________2
 62
     7
 10
76.011645000000001
 20
51.228619999999999
 30
0.0
 40
2.1664590000000001
 50
272.11546800000002
 51
357.86560400000002
  0
TEXT
  5
1F7
  8
_________2
 62
     7
 10
109.367
 20
23.0227
 30
0.0
 40
3.0923400000000001
  1
図番
 41
0.5
  0
LINE
  5
1F8
  8
_________2
 62
     7
 10
108.3129999999999
 20
27.251899999999999
 30
0.0
 11
188.3129999999999
 21
27.251899999999999
 31
0.0
  0
TEXT
  5
1F9
  8
_________2
 62
     7
 10
109.367
 20
33.022500000000001
 30
0.0
 40
3.0923400000000001
  1
品番
 41
0.5
  0
TEXT
  5
1FA
  8
_________2
 62
     7
 10
109.367
 20
53.161599999999993
 30
0.0
 40
3.0923400000000001
  1
名称
 41
0.5
  0
TEXT
  5
1FB
  8
_________2
 62
     7
 10
96.607258333333334
 20
48.165500000000002
 30
0.0
 40
3.6545800000000002
  1
mm
 41
0.5
 72
     1
 11
98.129999999999995
 21
48.165500000000002
 31
0.0
  0
TEXT
  5
1FC
  8
_________2
 62
     7
 10
90.4054
 20
53.161599999999993
 30
0.0
 40
3.0923400000000001
  1
単位
 41
0.5
  0
TEXT
  5
1FD
  8
_________2
 62
     7
 10
90.4054
 20
40.753999999999998
 30
0.0
 40
3.0923400000000001
  1
尺度
 41
0.5
  0
TEXT
  5
1FE
  8
_________2
 62
     7
 10
95.310958666666664
 20
34.561399999999992
 30
0.0
 40
3.6545800000000002
  1
1 ： 8
 41
0.5
 72
     1
 11
98.721900000000005
 21
34.561399999999992
 31
0.0
  0
TEXT
  5
1FF
  8
_________2
 62
     7
 10
113.941
 20
45.569299999999998
 30
0.0
 40
3.9357000000000002
  1
TR 手洗器
 41
0.5
  0
TEXT
  5
200
  8
_________2
 62
     7
 10
44.187500333333332
 20
34.946599999999989
 30
0.0
 40
3.6545800000000002
  1
早川
 41
0.5
 72
     1
 11
46.075699999999991
 21
34.946599999999989
 31
0.0
  0
TEXT
  5
201
  8
_________2
 62
     7
 10
25.55279066666666
 20
34.946599999999989
 30
0.0
 40
3.6545800000000002
  1
菅原
 41
0.5
 72
     1
 11
27.501899999999988
 21
34.946599999999989
 31
0.0
  0
TEXT
  5
202
  8
_________2
 62
     7
 10
72.548000000000002
 20
34.561399999999992
 30
0.0
 40
3.6545800000000002
  1
12.12.05
 41
0.5
  0
TEXT
  5
203
  8
_________2
 62
     7
 10
71.3553
 20
40.753999999999998
 30
0.0
 40
3.0923400000000001
  1
日付
 41
0.5
  0
TEXT
  5
204
  8
_________2
 62
     7
 10
34.401600000000002
 20
40.753999999999998
 30
0.0
 40
3.0923400000000001
  1
検図
 41
0.5
  0
TEXT
  5
205
  8
_________2
 62
     7
 10
22.7834
 20
26.554600000000001
 30
0.0
 40
3.0923400000000001
  1
備考
 41
0.5
  0
TEXT
  5
206
  8
_________2
 62
     7
 10
22.7834
 20
40.753999999999998
 30
0.0
 40
3.0923400000000001
  1
製図
 41
0.5
  0
TEXT
  5
207
  8
_________2
 62
     7
 10
28.550665333333338
 20
49.280000000000001
 30
0.0
 40
4.4979399999999989
  1
セラトレーディング株式会社
 41
0.5
 72
     1
 11
45.942700000000002
 21
49.280000000000001
 31
0.0
  0
LINE
  5
208
  8
_________2
 62
     7
 10
188.3129999999999
 20
17.252099999999992
 30
0.0
 11
21.811900000000001
 21
17.252099999999992
 31
0.0
  0
LINE
  5
209
  8
_________2
 62
     7
 10
21.811900000000001
 20
17.252099999999992
 30
0.0
 11
21.811900000000001
 21
280.25400000000002
 31
0.0
  0
LINE
  5
20A
  8
_________2
 62
     7
 10
21.811900000000001
 20
280.25400000000002
 30
0.0
 11
188.3129999999999
 21
280.25400000000002
 31
0.0
  0
LINE
  5
20B
  8
_________2
 62
     7
 10
188.3129999999999
 20
280.25400000000002
 30
0.0
 11
188.3129999999999
 21
17.252099999999992
 31
0.0
  0
LINE
  5
20C
  8
_________2
 62
     7
 10
70.312100000000001
 20
30.752500000000001
 30
0.0
 11
70.312100000000001
 21
57.252299999999991
 31
0.0
  0
LINE
  5
20D
  8
_________2
 62
     7
 10
89.311899999999994
 20
30.752500000000001
 30
0.0
 11
89.311899999999994
 21
57.252299999999991
 31
0.0
  0
LINE
  5
20E
  8
_________2
 62
     7
 10
108.3129999999999
 20
17.252099999999992
 30
0.0
 11
108.3129999999999
 21
57.252299999999991
 31
0.0
  0
LINE
  5
20F
  8
_________2
 62
     7
 10
33.311500000000002
 20
30.752500000000001
 30
0.0
 11
33.311500000000002
 21
44.752400000000002
 31
0.0
  0
LINE
  5
210
  8
_________2
 62
     7
 10
21.811900000000001
 20
30.752500000000001
 30
0.0
 11
108.3129999999999
 21
30.752500000000001
 31
0.0
  0
LINE
  5
211
  8
_________2
 62
     7
 10
21.811900000000001
 20
44.752400000000002
 30
0.0
 11
108.3129999999999
 21
44.752400000000002
 31
0.0
  0
LINE
  5
212
  8
_________2
 62
     7
 10
108.3129999999999
 20
37.2517
 30
0.0
 11
188.3129999999999
 21
37.2517
 31
0.0
  0
LINE
  5
213
  8
_________2
 62
     7
 10
21.811900000000001
 20
57.252299999999991
 30
0.0
 11
188.3129999999999
 21
57.252299999999991
 31
0.0
  0
ENDSEC
  0
EOF
