  0
SECTION
  2
HEADER
  9
$ACADVER
  1
AC1009
  9
$INSBASE
 10
0.0
 20
0.0
 30
0.0
  9
$EXTMIN
 10
0.0614953
 20
0.272164
 30
0.0
  9
$EXTMAX
 10
210.06399999999999
 20
297.27399999999989
 30
0.0
  9
$LIMMIN
 10
0.0
 20
0.0
  9
$LIMMAX
 10
12.0
 20
9.0
  9
$ORTHOMODE
 70
     0
  9
$REGENMODE
 70
     1
  9
$FILLMODE
 70
     1
  9
$QTEXTMODE
 70
     0
  9
$MIRRTEXT
 70
     1
  9
$DRAGMODE
 70
     2
  9
$LTSCALE
 40
1.0
  9
$OSMODE
 70
    37
  9
$ATTMODE
 70
     1
  9
$TEXTSIZE
 40
0.0
  9
$TRACEWID
 40
0.05
  9
$TEXTSTYLE
  7
STANDARD
  9
$CLAYER
  8
0
  9
$CELTYPE
  6
CONTINUOUS
  9
$CECOLOR
 62
   256
  9
$DIMSCALE
 40
1.0
  9
$DIMASZ
 40
0.18
  9
$DIMEXO
 40
0.0625
  9
$DIMDLI
 40
0.38
  9
$DIMRND
 40
0.0
  9
$DIMDLE
 40
0.0
  9
$DIMEXE
 40
0.18
  9
$DIMTP
 40
0.0
  9
$DIMTM
 40
0.0
  9
$DIMTXT
 40
0.18
  9
$DIMCEN
 40
0.09
  9
$DIMTSZ
 40
0.0
  9
$DIMTOL
 70
     0
  9
$DIMLIM
 70
     0
  9
$DIMTIH
 70
     1
  9
$DIMTOH
 70
     1
  9
$DIMSE1
 70
     0
  9
$DIMSE2
 70
     0
  9
$DIMTAD
 70
     0
  9
$DIMZIN
 70
     0
  9
$DIMBLK
  1

  9
$DIMASO
 70
     1
  9
$DIMSHO
 70
     1
  9
$DIMPOST
  1

  9
$DIMAPOST
  1

  9
$DIMALT
 70
     0
  9
$DIMALTD
 70
     2
  9
$DIMALTF
 40
25.399999999999999
  9
$DIMLFAC
 40
1.0
  9
$DIMTOFL
 70
     0
  9
$DIMTVP
 40
0.0
  9
$DIMTIX
 70
     0
  9
$DIMSOXD
 70
     0
  9
$DIMSAH
 70
     0
  9
$DIMBLK1
  1

  9
$DIMBLK2
  1

  9
$DIMSTYLE
  2
STANDARD
  9
$DIMCLRD
 70
     0
  9
$DIMCLRE
 70
     0
  9
$DIMCLRT
 70
     0
  9
$DIMTFAC
 40
1.0
  9
$DIMGAP
 40
0.09
  9
$LUNITS
 70
     2
  9
$LUPREC
 70
     4
  9
$SKETCHINC
 40
0.1
  9
$FILLETRAD
 40
0.0
  9
$AUNITS
 70
     0
  9
$AUPREC
 70
     0
  9
$MENU
  1
.
  9
$ELEVATION
 40
0.0
  9
$PELEVATION
 40
0.0
  9
$THICKNESS
 40
0.0
  9
$LIMCHECK
 70
     0
  9
$BLIPMODE
 70
     0
  9
$CHAMFERA
 40
0.0
  9
$CHAMFERB
 40
0.0
  9
$SKPOLY
 70
     0
  9
$TDCREATE
 40
2444972.375
  9
$TDUPDATE
 40
2457079.24669419
  9
$TDINDWG
 40
0.0000068403
  9
$TDUSRTIMER
 40
0.0000068403
  9
$USRTIMER
 70
     1
  9
$ANGBASE
 50
0.0
  9
$ANGDIR
 70
     0
  9
$PDMODE
 70
     0
  9
$PDSIZE
 40
0.0
  9
$PLINEWID
 40
0.0
  9
$COORDS
 70
     1
  9
$SPLFRAME
 70
     0
  9
$SPLINETYPE
 70
     6
  9
$SPLINESEGS
 70
     8
  9
$ATTDIA
 70
     0
  9
$ATTREQ
 70
     1
  9
$HANDLING
 70
     1
  9
$HANDSEED
  5
250
  9
$SURFTAB1
 70
     6
  9
$SURFTAB2
 70
     6
  9
$SURFTYPE
 70
     6
  9
$SURFU
 70
     6
  9
$SURFV
 70
     6
  9
$UCSNAME
  2

  9
$UCSORG
 10
0.0
 20
0.0
 30
0.0
  9
$UCSXDIR
 10
1.0
 20
0.0
 30
0.0
  9
$UCSYDIR
 10
0.0
 20
1.0
 30
0.0
  9
$PUCSNAME
  2

  9
$PUCSORG
 10
0.0
 20
0.0
 30
0.0
  9
$PUCSXDIR
 10
1.0
 20
0.0
 30
0.0
  9
$PUCSYDIR
 10
0.0
 20
1.0
 30
0.0
  9
$USERI1
 70
     0
  9
$USERI2
 70
     0
  9
$USERI3
 70
     0
  9
$USERI4
 70
     0
  9
$USERI5
 70
     0
  9
$USERR1
 40
0.0
  9
$USERR2
 40
0.0
  9
$USERR3
 40
0.0
  9
$USERR4
 40
0.0
  9
$USERR5
 40
0.0
  9
$WORLDVIEW
 70
     1
  9
$SHADEDGE
 70
     3
  9
$SHADEDIF
 70
    70
  9
$TILEMODE
 70
     1
  9
$MAXACTVP
 70
    48
  9
$PLIMCHECK
 70
     0
  9
$PEXTMIN
 10
1.0000000000000000E+020
 20
1.0000000000000000E+020
 30
1.0000000000000000E+020
  9
$PEXTMAX
 10
-1.0000000000000000E+020
 20
-1.0000000000000000E+020
 30
-1.0000000000000000E+020
  9
$PLIMMIN
 10
0.0
 20
0.0
  9
$PLIMMAX
 10
12.0
 20
9.0
  9
$UNITMODE
 70
     0
  9
$VISRETAIN
 70
     1
  9
$PLINEGEN
 70
     0
  9
$PSLTSCALE
 70
     1
  0
ENDSEC
  0
SECTION
  2
TABLES
  0
TABLE
  2
VPORT
 70
     2
  0
VPORT
  2
*ACTIVE
 70
     0
 10
0.0
 20
0.0
 11
1.0
 21
1.0
 12
205.1637911411128
 22
148.63699999999989
 13
0.0
 23
0.0
 14
1.0
 24
1.0
 15
0.0
 25
0.0
 16
0.0
 26
0.0
 36
1.0
 17
0.0
 27
0.0
 37
0.0
 40
299.74442105263148
 41
2.2894736842105261
 42
50.0
 43
0.0
 44
0.0
 50
0.0
 51
0.0
 71
     0
 72
   100
 73
     1
 74
     1
 75
     0
 76
     0
 77
     0
 78
     0
  0
ENDTAB
  0
TABLE
  2
LTYPE
 70
     4
  0
LTYPE
  2
CONTINUOUS
 70
     0
  3
Solid line
 72
    65
 73
     0
 40
0.0
  0
LTYPE
  2
AIGENLINE001
 70
     0
  3
generate AI->DXF Converter
 72
    65
 73
     4
 40
5.8561449999999988
 49
3.5278
 49
-0.776115
 49
0.776115
 49
-0.776115
  0
LTYPE
  2
AIGENLINE002
 70
     0
  3
generate AI->DXF Converter
 72
    65
 73
     2
 40
1.5522299999999991
 49
0.776115
 49
-0.776115
  0
LTYPE
  2
AIGENLINE003
 70
     0
  3
generate AI->DXF Converter
 72
    65
 73
     6
 40
7.4083750000000004
 49
3.5278
 49
-0.776115
 49
0.776115
 49
-0.776115
 49
0.776115
 49
-0.776115
  0
ENDTAB
  0
TABLE
  2
LAYER
 70
     2
  0
LAYER
  2
0
 70
     0
 62
     7
  6
CONTINUOUS
  0
LAYER
  2
_________2
 70
     0
 62
     7
  6
CONTINUOUS
  0
ENDTAB
  0
TABLE
  2
STYLE
 70
     1
  0
STYLE
  2
STANDARD
 70
     0
 40
0.0
 41
0.0
 50
0.0
 71
     0
 42
0.0
  3
TXT
  4
EXTFONT.SHX
  0
ENDTAB
  0
TABLE
  2
VIEW
 70
     0
  0
ENDTAB
  0
TABLE
  2
UCS
 70
     0
  0
ENDTAB
  0
TABLE
  2
APPID
 70
     1
  0
APPID
  2
ACAD
 70
     0
  0
ENDTAB
  0
TABLE
  2
DIMSTYLE
 70
     1
  0
DIMSTYLE
  2
STANDARD
 70
     0
  3

  4

  5

  6

  7

 40
1.0
 41
0.18
 42
0.0625
 43
0.38
 44
0.18
 45
0.0
 46
0.0
 47
0.0
 48
0.0
140
0.18
141
0.09
142
0.0
143
25.399999999999999
144
1.0
145
0.0
146
1.0
147
0.09
 71
     0
 72
     0
 73
     1
 74
     1
 75
     0
 76
     0
 77
     0
 78
     0
170
     0
171
     2
172
     0
173
     0
174
     0
175
     0
176
     0
177
     0
178
     0
  0
ENDTAB
  0
ENDSEC
  0
SECTION
  2
BLOCKS
  0
BLOCK
  8
0
  2
$MODEL_SPACE
 70
     0
 10
0.0
 20
0.0
 30
0.0
  3
$MODEL_SPACE
  1

  0
ENDBLK
  5
1A
  8
0
  0
BLOCK
 67
     1
  8
0
  2
$PAPER_SPACE
 70
     0
 10
0.0
 20
0.0
 30
0.0
  3
$PAPER_SPACE
  1

  0
ENDBLK
  5
17
 67
     1
  8
0
  0
ENDSEC
  0
SECTION
  2
ENTITIES
  0
TEXT
  5
24
  8
0
 62
     7
 10
159.14599999999999
 20
121.4731585
 30
0.0
 40
3.660169999999999
  1
取付ボルト×2セット付（尺度1：5）
 50
90.0
 41
0.5
 72
     1
 11
159.14599999999999
 21
139.59100000000001
 31
0.0
  0
TEXT
  5
25
  8
0
 62
     7
 10
163.721
 20
126.56689508333331
 30
0.0
 40
3.660169999999999
  1
※Φ12×60樹脂プラグ付
 50
90.0
 41
0.5
 72
     1
 11
163.721
 21
139.59100000000001
 31
0.0
  0
TEXT
  5
26
  8
0
 62
     7
 10
170.87700000000001
 20
137.40992916666659
 30
0.0
 40
3.660169999999999
  1
45
 50
90.0
 41
0.5
 72
     1
 11
170.87700000000001
 21
138.935
 31
0.0
  0
TEXT
  5
27
  8
0
 62
     7
 10
170.87700000000001
 20
143.57894333333331
 30
0.0
 40
3.660169999999999
  1
15
 50
90.0
 41
0.5
 72
     1
 11
170.87700000000001
 21
144.79900000000001
 31
0.0
  0
TEXT
  5
28
  8
0
 62
     7
 10
170.87599999999989
 20
151.15843624999999
 30
0.0
 40
3.660169999999999
  1
60
 50
90.0
 41
0.5
 72
     1
 11
170.87599999999989
 21
152.53100000000001
 31
0.0
  0
TEXT
  5
29
  8
0
 62
     7
 10
60.209299999999992
 20
258.976
 30
0.0
 40
3.660169999999999
  1
R10
 50
90.0
 41
0.5
  0
TEXT
  5
2A
  8
0
 62
     7
 10
60.209299999999992
 20
226.64681583333331
 30
0.0
 40
3.660169999999999
  1
R10
 50
90.0
 41
0.5
 72
     2
 11
60.209299999999992
 21
230.61199999999991
 31
0.0
  0
TEXT
  5
2B
  8
0
 62
     7
 10
119.04000000000001
 20
262.45299999999992
 30
0.0
 40
3.660169999999999
  1
10
 41
0.5
  0
TEXT
  5
2C
  8
0
 62
     7
 10
59.691773333333337
 20
103.42
 30
0.0
 40
3.660169999999999
  1
%%c35
 41
0.5
 72
     2
 11
64.572000000000003
 21
103.42
 31
0.0
  0
TEXT
  5
2D
  8
0
 62
     7
 10
59.552773333333342
 20
167.82099999999991
 30
0.0
 40
3.660169999999999
  1
%%c35
 41
0.5
 72
     2
 11
64.433000000000007
 21
167.82099999999991
 31
0.0
  0
TEXT
  5
2E
  8
0
 62
     7
 10
76.793673333333331
 20
134.566
 30
0.0
 40
3.660169999999999
  1
%%c45
 41
0.5
 72
     2
 11
81.673900000000003
 21
134.566
 31
0.0
  0
TEXT
  5
2F
  8
0
 62
     7
 10
53.486236249999997
 20
185.70099999999999
 30
0.0
 40
3.660169999999999
  1
60
 41
0.5
 72
     1
 11
54.858800000000002
 21
185.70099999999999
 31
0.0
  0
TEXT
  5
30
  8
0
 62
     7
 10
47.061136249999997
 20
185.70099999999999
 30
0.0
 40
3.660169999999999
  1
70
 41
0.5
 72
     1
 11
48.433700000000002
 21
185.70099999999999
 31
0.0
  0
TEXT
  5
31
  8
0
 62
     7
 10
94.885600833333342
 20
205.30799999999999
 30
0.0
 40
3.660169999999999
  1
10
 41
0.5
 72
     2
 11
97.020700000000005
 21
205.30799999999999
 31
0.0
  0
TEXT
  5
32
  8
0
 62
     7
 10
101.4499999999999
 20
73.40100000000001
 30
0.0
 40
3.660169999999999
  1
10
 50
90.0
 41
0.5
  0
TEXT
  5
33
  8
0
 62
     7
 10
101.444
 20
203.66190083333331
 30
0.0
 40
3.660169999999999
  1
10
 50
90.0
 41
0.5
 72
     2
 11
101.444
 21
205.797
 31
0.0
  0
TEXT
  5
34
  8
0
 62
     7
 10
43.585599999999992
 20
257.75996033333331
 30
0.0
 40
3.660169999999999
  1
壁
 50
90.0
 41
0.5
 72
     1
 11
43.585599999999992
 21
258.61399999999998
 31
0.0
  0
TEXT
  5
35
  8
0
 62
     7
 10
101.43600000000001
 20
136.9983795833333
 30
0.0
 40
3.660169999999999
  1
1180
 50
90.0
 41
0.5
 72
     1
 11
101.43600000000001
 21
139.59100000000001
 31
0.0
  0
TEXT
  5
36
  8
0
 62
     7
 10
148.0679999999999
 20
256.53639374999989
 30
0.0
 40
3.660169999999999
  1
250
 50
90.0
 41
0.5
 72
     1
 11
148.0679999999999
 21
258.82400000000001
 31
0.0
  0
TEXT
  5
37
  8
0
 62
     7
 10
148.137
 20
137.30339375
 30
0.0
 40
3.660169999999999
  1
690
 50
90.0
 41
0.5
 72
     1
 11
148.137
 21
139.59100000000001
 31
0.0
  0
TEXT
  5
38
  8
0
 62
     7
 10
33.726500000000001
 20
137.30339375
 30
0.0
 40
3.660169999999999
  1
630
 50
90.0
 41
0.5
 72
     1
 11
33.726500000000001
 21
139.59100000000001
 31
0.0
  0
TEXT
  5
39
  8
0
 62
     7
 10
111.36799999999999
 20
136.84587250000001
 30
0.0
 40
3.660169999999999
  1
1200
 50
90.0
 41
0.5
 72
     1
 11
111.36799999999999
 21
139.59100000000001
 31
0.0
  0
TEXT
  5
3A
  8
0
 62
     7
 10
72.253399999999999
 20
242.47890083333331
 30
0.0
 40
3.660169999999999
  1
900
 50
90.0
 41
0.5
 72
     1
 11
72.253399999999999
 21
244.614
 31
0.0
  0
TEXT
  5
3B
  8
0
 62
     7
 10
59.367093749999988
 20
149.0449999999999
 30
0.0
 40
3.660169999999999
  1
250
 41
0.5
 72
     1
 11
61.654699999999998
 21
149.0449999999999
 31
0.0
  0
TEXT
  5
3C
  8
0
 62
     7
 10
51.510993749999997
 20
251.43199999999999
 30
0.0
 40
3.660169999999999
  1
250
 41
0.5
 72
     1
 11
53.7986
 21
251.43199999999999
 31
0.0
  0
TEXT
  5
3D
  8
0
 62
     7
 10
71.326793750000007
 20
205.30799999999999
 30
0.0
 40
3.660169999999999
  1
320
 41
0.5
 72
     1
 11
73.614400000000003
 21
205.30799999999999
 31
0.0
  0
TEXT
  5
3E
  8
0
 62
     7
 10
129.42540791666659
 20
237.91800000000001
 30
0.0
 40
3.660169999999999
  1
105
 41
0.5
 72
     1
 11
131.4079999999999
 21
237.91800000000001
 31
0.0
  0
TEXT
  5
3F
  8
0
 62
     7
 10
128.0789291666666
 20
206.184
 30
0.0
 40
3.660169999999999
  1
65
 41
0.5
 72
     1
 11
129.6039999999999
 21
206.184
 31
0.0
  0
TEXT
  5
40
  8
0
 62
     7
 10
131.2149008333333
 20
212.98099999999991
 30
0.0
 40
3.660169999999999
  1
145
 41
0.5
 72
     1
 11
133.34999999999991
 21
212.98099999999991
 31
0.0
  0
TEXT
  5
41
  8
0
 62
     7
 10
49.130907916666672
 20
205.30799999999999
 30
0.0
 40
3.660169999999999
  1
130
 41
0.5
 72
     1
 11
51.113500000000002
 21
205.30799999999999
 31
0.0
  0
TEXT
  5
42
  8
0
 62
     7
 10
65.076293750000005
 20
212.05699999999999
 30
0.0
 40
3.660169999999999
  1
460
 41
0.5
 72
     1
 11
67.363900000000001
 21
212.05699999999999
 31
0.0
  0
TEXT
  5
43
  8
0
 62
     7
 10
48.645699999999998
 20
238.77000000000001
 30
0.0
 40
3.660169999999999
  1
排水口
 41
0.5
  0
TEXT
  5
44
  8
0
 62
     7
 10
54.011093749999993
 20
273.9009999999999
 30
0.0
 40
3.660169999999999
  1
340
 41
0.5
 72
     1
 11
56.298699999999997
 21
273.9009999999999
 31
0.0
  0
LINE
  5
45
  8
0
 62
     7
 10
179.1389999999999
 20
131.02600000000001
 30
0.0
 11
179.1389999999999
 21
128.22599999999991
 31
0.0
  0
LINE
  5
46
  8
0
 62
     7
 10
179.1389999999999
 20
128.22599999999991
 30
0.0
 11
176.53899999999999
 21
128.22599999999991
 31
0.0
  0
LINE
  5
47
  8
0
 62
     7
 10
176.53899999999999
 20
128.22599999999991
 30
0.0
 11
176.53899999999999
 21
131.02600000000001
 31
0.0
  0
LINE
  5
48
  8
0
 62
     7
 10
176.53899999999999
 20
131.02600000000001
 30
0.0
 11
179.1389999999999
 21
131.02600000000001
 31
0.0
  0
LINE
  5
49
  8
0
 62
     7
 10
181.63900000000001
 20
128.22599999999991
 30
0.0
 11
181.63900000000001
 21
127.626
 31
0.0
  0
LINE
  5
4A
  8
0
 62
     7
 10
181.63900000000001
 20
127.626
 30
0.0
 11
174.03899999999999
 21
127.626
 31
0.0
  0
LINE
  5
4B
  8
0
 62
     7
 10
174.03899999999999
 20
127.626
 30
0.0
 11
174.03899999999999
 21
128.22599999999991
 31
0.0
  0
LINE
  5
4C
  8
0
 62
     7
 10
174.03899999999999
 20
128.22599999999991
 30
0.0
 11
181.63900000000001
 21
128.22599999999991
 31
0.0
  0
LINE
  5
4D
  8
0
 62
     7
 10
180.28899999999999
 20
127.626
 30
0.0
 11
180.28899999999999
 21
127.4259999999999
 31
0.0
  0
LINE
  5
4E
  8
0
 62
     7
 10
180.28899999999999
 20
127.4259999999999
 30
0.0
 11
175.38900000000001
 21
127.4259999999999
 31
0.0
  0
LINE
  5
4F
  8
0
 62
     7
 10
175.38900000000001
 20
127.4259999999999
 30
0.0
 11
175.38900000000001
 21
127.626
 31
0.0
  0
LINE
  5
50
  8
0
 62
     7
 10
175.38900000000001
 20
127.626
 30
0.0
 11
180.28899999999999
 21
127.626
 31
0.0
  0
LINE
  5
51
  8
0
 62
     7
 10
180.839
 20
124.651
 30
0.0
 11
180.839
 21
124.251
 31
0.0
  0
LINE
  5
52
  8
0
 62
     7
 10
180.839
 20
124.251
 30
0.0
 11
174.839
 21
124.251
 31
0.0
  0
LINE
  5
53
  8
0
 62
     7
 10
174.839
 20
124.251
 30
0.0
 11
174.839
 21
124.651
 31
0.0
  0
LINE
  5
54
  8
0
 62
     7
 10
174.839
 20
124.651
 30
0.0
 11
180.839
 21
124.651
 31
0.0
  0
LINE
  5
55
  8
0
 62
     7
 10
172.16099999999989
 20
141.22499999999999
 30
0.0
 11
171.56899999999999
 21
143.43600000000001
 31
0.0
  0
LINE
  5
56
  8
0
 62
     7
 10
171.56899999999999
 20
143.43600000000001
 30
0.0
 11
170.97699999999989
 21
141.22499999999999
 31
0.0
  0
LINE
  5
57
  8
0
 62
     7
 10
170.97699999999989
 20
141.22499999999999
 30
0.0
 11
172.16099999999989
 21
141.22499999999999
 31
0.0
  0
LINE
  5
58
  8
0
 62
     7
 10
172.16099999999989
 20
156.2239999999999
 30
0.0
 11
171.56899999999999
 21
158.434
 31
0.0
  0
LINE
  5
59
  8
0
 62
     7
 10
171.56899999999999
 20
158.434
 30
0.0
 11
170.97699999999989
 21
156.2239999999999
 31
0.0
  0
LINE
  5
5A
  8
0
 62
     7
 10
170.97699999999989
 20
156.2239999999999
 30
0.0
 11
172.16099999999989
 21
156.2239999999999
 31
0.0
  0
LINE
  5
5B
  8
0
 62
     7
 10
170.9909999999999
 20
148.64500000000001
 30
0.0
 11
171.58299999999991
 21
146.43399999999991
 31
0.0
  0
LINE
  5
5C
  8
0
 62
     7
 10
171.58299999999991
 20
146.43399999999991
 30
0.0
 11
172.1759999999999
 21
148.64500000000001
 31
0.0
  0
LINE
  5
5D
  8
0
 62
     7
 10
172.1759999999999
 20
148.64500000000001
 30
0.0
 11
170.9909999999999
 21
148.64500000000001
 31
0.0
  0
LINE
  5
5E
  8
0
 62
     7
 10
170.9909999999999
 20
136.64599999999999
 30
0.0
 11
171.58299999999991
 21
134.435
 31
0.0
  0
LINE
  5
5F
  8
0
 62
     7
 10
171.58299999999991
 20
134.435
 30
0.0
 11
172.1759999999999
 21
136.64599999999999
 31
0.0
  0
LINE
  5
60
  8
0
 62
     7
 10
172.1759999999999
 20
136.64599999999999
 30
0.0
 11
170.9909999999999
 21
136.64599999999999
 31
0.0
  0
LINE
  5
61
  8
0
 62
     7
 10
171.57599999999991
 20
158.434
 30
0.0
 11
171.57599999999991
 21
134.435
 31
0.0
  0
LINE
  5
62
  8
0
 62
     7
 10
176.9379999999999
 20
157.23400000000001
 30
0.0
 11
177.839
 21
158.434
 31
0.0
  0
LINE
  5
63
  8
0
 62
     7
 10
178.739
 20
157.23400000000001
 30
0.0
 11
178.73799999999989
 21
146.43399999999991
 31
0.0
  0
LINE
  5
64
  8
0
 62
     7
 10
176.9379999999999
 20
157.23400000000001
 30
0.0
 11
176.93899999999999
 21
146.43399999999991
 31
0.0
  0
LINE
  5
65
  8
0
 62
     7
 10
178.73799999999989
 20
134.6339999999999
 30
0.0
 11
178.53899999999999
 21
134.435
 31
0.0
  0
LINE
  5
66
  8
0
 62
     7
 10
178.53899999999999
 20
143.43399999999991
 30
0.0
 11
178.73799999999989
 21
143.63499999999999
 31
0.0
  0
LINE
  5
67
  8
0
 62
     7
 10
177.13900000000001
 20
143.43399999999991
 30
0.0
 11
176.93899999999999
 21
143.63499999999999
 31
0.0
  0
LINE
  5
68
  8
0
 62
     7
 10
177.13900000000001
 20
134.43599999999989
 30
0.0
 11
176.94
 21
134.636
 31
0.0
  0
LINE
  5
69
  8
0
 62
     7
 10
177.13900000000001
 20
134.43599999999989
 30
0.0
 11
177.13900000000001
 21
143.43399999999991
 31
0.0
  0
LINE
  5
6A
  8
0
 62
     7
 10
178.53899999999999
 20
134.435
 30
0.0
 11
178.53899999999999
 21
143.43399999999991
 31
0.0
  0
LINE
  5
6B
  8
0
 62
     7
 10
178.73799999999989
 20
134.6339999999999
 30
0.0
 11
178.739
 21
144.23400000000001
 31
0.0
  0
LINE
  5
6C
  8
0
 62
     7
 10
176.94
 20
134.636
 30
0.0
 11
176.93899999999999
 21
144.23400000000001
 31
0.0
  0
LINE
  5
6D
  8
0
 62
     7
 10
177.13900000000001
 20
146.43399999999991
 30
0.0
 11
177.13900000000001
 21
144.435
 31
0.0
  0
LINE
  5
6E
  8
0
 62
     7
 10
178.53899999999999
 20
146.43399999999991
 30
0.0
 11
178.53899999999999
 21
144.43399999999991
 31
0.0
  0
LINE
  5
6F
  8
0
 62
     7
 10
178.739
 20
144.23400000000001
 30
0.0
 11
178.53899999999999
 21
144.43399999999991
 31
0.0
  0
LINE
  5
70
  8
0
 62
     7
 10
177.13900000000001
 20
144.435
 30
0.0
 11
176.93899999999999
 21
144.23400000000001
 31
0.0
  0
LINE
  5
71
  8
0
 62
     7
 10
177.839
 20
158.434
 30
0.0
 11
178.739
 21
157.23400000000001
 31
0.0
  0
LINE
  5
72
  8
0
 62
     7
 10
176.5379999999999
 20
146.73899999999989
 30
0.0
 11
179.13800000000001
 21
147.76199999999989
 31
0.0
  0
LINE
  5
73
  8
0
 62
     7
 10
176.5379999999999
 20
147.626
 30
0.0
 11
179.1389999999999
 21
148.65000000000001
 31
0.0
  0
LINE
  5
74
  8
0
 62
     7
 10
176.5379999999999
 20
148.5149999999999
 30
0.0
 11
179.1389999999999
 21
149.5389999999999
 31
0.0
  0
LINE
  5
75
  8
0
 62
     7
 10
176.5379999999999
 20
149.40299999999991
 30
0.0
 11
179.13800000000001
 21
150.42699999999999
 31
0.0
  0
LINE
  5
76
  8
0
 62
     7
 10
176.53899999999999
 20
150.28999999999991
 30
0.0
 11
179.1389999999999
 21
151.31499999999991
 31
0.0
  0
LINE
  5
77
  8
0
 62
     7
 10
176.5379999999999
 20
151.17699999999999
 30
0.0
 11
179.1389999999999
 21
152.20099999999991
 31
0.0
  0
LINE
  5
78
  8
0
 62
     7
 10
176.5379999999999
 20
152.065
 30
0.0
 11
179.1389999999999
 21
153.09
 31
0.0
  0
LINE
  5
79
  8
0
 62
     7
 10
176.53899999999999
 20
152.953
 30
0.0
 11
179.1389999999999
 21
153.977
 31
0.0
  0
LINE
  5
7A
  8
0
 62
     7
 10
176.5379999999999
 20
153.84100000000001
 30
0.0
 11
179.1389999999999
 21
154.86500000000001
 31
0.0
  0
LINE
  5
7B
  8
0
 62
     7
 10
176.53899999999999
 20
154.7289999999999
 30
0.0
 11
179.1389999999999
 21
155.75200000000001
 31
0.0
  0
LINE
  5
7C
  8
0
 62
     7
 10
176.5379999999999
 20
155.61699999999999
 30
0.0
 11
179.13800000000001
 21
156.63900000000001
 31
0.0
  0
LINE
  5
7D
  8
0
 62
     7
 10
176.5379999999999
 20
156.5029999999999
 30
0.0
 11
179.13800000000001
 21
157.52799999999999
 31
0.0
  0
LINE
  5
7E
  8
0
 62
     7
 10
176.94
 20
146.43399999999991
 30
0.0
 11
178.73799999999989
 21
146.43399999999991
 31
0.0
  0
LINE
  5
7F
  8
0
 62
     7
 10
176.94
 20
143.43600000000001
 30
0.0
 11
178.73799999999989
 21
143.435
 31
0.0
  0
LINE
  5
80
  8
0
 62
     7
 10
176.94
 20
134.636
 30
0.0
 11
178.73799999999989
 21
134.6339999999999
 31
0.0
  0
LINE
  5
81
  8
0
 62
     7
 10
170.9959999999999
 20
158.434
 30
0.0
 11
176.5379999999999
 21
158.434
 31
0.0
  0
LINE
  5
82
  8
0
 62
     7
 10
170.99700000000001
 20
146.43399999999991
 30
0.0
 11
176.5379999999999
 21
146.43600000000001
 31
0.0
  0
LINE
  5
83
  8
0
 62
     7
 10
170.9959999999999
 20
143.43600000000001
 30
0.0
 11
176.5379999999999
 21
143.435
 31
0.0
  0
LINE
  5
84
  8
0
 62
     7
 10
170.99700000000001
 20
134.435
 30
0.0
 11
176.53700000000001
 21
134.435
 31
0.0
  0
LINE
  5
85
  8
0
 62
     7
 10
177.13900000000001
 20
134.43599999999989
 30
0.0
 11
178.53899999999999
 21
134.435
 31
0.0
  0
ARC
  5
86
  8
0
 62
     7
 10
179.33965599999999
 20
119.898797
 30
0.0
 40
0.881503
 50
90.06346600000002
 51
102.526483
  0
ARC
  5
87
  8
0
 62
     7
 10
179.49820099999999
 20
119.03716300000001
 30
0.0
 40
1.7573069999999991
 50
101.4794849999999
 51
112.051095
  0
ARC
  5
88
  8
0
 62
     7
 10
177.824907
 20
114.473156
 30
0.0
 40
6.3085379999999986
 50
85.451409999999996
 51
89.868681999999993
  0
ARC
  5
89
  8
0
 62
     7
 10
178.08273999999989
 20
117.8149189999999
 30
0.0
 40
2.956863999999999
 50
77.536039000000002
 51
85.296469999999999
  0
ARC
  5
8A
  8
0
 62
     7
 10
178.54188999999991
 20
119.91134099999999
 30
0.0
 40
0.8107639999999999
 50
68.544588000000005
 51
77.244038000000003
  0
ARC
  5
8B
  8
0
 62
     7
 10
179.33593500000001
 20
119.89753399999999
 30
0.0
 40
0.882769
 50
77.362678000000002
 51
89.821806999999978
  0
ARC
  5
8C
  8
0
 62
     7
 10
179.17958100000001
 20
119.0605029999999
 30
0.0
 40
1.7339990000000001
 50
67.676272999999995
 51
78.372480999999993
  0
ARC
  5
8D
  8
0
 62
     7
 10
176.33300800000001
 20
119.9003669999999
 30
0.0
 40
0.881333
 50
77.140781000000004
 51
89.587012999999985
  0
ARC
  5
8E
  8
0
 62
     7
 10
176.16676000000001
 20
119.026449
 30
0.0
 40
1.770629999999999
 50
67.690659999999994
 51
78.189809000000011
  0
ARC
  5
8F
  8
0
 62
     7
 10
177.84957
 20
114.56573
 30
0.0
 40
6.2159559999999994
 50
90.094055000000012
 51
94.590080999999998
  0
ARC
  5
90
  8
0
 62
     7
 10
177.592904
 20
117.860027
 30
0.0
 40
2.9116939999999989
 50
94.743335999999985
 51
102.631888
  0
ARC
  5
91
  8
0
 62
     7
 10
177.13745900000001
 20
119.916372
 30
0.0
 40
0.805541
 50
103.00700999999989
 51
111.7543279999999
  0
ARC
  5
92
  8
0
 62
     7
 10
176.34029099999989
 20
119.90907199999999
 30
0.0
 40
0.872606
 50
90.061083000000011
 51
102.664795
  0
ARC
  5
93
  8
0
 62
     7
 10
176.49621999999999
 20
119.0719129999999
 30
0.0
 40
1.723868999999999
 50
101.620794
 51
112.38151000000001
  0
ARC
  5
94
  8
0
 62
     7
 10
179.337841
 20
120.07153
 30
0.0
 40
0.8653059999999999
 50
257.34662099999991
 51
270.05552399999999
  0
ARC
  5
95
  8
0
 62
     7
 10
179.49335300000001
 20
120.91079499999989
 30
0.0
 40
1.7185529999999991
 50
247.62432799999991
 51
258.41716500000001
  0
ARC
  5
96
  8
0
 62
     7
 10
177.84743999999989
 20
125.34768800000001
 30
0.0
 40
6.1414699999999991
 50
269.91824800000001
 51
274.46282300000001
  0
ARC
  5
97
  8
0
 62
     7
 10
178.08799799999991
 20
122.135246
 30
0.0
 40
2.9200669999999991
 50
274.66174599999988
 51
282.42464599999988
  0
ARC
  5
98
  8
0
 62
     7
 10
178.53299699999999
 20
120.092426
 30
0.0
 40
0.8293610000000001
 50
282.76637399999998
 51
291.66191800000001
  0
ARC
  5
99
  8
0
 62
     7
 10
179.337739
 20
120.081521
 30
0.0
 40
0.8752969999999999
 50
270.06158499999998
 51
282.62592899999993
  0
ARC
  5
9A
  8
0
 62
     7
 10
179.18178700000001
 20
120.92076999999991
 30
0.0
 40
1.7286229999999989
 50
281.58956000000001
 51
292.3178759999999
  0
ARC
  5
9B
  8
0
 62
     7
 10
176.3359189999999
 20
120.087154
 30
0.0
 40
0.8812780000000001
 50
270.17896100000002
 51
282.64806299999992
  0
ARC
  5
9C
  8
0
 62
     7
 10
176.176152
 20
120.9423649999999
 30
0.0
 40
1.750999
 50
281.62159700000001
 51
292.24072899999987
  0
ARC
  5
9D
  8
0
 62
     7
 10
177.8336679999999
 20
125.34401200000001
 30
0.0
 40
6.1377889999999988
 50
265.50035099999991
 51
270.04675600000002
  0
ARC
  5
9E
  8
0
 62
     7
 10
177.59078299999999
 20
122.14631199999999
 30
0.0
 40
2.9309029999999989
 50
257.60269299999999
 51
265.32961999999998
  0
ARC
  5
9F
  8
0
 62
     7
 10
177.1449179999999
 20
120.094831
 30
0.0
 40
0.831549
 50
248.40733199999991
 51
257.26075099999991
  0
ARC
  5
A0
  8
0
 62
     7
 10
176.336083
 20
120.0672659999999
 30
0.0
 40
0.8613889999999999
 50
257.37883399999993
 51
270.17220200000003
  0
ARC
  5
A1
  8
0
 62
     7
 10
176.4892659999999
 20
120.902462
 30
0.0
 40
1.7101930000000001
 50
247.63185999999999
 51
258.48489999999993
  0
LINE
  5
A2
  8
0
  6
AIGENLINE001
 62
     7
 10
177.839
 20
115.562
 30
0.0
 11
177.839
 21
162.67199999999991
 31
0.0
  0
LINE
  5
A3
  8
0
 62
     7
 10
175.83799999999999
 20
119.321
 30
0.0
 11
175.83999999999989
 21
120.666
 31
0.0
  0
LINE
  5
A4
  8
0
 62
     7
 10
176.839
 20
119.3219999999999
 30
0.0
 11
176.839
 21
120.66500000000001
 31
0.0
  0
LINE
  5
A5
  8
0
 62
     7
 10
179.83799999999991
 20
119.3219999999999
 30
0.0
 11
179.83799999999991
 21
120.66500000000001
 31
0.0
  0
LINE
  5
A6
  8
0
 62
     7
 10
178.839
 20
119.321
 30
0.0
 11
178.84099999999989
 21
120.666
 31
0.0
  0
LINE
  5
A7
  8
0
 62
     7
 10
179.512
 20
120.79299999999991
 30
0.0
 11
177.839
 21
120.794
 31
0.0
  0
LINE
  5
A8
  8
0
 62
     7
 10
177.839
 20
120.794
 30
0.0
 11
176.166
 21
120.79299999999991
 31
0.0
  0
LINE
  5
A9
  8
0
 62
     7
 10
179.83799999999991
 20
120.66500000000001
 30
0.0
 11
179.512
 21
120.79299999999991
 31
0.0
  0
LINE
  5
AA
  8
0
 62
     7
 10
179.512
 20
119.1939999999999
 30
0.0
 11
176.166
 21
119.1929999999999
 31
0.0
  0
LINE
  5
AB
  8
0
 62
     7
 10
176.166
 20
119.1929999999999
 30
0.0
 11
175.83799999999999
 21
119.321
 31
0.0
  0
LINE
  5
AC
  8
0
 62
     7
 10
179.512
 20
119.1939999999999
 30
0.0
 11
179.83799999999991
 21
119.3219999999999
 31
0.0
  0
LINE
  5
AD
  8
0
 62
     7
 10
179.83799999999991
 20
120.66500000000001
 30
0.0
 11
179.512
 21
120.79299999999991
 31
0.0
  0
LINE
  5
AE
  8
0
 62
     7
 10
175.83999999999989
 20
120.666
 30
0.0
 11
176.166
 21
120.79299999999991
 31
0.0
  0
ARC
  5
AF
  8
0
  6
AIGENLINE002
 62
     7
 10
129.63385700000001
 20
139.55270799999991
 30
0.0
 40
1.0394699999999999
 50
2.1292810000000002
 51
87.850968999999992
  0
ARC
  5
B0
  8
0
  6
AIGENLINE002
 62
     7
 10
129.7114709999999
 20
139.552693
 30
0.0
 40
1.0394709999999989
 50
92.130042000000003
 51
177.86992799999999
  0
ARC
  5
B1
  8
0
  6
AIGENLINE002
 62
     7
 10
129.71113199999999
 20
139.62998300000001
 30
0.0
 40
1.0391330000000001
 50
182.1318259999999
 51
267.887944
  0
ARC
  5
B2
  8
0
  6
AIGENLINE002
 62
     7
 10
129.63420600000001
 20
139.62995799999999
 30
0.0
 40
1.0391209999999991
 50
272.13049699999999
 51
357.86951299999993
  0
LINE
  5
B3
  8
0
 62
     7
 10
57.68869999999999
 20
241.3609999999999
 30
0.0
 11
59.178999999999988
 21
243.09700000000001
 31
0.0
  0
LINE
  5
B4
  8
0
 62
     7
 10
59.178999999999988
 20
243.09700000000001
 30
0.0
 11
58.756100000000004
 21
240.8479999999999
 31
0.0
  0
LINE
  5
B5
  8
0
 62
     7
 10
58.756100000000004
 20
240.8479999999999
 30
0.0
 11
57.68869999999999
 21
241.3609999999999
 31
0.0
  0
LINE
  5
B6
  8
0
 62
     7
 10
59.178999999999988
 20
243.09700000000001
 30
0.0
 11
56.766199999999991
 21
238.06999999999999
 31
0.0
  0
LINE
  5
B7
  8
0
 62
     7
 10
62.431600000000003
 20
265.72000000000003
 30
0.0
 11
64.412999999999997
 21
266.86399999999998
 31
0.0
  0
LINE
  5
B8
  8
0
 62
     7
 10
64.412999999999997
 20
266.86399999999998
 30
0.0
 11
63.268700000000003
 21
264.88299999999992
 31
0.0
  0
LINE
  5
B9
  8
0
 62
     7
 10
63.268700000000003
 20
264.88299999999992
 30
0.0
 11
62.431600000000003
 21
265.72000000000003
 31
0.0
  0
LINE
  5
BA
  8
0
 62
     7
 10
64.412999999999997
 20
266.86399999999998
 30
0.0
 11
60.909300000000002
 21
263.36000000000001
 31
0.0
  0
LINE
  5
BB
  8
0
 62
     7
 10
60.909300000000002
 20
263.36000000000001
 30
0.0
 11
60.909300000000002
 21
258.976
 31
0.0
  0
LINE
  5
BC
  8
0
 62
     7
 10
62.431600000000003
 20
223.416
 30
0.0
 11
64.412999999999997
 21
222.27199999999999
 31
0.0
  0
LINE
  5
BD
  8
0
 62
     7
 10
64.412999999999997
 20
222.27199999999999
 30
0.0
 11
63.268700000000003
 21
224.25399999999999
 31
0.0
  0
LINE
  5
BE
  8
0
 62
     7
 10
63.268700000000003
 20
224.25399999999999
 30
0.0
 11
62.431600000000003
 21
223.416
 31
0.0
  0
LINE
  5
BF
  8
0
 62
     7
 10
64.412999999999997
 20
222.27199999999999
 30
0.0
 11
60.909300000000002
 21
225.7759999999999
 31
0.0
  0
LINE
  5
C0
  8
0
 62
     7
 10
60.909300000000002
 20
225.7759999999999
 30
0.0
 11
60.909300000000002
 21
230.61199999999991
 31
0.0
  0
LINE
  5
C1
  8
0
 62
     7
 10
123.858
 20
262.33799999999991
 30
0.0
 11
126.069
 21
261.74599999999992
 31
0.0
  0
LINE
  5
C2
  8
0
 62
     7
 10
126.069
 20
261.74599999999992
 30
0.0
 11
123.858
 21
261.15300000000002
 31
0.0
  0
LINE
  5
C3
  8
0
 62
     7
 10
123.858
 20
261.15300000000002
 30
0.0
 11
123.858
 21
262.33799999999991
 31
0.0
  0
LINE
  5
C4
  8
0
 62
     7
 10
129.3839999999999
 20
261.16800000000001
 30
0.0
 11
127.1729999999999
 21
261.75999999999988
 31
0.0
  0
LINE
  5
C5
  8
0
 62
     7
 10
127.1729999999999
 20
261.75999999999988
 30
0.0
 11
129.3839999999999
 21
262.35300000000001
 31
0.0
  0
LINE
  5
C6
  8
0
 62
     7
 10
129.3839999999999
 20
262.35300000000001
 30
0.0
 11
129.3839999999999
 21
261.16800000000001
 31
0.0
  0
LINE
  5
C7
  8
0
 62
     7
 10
130.41
 20
261.75299999999987
 30
0.0
 11
119.04000000000001
 21
261.75299999999987
 31
0.0
  0
LINE
  5
C8
  8
0
 62
     7
 10
48.644399999999997
 20
110.471
 30
0.0
 11
50.626999999999988
 21
109.325
 31
0.0
  0
LINE
  5
C9
  8
0
 62
     7
 10
50.626999999999988
 20
109.325
 30
0.0
 11
49.482199999999999
 21
111.30799999999989
 31
0.0
  0
LINE
  5
CA
  8
0
 62
     7
 10
49.482199999999999
 20
111.30799999999989
 30
0.0
 11
48.644399999999997
 21
110.471
 31
0.0
  0
LINE
  5
CB
  8
0
 62
     7
 10
55.0824
 20
105.708
 30
0.0
 11
53.100099999999998
 21
106.852
 31
0.0
  0
LINE
  5
CC
  8
0
 62
     7
 10
53.100099999999998
 20
106.852
 30
0.0
 11
54.244900000000001
 21
104.86999999999991
 31
0.0
  0
LINE
  5
CD
  8
0
 62
     7
 10
54.244900000000001
 20
104.86999999999991
 30
0.0
 11
55.0824
 21
105.708
 31
0.0
  0
LINE
  5
CE
  8
0
 62
     7
 10
48.111400000000003
 20
111.842
 30
0.0
 11
57.372700000000002
 21
102.57899999999989
 31
0.0
  0
LINE
  5
CF
  8
0
 62
     7
 10
57.372700000000002
 20
102.57899999999989
 30
0.0
 11
64.572000000000003
 21
102.57899999999989
 31
0.0
  0
LINE
  5
D0
  8
0
 62
     7
 10
48.644399999999997
 20
173.47200000000001
 30
0.0
 11
50.626999999999988
 21
172.327
 31
0.0
  0
LINE
  5
D1
  8
0
 62
     7
 10
50.626999999999988
 20
172.327
 30
0.0
 11
49.482199999999999
 21
174.309
 31
0.0
  0
LINE
  5
D2
  8
0
 62
     7
 10
49.482199999999999
 20
174.309
 30
0.0
 11
48.644399999999997
 21
173.47200000000001
 31
0.0
  0
LINE
  5
D3
  8
0
 62
     7
 10
55.0824
 20
168.70899999999989
 30
0.0
 11
53.100099999999998
 21
169.85499999999999
 31
0.0
  0
LINE
  5
D4
  8
0
 62
     7
 10
53.100099999999998
 20
169.85499999999999
 30
0.0
 11
54.244900000000001
 21
167.87200000000001
 31
0.0
  0
LINE
  5
D5
  8
0
 62
     7
 10
54.244900000000001
 20
167.87200000000001
 30
0.0
 11
55.0824
 21
168.70899999999989
 31
0.0
  0
LINE
  5
D6
  8
0
 62
     7
 10
48.111400000000003
 20
174.84399999999999
 30
0.0
 11
55.974200000000003
 21
166.98099999999999
 31
0.0
  0
LINE
  5
D7
  8
0
 62
     7
 10
55.974200000000003
 20
166.98099999999999
 30
0.0
 11
64.433000000000007
 21
166.98099999999999
 31
0.0
  0
LINE
  5
D8
  8
0
 62
     7
 10
51.86399999999999
 20
185.44200000000001
 30
0.0
 11
51.86399999999999
 21
175.791
 31
0.0
  0
LINE
  5
D9
  8
0
 62
     7
 10
66.290800000000004
 20
142.327
 30
0.0
 11
68.273399999999995
 21
141.18199999999999
 31
0.0
  0
LINE
  5
DA
  8
0
 62
     7
 10
68.273399999999995
 20
141.18199999999999
 30
0.0
 11
67.128600000000006
 21
143.16599999999991
 31
0.0
  0
LINE
  5
DB
  8
0
 62
     7
 10
67.128600000000006
 20
143.16599999999991
 30
0.0
 11
66.290800000000004
 21
142.327
 31
0.0
  0
LINE
  5
DC
  8
0
 62
     7
 10
73.439899999999994
 20
136.8539999999999
 30
0.0
 11
71.457599999999999
 21
137.999
 31
0.0
  0
LINE
  5
DD
  8
0
 62
     7
 10
71.457599999999999
 20
137.999
 30
0.0
 11
72.602400000000003
 21
136.01599999999999
 31
0.0
  0
LINE
  5
DE
  8
0
 62
     7
 10
72.602400000000003
 20
136.01599999999999
 30
0.0
 11
73.439899999999994
 21
136.8539999999999
 31
0.0
  0
LINE
  5
DF
  8
0
 62
     7
 10
65.331100000000006
 20
144.12599999999989
 30
0.0
 11
75.730199999999996
 21
133.726
 31
0.0
  0
LINE
  5
E0
  8
0
 62
     7
 10
75.730199999999996
 20
133.726
 30
0.0
 11
81.673900000000003
 21
133.726
 31
0.0
  0
LINE
  5
E1
  8
0
 62
     7
 10
47.073900000000002
 20
184.16499999999991
 30
0.0
 11
44.863900000000001
 21
184.75599999999989
 31
0.0
  0
LINE
  5
E2
  8
0
 62
     7
 10
44.863900000000001
 20
184.75599999999989
 30
0.0
 11
47.073900000000002
 21
185.34899999999999
 31
0.0
  0
LINE
  5
E3
  8
0
 62
     7
 10
47.073900000000002
 20
185.34899999999999
 30
0.0
 11
47.073900000000002
 21
184.16499999999991
 31
0.0
  0
LINE
  5
E4
  8
0
 62
     7
 10
49.653599999999997
 20
185.334
 30
0.0
 11
51.86399999999999
 21
184.74199999999999
 31
0.0
  0
LINE
  5
E5
  8
0
 62
     7
 10
51.86399999999999
 20
184.74199999999999
 30
0.0
 11
49.653599999999997
 21
184.149
 31
0.0
  0
LINE
  5
E6
  8
0
 62
     7
 10
49.653599999999997
 20
184.149
 30
0.0
 11
49.653599999999997
 21
185.334
 31
0.0
  0
LINE
  5
E7
  8
0
 62
     7
 10
44.863900000000001
 20
184.749
 30
0.0
 11
51.363300000000002
 21
184.749
 31
0.0
  0
LINE
  5
E8
  8
0
 62
     7
 10
55.654299999999999
 20
184.16499999999991
 30
0.0
 11
57.863700000000001
 21
184.75599999999989
 31
0.0
  0
LINE
  5
E9
  8
0
 62
     7
 10
57.863700000000001
 20
184.75599999999989
 30
0.0
 11
55.654299999999999
 21
185.34899999999999
 31
0.0
  0
LINE
  5
EA
  8
0
 62
     7
 10
55.654299999999999
 20
185.34899999999999
 30
0.0
 11
55.654299999999999
 21
184.16499999999991
 31
0.0
  0
LINE
  5
EB
  8
0
 62
     7
 10
54.075099999999999
 20
185.334
 30
0.0
 11
51.8645
 21
184.74199999999999
 31
0.0
  0
LINE
  5
EC
  8
0
 62
     7
 10
51.8645
 20
184.74199999999999
 30
0.0
 11
54.075099999999999
 21
184.149
 31
0.0
  0
LINE
  5
ED
  8
0
 62
     7
 10
54.075099999999999
 20
184.149
 30
0.0
 11
54.075099999999999
 21
185.334
 31
0.0
  0
LINE
  5
EE
  8
0
 62
     7
 10
57.863700000000001
 20
184.749
 30
0.0
 11
51.363300000000002
 21
184.749
 31
0.0
  0
LINE
  5
EF
  8
0
 62
     7
 10
93.181299999999993
 20
205.19399999999999
 30
0.0
 11
90.969899999999996
 21
204.60199999999989
 31
0.0
  0
LINE
  5
F0
  8
0
 62
     7
 10
90.969899999999996
 20
204.60199999999989
 30
0.0
 11
93.181299999999993
 21
204.00999999999991
 31
0.0
  0
LINE
  5
F1
  8
0
 62
     7
 10
93.181299999999993
 20
204.00999999999991
 30
0.0
 11
93.181299999999993
 21
205.19399999999999
 31
0.0
  0
LINE
  5
F2
  8
0
 62
     7
 10
102.736
 20
82.801699999999997
 30
0.0
 11
102.14399999999991
 21
80.590900000000005
 31
0.0
  0
LINE
  5
F3
  8
0
 62
     7
 10
102.14399999999991
 20
80.590900000000005
 30
0.0
 11
101.55199999999989
 21
82.801699999999997
 31
0.0
  0
LINE
  5
F4
  8
0
 62
     7
 10
101.55199999999989
 20
82.801699999999997
 30
0.0
 11
102.736
 21
82.801699999999997
 31
0.0
  0
LINE
  5
F5
  8
0
 62
     7
 10
101.566
 20
77.27600000000001
 30
0.0
 11
102.1579999999999
 21
79.487099999999998
 31
0.0
  0
LINE
  5
F6
  8
0
 62
     7
 10
102.1579999999999
 20
79.487099999999998
 30
0.0
 11
102.751
 21
77.27600000000001
 31
0.0
  0
LINE
  5
F7
  8
0
 62
     7
 10
102.751
 20
77.27600000000001
 30
0.0
 11
101.566
 21
77.27600000000001
 31
0.0
  0
LINE
  5
F8
  8
0
 62
     7
 10
102.729
 20
196.37899999999999
 30
0.0
 11
102.136
 21
198.59099999999989
 31
0.0
  0
LINE
  5
F9
  8
0
 62
     7
 10
102.136
 20
198.59099999999989
 30
0.0
 11
101.5439999999999
 21
196.37899999999999
 31
0.0
  0
LINE
  5
FA
  8
0
 62
     7
 10
101.5439999999999
 20
196.37899999999999
 30
0.0
 11
102.729
 21
196.37899999999999
 31
0.0
  0
LINE
  5
FB
  8
0
 62
     7
 10
101.55799999999989
 20
201.90599999999989
 30
0.0
 11
102.151
 21
199.69399999999999
 31
0.0
  0
LINE
  5
FC
  8
0
 62
     7
 10
102.151
 20
199.69399999999999
 30
0.0
 11
102.74299999999999
 21
201.90599999999989
 31
0.0
  0
LINE
  5
FD
  8
0
 62
     7
 10
102.74299999999999
 20
201.90599999999989
 30
0.0
 11
101.55799999999989
 21
201.90599999999989
 31
0.0
  0
LINE
  5
FE
  8
0
 62
     7
 10
44.696399999999997
 20
260.26099999999991
 30
0.0
 11
47.548499999999997
 21
258.61399999999998
 31
0.0
  0
LINE
  5
FF
  8
0
 62
     7
 10
47.548499999999997
 20
258.61399999999998
 30
0.0
 11
44.696399999999997
 21
256.96800000000002
 31
0.0
  0
LINE
  5
100
  8
0
 62
     7
 10
44.696399999999997
 20
256.96800000000002
 30
0.0
 11
44.696399999999997
 21
260.26099999999991
 31
0.0
  0
LINE
  5
101
  8
0
 62
     7
 10
102.136
 20
139.59100000000001
 30
0.0
 11
102.136
 21
73.40100000000001
 31
0.0
  0
LINE
  5
102
  8
0
 62
     7
 10
102.136
 20
205.7459999999999
 30
0.0
 11
102.136
 21
139.59100000000001
 31
0.0
  0
LINE
  5
103
  8
0
 62
     7
 10
149.422
 20
248.82400000000001
 30
0.0
 11
148.83000000000001
 21
246.61500000000001
 31
0.0
  0
LINE
  5
104
  8
0
 62
     7
 10
148.83000000000001
 20
246.61500000000001
 30
0.0
 11
148.238
 21
248.82400000000001
 31
0.0
  0
LINE
  5
105
  8
0
 62
     7
 10
148.238
 20
248.82400000000001
 30
0.0
 11
149.422
 21
248.82400000000001
 31
0.0
  0
LINE
  5
106
  8
0
 62
     7
 10
148.2529999999999
 20
269.404
 30
0.0
 11
148.845
 21
271.61500000000001
 31
0.0
  0
LINE
  5
107
  8
0
 62
     7
 10
148.845
 20
271.61500000000001
 30
0.0
 11
149.43700000000001
 21
269.404
 31
0.0
  0
LINE
  5
108
  8
0
 62
     7
 10
149.43700000000001
 20
269.404
 30
0.0
 11
148.2529999999999
 21
269.404
 31
0.0
  0
LINE
  5
109
  8
0
 62
     7
 10
148.83699999999999
 20
246.61500000000001
 30
0.0
 11
148.83699999999999
 21
271.61500000000001
 31
0.0
  0
LINE
  5
10A
  8
0
 62
     7
 10
149.422
 20
171.87999999999991
 30
0.0
 11
148.83000000000001
 21
174.09
 31
0.0
  0
LINE
  5
10B
  8
0
 62
     7
 10
148.83000000000001
 20
174.09
 30
0.0
 11
148.238
 21
171.87999999999991
 31
0.0
  0
LINE
  5
10C
  8
0
 62
     7
 10
148.238
 20
171.87999999999991
 30
0.0
 11
149.422
 21
171.87999999999991
 31
0.0
  0
LINE
  5
10D
  8
0
 62
     7
 10
148.25200000000001
 20
107.30200000000001
 30
0.0
 11
148.845
 21
105.09099999999999
 31
0.0
  0
LINE
  5
10E
  8
0
 62
     7
 10
148.845
 20
105.09099999999999
 30
0.0
 11
149.43600000000001
 21
107.30200000000001
 31
0.0
  0
LINE
  5
10F
  8
0
 62
     7
 10
149.43600000000001
 20
107.30200000000001
 30
0.0
 11
148.25200000000001
 21
107.30200000000001
 31
0.0
  0
LINE
  5
110
  8
0
 62
     7
 10
148.83699999999999
 20
174.09
 30
0.0
 11
148.83699999999999
 21
105.09099999999999
 31
0.0
  0
LINE
  5
111
  8
0
 62
     7
 10
145.066
 20
246.61500000000001
 30
0.0
 11
149.5439999999999
 21
246.61500000000001
 31
0.0
  0
LINE
  5
112
  8
0
 62
     7
 10
141.18299999999991
 20
271.61500000000001
 30
0.0
 11
149.5439999999999
 21
271.61500000000001
 31
0.0
  0
LINE
  5
113
  8
0
 62
     7
 10
135.874
 20
174.09
 30
0.0
 11
149.5439999999999
 21
174.09
 31
0.0
  0
LINE
  5
114
  8
0
 62
     7
 10
135.874
 20
105.09099999999999
 30
0.0
 11
149.5439999999999
 21
105.09099999999999
 31
0.0
  0
LINE
  5
115
  8
0
 62
     7
 10
35.011499999999991
 20
168.88199999999989
 30
0.0
 11
34.419499999999999
 21
171.09200000000001
 31
0.0
  0
LINE
  5
116
  8
0
 62
     7
 10
34.419499999999999
 20
171.09200000000001
 30
0.0
 11
33.826900000000002
 21
168.88199999999989
 31
0.0
  0
LINE
  5
117
  8
0
 62
     7
 10
33.826900000000002
 20
168.88199999999989
 30
0.0
 11
35.011499999999991
 21
168.88199999999989
 31
0.0
  0
LINE
  5
118
  8
0
 62
     7
 10
33.841900000000003
 20
110.304
 30
0.0
 11
34.433900000000001
 21
108.0929999999999
 31
0.0
  0
LINE
  5
119
  8
0
 62
     7
 10
34.433900000000001
 20
108.0929999999999
 30
0.0
 11
35.026200000000003
 21
110.304
 31
0.0
  0
LINE
  5
11A
  8
0
 62
     7
 10
35.026200000000003
 20
110.304
 30
0.0
 11
33.841900000000003
 21
110.304
 31
0.0
  0
LINE
  5
11B
  8
0
 62
     7
 10
34.426900000000003
 20
171.09200000000001
 30
0.0
 11
34.426900000000003
 21
108.0929999999999
 31
0.0
  0
LINE
  5
11C
  8
0
 62
     7
 10
33.733899999999998
 20
108.092
 30
0.0
 11
47.16429999999999
 21
108.092
 31
0.0
  0
LINE
  5
11D
  8
0
 62
     7
 10
33.733899999999998
 20
171.09
 30
0.0
 11
47.146900000000002
 21
171.09
 31
0.0
  0
LINE
  5
11E
  8
0
 62
     7
 10
112.6519999999999
 20
197.38099999999989
 30
0.0
 11
112.06
 21
199.58999999999989
 31
0.0
  0
LINE
  5
11F
  8
0
 62
     7
 10
112.06
 20
199.58999999999989
 30
0.0
 11
111.4679999999999
 21
197.38099999999989
 31
0.0
  0
LINE
  5
120
  8
0
 62
     7
 10
111.4679999999999
 20
197.38099999999989
 30
0.0
 11
112.6519999999999
 21
197.38099999999989
 31
0.0
  0
LINE
  5
121
  8
0
 62
     7
 10
111.4829999999999
 20
81.801199999999994
 30
0.0
 11
112.074
 21
79.591200000000001
 31
0.0
  0
LINE
  5
122
  8
0
 62
     7
 10
112.074
 20
79.591200000000001
 30
0.0
 11
112.667
 21
81.801199999999994
 31
0.0
  0
LINE
  5
123
  8
0
 62
     7
 10
112.667
 20
81.801199999999994
 30
0.0
 11
111.4829999999999
 21
81.801199999999994
 31
0.0
  0
LINE
  5
124
  8
0
 62
     7
 10
112.0679999999999
 20
199.58999999999989
 30
0.0
 11
112.0679999999999
 21
79.591200000000001
 31
0.0
  0
LINE
  5
125
  8
0
 62
     7
 10
73.542100000000005
 20
264.90499999999992
 30
0.0
 11
72.9495
 21
267.11399999999998
 31
0.0
  0
LINE
  5
126
  8
0
 62
     7
 10
72.9495
 20
267.11399999999998
 30
0.0
 11
72.357600000000005
 21
264.90499999999992
 31
0.0
  0
LINE
  5
127
  8
0
 62
     7
 10
72.357600000000005
 20
264.90499999999992
 30
0.0
 11
73.542100000000005
 21
264.90499999999992
 31
0.0
  0
LINE
  5
128
  8
0
 62
     7
 10
72.365200000000002
 20
224.3249999999999
 30
0.0
 11
72.956699999999998
 21
222.114
 31
0.0
  0
LINE
  5
129
  8
0
 62
     7
 10
72.956699999999998
 20
222.114
 30
0.0
 11
73.549300000000002
 21
224.3249999999999
 31
0.0
  0
LINE
  5
12A
  8
0
 62
     7
 10
73.549300000000002
 20
224.3249999999999
 30
0.0
 11
72.365200000000002
 21
224.3249999999999
 31
0.0
  0
LINE
  5
12B
  8
0
 62
     7
 10
72.953500000000005
 20
267.11399999999998
 30
0.0
 11
72.953500000000005
 21
222.114
 31
0.0
  0
LINE
  5
12C
  8
0
 62
     7
 10
67.654200000000003
 20
147.75999999999991
 30
0.0
 11
69.864199999999997
 21
148.352
 31
0.0
  0
LINE
  5
12D
  8
0
 62
     7
 10
69.864199999999997
 20
148.352
 30
0.0
 11
67.654200000000003
 21
148.9439999999999
 31
0.0
  0
LINE
  5
12E
  8
0
 62
     7
 10
67.654200000000003
 20
148.9439999999999
 30
0.0
 11
67.654200000000003
 21
147.75999999999991
 31
0.0
  0
LINE
  5
12F
  8
0
 62
     7
 10
47.073900000000002
 20
148.93000000000001
 30
0.0
 11
44.863900000000001
 21
148.33699999999999
 31
0.0
  0
LINE
  5
130
  8
0
 62
     7
 10
44.863900000000001
 20
148.33699999999999
 30
0.0
 11
47.073900000000002
 21
147.745
 31
0.0
  0
LINE
  5
131
  8
0
 62
     7
 10
47.073900000000002
 20
147.745
 30
0.0
 11
47.073900000000002
 21
148.93000000000001
 31
0.0
  0
LINE
  5
132
  8
0
 62
     7
 10
69.864199999999997
 20
148.34399999999991
 30
0.0
 11
44.863900000000001
 21
148.34399999999991
 31
0.0
  0
LINE
  5
133
  8
0
 62
     7
 10
69.864199999999997
 20
149.05199999999999
 30
0.0
 11
69.864199999999997
 21
145.29199999999989
 31
0.0
  0
LINE
  5
134
  8
0
 62
     7
 10
57.83850000000001
 20
250.143
 30
0.0
 11
60.0486
 21
250.73500000000001
 31
0.0
  0
LINE
  5
135
  8
0
 62
     7
 10
60.0486
 20
250.73500000000001
 30
0.0
 11
57.83850000000001
 21
251.32799999999989
 31
0.0
  0
LINE
  5
136
  8
0
 62
     7
 10
57.83850000000001
 20
251.32799999999989
 30
0.0
 11
57.83850000000001
 21
250.143
 31
0.0
  0
LINE
  5
137
  8
0
 62
     7
 10
49.758999999999993
 20
251.31999999999991
 30
0.0
 11
47.548499999999997
 21
250.72799999999989
 31
0.0
  0
LINE
  5
138
  8
0
 62
     7
 10
47.548499999999997
 20
250.72799999999989
 30
0.0
 11
49.758999999999993
 21
250.136
 31
0.0
  0
LINE
  5
139
  8
0
 62
     7
 10
49.758999999999993
 20
250.136
 30
0.0
 11
49.758999999999993
 21
251.31999999999991
 31
0.0
  0
LINE
  5
13A
  8
0
 62
     7
 10
60.0486
 20
250.73199999999991
 30
0.0
 11
47.548499999999997
 21
250.73199999999991
 31
0.0
  0
LINE
  5
13B
  8
0
 62
     7
 10
87.653899999999993
 20
204.02399999999989
 30
0.0
 11
89.86399999999999
 21
204.6159999999999
 31
0.0
  0
LINE
  5
13C
  8
0
 62
     7
 10
89.86399999999999
 20
204.6159999999999
 30
0.0
 11
87.653899999999993
 21
205.208
 31
0.0
  0
LINE
  5
13D
  8
0
 62
     7
 10
87.653899999999993
 20
205.208
 30
0.0
 11
87.653899999999993
 21
204.02399999999989
 31
0.0
  0
LINE
  5
13E
  8
0
 62
     7
 10
60.074100000000001
 20
205.19300000000001
 30
0.0
 11
57.863700000000001
 21
204.60199999999989
 31
0.0
  0
LINE
  5
13F
  8
0
 62
     7
 10
57.863700000000001
 20
204.60199999999989
 30
0.0
 11
60.074100000000001
 21
204.00899999999999
 31
0.0
  0
LINE
  5
140
  8
0
 62
     7
 10
60.074100000000001
 20
204.00899999999999
 30
0.0
 11
60.074100000000001
 21
205.19300000000001
 31
0.0
  0
LINE
  5
141
  8
0
 62
     7
 10
97.020700000000005
 20
204.6089999999999
 30
0.0
 11
57.863700000000001
 21
204.6089999999999
 31
0.0
  0
LINE
  5
142
  8
0
 62
     7
 10
130.464
 20
204.64699999999999
 30
0.0
 11
132.67400000000001
 21
205.23899999999989
 31
0.0
  0
LINE
  5
143
  8
0
 62
     7
 10
132.67400000000001
 20
205.23899999999989
 30
0.0
 11
130.464
 21
205.83099999999999
 31
0.0
  0
LINE
  5
144
  8
0
 62
     7
 10
130.464
 20
205.83099999999999
 30
0.0
 11
130.464
 21
204.64699999999999
 31
0.0
  0
LINE
  5
145
  8
0
 62
     7
 10
128.3839999999999
 20
205.82300000000001
 30
0.0
 11
126.17399999999989
 21
205.23099999999991
 31
0.0
  0
LINE
  5
146
  8
0
 62
     7
 10
126.17399999999989
 20
205.23099999999991
 30
0.0
 11
128.3839999999999
 21
204.63900000000001
 31
0.0
  0
LINE
  5
147
  8
0
 62
     7
 10
128.3839999999999
 20
204.63900000000001
 30
0.0
 11
128.3839999999999
 21
205.82300000000001
 31
0.0
  0
LINE
  5
148
  8
0
 62
     7
 10
132.67400000000001
 20
205.23899999999989
 30
0.0
 11
126.17399999999989
 21
205.23899999999989
 31
0.0
  0
LINE
  5
149
  8
0
 62
     7
 10
138.464
 20
211.697
 30
0.0
 11
140.67400000000001
 21
212.28899999999999
 31
0.0
  0
LINE
  5
14A
  8
0
 62
     7
 10
140.67400000000001
 20
212.28899999999999
 30
0.0
 11
138.464
 21
212.88099999999989
 31
0.0
  0
LINE
  5
14B
  8
0
 62
     7
 10
138.464
 20
212.88099999999989
 30
0.0
 11
138.464
 21
211.697
 31
0.0
  0
LINE
  5
14C
  8
0
 62
     7
 10
128.3839999999999
 20
212.8659999999999
 30
0.0
 11
126.17399999999989
 21
212.27399999999989
 31
0.0
  0
LINE
  5
14D
  8
0
 62
     7
 10
126.17399999999989
 20
212.27399999999989
 30
0.0
 11
128.3839999999999
 21
211.68199999999999
 31
0.0
  0
LINE
  5
14E
  8
0
 62
     7
 10
128.3839999999999
 20
211.68199999999999
 30
0.0
 11
128.3839999999999
 21
212.8659999999999
 31
0.0
  0
LINE
  5
14F
  8
0
 62
     7
 10
140.67400000000001
 20
212.28099999999989
 30
0.0
 11
126.17399999999989
 21
212.28099999999989
 31
0.0
  0
LINE
  5
150
  8
0
 62
     7
 10
55.654299999999999
 20
204.02399999999989
 30
0.0
 11
57.863700000000001
 21
204.6159999999999
 31
0.0
  0
LINE
  5
151
  8
0
 62
     7
 10
57.863700000000001
 20
204.6159999999999
 30
0.0
 11
55.654299999999999
 21
205.208
 31
0.0
  0
LINE
  5
152
  8
0
 62
     7
 10
55.654299999999999
 20
205.208
 30
0.0
 11
55.654299999999999
 21
204.02399999999989
 31
0.0
  0
LINE
  5
153
  8
0
 62
     7
 10
47.073900000000002
 20
205.19300000000001
 30
0.0
 11
44.863900000000001
 21
204.60199999999989
 31
0.0
  0
LINE
  5
154
  8
0
 62
     7
 10
44.863900000000001
 20
204.60199999999989
 30
0.0
 11
47.073900000000002
 21
204.00899999999999
 31
0.0
  0
LINE
  5
155
  8
0
 62
     7
 10
47.073900000000002
 20
204.00899999999999
 30
0.0
 11
47.073900000000002
 21
205.19300000000001
 31
0.0
  0
LINE
  5
156
  8
0
 62
     7
 10
57.863700000000001
 20
204.6089999999999
 30
0.0
 11
44.863900000000001
 21
204.6089999999999
 31
0.0
  0
LINE
  5
157
  8
0
 62
     7
 10
88.6541
 20
210.77199999999999
 30
0.0
 11
90.864099999999979
 21
211.364
 31
0.0
  0
LINE
  5
158
  8
0
 62
     7
 10
90.864099999999979
 20
211.364
 30
0.0
 11
88.6541
 21
211.9559999999999
 31
0.0
  0
LINE
  5
159
  8
0
 62
     7
 10
88.6541
 20
211.9559999999999
 30
0.0
 11
88.6541
 21
210.77199999999999
 31
0.0
  0
LINE
  5
15A
  8
0
 62
     7
 10
47.073900000000002
 20
211.94099999999989
 30
0.0
 11
44.863900000000001
 21
211.34999999999999
 31
0.0
  0
LINE
  5
15B
  8
0
 62
     7
 10
44.863900000000001
 20
211.34999999999999
 30
0.0
 11
47.073900000000002
 21
210.75699999999989
 31
0.0
  0
LINE
  5
15C
  8
0
 62
     7
 10
47.073900000000002
 20
210.75699999999989
 30
0.0
 11
47.073900000000002
 21
211.94099999999989
 31
0.0
  0
LINE
  5
15D
  8
0
 62
     7
 10
90.864099999999979
 20
211.357
 30
0.0
 11
44.863900000000001
 21
211.357
 31
0.0
  0
LINE
  5
15E
  8
0
 62
     7
 10
90.864099999999979
 20
212.04900000000001
 30
0.0
 11
90.864099999999979
 21
199.84999999999991
 31
0.0
  0
LINE
  5
15F
  8
0
 62
     7
 10
132.67400000000001
 20
205.93899999999999
 30
0.0
 11
132.67400000000001
 21
177.78999999999991
 31
0.0
  0
LINE
  5
160
  8
0
 62
     7
 10
140.67400000000001
 20
212.97399999999999
 30
0.0
 11
140.67400000000001
 21
200.1999999999999
 31
0.0
  0
LINE
  5
161
  8
0
 62
     7
 10
126.17399999999989
 20
212.97399999999999
 30
0.0
 11
126.17399999999989
 21
200.1999999999999
 31
0.0
  0
LINE
  5
162
  8
0
 62
     7
 10
89.86399999999999
 20
205.30099999999999
 30
0.0
 11
89.86399999999999
 21
199.28999999999991
 31
0.0
  0
LINE
  5
163
  8
0
 62
     7
 10
57.863700000000001
 20
205.30099999999999
 30
0.0
 11
57.863700000000001
 21
199.28999999999991
 31
0.0
  0
LINE
  5
164
  8
0
 62
     7
 10
44.863900000000001
 20
212.04900000000001
 30
0.0
 11
44.863900000000001
 21
199.84999999999991
 31
0.0
  0
LINE
  5
165
  8
0
 62
     7
 10
62.338900000000002
 20
272.61200000000002
 30
0.0
 11
64.548400000000001
 21
273.20400000000001
 31
0.0
  0
LINE
  5
166
  8
0
 62
     7
 10
64.548400000000001
 20
273.20400000000001
 30
0.0
 11
62.338900000000002
 21
273.79599999999999
 31
0.0
  0
LINE
  5
167
  8
0
 62
     7
 10
62.338900000000002
 20
273.79599999999999
 30
0.0
 11
62.338900000000002
 21
272.61200000000002
 31
0.0
  0
LINE
  5
168
  8
0
 62
     7
 10
49.758499999999998
 20
273.78899999999987
 30
0.0
 11
47.548499999999997
 21
273.197
 31
0.0
  0
LINE
  5
169
  8
0
 62
     7
 10
47.548499999999997
 20
273.197
 30
0.0
 11
49.758499999999998
 21
272.60500000000002
 31
0.0
  0
LINE
  5
16A
  8
0
 62
     7
 10
49.758499999999998
 20
272.60500000000002
 30
0.0
 11
49.758499999999998
 21
273.78899999999987
 31
0.0
  0
LINE
  5
16B
  8
0
 62
     7
 10
56.766199999999991
 20
238.06999999999999
 30
0.0
 11
48.645699999999998
 21
238.06999999999999
 31
0.0
  0
LINE
  5
16C
  8
0
 62
     7
 10
64.548400000000001
 20
273.20099999999991
 30
0.0
 11
47.548499999999997
 21
273.20099999999991
 31
0.0
  0
LINE
  5
16D
  8
0
 62
     7
 10
90.124399999999994
 20
80.590900000000005
 30
0.0
 11
102.82899999999989
 21
80.590900000000005
 31
0.0
  0
LINE
  5
16E
  8
0
 62
     7
 10
91.123400000000004
 20
79.591200000000001
 30
0.0
 11
112.77800000000001
 21
79.591200000000001
 31
0.0
  0
LINE
  5
16F
  8
0
 62
     7
 10
90.124399999999994
 20
198.59099999999989
 30
0.0
 11
102.82899999999989
 21
198.59099999999989
 31
0.0
  0
LINE
  5
170
  8
0
 62
     7
 10
91.123400000000004
 20
199.58999999999989
 30
0.0
 11
112.761
 21
199.58999999999989
 31
0.0
  0
LINE
  5
171
  8
0
 62
     7
 10
65.213300000000004
 20
222.114
 30
0.0
 11
73.658699999999996
 21
222.114
 31
0.0
  0
LINE
  5
172
  8
0
 62
     7
 10
60.0486
 20
251.08500000000001
 30
0.0
 11
60.0486
 21
247.59
 31
0.0
  0
LINE
  5
173
  8
0
 62
     7
 10
64.548400000000001
 20
273.76799999999992
 30
0.0
 11
64.548400000000001
 21
267.32400000000001
 31
0.0
  0
LINE
  5
174
  8
0
 62
     7
 10
47.548499999999997
 20
273.76799999999992
 30
0.0
 11
47.548499999999997
 21
269.72399999999988
 31
0.0
  0
LINE
  5
175
  8
0
 62
     7
 10
65.213300000000004
 20
267.11399999999998
 30
0.0
 11
73.649500000000003
 21
267.11399999999998
 31
0.0
  0
TEXT
  5
176
  8
0
 62
     7
 10
93.643499999999989
 20
220.78200000000001
 30
0.0
 40
3.660169999999999
  1
※カウンターを設ける場合も洗面器の
 50
90.0
 41
0.5
  0
TEXT
  5
177
  8
0
 62
     7
 10
98.218699999999998
 20
220.78200000000001
 30
0.0
 40
3.660169999999999
  1
　壁固定が必要です。
 50
90.0
 41
0.5
  0
TEXT
  5
178
  8
0
 62
     7
 10
102.794
 20
220.78200000000001
 30
0.0
 40
3.660169999999999
  1
※カウンターの制作可否はカウンター
 50
90.0
 41
0.5
  0
TEXT
  5
179
  8
0
 62
     7
 10
107.369
 20
220.78200000000001
 30
0.0
 40
3.660169999999999
  1
　業者様にご確認ください。
 50
90.0
 41
0.5
  0
LINE
  5
17A
  8
0
 62
     7
 10
134.714
 20
236.465
 30
0.0
 11
136.67400000000001
 21
237.05699999999999
 31
0.0
  0
LINE
  5
17B
  8
0
 62
     7
 10
136.67400000000001
 20
237.05699999999999
 30
0.0
 11
134.714
 21
237.65000000000001
 31
0.0
  0
LINE
  5
17C
  8
0
 62
     7
 10
134.714
 20
237.65000000000001
 30
0.0
 11
134.714
 21
236.465
 31
0.0
  0
LINE
  5
17D
  8
0
 62
     7
 10
128.57199999999989
 20
237.63499999999991
 30
0.0
 11
126.361
 21
237.04300000000001
 31
0.0
  0
LINE
  5
17E
  8
0
 62
     7
 10
126.361
 20
237.04300000000001
 30
0.0
 11
128.57199999999989
 21
236.45099999999999
 31
0.0
  0
LINE
  5
17F
  8
0
 62
     7
 10
128.57199999999989
 20
236.45099999999999
 30
0.0
 11
128.57199999999989
 21
237.63499999999991
 31
0.0
  0
LINE
  5
180
  8
0
 62
     7
 10
136.67400000000001
 20
237.05000000000001
 30
0.0
 11
126.361
 21
237.05000000000001
 31
0.0
  0
TEXT
  5
181
  8
0
 62
     7
 10
81.753999999999991
 20
228.7837647499999
 30
0.0
 40
3.660169999999999
  1
カウンター切込寸法 尺度1：20
 50
90.0
 41
0.5
 72
     1
 11
81.753999999999991
 21
244.614
 31
0.0
  0
ARC
  5
182
  8
0
 62
     7
 10
64.029036000000005
 20
266.595054
 30
0.0
 40
0.519729
 50
2.1279629999999998
 51
87.832540000000009
  0
LINE
  5
183
  8
0
 62
     7
 10
47.548499999999997
 20
269.30399999999997
 30
0.0
 11
47.548499999999997
 21
267.11399999999998
 31
0.0
  0
LINE
  5
184
  8
0
 62
     7
 10
64.548400000000001
 20
266.61500000000001
 30
0.0
 11
64.548400000000001
 21
244.614
 31
0.0
  0
LINE
  5
185
  8
0
 62
     7
 10
47.548499999999997
 20
267.11399999999998
 30
0.0
 11
64.048500000000004
 21
267.11399999999998
 31
0.0
  0
ARC
  5
186
  8
0
 62
     7
 10
64.028860999999992
 20
222.633297
 30
0.0
 40
0.5199030000000001
 50
272.18598800000001
 51
357.873242
  0
LINE
  5
187
  8
0
  6
AIGENLINE003
 62
     7
 10
47.548499999999997
 20
222.114
 30
0.0
 11
47.548499999999997
 21
267.11399999999998
 31
0.0
  0
LINE
  5
188
  8
0
 62
     7
 10
47.548499999999997
 20
219.92500000000001
 30
0.0
 11
47.548499999999997
 21
222.114
 31
0.0
  0
LINE
  5
189
  8
0
  6
AIGENLINE001
 62
     7
 10
60.0486
 20
247.2399999999999
 30
0.0
 11
60.0486
 21
241.989
 31
0.0
  0
LINE
  5
18A
  8
0
  6
AIGENLINE001
 62
     7
 10
46.271000000000001
 20
244.614
 30
0.0
 11
65.730800000000002
 21
244.614
 31
0.0
  0
LINE
  5
18B
  8
0
 62
     7
 10
64.548400000000001
 20
222.614
 30
0.0
 11
64.548400000000001
 21
244.614
 31
0.0
  0
LINE
  5
18C
  8
0
 62
     7
 10
47.548499999999997
 20
222.114
 30
0.0
 11
64.048500000000004
 21
222.114
 31
0.0
  0
ARC
  5
18D
  8
0
  6
AIGENLINE002
 62
     7
 10
60.091231999999998
 20
244.571505
 30
0.0
 40
1.1686270000000001
 50
92.092305000000025
 51
177.89889299999999
  0
ARC
  5
18E
  8
0
  6
AIGENLINE002
 62
     7
 10
60.091456999999998
 20
244.65742
 30
0.0
 40
1.16886
 50
182.111704
 51
267.89709799999991
  0
ARC
  5
18F
  8
0
  6
AIGENLINE002
 62
     7
 10
60.005876000000001
 20
244.65686199999999
 30
0.0
 40
1.1682950000000001
 50
272.09410400000002
 51
357.91467899999992
  0
ARC
  5
190
  8
0
  6
AIGENLINE002
 62
     7
 10
60.005322
 20
244.57128499999999
 30
0.0
 40
1.1688689999999999
 50
2.111472
 51
87.879745
  0
ARC
  5
191
  8
0
  6
AIGENLINE002
 62
     7
 10
60.048566000000001
 20
244.61435
 30
0.0
 40
1.7499480000000001
 50
90.0
 51
179.99996999999991
  0
ARC
  5
192
  8
0
  6
AIGENLINE002
 62
     7
 10
60.048652000000011
 20
244.61426399999999
 30
0.0
 40
1.7500329999999999
 50
179.99715
 51
269.99720000000002
  0
ARC
  5
193
  8
0
  6
AIGENLINE002
 62
     7
 10
60.048393999999988
 20
244.61417800000001
 30
0.0
 40
1.7499480000000001
 50
270.00565999999998
 51
0.00563
  0
ARC
  5
194
  8
0
  6
AIGENLINE002
 62
     7
 10
60.048479999999998
 20
244.6144359999999
 30
0.0
 40
1.7498610000000001
 50
359.99718999999988
 51
89.997159999999994
  0
LINE
  5
195
  8
0
  6
AIGENLINE001
 62
     7
 10
132.67400000000001
 20
275.05399999999997
 30
0.0
 11
132.67400000000001
 21
269.05299999999988
 31
0.0
  0
LINE
  5
196
  8
0
  6
AIGENLINE001
 62
     7
 10
132.67400000000001
 20
177.09
 30
0.0
 11
132.67400000000001
 21
171.09
 31
0.0
  0
LINE
  5
197
  8
0
  6
AIGENLINE001
 62
     7
 10
135.17400000000001
 20
174.09
 30
0.0
 11
130.17400000000001
 21
174.09
 31
0.0
  0
LINE
  5
198
  8
0
  6
AIGENLINE002
 62
     7
 10
131.2239999999999
 20
173.61299999999989
 30
0.0
 11
131.2239999999999
 21
174.5679999999999
 31
0.0
  0
ARC
  5
199
  8
0
  6
AIGENLINE002
 62
     7
 10
132.7510189999999
 20
174.51427699999991
 30
0.0
 40
1.5278059999999991
 50
92.881261999999978
 51
177.96992099999991
  0
ARC
  5
19A
  8
0
  6
AIGENLINE002
 62
     7
 10
132.75252499999991
 20
173.667439
 30
0.0
 40
1.529337999999999
 50
182.056849
 51
267.06515400000001
  0
ARC
  5
19B
  8
0
  6
AIGENLINE002
 62
     7
 10
132.59581
 20
173.66721499999991
 30
0.0
 40
1.5291189999999999
 50
272.93936099999991
 51
357.92547400000001
  0
ARC
  5
19C
  8
0
  6
AIGENLINE002
 62
     7
 10
132.5962879999999
 20
174.5135149999999
 30
0.0
 40
1.528624999999999
 50
2.057563
 51
87.077601999999999
  0
LINE
  5
19D
  8
0
  6
AIGENLINE002
 62
     7
 10
134.12399999999991
 20
174.5679999999999
 30
0.0
 11
134.12399999999991
 21
173.61199999999991
 31
0.0
  0
LINE
  5
19E
  8
0
  6
AIGENLINE001
 62
     7
 10
132.67400000000001
 20
108.092
 30
0.0
 11
132.67400000000001
 21
102.09099999999999
 31
0.0
  0
LINE
  5
19F
  8
0
  6
AIGENLINE001
 62
     7
 10
135.17400000000001
 20
105.09099999999999
 30
0.0
 11
130.17400000000001
 21
105.09099999999999
 31
0.0
  0
LINE
  5
1A0
  8
0
  6
AIGENLINE002
 62
     7
 10
131.2239999999999
 20
104.613
 30
0.0
 11
131.2239999999999
 21
105.56999999999989
 31
0.0
  0
ARC
  5
1A1
  8
0
  6
AIGENLINE002
 62
     7
 10
132.7510189999999
 20
105.515986
 30
0.0
 40
1.5278059999999991
 50
92.881261999999978
 51
177.96992099999991
  0
ARC
  5
1A2
  8
0
  6
AIGENLINE002
 62
     7
 10
132.75184799999991
 20
104.6679899999999
 30
0.0
 40
1.528662999999999
 50
182.05954999999989
 51
267.089268
  0
ARC
  5
1A3
  8
0
  6
AIGENLINE002
 62
     7
 10
132.59581
 20
104.668406
 30
0.0
 40
1.5291189999999999
 50
272.93936099999991
 51
357.92547400000001
  0
ARC
  5
1A4
  8
0
  6
AIGENLINE002
 62
     7
 10
132.59627800000001
 20
105.5152129999999
 30
0.0
 40
1.5286360000000001
 50
2.0579259999999988
 51
87.077239000000006
  0
LINE
  5
1A5
  8
0
  6
AIGENLINE002
 62
     7
 10
134.12399999999991
 20
105.56999999999989
 30
0.0
 11
134.12399999999991
 21
104.613
 31
0.0
  0
LINE
  5
1A6
  8
0
 62
     7
 10
139.92299999999989
 20
225.61500000000001
 30
0.0
 11
126.92399999999989
 21
225.61500000000001
 31
0.0
  0
LINE
  5
1A7
  8
0
 62
     7
 10
140.673
 20
226.36500000000001
 30
0.0
 11
140.673
 21
230.869
 31
0.0
  0
ARC
  5
1A8
  8
0
 62
     7
 10
126.9526449999999
 20
226.3931729999999
 30
0.0
 40
0.7791850000000001
 50
182.08129500000001
 51
267.86609700000002
  0
LINE
  5
1A9
  8
0
 62
     7
 10
126.17399999999989
 20
226.36500000000001
 30
0.0
 11
126.17399999999989
 21
226.61500000000001
 31
0.0
  0
ARC
  5
1AA
  8
0
  6
AIGENLINE002
 62
     7
 10
126.693155
 20
226.095493
 30
0.0
 40
0.5195370000000001
 50
92.204233999999985
 51
177.87476499999991
  0
LINE
  5
1AB
  8
0
  6
AIGENLINE002
 62
     7
 10
126.6729999999999
 20
226.61500000000001
 30
0.0
 11
136.173
 21
226.61500000000001
 31
0.0
  0
ARC
  5
1AC
  8
0
  6
AIGENLINE002
 62
     7
 10
136.15427199999991
 20
227.13404
 30
0.0
 40
0.5197470000000001
 50
272.11219299999988
 51
357.86808300000001
  0
LINE
  5
1AD
  8
0
  6
AIGENLINE002
 62
     7
 10
136.67400000000001
 20
242.11500000000001
 30
0.0
 11
136.67400000000001
 21
227.11500000000001
 31
0.0
  0
ARC
  5
1AE
  8
0
  6
AIGENLINE002
 62
     7
 10
137.71258499999999
 20
242.0754399999999
 30
0.0
 40
1.039644
 50
92.158276000000001
 51
177.87130199999999
  0
LINE
  5
1AF
  8
0
  6
AIGENLINE002
 62
     7
 10
140.673
 20
243.114
 30
0.0
 11
137.673
 21
243.114
 31
0.0
  0
ARC
  5
1B0
  8
0
  6
AIGENLINE002
 62
     7
 10
137.71205499999991
 20
251.15286299999991
 30
0.0
 40
1.0391010000000001
 50
182.11043100000001
 51
267.86985899999991
  0
LINE
  5
1B1
  8
0
  6
AIGENLINE002
 62
     7
 10
137.673
 20
250.11399999999989
 30
0.0
 11
140.673
 21
250.11399999999989
 31
0.0
  0
LINE
  5
1B2
  8
0
  6
AIGENLINE002
 62
     7
 10
136.67400000000001
 20
253.8429999999999
 30
0.0
 11
136.67400000000001
 21
251.11500000000001
 31
0.0
  0
LINE
  5
1B3
  8
0
 62
     7
 10
126.92399999999989
 20
271.61500000000001
 30
0.0
 11
139.92299999999989
 21
271.61500000000001
 31
0.0
  0
ARC
  5
1B4
  8
0
 62
     7
 10
126.9529459999999
 20
270.83580999999998
 30
0.0
 40
0.779509
 50
92.155118999999999
 51
177.87117599999999
  0
LINE
  5
1B5
  8
0
 62
     7
 10
126.17399999999989
 20
270.61500000000001
 30
0.0
 11
126.17399999999989
 21
270.86500000000001
 31
0.0
  0
ARC
  5
1B6
  8
0
  6
AIGENLINE002
 62
     7
 10
126.69252899999999
 20
270.63293499999997
 30
0.0
 40
0.518877
 50
182.01946499999991
 51
267.86206299999992
  0
ARC
  5
1B7
  8
0
  6
AIGENLINE002
 62
     7
 10
126.6538639999999
 20
269.59487399999989
 30
0.0
 40
0.519904
 50
2.1480339999999991
 51
87.871690000000001
  0
LINE
  5
1B8
  8
0
  6
AIGENLINE002
 62
     7
 10
127.1729999999999
 20
269.61399999999998
 30
0.0
 11
127.1729999999999
 21
266.91399999999999
 31
0.0
  0
LINE
  5
1B9
  8
0
  6
AIGENLINE002
 62
     7
 10
127.1729999999999
 20
261.81499999999988
 30
0.0
 11
127.1729999999999
 21
258.6149999999999
 31
0.0
  0
ARC
  5
1BA
  8
0
  6
AIGENLINE002
 62
     7
 10
127.692314
 20
258.63378799999992
 30
0.0
 40
0.519246
 50
182.058761
 51
267.86229400000002
  0
LINE
  5
1BB
  8
0
  6
AIGENLINE002
 62
     7
 10
136.173
 20
258.11500000000001
 30
0.0
 11
127.6729999999999
 21
258.11500000000001
 31
0.0
  0
ARC
  5
1BC
  8
0
  6
AIGENLINE002
 62
     7
 10
136.154101
 20
257.59533199999993
 30
0.0
 40
0.51993
 50
2.1697380000000002
 51
87.869726
  0
LINE
  5
1BD
  8
0
  6
AIGENLINE002
 62
     7
 10
136.67400000000001
 20
257.61500000000001
 30
0.0
 11
136.67400000000001
 21
253.8429999999999
 31
0.0
  0
LINE
  5
1BE
  8
0
 62
     7
 10
140.673
 20
230.869
 30
0.0
 11
140.673
 21
270.86500000000001
 31
0.0
  0
LINE
  5
1BF
  8
0
 62
     7
 10
126.17399999999989
 20
270.61500000000001
 30
0.0
 11
126.17399999999989
 21
227.61500000000001
 31
0.0
  0
LINE
  5
1C0
  8
0
 62
     7
 10
126.17399999999989
 20
226.61500000000001
 30
0.0
 11
126.17399999999989
 21
227.61500000000001
 31
0.0
  0
LINE
  5
1C1
  8
0
  6
AIGENLINE002
 62
     7
 10
136.67400000000001
 20
251.11500000000001
 30
0.0
 11
136.67400000000001
 21
242.114
 31
0.0
  0
LINE
  5
1C2
  8
0
  6
AIGENLINE002
 62
     7
 10
137.673
 20
243.114
 30
0.0
 11
137.673
 21
250.11399999999989
 31
0.0
  0
LINE
  5
1C3
  8
0
  6
AIGENLINE002
 62
     7
 10
127.1729999999999
 20
266.91399999999999
 30
0.0
 11
127.1729999999999
 21
261.81499999999988
 31
0.0
  0
ARC
  5
1C4
  8
0
 62
     7
 10
139.89376399999989
 20
226.39384599999991
 30
0.0
 40
0.7798689999999999
 50
272.1552759999999
 51
357.87104699999998
  0
ARC
  5
1C5
  8
0
 62
     7
 10
139.89412300000001
 20
270.83579600000002
 30
0.0
 40
0.7795100000000002
 50
2.1298330000000001
 51
87.870156999999992
  0
ARC
  5
1C6
  8
0
 62
     7
 10
126.9525969999999
 20
80.369787999999986
 30
0.0
 40
0.7791610000000001
 50
182.13043300000001
 51
267.869597
  0
ARC
  5
1C7
  8
0
 62
     7
 10
126.9526449999999
 20
198.81146799999991
 30
0.0
 40
0.7791850000000001
 50
92.133902999999975
 51
177.91870499999999
  0
LINE
  5
1C8
  8
0
 62
     7
 10
126.92399999999989
 20
199.58999999999989
 30
0.0
 11
139.92299999999989
 21
199.58999999999989
 31
0.0
  0
LINE
  5
1C9
  8
0
 62
     7
 10
126.17399999999989
 20
198.58999999999989
 30
0.0
 11
126.17399999999989
 21
198.84
 31
0.0
  0
LINE
  5
1CA
  8
0
 62
     7
 10
126.17399999999989
 20
80.340800000000016
 30
0.0
 11
126.17399999999989
 21
80.590900000000005
 31
0.0
  0
LINE
  5
1CB
  8
0
 62
     7
 10
126.17399999999989
 20
80.590900000000005
 30
0.0
 11
126.17399999999989
 21
198.58999999999989
 31
0.0
  0
ARC
  5
1CC
  8
0
 62
     7
 10
139.894431
 20
198.81074599999991
 30
0.0
 40
0.7798930000000001
 50
2.1324659999999991
 51
87.893823999999995
  0
ARC
  5
1CD
  8
0
 62
     7
 10
139.89456799999991
 20
80.370423000000017
 30
0.0
 40
0.779779
 50
272.09644600000001
 51
357.82462599999991
  0
LINE
  5
1CE
  8
0
 62
     7
 10
139.92299999999989
 20
79.591200000000001
 30
0.0
 11
126.92399999999989
 21
79.591200000000001
 31
0.0
  0
LINE
  5
1CF
  8
0
 62
     7
 10
140.67400000000001
 20
198.84
 30
0.0
 11
140.67400000000001
 21
198.58999999999989
 31
0.0
  0
LINE
  5
1D0
  8
0
 62
     7
 10
140.67400000000001
 20
198.58999999999989
 30
0.0
 11
140.67400000000001
 21
80.590900000000005
 31
0.0
  0
LINE
  5
1D1
  8
0
 62
     7
 10
140.67400000000001
 20
80.590900000000005
 30
0.0
 11
140.67400000000001
 21
80.340800000000016
 31
0.0
  0
LINE
  5
1D2
  8
0
 62
     7
 10
89.863600000000005
 20
79.591200000000001
 30
0.0
 11
45.863999999999997
 21
79.591200000000001
 31
0.0
  0
ARC
  5
1D3
  8
0
 62
     7
 10
89.825430000000011
 20
80.629868999999999
 30
0.0
 40
1.0394060000000001
 50
272.10700200000002
 51
357.85353500000002
  0
ARC
  5
1D4
  8
0
 62
     7
 10
45.901893999999992
 20
80.629206000000011
 30
0.0
 40
1.0387319999999991
 50
182.11125799999999
 51
267.90851199999997
  0
LINE
  5
1D5
  8
0
 62
     7
 10
90.864099999999979
 20
198.59099999999989
 30
0.0
 11
90.864099999999979
 21
80.590900000000005
 31
0.0
  0
LINE
  5
1D6
  8
0
 62
     7
 10
57.863700000000001
 20
80.590900000000005
 30
0.0
 11
57.863700000000001
 21
198.59099999999989
 31
0.0
  0
LINE
  5
1D7
  8
0
 62
     7
 10
44.863900000000001
 20
80.590900000000005
 30
0.0
 11
44.863900000000001
 21
198.59099999999989
 31
0.0
  0
ARC
  5
1D8
  8
0
 62
     7
 10
89.825856000000002
 20
198.551829
 30
0.0
 40
1.038970999999999
 50
2.1337280000000001
 51
87.915607999999992
  0
ARC
  5
1D9
  8
0
 62
     7
 10
45.902568000000002
 20
198.55139199999991
 30
0.0
 40
1.0394369999999999
 50
92.127246999999997
 51
177.84310999999991
  0
LINE
  5
1DA
  8
0
 62
     7
 10
45.863999999999997
 20
199.58999999999989
 30
0.0
 11
89.863600000000005
 21
199.58999999999989
 31
0.0
  0
ARC
  5
1DB
  8
0
 62
     7
 10
51.798141999999999
 20
171.0227459999999
 30
0.0
 40
1.8179129999999999
 50
2.121268999999999
 51
87.923835999999994
  0
ARC
  5
1DC
  8
0
 62
     7
 10
51.930805999999997
 20
171.02305200000001
 30
0.0
 40
1.8176419999999991
 50
92.106292999999994
 51
177.888036
  0
ARC
  5
1DD
  8
0
 62
     7
 10
51.864517999999997
 20
171.089518
 30
0.0
 40
1.7501189999999991
 50
179.98305199999999
 51
269.98310199999992
  0
ARC
  5
1DE
  8
0
 62
     7
 10
51.864086999999998
 20
171.09012200000001
 30
0.0
 40
1.7507229999999989
 50
269.9972009999999
 51
359.99717099999992
  0
LINE
  5
1DF
  8
0
  6
AIGENLINE001
 62
     7
 10
51.86399999999999
 20
175.09
 30
0.0
 11
51.86399999999999
 21
167.09
 31
0.0
  0
LINE
  5
1E0
  8
0
  6
AIGENLINE001
 62
     7
 10
55.865000000000002
 20
171.09
 30
0.0
 11
47.86419999999999
 21
171.09
 31
0.0
  0
ARC
  5
1E1
  8
0
 62
     7
 10
51.864345
 20
108.091587
 30
0.0
 40
1.750464
 50
0.011286
 51
90.011257000000015
  0
ARC
  5
1E2
  8
0
 62
     7
 10
51.864259999999987
 20
108.0921899999999
 30
0.0
 40
1.7498619999999989
 50
90.008460000000014
 51
180.00846999999999
  0
ARC
  5
1E3
  8
0
 62
     7
 10
51.932420999999998
 20
108.1590999999999
 30
0.0
 40
1.8192630000000001
 50
182.11587399999991
 51
267.84468199999998
  0
ARC
  5
1E4
  8
0
 62
     7
 10
51.797150000000002
 20
108.158784
 30
0.0
 40
1.818889
 50
272.10632799999991
 51
357.8936819999999
  0
ARC
  5
1E5
  8
0
 62
     7
 10
69.778268999999995
 20
139.5051959999999
 30
0.0
 40
2.3373750000000002
 50
2.111829999999999
 51
87.892546999999979
  0
ARC
  5
1E6
  8
0
 62
     7
 10
69.950329000000011
 20
139.50468499999999
 30
0.0
 40
2.3378909999999991
 50
92.110721999999996
 51
177.87608899999989
  0
ARC
  5
1E7
  8
0
 62
     7
 10
69.949861999999996
 20
139.677504
 30
0.0
 40
2.3374069999999989
 50
182.11289099999991
 51
267.90029900000002
  0
ARC
  5
1E8
  8
0
 62
     7
 10
69.864307999999994
 20
139.5914149999999
 30
0.0
 40
2.249747999999999
 50
269.99782599999992
 51
359.99779699999999
  0
ARC
  5
1E9
  8
0
 62
     7
 10
69.863531999999992
 20
139.59201699999991
 30
0.0
 40
3.5002399999999998
 50
359.98873099999997
 51
89.988701000000006
  0
ARC
  5
1EA
  8
0
 62
     7
 10
69.864739
 20
139.59184500000001
 30
0.0
 40
3.5004119999999999
 50
90.008458999999988
 51
180.00846899999999
  0
ARC
  5
1EB
  8
0
 62
     7
 10
69.864048999999994
 20
139.5915
 30
0.0
 40
3.4997220000000002
 50
180.00282999999999
 51
270.00283999999988
  0
ARC
  5
1EC
  8
0
 62
     7
 10
69.864221000000001
 20
139.59132899999989
 30
0.0
 40
3.4995509999999999
 50
270.00002000000001
 51
359.99998999999991
  0
ARC
  5
1ED
  8
0
 62
     7
 10
88.825450000000004
 20
197.551986
 30
0.0
 40
1.0392429999999999
 50
2.1085189999999989
 51
87.871734000000004
  0
LINE
  5
1EE
  8
0
 62
     7
 10
89.86399999999999
 20
197.59
 30
0.0
 11
89.86399999999999
 21
81.591399999999979
 31
0.0
  0
ARC
  5
1EF
  8
0
 62
     7
 10
88.825756999999996
 20
81.629152000000005
 30
0.0
 40
1.038918
 50
272.1119799999999
 51
357.91763199999991
  0
LINE
  5
1F0
  8
0
 62
     7
 10
88.864000000000004
 20
80.590900000000005
 30
0.0
 11
45.863999999999997
 21
80.590900000000005
 31
0.0
  0
LINE
  5
1F1
  8
0
 62
     7
 10
45.863999999999997
 20
198.59099999999989
 30
0.0
 11
88.864000000000004
 21
198.59099999999989
 31
0.0
  0
LINE
  5
1F2
  8
0
 62
     7
 10
45.863999999999997
 20
80.590900000000005
 30
0.0
 11
45.863999999999997
 21
198.59099999999989
 31
0.0
  0
LINE
  5
1F3
  8
0
  6
AIGENLINE001
 62
     7
 10
51.86399999999999
 20
112.092
 30
0.0
 11
51.86399999999999
 21
104.09099999999999
 31
0.0
  0
LINE
  5
1F4
  8
0
  6
AIGENLINE001
 62
     7
 10
55.865000000000002
 20
108.092
 30
0.0
 11
47.86419999999999
 21
108.092
 31
0.0
  0
LINE
  5
1F5
  8
0
  6
AIGENLINE001
 62
     7
 10
69.864199999999997
 20
144.59200000000001
 30
0.0
 11
69.864199999999997
 21
134.59200000000001
 31
0.0
  0
LINE
  5
1F6
  8
0
  6
AIGENLINE001
 62
     7
 10
47.563999999999993
 20
174.09
 30
0.0
 11
42.56369999999999
 21
174.09
 31
0.0
  0
LINE
  5
1F7
  8
0
  6
AIGENLINE001
 62
     7
 10
47.563999999999993
 20
105.09099999999999
 30
0.0
 11
42.56369999999999
 21
105.09099999999999
 31
0.0
  0
LINE
  5
1F8
  8
0
  6
AIGENLINE001
 62
     7
 10
143.5989999999999
 20
139.59100000000001
 30
0.0
 11
123.473
 21
139.59100000000001
 31
0.0
  0
LINE
  5
1F9
  8
0
  6
AIGENLINE001
 62
     7
 10
93.557800000000015
 20
139.59100000000001
 30
0.0
 11
41.943600000000004
 21
139.59100000000001
 31
0.0
  0
LINE
  5
1FA
  8
0
  6
AIGENLINE001
 62
     7
 10
129.67299999999989
 20
142.43799999999999
 30
0.0
 11
129.67299999999989
 21
136.36600000000001
 31
0.0
  0
LINE
  5
1FB
  8
0
  6
AIGENLINE001
 62
     7
 10
129.67299999999989
 20
260.6149999999999
 30
0.0
 11
129.67299999999989
 21
255.61500000000001
 31
0.0
  0
LINE
  5
1FC
  8
0
  6
AIGENLINE001
 62
     7
 10
124.173
 20
265.11399999999998
 30
0.0
 11
129.17400000000001
 21
265.11399999999998
 31
0.0
  0
LINE
  5
1FD
  8
0
  6
AIGENLINE001
 62
     7
 10
123.3649999999999
 20
246.61500000000001
 30
0.0
 11
144.71600000000001
 21
246.61500000000001
 31
0.0
  0
TEXT
  5
1FE
  8
_________2
 62
     7
 10
26.512799999999991
 20
65.668099999999995
 30
0.0
 40
4.6583899999999989
  1
※壁取付部には厚さ30mm以上の補強木を入れてください。
 41
0.5
  0
TEXT
  5
1FF
  8
_________2
 62
     7
 10
26.512799999999991
 20
59.845100000000002
 30
0.0
 40
4.6583899999999989
  1
※排水栓を閉めた状態で、水栓2台あわせて毎分10L以上吐水させないでください。
 41
0.5
  0
TEXT
  5
200
  8
_________2
 62
     7
 10
138.99621999999999
 20
30.451399999999989
 30
0.0
 40
4.6583899999999989
  1
SB803120G
 41
0.5
 72
     1
 11
148.3129999999999
 21
30.451399999999989
 31
0.0
  0
TEXT
  5
201
  8
_________2
 62
     7
 10
138.99621999999999
 20
20.450600000000001
 30
0.0
 40
4.6583899999999989
  1
SB803120G
 41
0.5
 72
     1
 11
148.3129999999999
 21
20.450600000000001
 31
0.0
  0
TEXT
  5
202
  8
_________2
 62
     7
 10
29.3491
 20
22.050799999999999
 30
0.0
 40
4.6583899999999989
  1
実容量：12L、重量：30.0kg、オーバーフロー付
 41
0.5
  0
LINE
  5
203
  8
_________2
 62
     7
 10
210.06399999999999
 20
148.75499999999991
 30
0.0
 11
188.3129999999999
 21
148.75499999999991
 31
0.0
  0
LINE
  5
204
  8
_________2
 62
     7
 10
105.062
 20
17.252099999999992
 30
0.0
 11
105.062
 21
0.272164
 31
0.0
  0
LINE
  5
205
  8
_________2
 62
     7
 10
105.062
 20
297.27399999999989
 30
0.0
 11
105.062
 21
280.25400000000002
 31
0.0
  0
LINE
  5
206
  8
_________2
 62
     7
 10
21.811900000000001
 20
148.75499999999991
 30
0.0
 11
0.0614953
 21
148.75499999999991
 31
0.0
  0
LINE
  5
207
  8
_________2
 62
     7
 10
81.503200000000007
 20
51.1479
 30
0.0
 11
79.316900000000004
 21
51.1479
 31
0.0
  0
LINE
  5
208
  8
_________2
 62
     7
 10
81.995900000000006
 20
51.1479
 30
0.0
 11
81.743700000000004
 21
51.1479
 31
0.0
  0
LINE
  5
209
  8
_________2
 62
     7
 10
82.488500000000002
 20
51.1479
 30
0.0
 11
85.413399999999996
 21
51.1479
 31
0.0
  0
LINE
  5
20A
  8
_________2
 62
     7
 10
81.995900000000006
 20
51.1479
 30
0.0
 11
82.248000000000005
 21
51.1479
 31
0.0
  0
LINE
  5
20B
  8
_________2
 62
     7
 10
75.599699999999984
 20
51.1479
 30
0.0
 11
73.412700000000001
 21
51.1479
 31
0.0
  0
LINE
  5
20C
  8
_________2
 62
     7
 10
76.0916
 20
51.1479
 30
0.0
 11
75.840100000000007
 21
51.1479
 31
0.0
  0
LINE
  5
20D
  8
_________2
 62
     7
 10
76.0916
 20
51.640599999999999
 30
0.0
 11
76.0916
 21
53.827500000000001
 31
0.0
  0
LINE
  5
20E
  8
_________2
 62
     7
 10
76.0916
 20
51.1479
 30
0.0
 11
76.0916
 21
51.400500000000001
 31
0.0
  0
LINE
  5
20F
  8
_________2
 62
     7
 10
76.584299999999999
 20
51.1479
 30
0.0
 11
78.771199999999993
 21
51.1479
 31
0.0
  0
LINE
  5
210
  8
_________2
 62
     7
 10
76.0916
 20
51.1479
 30
0.0
 11
76.343800000000002
 21
51.1479
 31
0.0
  0
LINE
  5
211
  8
_________2
 62
     7
 10
76.0916
 20
50.655999999999999
 30
0.0
 11
76.0916
 21
48.4694
 31
0.0
  0
LINE
  5
212
  8
_________2
 62
     7
 10
76.0916
 20
51.1479
 30
0.0
 11
76.0916
 21
50.8964
 31
0.0
  0
LINE
  5
213
  8
_________2
 62
     7
 10
79.802700000000002
 20
49.928400000000011
 30
0.0
 11
84.980699999999999
 21
49.063600000000001
 31
0.0
  0
LINE
  5
214
  8
_________2
 62
     7
 10
79.802700000000002
 20
52.367800000000003
 30
0.0
 11
84.980699999999999
 21
53.2333
 31
0.0
  0
LINE
  5
215
  8
_________2
 62
     7
 10
84.980699999999999
 20
49.063600000000001
 30
0.0
 11
84.980699999999999
 21
53.2333
 31
0.0
  0
LINE
  5
216
  8
_________2
 62
     7
 10
79.802700000000002
 20
49.928400000000011
 30
0.0
 11
79.802700000000002
 21
52.367800000000003
 31
0.0
  0
ARC
  5
217
  8
_________2
 62
     7
 10
76.045031999999992
 20
51.100991
 30
0.0
 40
1.267714
 50
2.1220840000000001
 51
87.894083999999992
  0
ARC
  5
218
  8
_________2
 62
     7
 10
76.138563000000005
 20
51.101345000000002
 30
0.0
 40
1.267374999999999
 50
92.122849999999985
 51
177.893304
  0
ARC
  5
219
  8
_________2
 62
     7
 10
76.138538999999994
 20
51.194856000000001
 30
0.0
 40
1.267363
 50
182.12181499999991
 51
267.87821400000001
  0
ARC
  5
21A
  8
_________2
 62
     7
 10
76.044727000000009
 20
51.195538999999997
 30
0.0
 40
1.2680439999999991
 50
272.11916400000001
 51
357.84848499999993
  0
ARC
  5
21B
  8
_________2
 62
     7
 10
76.011246999999983
 20
51.067923
 30
0.0
 40
2.1668310000000002
 50
2.1161439999999989
 51
87.874379000000005
  0
ARC
  5
21C
  8
_________2
 62
     7
 10
76.171678
 20
51.068944999999999
 30
0.0
 40
2.1657980000000001
 50
92.118487999999999
 51
177.90988599999989
  0
ARC
  5
21D
  8
_________2
 62
     7
 10
76.17161999999999
 20
51.22793699999999
 30
0.0
 40
2.1657779999999991
 50
182.11700400000001
 51
267.88302499999992
  0
ARC
  5
21E
  8
_________2
 62
     7
 10
76.011645000000001
 20
51.228619999999999
 30
0.0
 40
2.1664590000000001
 50
272.11546800000002
 51
357.86560400000002
  0
TEXT
  5
21F
  8
_________2
 62
     7
 10
109.367
 20
23.0227
 30
0.0
 40
3.660169999999999
  1
図番
 41
0.5
  0
LINE
  5
220
  8
_________2
 62
     7
 10
108.3129999999999
 20
27.251899999999999
 30
0.0
 11
188.3129999999999
 21
27.251899999999999
 31
0.0
  0
TEXT
  5
221
  8
_________2
 62
     7
 10
109.367
 20
33.022500000000001
 30
0.0
 40
3.660169999999999
  1
品番
 41
0.5
  0
TEXT
  5
222
  8
_________2
 62
     7
 10
109.367
 20
53.161599999999993
 30
0.0
 40
3.660169999999999
  1
名称
 41
0.5
  0
TEXT
  5
223
  8
_________2
 62
     7
 10
96.327645833333335
 20
48.165500000000002
 30
0.0
 40
4.3256500000000004
  1
mm
 41
0.5
 72
     1
 11
98.129999999999995
 21
48.165500000000002
 31
0.0
  0
TEXT
  5
224
  8
_________2
 62
     7
 10
90.4054
 20
53.161599999999993
 30
0.0
 40
3.660169999999999
  1
単位
 41
0.5
  0
TEXT
  5
225
  8
_________2
 62
     7
 10
90.4054
 20
40.753999999999998
 30
0.0
 40
3.660169999999999
  1
尺度
 41
0.5
  0
TEXT
  5
226
  8
_________2
 62
     7
 10
94.143920416666674
 20
34.561399999999992
 30
0.0
 40
4.3256500000000004
  1
1 ： 10
 41
0.5
 72
     1
 11
98.721900000000005
 21
34.561399999999992
 31
0.0
  0
TEXT
  5
227
  8
_________2
 62
     7
 10
113.941
 20
45.569299999999998
 30
0.0
 40
4.6583899999999989
  1
TR 洗面器
 41
0.5
  0
TEXT
  5
228
  8
_________2
 62
     7
 10
43.840980833333333
 20
34.946599999999989
 30
0.0
 40
4.3256500000000004
  1
早川
 41
0.5
 72
     1
 11
46.075899999999997
 21
34.946599999999989
 31
0.0
  0
TEXT
  5
229
  8
_________2
 62
     7
 10
25.266980833333331
 20
34.946599999999989
 30
0.0
 40
4.3256500000000004
  1
井田
 41
0.5
 72
     1
 11
27.501899999999988
 21
34.946599999999989
 31
0.0
  0
TEXT
  5
22A
  8
_________2
 62
     7
 10
72.548000000000002
 20
34.561399999999992
 30
0.0
 40
4.3256500000000004
  1
15.01.07
 41
0.5
  0
TEXT
  5
22B
  8
_________2
 62
     7
 10
71.3553
 20
40.753999999999998
 30
0.0
 40
3.660169999999999
  1
日付
 41
0.5
  0
TEXT
  5
22C
  8
_________2
 62
     7
 10
34.401699999999998
 20
40.753999999999998
 30
0.0
 40
3.660169999999999
  1
検図
 41
0.5
  0
TEXT
  5
22D
  8
_________2
 62
     7
 10
22.7834
 20
26.554600000000001
 30
0.0
 40
3.660169999999999
  1
備考
 41
0.5
  0
TEXT
  5
22E
  8
_________2
 62
     7
 10
22.7834
 20
40.753999999999998
 30
0.0
 40
3.660169999999999
  1
製図
 41
0.5
  0
TEXT
  5
22F
  8
_________2
 62
     7
 10
25.357230666666691
 20
49.280000000000001
 30
0.0
 40
5.3238799999999991
  1
セラトレーディング株式会社
 41
0.5
 72
     1
 11
45.942899999999987
 21
49.280000000000001
 31
0.0
  0
LINE
  5
230
  8
_________2
 62
     7
 10
188.3129999999999
 20
17.252099999999992
 30
0.0
 11
21.811900000000001
 21
17.252099999999992
 31
0.0
  0
LINE
  5
231
  8
_________2
 62
     7
 10
21.811900000000001
 20
17.252099999999992
 30
0.0
 11
21.811900000000001
 21
280.25400000000002
 31
0.0
  0
LINE
  5
232
  8
_________2
 62
     7
 10
21.811900000000001
 20
280.25400000000002
 30
0.0
 11
188.3129999999999
 21
280.25400000000002
 31
0.0
  0
LINE
  5
233
  8
_________2
 62
     7
 10
188.3129999999999
 20
280.25400000000002
 30
0.0
 11
188.3129999999999
 21
17.252099999999992
 31
0.0
  0
LINE
  5
234
  8
_________2
 62
     7
 10
70.312299999999993
 20
30.752500000000001
 30
0.0
 11
70.312299999999993
 21
57.252299999999991
 31
0.0
  0
LINE
  5
235
  8
_________2
 62
     7
 10
89.311899999999994
 20
30.752500000000001
 30
0.0
 11
89.311899999999994
 21
57.252299999999991
 31
0.0
  0
LINE
  5
236
  8
_________2
 62
     7
 10
108.3129999999999
 20
17.252099999999992
 30
0.0
 11
108.3129999999999
 21
57.252299999999991
 31
0.0
  0
LINE
  5
237
  8
_________2
 62
     7
 10
33.311700000000002
 20
30.752500000000001
 30
0.0
 11
33.311700000000002
 21
44.752400000000002
 31
0.0
  0
LINE
  5
238
  8
_________2
 62
     7
 10
21.811900000000001
 20
30.752500000000001
 30
0.0
 11
108.3129999999999
 21
30.752500000000001
 31
0.0
  0
LINE
  5
239
  8
_________2
 62
     7
 10
21.811900000000001
 20
44.752400000000002
 30
0.0
 11
108.3129999999999
 21
44.752400000000002
 31
0.0
  0
LINE
  5
23A
  8
_________2
 62
     7
 10
108.3129999999999
 20
37.2517
 30
0.0
 11
188.3129999999999
 21
37.2517
 31
0.0
  0
LINE
  5
23B
  8
_________2
 62
     7
 10
21.811900000000001
 20
57.252299999999991
 30
0.0
 11
188.3129999999999
 21
57.252299999999991
 31
0.0
  0
ENDSEC
  0
EOF
