  0
SECTION
  2
HEADER
  9
$ACADVER
  1
AC1009
  9
$INSBASE
 10
0.0
 20
0.0
 30
0.0
  9
$EXTMIN
 10
0.238402
 20
0.4485540000000001
 30
0.0
  9
$EXTMAX
 10
210.24000000000001
 20
297.45100000000002
 30
0.0
  9
$LIMMIN
 10
0.0
 20
0.0
  9
$LIMMAX
 10
12.0
 20
9.0
  9
$ORTHOMODE
 70
     0
  9
$REGENMODE
 70
     1
  9
$FILLMODE
 70
     1
  9
$QTEXTMODE
 70
     0
  9
$MIRRTEXT
 70
     1
  9
$DRAGMODE
 70
     2
  9
$LTSCALE
 40
1.0
  9
$OSMODE
 70
    37
  9
$ATTMODE
 70
     1
  9
$TEXTSIZE
 40
0.0
  9
$TRACEWID
 40
0.05
  9
$TEXTSTYLE
  7
STANDARD
  9
$CLAYER
  8
0
  9
$CELTYPE
  6
CONTINUOUS
  9
$CECOLOR
 62
   256
  9
$DIMSCALE
 40
1.0
  9
$DIMASZ
 40
0.18
  9
$DIMEXO
 40
0.0625
  9
$DIMDLI
 40
0.38
  9
$DIMRND
 40
0.0
  9
$DIMDLE
 40
0.0
  9
$DIMEXE
 40
0.18
  9
$DIMTP
 40
0.0
  9
$DIMTM
 40
0.0
  9
$DIMTXT
 40
0.18
  9
$DIMCEN
 40
0.09
  9
$DIMTSZ
 40
0.0
  9
$DIMTOL
 70
     0
  9
$DIMLIM
 70
     0
  9
$DIMTIH
 70
     1
  9
$DIMTOH
 70
     1
  9
$DIMSE1
 70
     0
  9
$DIMSE2
 70
     0
  9
$DIMTAD
 70
     0
  9
$DIMZIN
 70
     0
  9
$DIMBLK
  1

  9
$DIMASO
 70
     1
  9
$DIMSHO
 70
     1
  9
$DIMPOST
  1

  9
$DIMAPOST
  1

  9
$DIMALT
 70
     0
  9
$DIMALTD
 70
     2
  9
$DIMALTF
 40
25.399999999999999
  9
$DIMLFAC
 40
1.0
  9
$DIMTOFL
 70
     0
  9
$DIMTVP
 40
0.0
  9
$DIMTIX
 70
     0
  9
$DIMSOXD
 70
     0
  9
$DIMSAH
 70
     0
  9
$DIMBLK1
  1

  9
$DIMBLK2
  1

  9
$DIMSTYLE
  2
STANDARD
  9
$DIMCLRD
 70
     0
  9
$DIMCLRE
 70
     0
  9
$DIMCLRT
 70
     0
  9
$DIMTFAC
 40
1.0
  9
$DIMGAP
 40
0.09
  9
$LUNITS
 70
     2
  9
$LUPREC
 70
     4
  9
$SKETCHINC
 40
0.1
  9
$FILLETRAD
 40
0.0
  9
$AUNITS
 70
     0
  9
$AUPREC
 70
     0
  9
$MENU
  1
.
  9
$ELEVATION
 40
0.0
  9
$PELEVATION
 40
0.0
  9
$THICKNESS
 40
0.0
  9
$LIMCHECK
 70
     0
  9
$BLIPMODE
 70
     0
  9
$CHAMFERA
 40
0.0
  9
$CHAMFERB
 40
0.0
  9
$SKPOLY
 70
     0
  9
$TDCREATE
 40
2444972.375
  9
$TDUPDATE
 40
2458180.2652479862
  9
$TDINDWG
 40
0.000026794
  9
$TDUSRTIMER
 40
0.000026794
  9
$USRTIMER
 70
     1
  9
$ANGBASE
 50
0.0
  9
$ANGDIR
 70
     0
  9
$PDMODE
 70
     0
  9
$PDSIZE
 40
0.0
  9
$PLINEWID
 40
0.0
  9
$COORDS
 70
     1
  9
$SPLFRAME
 70
     0
  9
$SPLINETYPE
 70
     6
  9
$SPLINESEGS
 70
     8
  9
$ATTDIA
 70
     1
  9
$ATTREQ
 70
     1
  9
$HANDLING
 70
     1
  9
$HANDSEED
  5
236
  9
$SURFTAB1
 70
     6
  9
$SURFTAB2
 70
     6
  9
$SURFTYPE
 70
     6
  9
$SURFU
 70
     6
  9
$SURFV
 70
     6
  9
$UCSNAME
  2

  9
$UCSORG
 10
0.0
 20
0.0
 30
0.0
  9
$UCSXDIR
 10
1.0
 20
0.0
 30
0.0
  9
$UCSYDIR
 10
0.0
 20
1.0
 30
0.0
  9
$PUCSNAME
  2

  9
$PUCSORG
 10
0.0
 20
0.0
 30
0.0
  9
$PUCSXDIR
 10
1.0
 20
0.0
 30
0.0
  9
$PUCSYDIR
 10
0.0
 20
1.0
 30
0.0
  9
$USERI1
 70
     0
  9
$USERI2
 70
     0
  9
$USERI3
 70
     0
  9
$USERI4
 70
     0
  9
$USERI5
 70
     0
  9
$USERR1
 40
0.0
  9
$USERR2
 40
0.0
  9
$USERR3
 40
0.0
  9
$USERR4
 40
0.0
  9
$USERR5
 40
0.0
  9
$WORLDVIEW
 70
     1
  9
$SHADEDGE
 70
     3
  9
$SHADEDIF
 70
    70
  9
$TILEMODE
 70
     1
  9
$MAXACTVP
 70
    48
  9
$PLIMCHECK
 70
     0
  9
$PEXTMIN
 10
1.0000000000000000E+020
 20
1.0000000000000000E+020
 30
1.0000000000000000E+020
  9
$PEXTMAX
 10
-1.0000000000000000E+020
 20
-1.0000000000000000E+020
 30
-1.0000000000000000E+020
  9
$PLIMMIN
 10
0.0
 20
0.0
  9
$PLIMMAX
 10
12.0
 20
9.0
  9
$UNITMODE
 70
     0
  9
$VISRETAIN
 70
     1
  9
$PLINEGEN
 70
     0
  9
$PSLTSCALE
 70
     1
  0
ENDSEC
  0
SECTION
  2
TABLES
  0
TABLE
  2
VPORT
 70
     1
  0
VPORT
  2
*ACTIVE
 70
     0
 10
0.0
 20
0.0
 11
1.0
 21
1.0
 12
195.83847240083131
 22
148.72550000000001
 13
0.0
 23
0.0
 14
1.0
 24
1.0
 15
0.0
 25
0.0
 16
0.0
 26
0.0
 36
1.0
 17
0.0
 27
0.0
 37
0.0
 40
281.37364046443349
 41
2.298642533936651
 42
50.0
 43
0.0
 44
0.0
 50
0.0
 51
0.0
 71
     0
 72
   100
 73
     1
 74
     1
 75
     0
 76
     0
 77
     0
 78
     0
  0
ENDTAB
  0
TABLE
  2
LTYPE
 70
     3
  0
LTYPE
  2
CONTINUOUS
 70
     0
  3
Solid line
 72
    65
 73
     0
 40
0.0
  0
LTYPE
  2
AIGENLINE001
 70
     0
  3
generate AI->DXF Converter
 72
    65
 73
     2
 40
1.5522299999999991
 49
0.776115
 49
-0.776115
  0
LTYPE
  2
AIGENLINE002
 70
     0
  3
generate AI->DXF Converter
 72
    65
 73
     2
 40
1.5522299999999991
 49
0.776115
 49
-0.776115
  0
ENDTAB
  0
TABLE
  2
LAYER
 70
     2
  0
LAYER
  2
0
 70
     0
 62
     7
  6
CONTINUOUS
  0
LAYER
  2
_________2
 70
     0
 62
     7
  6
CONTINUOUS
  0
ENDTAB
  0
TABLE
  2
STYLE
 70
     1
  0
STYLE
  2
STANDARD
 70
     0
 40
0.0
 41
0.0
 50
0.0
 71
     0
 42
0.0
  3
TXT
  4
EXTFONT.SHX
  0
ENDTAB
  0
TABLE
  2
VIEW
 70
     0
  0
ENDTAB
  0
TABLE
  2
UCS
 70
     0
  0
ENDTAB
  0
TABLE
  2
APPID
 70
     3
  0
APPID
  2
ACAD
 70
     0
  0
APPID
  2
ACAD_NAV_VCDISPLAY
 70
     0
  0
APPID
  2
ACAD_MLEADERVER
 70
     0
  0
ENDTAB
  0
TABLE
  2
DIMSTYLE
 70
     1
  0
DIMSTYLE
  2
STANDARD
 70
     0
  3

  4

  5

  6

  7

 40
1.0
 41
0.18
 42
0.0625
 43
0.38
 44
0.18
 45
0.0
 46
0.0
 47
0.0
 48
0.0
140
0.18
141
0.09
142
0.0
143
25.399999999999999
144
1.0
145
0.0
146
1.0
147
0.09
 71
     0
 72
     0
 73
     1
 74
     1
 75
     0
 76
     0
 77
     0
 78
     0
170
     0
171
     2
172
     0
173
     0
174
     0
175
     0
176
     0
177
     0
178
     0
  0
ENDTAB
  0
ENDSEC
  0
SECTION
  2
BLOCKS
  0
BLOCK
  8
0
  2
$MODEL_SPACE
 70
     0
 10
0.0
 20
0.0
 30
0.0
  3
$MODEL_SPACE
  1

  0
ENDBLK
  5
1A
  8
0
  0
BLOCK
 67
     1
  8
0
  2
$PAPER_SPACE
 70
     0
 10
0.0
 20
0.0
 30
0.0
  3
$PAPER_SPACE
  1

  0
ENDBLK
  5
17
 67
     1
  8
0
  0
ENDSEC
  0
SECTION
  2
ENTITIES
  0
TEXT
  5
23
  8
0
 62
     7
 10
90.879080000000002
 20
205.637
 30
0.0
 40
3.0923400000000001
  1
%%c35
 41
0.5
 72
     2
 11
95.002200000000002
 21
205.637
 31
0.0
  0
TEXT
  5
24
  8
0
 62
     7
 10
62.820999999999998
 20
194.16900000000001
 30
0.0
 40
3.0923400000000001
  1
%%c45
 41
0.5
  0
TEXT
  5
25
  8
0
 62
     7
 10
156.0976775
 20
109.274
 30
0.0
 40
3.0923400000000001
  1
110
 41
0.5
 72
     1
 11
157.51499999999999
 21
109.274
 31
0.0
  0
TEXT
  5
26
  8
0
 62
     7
 10
96.978024999999988
 20
180.83500000000001
 30
0.0
 40
3.0923400000000001
  1
75
 41
0.5
 72
     1
 11
98.266499999999994
 21
180.83500000000001
 31
0.0
  0
TEXT
  5
27
  8
0
 62
     7
 10
46.221400000000003
 20
174.52099999999999
 30
0.0
 40
3.0923400000000001
  1
16
 41
0.5
  0
TEXT
  5
28
  8
0
 62
     7
 10
67.517039999999994
 20
174.52099999999999
 30
0.0
 40
3.0923400000000001
  1
254
 41
0.5
 72
     1
 11
69.578599999999994
 21
174.52099999999999
 31
0.0
  0
TEXT
  5
29
  8
0
 62
     7
 10
92.528982499999984
 20
174.52099999999999
 30
0.0
 40
3.0923400000000001
  1
140
 41
0.5
 72
     1
 11
94.203999999999979
 21
174.52099999999999
 31
0.0
  0
TEXT
  5
2A
  8
0
 62
     7
 10
88.227724999999992
 20
180.83500000000001
 30
0.0
 40
3.0923400000000001
  1
65
 41
0.5
 72
     1
 11
89.516199999999998
 21
180.83500000000001
 31
0.0
  0
TEXT
  5
2B
  8
0
 62
     7
 10
75.653782500000005
 20
168.12599999999989
 30
0.0
 40
3.0923400000000001
  1
410
 41
0.5
 72
     1
 11
77.328800000000001
 21
168.12599999999989
 31
0.0
  0
TEXT
  5
2C
  8
0
 62
     7
 10
146.41200000000001
 20
127.53852500000001
 30
0.0
 40
3.0923400000000001
  1
85
 50
90.0
 41
0.5
 72
     1
 11
146.41200000000001
 21
128.827
 31
0.0
  0
TEXT
  5
2D
  8
0
 62
     7
 10
127.336
 20
198.64998249999999
 30
0.0
 40
3.0923400000000001
  1
120
 50
90.0
 41
0.5
 72
     1
 11
127.336
 21
200.32499999999999
 31
0.0
  0
TEXT
  5
2E
  8
0
 62
     7
 10
44.882599999999989
 20
198.52013500000001
 30
0.0
 40
3.0923400000000001
  1
188
 50
90.0
 41
0.5
 72
     1
 11
44.882599999999989
 21
200.32400000000001
 31
0.0
  0
TEXT
  5
2F
  8
0
 62
     7
 10
136.715
 20
195.77600000000001
 30
0.0
 40
3.0923400000000001
  1
R10
 41
0.5
  0
TEXT
  5
30
  8
0
 62
     7
 10
158.30657500000001
 20
202.286
 30
0.0
 40
3.0923400000000001
  1
R60
 41
0.5
 72
     2
 11
162.172
 21
202.286
 31
0.0
  0
TEXT
  5
31
  8
0
 62
     7
 10
136.715
 20
202.01499999999999
 30
0.0
 40
3.0923400000000001
  1
R10
 41
0.5
  0
TEXT
  5
32
  8
0
 62
     7
 10
150.1172875
 20
179.578
 30
0.0
 40
3.0923400000000001
  1
260
 41
0.5
 72
     1
 11
152.05000000000001
 21
179.578
 31
0.0
  0
TEXT
  5
33
  8
0
 62
     7
 10
138.39037250000001
 20
186.35499999999999
 30
0.0
 40
3.0923400000000001
  1
60
 41
0.5
 72
     1
 11
139.55000000000001
 21
186.35499999999999
 31
0.0
  0
TEXT
  5
34
  8
0
 62
     7
 10
153.99613500000001
 20
186.35499999999999
 30
0.0
 40
3.0923400000000001
  1
200
 41
0.5
 72
     1
 11
155.80000000000001
 21
186.35499999999999
 31
0.0
  0
TEXT
  5
35
  8
0
 62
     7
 10
87.270987500000004
 20
221.363
 30
0.0
 40
3.0923400000000001
  1
220
 41
0.5
 72
     1
 11
89.203699999999998
 21
221.363
 31
0.0
  0
TEXT
  5
36
  8
0
 62
     7
 10
38.909799999999997
 20
198.3912875
 30
0.0
 40
3.0923400000000001
  1
220
 50
90.0
 41
0.5
 72
     1
 11
38.909799999999997
 21
200.32400000000001
 31
0.0
  0
TEXT
  5
37
  8
0
 62
     7
 10
42.52239999999999
 20
123.898135
 30
0.0
 40
3.0923400000000001
  1
135
 50
90.0
 41
0.5
 72
     1
 11
42.52239999999999
 21
125.702
 31
0.0
  0
TEXT
  5
38
  8
0
 62
     7
 10
157.73517799999999
 20
210.32599999999999
 30
0.0
 40
3.0923400000000001
  1
排水口
 41
0.5
 72
     2
 11
162.786
 21
210.32599999999999
 31
0.0
  0
TEXT
  5
39
  8
0
 62
     7
 10
114.443888
 20
140.899
 30
0.0
 40
3.0923400000000001
  1
メーカーロゴ
 41
0.5
 72
     2
 11
125.164
 21
140.899
 31
0.0
  0
TEXT
  5
3A
  8
0
 62
     7
 10
141.06276
 20
171.01400000000001
 30
0.0
 40
3.0923400000000001
  1
カウンター切込寸法
 41
0.5
 72
     1
 11
149.309
 21
171.01400000000001
 31
0.0
  0
LINE
  5
3B
  8
0
 62
     7
 10
96.270700000000005
 20
196.79499999999999
 30
0.0
 11
95.125500000000002
 21
198.77799999999999
 31
0.0
  0
LINE
  5
3C
  8
0
 62
     7
 10
95.125500000000002
 20
198.77799999999999
 30
0.0
 11
97.108900000000006
 21
197.63300000000001
 31
0.0
  0
LINE
  5
3D
  8
0
 62
     7
 10
97.108900000000006
 20
197.63300000000001
 30
0.0
 11
96.270700000000005
 21
196.79499999999999
 31
0.0
  0
LINE
  5
3E
  8
0
 62
     7
 10
90.887000000000015
 20
203.85400000000001
 30
0.0
 11
92.032199999999989
 21
201.87100000000001
 31
0.0
  0
LINE
  5
3F
  8
0
 62
     7
 10
92.032199999999989
 20
201.87100000000001
 30
0.0
 11
90.048799999999986
 21
203.01599999999999
 31
0.0
  0
LINE
  5
40
  8
0
 62
     7
 10
90.048799999999986
 20
203.01599999999999
 30
0.0
 11
90.887000000000015
 21
203.85400000000001
 31
0.0
  0
LINE
  5
41
  8
0
 62
     7
 10
88.966399999999993
 20
204.93700000000001
 30
0.0
 11
97.462400000000002
 21
196.44099999999989
 31
0.0
  0
LINE
  5
42
  8
0
 62
     7
 10
88.966399999999993
 20
204.93700000000001
 30
0.0
 11
95.002200000000002
 21
204.93700000000001
 31
0.0
  0
LINE
  5
43
  8
0
 62
     7
 10
78.552499999999995
 20
204.261
 30
0.0
 11
77.407300000000006
 21
202.27799999999999
 31
0.0
  0
LINE
  5
44
  8
0
 62
     7
 10
77.407300000000006
 20
202.27799999999999
 30
0.0
 11
79.390699999999995
 21
203.423
 31
0.0
  0
LINE
  5
45
  8
0
 62
     7
 10
79.390699999999995
 20
203.423
 30
0.0
 11
78.552499999999995
 21
204.261
 31
0.0
  0
LINE
  5
46
  8
0
 62
     7
 10
72.319900000000004
 20
196.35300000000001
 30
0.0
 11
73.465100000000007
 21
198.33600000000001
 31
0.0
  0
LINE
  5
47
  8
0
 62
     7
 10
73.465100000000007
 20
198.33600000000001
 30
0.0
 11
71.481700000000004
 21
197.191
 31
0.0
  0
LINE
  5
48
  8
0
 62
     7
 10
71.481700000000004
 20
197.191
 30
0.0
 11
72.319900000000004
 21
196.35300000000001
 31
0.0
  0
LINE
  5
49
  8
0
 62
     7
 10
68.598500000000001
 20
193.46899999999999
 30
0.0
 11
80.135800000000003
 21
205.006
 31
0.0
  0
LINE
  5
4A
  8
0
 62
     7
 10
68.598500000000001
 20
193.46899999999999
 30
0.0
 11
62.820999999999998
 21
193.46899999999999
 31
0.0
  0
ARC
  5
4B
  8
0
 62
     7
 10
137.05012400000001
 20
206.575174
 30
0.0
 40
1.250146999999999
 50
89.996053000000003
 51
179.99602300000001
  0
ARC
  5
4C
  8
0
 62
     7
 10
137.05012400000001
 20
194.075255
 30
0.0
 40
1.250146999999999
 50
180.00395700000001
 51
270.00396699999999
  0
LINE
  5
4D
  8
0
 62
     7
 10
135.80000000000001
 20
194.07499999999999
 30
0.0
 11
135.80000000000001
 21
206.57499999999999
 31
0.0
  0
LINE
  5
4E
  8
0
 62
     7
 10
160.80000000000001
 20
207.82499999999999
 30
0.0
 11
137.05000000000001
 21
207.82499999999999
 31
0.0
  0
LINE
  5
4F
  8
0
 62
     7
 10
160.80000000000001
 20
192.82499999999999
 30
0.0
 11
137.05000000000001
 21
192.82499999999999
 31
0.0
  0
LINE
  5
50
  8
0
 62
     7
 10
135.80000000000001
 20
192.125
 30
0.0
 11
135.80000000000001
 21
178.178
 31
0.0
  0
LINE
  5
51
  8
0
 62
     7
 10
143.30000000000001
 20
195.249
 30
0.0
 11
143.30000000000001
 21
184.95500000000001
 31
0.0
  0
LINE
  5
52
  8
0
 62
     7
 10
168.30000000000001
 20
197.68199999999999
 30
0.0
 11
168.30000000000001
 21
178.178
 31
0.0
  0
ARC
  5
53
  8
0
 62
     7
 10
160.800072
 20
200.32521299999999
 30
0.0
 40
7.5001079999999991
 50
359.99935199999999
 51
89.999321999999992
  0
ARC
  5
54
  8
0
 62
     7
 10
160.80015800000001
 20
200.32513
 30
0.0
 40
7.5000220000000004
 50
270.00002000000001
 51
359.99999000000003
  0
ARC
  5
55
  8
0
  6
AIGENLINE001
 62
     7
 10
150.639647
 20
130.38959299999999
 30
0.0
 40
1.2500610000000001
 50
269.99212499999999
 51
359.99209500000001
  0
ARC
  5
56
  8
0
  6
AIGENLINE001
 62
     7
 10
150.639475
 20
130.38942
 30
0.0
 40
1.249887999999999
 50
179.99996999999999
 51
270.00002000000001
  0
ARC
  5
57
  8
0
  6
AIGENLINE001
 62
     7
 10
150.639475
 20
130.38942
 30
0.0
 40
1.249889
 50
90.0
 51
179.99996999999999
  0
ARC
  5
58
  8
0
  6
AIGENLINE001
 62
     7
 10
150.639647
 20
130.38924800000001
 30
0.0
 40
1.2500610000000001
 50
0.007905
 51
90.007875000000013
  0
ARC
  5
59
  8
0
 62
     7
 10
75.453838000000005
 20
200.324354
 30
0.0
 40
4.3750410000000004
 50
270.001148
 51
0.001118
  0
ARC
  5
5A
  8
0
 62
     7
 10
75.453838000000005
 20
200.32452499999999
 30
0.0
 40
4.3752120000000003
 50
180.001138
 51
270.001148
  0
ARC
  5
5B
  8
0
 62
     7
 10
75.453753000000006
 20
200.32426599999999
 30
0.0
 40
4.3751269999999991
 50
89.997743999999983
 51
179.997714
  0
ARC
  5
5C
  8
0
 62
     7
 10
75.453924000000001
 20
200.32443900000001
 30
0.0
 40
4.374954999999999
 50
0.00001
 51
89.999980000000008
  0
ARC
  5
5D
  8
0
  6
AIGENLINE001
 62
     7
 10
143.29999699999999
 20
200.325818
 30
0.0
 40
2.8125939999999989
 50
270.00002000000001
 51
359.99999000000003
  0
ARC
  5
5E
  8
0
  6
AIGENLINE001
 62
     7
 10
143.30016900000001
 20
200.32564500000001
 30
0.0
 40
2.8124210000000001
 50
179.99646100000001
 51
269.996511
  0
ARC
  5
5F
  8
0
  6
AIGENLINE001
 62
     7
 10
143.300084
 20
200.32590300000001
 30
0.0
 40
2.8123360000000002
 50
90.001755000000003
 51
180.00176500000001
  0
ARC
  5
60
  8
0
  6
AIGENLINE001
 62
     7
 10
143.300083
 20
200.32573099999999
 30
0.0
 40
2.8125079999999998
 50
0.001765
 51
90.001734999999996
  0
ARC
  5
61
  8
0
 62
     7
 10
75.453752000000009
 20
200.32426799999999
 30
0.0
 40
2.8124220000000002
 50
270.00352900000001
 51
0.003499
  0
ARC
  5
62
  8
0
 62
     7
 10
75.453924000000001
 20
200.32443900000001
 30
0.0
 40
2.8125930000000001
 50
179.99996999999999
 51
270.00002000000001
  0
ARC
  5
63
  8
0
 62
     7
 10
75.453839000000002
 20
200.324353
 30
0.0
 40
2.8125079999999998
 50
89.998244999999997
 51
179.99821600000001
  0
ARC
  5
64
  8
0
 62
     7
 10
75.453838000000005
 20
200.32452499999999
 30
0.0
 40
2.8123360000000002
 50
359.99825499999997
 51
89.998225000000005
  0
ARC
  5
65
  8
0
 62
     7
 10
93.578686000000005
 20
200.32444000000001
 30
0.0
 40
2.1876500000000001
 50
270.00002000000001
 51
359.99999000000003
  0
ARC
  5
66
  8
0
 62
     7
 10
93.578858999999994
 20
200.32426699999999
 30
0.0
 40
2.187476999999999
 50
179.99545800000001
 51
269.99550799999997
  0
ARC
  5
67
  8
0
 62
     7
 10
93.578772999999998
 20
200.32452499999999
 30
0.0
 40
2.187390999999999
 50
90.002256000000017
 51
180.00226599999999
  0
ARC
  5
68
  8
0
 62
     7
 10
93.578772000000001
 20
200.324353
 30
0.0
 40
2.1875640000000001
 50
0.002266
 51
90.002235999999996
  0
LINE
  5
69
  8
0
 62
     7
 10
163.51499999999999
 20
134.13999999999999
 30
0.0
 11
137.76400000000001
 21
134.13999999999999
 31
0.0
  0
LINE
  5
6A
  8
0
  6
AIGENLINE001
 62
     7
 10
153.452
 20
117.265
 30
0.0
 11
153.452
 21
122.264
 31
0.0
  0
ARC
  5
6B
  8
0
  6
AIGENLINE001
 62
     7
 10
154.31578400000001
 20
122.263037
 30
0.0
 40
0.8637169999999999
 50
153.32275799999999
 51
179.90588
  0
ARC
  5
6C
  8
0
  6
AIGENLINE001
 62
     7
 10
154.621771
 20
122.125803
 30
0.0
 40
1.1988350000000001
 50
134.84869599999999
 51
154.027804
  0
ARC
  5
6D
  8
0
  6
AIGENLINE001
 62
     7
 10
155.06845300000001
 20
121.697776
 30
0.0
 40
1.817370999999999
 50
91.703427000000005
 51
135.31604799999999
  0
ARC
  5
6E
  8
0
  6
AIGENLINE001
 62
     7
 10
160.50875099999999
 20
124.808471
 30
0.0
 40
1.294753
 50
271.781857
 51
353.20889599999998
  0
LINE
  5
6F
  8
0
  6
AIGENLINE001
 62
     7
 10
155.01400000000001
 20
123.514
 30
0.0
 11
160.54900000000001
 21
123.514
 31
0.0
  0
LINE
  5
70
  8
0
  6
AIGENLINE001
 62
     7
 10
162.44499999999999
 20
133.34100000000001
 30
0.0
 11
161.79400000000001
 21
124.655
 31
0.0
  0
ARC
  5
71
  8
0
  6
AIGENLINE001
 62
     7
 10
163.345035
 20
133.23373900000001
 30
0.0
 40
0.9064859999999999
 50
91.805564999999987
 51
173.23580699999999
  0
ARC
  5
72
  8
0
 62
     7
 10
163.48075499999999
 20
133.23090199999999
 30
0.0
 40
0.909501
 50
2.1305830000000001
 51
87.869406999999995
  0
LINE
  5
73
  8
0
 62
     7
 10
164.38999999999999
 20
133.26499999999999
 30
0.0
 11
164.38999999999999
 21
118.139
 31
0.0
  0
ARC
  5
74
  8
0
 62
     7
 10
163.48081400000001
 20
118.173742
 30
0.0
 40
0.909467
 50
272.12695600000001
 51
357.827921
  0
ARC
  5
75
  8
0
  6
AIGENLINE001
 62
     7
 10
140.770207
 20
124.808092
 30
0.0
 40
1.294373999999999
 50
186.776196
 51
268.21729900000003
  0
LINE
  5
76
  8
0
  6
AIGENLINE001
 62
     7
 10
146.26499999999999
 20
123.514
 30
0.0
 11
140.72999999999999
 21
123.514
 31
0.0
  0
LINE
  5
77
  8
0
  6
AIGENLINE001
 62
     7
 10
138.834
 20
133.34100000000001
 30
0.0
 11
139.48500000000001
 21
124.655
 31
0.0
  0
ARC
  5
78
  8
0
  6
AIGENLINE001
 62
     7
 10
137.93392299999999
 20
133.23335900000001
 30
0.0
 40
0.9068649999999999
 50
6.7854979999999987
 51
88.195648000000006
  0
ARC
  5
79
  8
0
  6
AIGENLINE001
 62
     7
 10
146.26372900000001
 20
122.065896
 30
0.0
 40
1.448448999999999
 50
75.301254999999998
 51
89.968671999999998
  0
ARC
  5
7A
  8
0
  6
AIGENLINE001
 62
     7
 10
146.16874100000001
 20
121.63372
 30
0.0
 40
1.890666999999999
 50
43.095092999999999
 51
75.840062000000003
  0
ARC
  5
7B
  8
0
  6
AIGENLINE001
 62
     7
 10
146.66429299999999
 20
122.13605099999999
 30
0.0
 40
1.1859420000000001
 50
17.927105999999998
 51
41.730323999999989
  0
ARC
  5
7C
  8
0
  6
AIGENLINE001
 62
     7
 10
146.97241
 20
122.26166499999999
 30
0.0
 40
0.854476
 50
0.187097
 51
16.272314000000001
  0
LINE
  5
7D
  8
0
  6
AIGENLINE001
 62
     7
 10
147.827
 20
122.264
 30
0.0
 11
147.827
 21
117.265
 31
0.0
  0
ARC
  5
7E
  8
0
 62
     7
 10
137.79819499999999
 20
133.23090199999999
 30
0.0
 40
0.909501
 50
92.130572999999998
 51
177.86939699999999
  0
LINE
  5
7F
  8
0
 62
     7
 10
136.88900000000001
 20
133.26499999999999
 30
0.0
 11
136.88900000000001
 21
118.139
 31
0.0
  0
ARC
  5
80
  8
0
 62
     7
 10
137.798136
 20
118.173742
 30
0.0
 40
0.909467
 50
182.172099
 51
267.873064
  0
LINE
  5
81
  8
0
 62
     7
 10
163.51499999999999
 20
117.265
 30
0.0
 11
137.76400000000001
 21
117.265
 31
0.0
  0
LINE
  5
82
  8
0
  6
AIGENLINE001
 62
     7
 10
147.827
 20
122.264
 30
0.0
 11
153.452
 21
122.264
 31
0.0
  0
LINE
  5
83
  8
0
  6
AIGENLINE001
 62
     7
 10
155.01400000000001
 20
123.514
 30
0.0
 11
146.26499999999999
 21
123.514
 31
0.0
  0
LINE
  5
84
  8
0
 62
     7
 10
102.07899999999999
 20
134.13999999999999
 30
0.0
 11
52.578699999999998
 21
134.13999999999999
 31
0.0
  0
ARC
  5
85
  8
0
  6
AIGENLINE001
 62
     7
 10
86.284538999999995
 20
133.233486
 30
0.0
 40
0.9067459999999998
 50
91.819683999999995
 51
173.221688
  0
LINE
  5
86
  8
0
  6
AIGENLINE001
 62
     7
 10
85.235299999999995
 20
131.63900000000001
 30
0.0
 11
85.384100000000004
 21
133.34100000000001
 31
0.0
  0
LINE
  5
87
  8
0
  6
AIGENLINE001
 62
     7
 10
78.266199999999998
 20
117.265
 30
0.0
 11
78.266199999999998
 21
122.264
 31
0.0
  0
ARC
  5
88
  8
0
  6
AIGENLINE001
 62
     7
 10
79.12961
 20
122.26303900000001
 30
0.0
 40
0.863437
 50
153.313579
 51
179.905993
  0
ARC
  5
89
  8
0
  6
AIGENLINE001
 62
     7
 10
79.436261999999999
 20
122.125326
 30
0.0
 40
1.199362
 50
134.84168600000001
 51
154.01471599999999
  0
ARC
  5
8A
  8
0
  6
AIGENLINE001
 62
     7
 10
79.882874000000001
 20
121.697299
 30
0.0
 40
1.817847
 50
91.702085999999994
 51
135.30973700000001
  0
LINE
  5
8B
  8
0
  6
AIGENLINE001
 62
     7
 10
83.488299999999995
 20
123.514
 30
0.0
 11
79.828900000000004
 21
123.514
 31
0.0
  0
LINE
  5
8C
  8
0
  6
AIGENLINE001
 62
     7
 10
84.7333
 20
124.655
 30
0.0
 11
85.016199999999998
 21
129.13999999999999
 31
0.0
  0
ARC
  5
8D
  8
0
  6
AIGENLINE001
 62
     7
 10
83.447693999999998
 20
124.808442
 30
0.0
 40
1.2947349999999991
 50
271.79645599999998
 51
353.2100890000001
  0
ARC
  5
8E
  8
0
 62
     7
 10
102.045022
 20
133.23091299999999
 30
0.0
 40
0.9094899999999999
 50
2.129958999999999
 51
87.870031999999995
  0
LINE
  5
8F
  8
0
 62
     7
 10
102.95399999999999
 20
118.139
 30
0.0
 11
102.95399999999999
 21
133.26499999999999
 31
0.0
  0
ARC
  5
90
  8
0
 62
     7
 10
102.045709
 20
118.173103
 30
0.0
 40
0.9088049999999999
 50
272.08822099999998
 51
357.86665599999998
  0
ARC
  5
91
  8
0
  6
AIGENLINE001
 62
     7
 10
55.584506999999988
 20
124.808471
 30
0.0
 40
1.294753
 50
186.791124
 51
268.21816200000001
  0
LINE
  5
92
  8
0
  6
AIGENLINE001
 62
     7
 10
71.078599999999994
 20
123.514
 30
0.0
 11
55.544199999999996
 21
123.514
 31
0.0
  0
LINE
  5
93
  8
0
  6
AIGENLINE001
 62
     7
 10
53.648400000000002
 20
133.34100000000001
 30
0.0
 11
54.2988
 21
124.655
 31
0.0
  0
ARC
  5
94
  8
0
  6
AIGENLINE001
 62
     7
 10
52.748227999999997
 20
133.233745
 30
0.0
 40
0.90648
 50
6.7638609999999986
 51
88.194727
  0
ARC
  5
95
  8
0
  6
AIGENLINE001
 62
     7
 10
71.077832999999998
 20
122.065721
 30
0.0
 40
1.448623999999999
 50
75.302146999999991
 51
89.968634999999992
  0
ARC
  5
96
  8
0
  6
AIGENLINE001
 62
     7
 10
70.98276700000001
 20
121.632972
 30
0.0
 40
1.8914159999999991
 50
43.104861
 51
75.842641
  0
ARC
  5
97
  8
0
  6
AIGENLINE001
 62
     7
 10
71.478564000000006
 20
122.135789
 30
0.0
 40
1.1861779999999991
 50
17.936715
 51
41.737122999999997
  0
ARC
  5
98
  8
0
  6
AIGENLINE001
 62
     7
 10
71.786976999999993
 20
122.26162600000001
 30
0.0
 40
0.8543579999999998
 50
0.18973
 51
16.277341
  0
LINE
  5
99
  8
0
  6
AIGENLINE001
 62
     7
 10
72.641300000000001
 20
122.264
 30
0.0
 11
72.641300000000001
 21
117.265
 31
0.0
  0
ARC
  5
9A
  8
0
 62
     7
 10
52.612110999999999
 20
133.23129499999999
 30
0.0
 40
0.9090939999999999
 50
92.106765999999993
 51
177.893204
  0
LINE
  5
9B
  8
0
 62
     7
 10
51.703600000000002
 20
133.26499999999999
 30
0.0
 11
51.703600000000002
 21
118.139
 31
0.0
  0
ARC
  5
9C
  8
0
 62
     7
 10
52.612448999999998
 20
118.17374700000001
 30
0.0
 40
0.9094719999999998
 50
182.17241100000001
 51
267.8727520000001
  0
LINE
  5
9D
  8
0
 62
     7
 10
102.07899999999999
 20
117.265
 30
0.0
 11
52.578699999999998
 21
117.265
 31
0.0
  0
ARC
  5
9E
  8
0
  6
AIGENLINE001
 62
     7
 10
67.257210000000001
 20
131.955626
 30
0.0
 40
17.980875000000001
 50
350.989464
 51
358.992008
  0
LINE
  5
9F
  8
0
  6
AIGENLINE001
 62
     7
 10
72.641300000000001
 20
122.264
 30
0.0
 11
78.266199999999998
 21
122.264
 31
0.0
  0
LINE
  5
A0
  8
0
  6
AIGENLINE001
 62
     7
 10
79.828900000000004
 20
123.514
 30
0.0
 11
71.078599999999994
 21
123.514
 31
0.0
  0
ARC
  5
A1
  8
0
 62
     7
 10
87.300805999999994
 20
210.859534
 30
0.0
 40
1.2997339999999991
 50
328.75681700000001
 51
54.299454000000011
  0
ARC
  5
A2
  8
0
 62
     7
 10
87.356488999999996
 20
210.872232
 30
0.0
 40
1.257496999999999
 50
56.022432000000002
 51
88.85533199999999
  0
ARC
  5
A3
  8
0
 62
     7
 10
87.315860999999984
 20
189.817139
 30
0.0
 40
1.299574999999999
 50
272.89999699999998
 51
358.452179
  0
ARC
  5
A4
  8
0
 62
     7
 10
87.363143000000008
 20
189.780036
 30
0.0
 40
1.2518199999999999
 50
0.091523
 51
33.080885000000002
  0
LINE
  5
A5
  8
0
 62
     7
 10
87.381600000000006
 20
212.12899999999999
 30
0.0
 11
65.453800000000001
 21
212.12899999999999
 31
0.0
  0
ARC
  5
A6
  8
0
 62
     7
 10
103.49199299999999
 20
200.324353
 30
0.0
 40
18.017910000000001
 50
146.818601
 51
213.181399
  0
ARC
  5
A7
  8
0
 62
     7
 10
65.453699
 20
200.32435100000001
 30
0.0
 40
13.750068000000001
 50
89.999640999999997
 51
179.99961099999999
  0
ARC
  5
A8
  8
0
 62
     7
 10
65.453781000000006
 20
200.32443699999999
 30
0.0
 40
13.75015
 50
179.99996999999999
 51
270.00002000000001
  0
LINE
  5
A9
  8
0
 62
     7
 10
65.453800000000001
 20
214.07400000000001
 30
0.0
 11
89.203699999999998
 21
214.07400000000001
 31
0.0
  0
LINE
  5
AA
  8
0
 62
     7
 10
89.203699999999998
 20
186.57400000000001
 30
0.0
 11
65.453800000000001
 21
186.57400000000001
 31
0.0
  0
ARC
  5
AB
  8
0
 62
     7
 10
89.203730000000007
 20
200.324442
 30
0.0
 40
13.750154
 50
270.00002000000001
 51
359.99999000000003
  0
ARC
  5
AC
  8
0
 62
     7
 10
89.203816000000003
 20
200.32435100000001
 30
0.0
 40
13.750068000000001
 50
0.000369
 51
90.000339000000011
  0
LINE
  5
AD
  8
0
 62
     7
 10
65.453800000000001
 20
188.51900000000001
 30
0.0
 11
87.381600000000006
 21
188.51900000000001
 31
0.0
  0
ARC
  5
AE
  8
0
 62
     7
 10
65.453613000000004
 20
200.324265
 30
0.0
 40
11.805213
 50
89.999164000000007
 51
179.999134
  0
ARC
  5
AF
  8
0
 62
     7
 10
65.453694999999996
 20
200.324523
 30
0.0
 40
11.805294999999999
 50
180.000428
 51
270.00043799999997
  0
LINE
  5
B0
  8
0
 62
     7
 10
162.178
 20
107.982
 30
0.0
 11
164.38999999999999
 21
108.574
 31
0.0
  0
LINE
  5
B1
  8
0
 62
     7
 10
164.38999999999999
 20
108.574
 30
0.0
 11
162.178
 21
109.167
 31
0.0
  0
LINE
  5
B2
  8
0
 62
     7
 10
162.178
 20
109.167
 30
0.0
 11
162.178
 21
107.982
 31
0.0
  0
LINE
  5
B3
  8
0
 62
     7
 10
152.851
 20
109.167
 30
0.0
 11
150.63900000000001
 21
108.574
 31
0.0
  0
LINE
  5
B4
  8
0
 62
     7
 10
150.63900000000001
 20
108.574
 30
0.0
 11
152.851
 21
107.982
 31
0.0
  0
LINE
  5
B5
  8
0
 62
     7
 10
152.851
 20
107.982
 30
0.0
 11
152.851
 21
109.167
 31
0.0
  0
LINE
  5
B6
  8
0
 62
     7
 10
164.38999999999999
 20
108.574
 30
0.0
 11
150.63900000000001
 21
108.574
 31
0.0
  0
LINE
  5
B7
  8
0
 62
     7
 10
150.63900000000001
 20
107.874
 30
0.0
 11
150.63900000000001
 21
115.253
 31
0.0
  0
LINE
  5
B8
  8
0
 62
     7
 10
164.38999999999999
 20
107.874
 30
0.0
 11
164.38999999999999
 21
116.78
 31
0.0
  0
LINE
  5
B9
  8
0
 62
     7
 10
49.492199999999997
 20
173.22900000000001
 30
0.0
 11
51.703600000000002
 21
173.821
 31
0.0
  0
LINE
  5
BA
  8
0
 62
     7
 10
51.703600000000002
 20
173.821
 30
0.0
 11
49.492199999999997
 21
174.41399999999999
 31
0.0
  0
LINE
  5
BB
  8
0
 62
     7
 10
49.492199999999997
 20
174.41399999999999
 30
0.0
 11
49.492199999999997
 21
173.22900000000001
 31
0.0
  0
LINE
  5
BC
  8
0
 62
     7
 10
100.742
 20
173.22900000000001
 30
0.0
 11
102.95399999999999
 21
173.821
 31
0.0
  0
LINE
  5
BD
  8
0
 62
     7
 10
102.95399999999999
 20
173.821
 30
0.0
 11
100.742
 21
174.41399999999999
 31
0.0
  0
LINE
  5
BE
  8
0
 62
     7
 10
100.742
 20
174.41399999999999
 30
0.0
 11
100.742
 21
173.22900000000001
 31
0.0
  0
LINE
  5
BF
  8
0
 62
     7
 10
87.665099999999995
 20
174.41399999999999
 30
0.0
 11
85.453699999999998
 21
173.821
 31
0.0
  0
LINE
  5
C0
  8
0
 62
     7
 10
85.453699999999998
 20
173.821
 30
0.0
 11
87.665099999999995
 21
173.22900000000001
 31
0.0
  0
LINE
  5
C1
  8
0
 62
     7
 10
87.665099999999995
 20
173.22900000000001
 30
0.0
 11
87.665099999999995
 21
174.41399999999999
 31
0.0
  0
LINE
  5
C2
  8
0
 62
     7
 10
83.2423
 20
173.22900000000001
 30
0.0
 11
85.453699999999998
 21
173.821
 31
0.0
  0
LINE
  5
C3
  8
0
 62
     7
 10
85.453699999999998
 20
173.821
 30
0.0
 11
83.2423
 21
174.41399999999999
 31
0.0
  0
LINE
  5
C4
  8
0
 62
     7
 10
83.2423
 20
174.41399999999999
 30
0.0
 11
83.2423
 21
173.22900000000001
 31
0.0
  0
LINE
  5
C5
  8
0
 62
     7
 10
95.790099999999995
 20
180.72800000000001
 30
0.0
 11
93.578699999999998
 21
180.13499999999999
 31
0.0
  0
LINE
  5
C6
  8
0
 62
     7
 10
93.578699999999998
 20
180.13499999999999
 30
0.0
 11
95.790099999999995
 21
179.54300000000001
 31
0.0
  0
LINE
  5
C7
  8
0
 62
     7
 10
95.790099999999995
 20
179.54300000000001
 30
0.0
 11
95.790099999999995
 21
180.72800000000001
 31
0.0
  0
LINE
  5
C8
  8
0
 62
     7
 10
55.914900000000003
 20
174.41399999999999
 30
0.0
 11
53.703499999999998
 21
173.821
 31
0.0
  0
LINE
  5
C9
  8
0
 62
     7
 10
53.703499999999998
 20
173.821
 30
0.0
 11
55.914900000000003
 21
173.22900000000001
 31
0.0
  0
LINE
  5
CA
  8
0
 62
     7
 10
55.914900000000003
 20
173.22900000000001
 30
0.0
 11
55.914900000000003
 21
174.41399999999999
 31
0.0
  0
LINE
  5
CB
  8
0
 62
     7
 10
102.95399999999999
 20
173.821
 30
0.0
 11
46.221400000000003
 21
173.821
 31
0.0
  0
LINE
  5
CC
  8
0
 62
     7
 10
100.742
 20
166.833
 30
0.0
 11
102.95399999999999
 21
167.42599999999999
 31
0.0
  0
LINE
  5
CD
  8
0
 62
     7
 10
102.95399999999999
 20
167.42599999999999
 30
0.0
 11
100.742
 21
168.01900000000001
 31
0.0
  0
LINE
  5
CE
  8
0
 62
     7
 10
100.742
 20
168.01900000000001
 30
0.0
 11
100.742
 21
166.833
 31
0.0
  0
LINE
  5
CF
  8
0
 62
     7
 10
53.915100000000002
 20
168.01900000000001
 30
0.0
 11
51.703600000000002
 21
167.42599999999999
 31
0.0
  0
LINE
  5
D0
  8
0
 62
     7
 10
51.703600000000002
 20
167.42599999999999
 30
0.0
 11
53.915100000000002
 21
166.833
 31
0.0
  0
LINE
  5
D1
  8
0
 62
     7
 10
53.915100000000002
 20
166.833
 30
0.0
 11
53.915100000000002
 21
168.01900000000001
 31
0.0
  0
LINE
  5
D2
  8
0
 62
     7
 10
102.95399999999999
 20
167.42599999999999
 30
0.0
 11
51.703600000000002
 21
167.42599999999999
 31
0.0
  0
LINE
  5
D3
  8
0
 62
     7
 10
51.703600000000002
 20
166.726
 30
0.0
 11
51.703600000000002
 21
196.81200000000001
 31
0.0
  0
LINE
  5
D4
  8
0
 62
     7
 10
53.703499999999998
 20
173.12100000000001
 30
0.0
 11
53.703499999999998
 21
197.43700000000001
 31
0.0
  0
LINE
  5
D5
  8
0
 62
     7
 10
85.453699999999998
 20
173.12100000000001
 30
0.0
 11
85.453699999999998
 21
197.43700000000001
 31
0.0
  0
LINE
  5
D6
  8
0
 62
     7
 10
93.578699999999998
 20
179.435
 30
0.0
 11
93.578699999999998
 21
196.499
 31
0.0
  0
LINE
  5
D7
  8
0
 62
     7
 10
102.95399999999999
 20
166.726
 30
0.0
 11
102.95399999999999
 21
196.81200000000001
 31
0.0
  0
LINE
  5
D8
  8
0
 62
     7
 10
128.62799999999999
 20
205.614
 30
0.0
 11
128.036
 21
207.82499999999999
 31
0.0
  0
LINE
  5
D9
  8
0
 62
     7
 10
128.036
 20
207.82499999999999
 30
0.0
 11
127.443
 21
205.614
 31
0.0
  0
LINE
  5
DA
  8
0
 62
     7
 10
127.443
 20
205.614
 30
0.0
 11
128.62799999999999
 21
205.614
 31
0.0
  0
LINE
  5
DB
  8
0
 62
     7
 10
127.443
 20
195.03700000000001
 30
0.0
 11
128.036
 21
192.82499999999999
 31
0.0
  0
LINE
  5
DC
  8
0
 62
     7
 10
128.036
 20
192.82499999999999
 30
0.0
 11
128.62799999999999
 21
195.03700000000001
 31
0.0
  0
LINE
  5
DD
  8
0
 62
     7
 10
128.62799999999999
 20
195.03700000000001
 30
0.0
 11
127.443
 21
195.03700000000001
 31
0.0
  0
LINE
  5
DE
  8
0
 62
     7
 10
128.036
 20
207.82499999999999
 30
0.0
 11
128.036
 21
192.82499999999999
 31
0.0
  0
LINE
  5
DF
  8
0
 62
     7
 10
138.011
 20
179.47
 30
0.0
 11
135.80000000000001
 21
178.87799999999999
 31
0.0
  0
LINE
  5
E0
  8
0
 62
     7
 10
135.80000000000001
 20
178.87799999999999
 30
0.0
 11
138.011
 21
178.285
 31
0.0
  0
LINE
  5
E1
  8
0
 62
     7
 10
138.011
 20
178.285
 30
0.0
 11
138.011
 21
179.47
 31
0.0
  0
LINE
  5
E2
  8
0
 62
     7
 10
166.089
 20
178.285
 30
0.0
 11
168.30000000000001
 21
178.87799999999999
 31
0.0
  0
LINE
  5
E3
  8
0
 62
     7
 10
168.30000000000001
 20
178.87799999999999
 30
0.0
 11
166.089
 21
179.47
 31
0.0
  0
LINE
  5
E4
  8
0
 62
     7
 10
166.089
 20
179.47
 30
0.0
 11
166.089
 21
178.285
 31
0.0
  0
LINE
  5
E5
  8
0
 62
     7
 10
135.80000000000001
 20
178.87799999999999
 30
0.0
 11
168.30000000000001
 21
178.87799999999999
 31
0.0
  0
LINE
  5
E6
  8
0
 62
     7
 10
145.511
 20
186.24799999999999
 30
0.0
 11
143.30000000000001
 21
185.655
 31
0.0
  0
LINE
  5
E7
  8
0
 62
     7
 10
143.30000000000001
 20
185.655
 30
0.0
 11
145.511
 21
185.06299999999999
 31
0.0
  0
LINE
  5
E8
  8
0
 62
     7
 10
145.511
 20
185.06299999999999
 30
0.0
 11
145.511
 21
186.24799999999999
 31
0.0
  0
LINE
  5
E9
  8
0
 62
     7
 10
138.011
 20
186.24799999999999
 30
0.0
 11
135.80000000000001
 21
185.655
 31
0.0
  0
LINE
  5
EA
  8
0
 62
     7
 10
135.80000000000001
 20
185.655
 30
0.0
 11
138.011
 21
185.06299999999999
 31
0.0
  0
LINE
  5
EB
  8
0
 62
     7
 10
138.011
 20
185.06299999999999
 30
0.0
 11
138.011
 21
186.24799999999999
 31
0.0
  0
LINE
  5
EC
  8
0
 62
     7
 10
141.089
 20
185.06299999999999
 30
0.0
 11
143.30000000000001
 21
185.655
 31
0.0
  0
LINE
  5
ED
  8
0
 62
     7
 10
143.30000000000001
 20
185.655
 30
0.0
 11
141.089
 21
186.24799999999999
 31
0.0
  0
LINE
  5
EE
  8
0
 62
     7
 10
141.089
 20
186.24799999999999
 30
0.0
 11
141.089
 21
185.06299999999999
 31
0.0
  0
LINE
  5
EF
  8
0
 62
     7
 10
166.089
 20
185.06299999999999
 30
0.0
 11
168.30000000000001
 21
185.655
 31
0.0
  0
LINE
  5
F0
  8
0
 62
     7
 10
168.30000000000001
 20
185.655
 30
0.0
 11
166.089
 21
186.24799999999999
 31
0.0
  0
LINE
  5
F1
  8
0
 62
     7
 10
166.089
 20
186.24799999999999
 30
0.0
 11
166.089
 21
185.06299999999999
 31
0.0
  0
LINE
  5
F2
  8
0
 62
     7
 10
135.80000000000001
 20
185.655
 30
0.0
 11
168.30000000000001
 21
185.655
 31
0.0
  0
LINE
  5
F3
  8
0
 62
     7
 10
127.336
 20
192.82499999999999
 30
0.0
 11
135.34999999999999
 21
192.82499999999999
 31
0.0
  0
LINE
  5
F4
  8
0
 62
     7
 10
127.336
 20
207.82499999999999
 30
0.0
 11
135.34999999999999
 21
207.82499999999999
 31
0.0
  0
LINE
  5
F5
  8
0
 62
     7
 10
91.3673
 20
179.54300000000001
 30
0.0
 11
93.578699999999998
 21
180.13499999999999
 31
0.0
  0
LINE
  5
F6
  8
0
 62
     7
 10
93.578699999999998
 20
180.13499999999999
 30
0.0
 11
91.3673
 21
180.72800000000001
 31
0.0
  0
LINE
  5
F7
  8
0
 62
     7
 10
91.3673
 20
180.72800000000001
 30
0.0
 11
91.3673
 21
179.54300000000001
 31
0.0
  0
LINE
  5
F8
  8
0
 62
     7
 10
100.742
 20
179.54300000000001
 30
0.0
 11
102.95399999999999
 21
180.13499999999999
 31
0.0
  0
LINE
  5
F9
  8
0
 62
     7
 10
102.95399999999999
 20
180.13499999999999
 30
0.0
 11
100.742
 21
180.72800000000001
 31
0.0
  0
LINE
  5
FA
  8
0
 62
     7
 10
100.742
 20
180.72800000000001
 30
0.0
 11
100.742
 21
179.54300000000001
 31
0.0
  0
LINE
  5
FB
  8
0
 62
     7
 10
87.665099999999995
 20
180.72800000000001
 30
0.0
 11
85.453699999999998
 21
180.13499999999999
 31
0.0
  0
LINE
  5
FC
  8
0
 62
     7
 10
85.453699999999998
 20
180.13499999999999
 30
0.0
 11
87.665099999999995
 21
179.54300000000001
 31
0.0
  0
LINE
  5
FD
  8
0
 62
     7
 10
87.665099999999995
 20
179.54300000000001
 30
0.0
 11
87.665099999999995
 21
180.72800000000001
 31
0.0
  0
LINE
  5
FE
  8
0
 62
     7
 10
102.95399999999999
 20
180.13499999999999
 30
0.0
 11
85.453699999999998
 21
180.13499999999999
 31
0.0
  0
LINE
  5
FF
  8
0
 62
     7
 10
100.742
 20
220.06999999999999
 30
0.0
 11
102.95399999999999
 21
220.66200000000001
 31
0.0
  0
LINE
  5
100
  8
0
 62
     7
 10
102.95399999999999
 20
220.66200000000001
 30
0.0
 11
100.742
 21
221.255
 31
0.0
  0
LINE
  5
101
  8
0
 62
     7
 10
100.742
 20
221.255
 30
0.0
 11
100.742
 21
220.06999999999999
 31
0.0
  0
LINE
  5
102
  8
0
 62
     7
 10
77.665300000000002
 20
221.255
 30
0.0
 11
75.453900000000004
 21
220.66200000000001
 31
0.0
  0
LINE
  5
103
  8
0
 62
     7
 10
75.453900000000004
 20
220.66200000000001
 30
0.0
 11
77.665300000000002
 21
220.06999999999999
 31
0.0
  0
LINE
  5
104
  8
0
 62
     7
 10
77.665300000000002
 20
220.06999999999999
 30
0.0
 11
77.665300000000002
 21
221.255
 31
0.0
  0
LINE
  5
105
  8
0
 62
     7
 10
102.95399999999999
 20
220.66200000000001
 30
0.0
 11
75.453900000000004
 21
220.66200000000001
 31
0.0
  0
LINE
  5
106
  8
0
 62
     7
 10
75.453900000000004
 20
221.36199999999999
 30
0.0
 11
75.453900000000004
 21
206.80000000000001
 31
0.0
  0
LINE
  5
107
  8
0
 62
     7
 10
102.95399999999999
 20
221.36199999999999
 30
0.0
 11
102.95399999999999
 21
204.48099999999999
 31
0.0
  0
LINE
  5
108
  8
0
 62
     7
 10
46.1753
 20
209.91800000000001
 30
0.0
 11
45.582700000000003
 21
212.12899999999999
 31
0.0
  0
LINE
  5
109
  8
0
 62
     7
 10
45.582700000000003
 20
212.12899999999999
 30
0.0
 11
44.990099999999998
 21
209.91800000000001
 31
0.0
  0
LINE
  5
10A
  8
0
 62
     7
 10
44.990099999999998
 20
209.91800000000001
 30
0.0
 11
46.1753
 21
209.91800000000001
 31
0.0
  0
LINE
  5
10B
  8
0
 62
     7
 10
44.990099999999998
 20
190.73099999999999
 30
0.0
 11
45.582700000000003
 21
188.51900000000001
 31
0.0
  0
LINE
  5
10C
  8
0
 62
     7
 10
45.582700000000003
 20
188.51900000000001
 30
0.0
 11
46.1753
 21
190.73099999999999
 31
0.0
  0
LINE
  5
10D
  8
0
 62
     7
 10
46.1753
 20
190.73099999999999
 30
0.0
 11
44.990099999999998
 21
190.73099999999999
 31
0.0
  0
LINE
  5
10E
  8
0
 62
     7
 10
45.582700000000003
 20
212.12899999999999
 30
0.0
 11
45.582700000000003
 21
188.51900000000001
 31
0.0
  0
LINE
  5
10F
  8
0
 62
     7
 10
44.882599999999989
 20
188.51900000000001
 30
0.0
 11
62.311500000000002
 21
188.51900000000001
 31
0.0
  0
LINE
  5
110
  8
0
 62
     7
 10
44.882599999999989
 20
212.12899999999999
 30
0.0
 11
62.311500000000002
 21
212.12899999999999
 31
0.0
  0
LINE
  5
111
  8
0
 62
     7
 10
40.202499999999993
 20
211.863
 30
0.0
 11
39.60990000000001
 21
214.07400000000001
 31
0.0
  0
LINE
  5
112
  8
0
 62
     7
 10
39.60990000000001
 20
214.07400000000001
 30
0.0
 11
39.017299999999999
 21
211.863
 31
0.0
  0
LINE
  5
113
  8
0
 62
     7
 10
39.017299999999999
 20
211.863
 30
0.0
 11
40.202499999999993
 21
211.863
 31
0.0
  0
LINE
  5
114
  8
0
 62
     7
 10
39.017299999999999
 20
188.786
 30
0.0
 11
39.60990000000001
 21
186.57400000000001
 31
0.0
  0
LINE
  5
115
  8
0
 62
     7
 10
39.60990000000001
 20
186.57400000000001
 30
0.0
 11
40.202499999999993
 21
188.786
 31
0.0
  0
LINE
  5
116
  8
0
 62
     7
 10
40.202499999999993
 20
188.786
 30
0.0
 11
39.017299999999999
 21
188.786
 31
0.0
  0
LINE
  5
117
  8
0
 62
     7
 10
39.60990000000001
 20
214.07400000000001
 30
0.0
 11
39.60990000000001
 21
186.57400000000001
 31
0.0
  0
LINE
  5
118
  8
0
 62
     7
 10
38.909799999999997
 20
186.57400000000001
 30
0.0
 11
62.311500000000002
 21
186.57400000000001
 31
0.0
  0
LINE
  5
119
  8
0
 62
     7
 10
38.909799999999997
 20
214.07400000000001
 30
0.0
 11
62.311500000000002
 21
214.07400000000001
 31
0.0
  0
LINE
  5
11A
  8
0
  6
AIGENLINE002
 62
     7
 10
150.63900000000001
 20
135.571
 30
0.0
 11
150.63900000000001
 21
115.953
 31
0.0
  0
LINE
  5
11B
  8
0
 62
     7
 10
146.51900000000001
 20
125.726
 30
0.0
 11
147.11199999999999
 21
123.514
 31
0.0
  0
LINE
  5
11C
  8
0
 62
     7
 10
147.11199999999999
 20
123.514
 30
0.0
 11
147.70500000000001
 21
125.726
 31
0.0
  0
LINE
  5
11D
  8
0
 62
     7
 10
147.70500000000001
 20
125.726
 30
0.0
 11
146.51900000000001
 21
125.726
 31
0.0
  0
LINE
  5
11E
  8
0
 62
     7
 10
147.70500000000001
 20
131.928
 30
0.0
 11
147.11199999999999
 21
134.13999999999999
 31
0.0
  0
LINE
  5
11F
  8
0
 62
     7
 10
147.11199999999999
 20
134.13999999999999
 30
0.0
 11
146.51900000000001
 21
131.928
 31
0.0
  0
LINE
  5
120
  8
0
 62
     7
 10
146.51900000000001
 20
131.928
 30
0.0
 11
147.70500000000001
 21
131.928
 31
0.0
  0
LINE
  5
121
  8
0
 62
     7
 10
147.11199999999999
 20
123.514
 30
0.0
 11
147.11199999999999
 21
134.13999999999999
 31
0.0
  0
LINE
  5
122
  8
0
 62
     7
 10
42.629899999999999
 20
119.477
 30
0.0
 11
43.222399999999993
 21
117.265
 31
0.0
  0
LINE
  5
123
  8
0
 62
     7
 10
43.222399999999993
 20
117.265
 30
0.0
 11
43.814999999999991
 21
119.477
 31
0.0
  0
LINE
  5
124
  8
0
 62
     7
 10
43.814999999999991
 20
119.477
 30
0.0
 11
42.629899999999999
 21
119.477
 31
0.0
  0
LINE
  5
125
  8
0
 62
     7
 10
43.814999999999991
 20
131.929
 30
0.0
 11
43.222399999999993
 21
134.13999999999999
 31
0.0
  0
LINE
  5
126
  8
0
 62
     7
 10
43.222399999999993
 20
134.13999999999999
 30
0.0
 11
42.629899999999999
 21
131.929
 31
0.0
  0
LINE
  5
127
  8
0
 62
     7
 10
42.629899999999999
 20
131.929
 30
0.0
 11
43.814999999999991
 21
131.929
 31
0.0
  0
LINE
  5
128
  8
0
 62
     7
 10
43.222399999999993
 20
117.265
 30
0.0
 11
43.222399999999993
 21
134.13999999999999
 31
0.0
  0
LINE
  5
129
  8
0
 62
     7
 10
51.451799999999992
 20
134.13999999999999
 30
0.0
 11
42.52239999999999
 21
134.13999999999999
 31
0.0
  0
LINE
  5
12A
  8
0
 62
     7
 10
51.003599999999999
 20
117.265
 30
0.0
 11
42.52239999999999
 21
117.265
 31
0.0
  0
LINE
  5
12B
  8
0
  6
AIGENLINE002
 62
     7
 10
170.19900000000001
 20
200.32400000000001
 30
0.0
 11
133.809
 21
200.32400000000001
 31
0.0
  0
LINE
  5
12C
  8
0
  6
AIGENLINE002
 62
     7
 10
104.985
 20
200.32400000000001
 30
0.0
 11
48.832799999999999
 21
200.32400000000001
 31
0.0
  0
LINE
  5
12D
  8
0
  6
AIGENLINE002
 62
     7
 10
153.34200000000001
 20
130.38900000000001
 30
0.0
 11
147.88200000000001
 21
130.38900000000001
 31
0.0
  0
LINE
  5
12E
  8
0
  6
AIGENLINE002
 62
     7
 10
87.953799999999987
 20
130.38900000000001
 30
0.0
 11
82.626000000000005
 21
130.38900000000001
 31
0.0
  0
LINE
  5
12F
  8
0
  6
AIGENLINE002
 62
     7
 10
93.578699999999998
 20
136.63999999999999
 30
0.0
 11
93.578699999999998
 21
131.63900000000001
 31
0.0
  0
LINE
  5
130
  8
0
  6
AIGENLINE002
 62
     7
 10
75.453900000000004
 20
124.452
 30
0.0
 11
75.453900000000004
 21
115.078
 31
0.0
  0
LINE
  5
131
  8
0
  6
AIGENLINE002
 62
     7
 10
143.30000000000001
 20
195.94900000000001
 30
0.0
 11
143.30000000000001
 21
204.69999999999999
 31
0.0
  0
LINE
  5
132
  8
0
  6
AIGENLINE002
 62
     7
 10
93.578699999999998
 20
197.19900000000001
 30
0.0
 11
93.578699999999998
 21
203.33699999999999
 31
0.0
  0
LINE
  5
133
  8
0
  6
AIGENLINE002
 62
     7
 10
75.453900000000004
 20
194.107
 30
0.0
 11
75.453900000000004
 21
206.09999999999999
 31
0.0
  0
LINE
  5
134
  8
0
 62
     7
 10
147.2649999999999
 20
203.465
 30
0.0
 11
145.28299999999999
 21
202.31999999999999
 31
0.0
  0
LINE
  5
135
  8
0
 62
     7
 10
145.28299999999999
 20
202.31999999999999
 30
0.0
 11
146.42699999999999
 21
204.303
 31
0.0
  0
LINE
  5
136
  8
0
 62
     7
 10
146.42699999999999
 20
204.303
 30
0.0
 11
147.2649999999999
 21
203.465
 31
0.0
  0
LINE
  5
137
  8
0
 62
     7
 10
145.28299999999999
 20
202.31999999999999
 30
0.0
 11
152.589
 21
209.626
 31
0.0
  0
LINE
  5
138
  8
0
 62
     7
 10
152.589
 20
209.626
 30
0.0
 11
162.786
 21
209.626
 31
0.0
  0
LINE
  5
139
  8
0
 62
     7
 10
108.41500000000001
 20
140.19900000000001
 30
0.0
 11
125.164
 21
140.19900000000001
 31
0.0
  0
LINE
  5
13A
  8
0
 62
     7
 10
103.839
 20
135.25200000000001
 30
0.0
 11
102.95399999999999
 21
133.13999999999999
 31
0.0
  0
LINE
  5
13B
  8
0
 62
     7
 10
102.95399999999999
 20
133.13999999999999
 30
0.0
 11
104.776
 21
134.52600000000001
 31
0.0
  0
LINE
  5
13C
  8
0
 62
     7
 10
104.776
 20
134.52600000000001
 30
0.0
 11
103.839
 21
135.25200000000001
 31
0.0
  0
LINE
  5
13D
  8
0
 62
     7
 10
102.95399999999999
 20
133.13999999999999
 30
0.0
 11
108.41500000000001
 21
140.19900000000001
 31
0.0
  0
LINE
  5
13E
  8
0
 62
     7
 10
137.31100000000001
 20
205.476
 30
0.0
 11
136.166
 21
207.459
 31
0.0
  0
LINE
  5
13F
  8
0
 62
     7
 10
136.166
 20
207.459
 30
0.0
 11
138.149
 21
206.31399999999999
 31
0.0
  0
LINE
  5
140
  8
0
 62
     7
 10
138.149
 20
206.31399999999999
 30
0.0
 11
137.31100000000001
 21
205.476
 31
0.0
  0
LINE
  5
141
  8
0
 62
     7
 10
138.43600000000001
 20
205.18899999999999
 30
0.0
 11
136.166
 21
207.459
 31
0.0
  0
LINE
  5
142
  8
0
 62
     7
 10
137.31100000000001
 20
195.17400000000001
 30
0.0
 11
136.166
 21
193.191
 31
0.0
  0
LINE
  5
143
  8
0
 62
     7
 10
136.166
 20
193.191
 30
0.0
 11
138.149
 21
194.33600000000001
 31
0.0
  0
LINE
  5
144
  8
0
 62
     7
 10
138.149
 20
194.33600000000001
 30
0.0
 11
137.31100000000001
 21
195.17400000000001
 31
0.0
  0
LINE
  5
145
  8
0
 62
     7
 10
138.21799999999999
 20
195.24299999999999
 30
0.0
 11
136.166
 21
193.191
 31
0.0
  0
LINE
  5
146
  8
0
 62
     7
 10
164.959
 20
203.64599999999999
 30
0.0
 11
166.10400000000001
 21
205.62799999999999
 31
0.0
  0
LINE
  5
147
  8
0
 62
     7
 10
166.10400000000001
 20
205.62799999999999
 30
0.0
 11
164.12100000000001
 21
204.48400000000001
 31
0.0
  0
LINE
  5
148
  8
0
 62
     7
 10
164.12100000000001
 20
204.48400000000001
 30
0.0
 11
164.959
 21
203.64599999999999
 31
0.0
  0
LINE
  5
149
  8
0
 62
     7
 10
160.80000000000001
 20
200.32400000000001
 30
0.0
 11
166.10400000000001
 21
205.62799999999999
 31
0.0
  0
TEXT
  5
14A
  8
_________2
 62
     7
 10
29.525700000000001
 20
22.2272
 30
0.0
 40
3.9357000000000002
  1
実容量：1.5L、重量：7.0kg、オーバーフロー付
 41
0.5
  0
LINE
  5
14B
  8
_________2
 62
     7
 10
105.239
 20
17.4285
 30
0.0
 11
105.239
 21
0.4485540000000001
 31
0.0
  0
LINE
  5
14C
  8
_________2
 62
     7
 10
81.679900000000004
 20
51.324300000000001
 30
0.0
 11
79.493700000000004
 21
51.324300000000001
 31
0.0
  0
LINE
  5
14D
  8
_________2
 62
     7
 10
82.172600000000017
 20
51.324300000000001
 30
0.0
 11
81.920400000000001
 21
51.324300000000001
 31
0.0
  0
LINE
  5
14E
  8
_________2
 62
     7
 10
82.665199999999984
 20
51.324300000000001
 30
0.0
 11
85.590100000000007
 21
51.324300000000001
 31
0.0
  0
LINE
  5
14F
  8
_________2
 62
     7
 10
82.172600000000017
 20
51.324300000000001
 30
0.0
 11
82.424800000000005
 21
51.324300000000001
 31
0.0
  0
LINE
  5
150
  8
_________2
 62
     7
 10
75.776399999999995
 20
51.324300000000001
 30
0.0
 11
73.589399999999998
 21
51.324300000000001
 31
0.0
  0
LINE
  5
151
  8
_________2
 62
     7
 10
76.2684
 20
51.324300000000001
 30
0.0
 11
76.016900000000007
 21
51.324300000000001
 31
0.0
  0
LINE
  5
152
  8
_________2
 62
     7
 10
76.2684
 20
51.817
 30
0.0
 11
76.2684
 21
54.003900000000002
 31
0.0
  0
LINE
  5
153
  8
_________2
 62
     7
 10
76.2684
 20
51.324300000000001
 30
0.0
 11
76.2684
 21
51.576900000000002
 31
0.0
  0
LINE
  5
154
  8
_________2
 62
     7
 10
76.76100000000001
 20
51.324300000000001
 30
0.0
 11
78.947999999999993
 21
51.324300000000001
 31
0.0
  0
LINE
  5
155
  8
_________2
 62
     7
 10
76.2684
 20
51.324300000000001
 30
0.0
 11
76.520499999999998
 21
51.324300000000001
 31
0.0
  0
LINE
  5
156
  8
_________2
 62
     7
 10
76.2684
 20
50.832399999999993
 30
0.0
 11
76.2684
 21
48.645699999999998
 31
0.0
  0
LINE
  5
157
  8
_________2
 62
     7
 10
76.2684
 20
51.324300000000001
 30
0.0
 11
76.2684
 21
51.072800000000001
 31
0.0
  0
LINE
  5
158
  8
_________2
 62
     7
 10
79.979399999999984
 20
50.104799999999997
 30
0.0
 11
85.157399999999996
 21
49.240000000000002
 31
0.0
  0
LINE
  5
159
  8
_________2
 62
     7
 10
79.979399999999984
 20
52.544199999999989
 30
0.0
 11
85.157399999999996
 21
53.409700000000001
 31
0.0
  0
LINE
  5
15A
  8
_________2
 62
     7
 10
85.157399999999996
 20
49.240000000000002
 30
0.0
 11
85.157399999999996
 21
53.409700000000001
 31
0.0
  0
LINE
  5
15B
  8
_________2
 62
     7
 10
79.979399999999984
 20
50.104799999999997
 30
0.0
 11
79.979399999999984
 21
52.544199999999989
 31
0.0
  0
ARC
  5
15C
  8
_________2
 62
     7
 10
76.221766000000002
 20
51.277380999999998
 30
0.0
 40
1.267714
 50
2.1220840000000001
 51
87.894083999999992
  0
ARC
  5
15D
  8
_________2
 62
     7
 10
76.315297000000001
 20
51.277734999999993
 30
0.0
 40
1.267374999999999
 50
92.122849999999985
 51
177.893304
  0
ARC
  5
15E
  8
_________2
 62
     7
 10
76.315273000000005
 20
51.371245999999992
 30
0.0
 40
1.267363
 50
182.121815
 51
267.87821400000001
  0
ARC
  5
15F
  8
_________2
 62
     7
 10
76.221461000000005
 20
51.371928999999987
 30
0.0
 40
1.2680439999999991
 50
272.11916400000001
 51
357.84848499999998
  0
ARC
  5
160
  8
_________2
 62
     7
 10
76.187981999999991
 20
51.244312999999998
 30
0.0
 40
2.1668310000000002
 50
2.1161439999999989
 51
87.874379000000005
  0
ARC
  5
161
  8
_________2
 62
     7
 10
76.348411999999996
 20
51.245334999999997
 30
0.0
 40
2.1657980000000001
 50
92.118487999999999
 51
177.909886
  0
ARC
  5
162
  8
_________2
 62
     7
 10
76.348354
 20
51.404327000000002
 30
0.0
 40
2.1657779999999991
 50
182.11700400000001
 51
267.88302499999998
  0
ARC
  5
163
  8
_________2
 62
     7
 10
76.188378999999983
 20
51.405009999999997
 30
0.0
 40
2.1664590000000001
 50
272.11546800000002
 51
357.86560400000002
  0
TEXT
  5
164
  8
_________2
 62
     7
 10
109.544
 20
23.199100000000001
 30
0.0
 40
3.0923400000000001
  1
図番
 41
0.5
  0
LINE
  5
165
  8
_________2
 62
     7
 10
108.489
 20
27.4283
 30
0.0
 11
188.49000000000001
 21
27.4283
 31
0.0
  0
TEXT
  5
166
  8
_________2
 62
     7
 10
109.544
 20
33.198900000000002
 30
0.0
 40
3.0923400000000001
  1
品番
 41
0.5
  0
TEXT
  5
167
  8
_________2
 62
     7
 10
109.544
 20
53.338000000000001
 30
0.0
 40
3.0923400000000001
  1
名称
 41
0.5
  0
TEXT
  5
168
  8
_________2
 62
     7
 10
96.784058333333334
 20
48.341900000000003
 30
0.0
 40
3.6545800000000002
  1
mm
 41
0.5
 72
     1
 11
98.306799999999996
 21
48.341900000000003
 31
0.0
  0
TEXT
  5
169
  8
_________2
 62
     7
 10
90.582099999999997
 20
53.338000000000001
 30
0.0
 40
3.0923400000000001
  1
単位
 41
0.5
  0
TEXT
  5
16A
  8
_________2
 62
     7
 10
90.582099999999997
 20
40.930399999999999
 30
0.0
 40
3.0923400000000001
  1
尺度
 41
0.5
  0
TEXT
  5
16B
  8
_________2
 62
     7
 10
95.487658666666675
 20
34.7378
 30
0.0
 40
3.6545800000000002
  1
1 ： 8
 41
0.5
 72
     1
 11
98.898600000000002
 21
34.7378
 31
0.0
  0
TEXT
  5
16C
  8
_________2
 62
     7
 10
143.07741250000001
 20
30.627800000000001
 30
0.0
 40
3.9357000000000002
  1
SB8093
 41
0.5
 72
     1
 11
148.489
 21
30.627800000000001
 31
0.0
  0
TEXT
  5
16D
  8
_________2
 62
     7
 10
143.07741250000001
 20
20.626999999999999
 30
0.0
 40
3.9357000000000002
  1
SB8093
 41
0.5
 72
     1
 11
148.489
 21
20.626999999999999
 31
0.0
  0
TEXT
  5
16E
  8
_________2
 62
     7
 10
114.11799999999999
 20
46.795699999999997
 30
0.0
 40
3.9357000000000002
  1
セブンティ　手洗器
 41
0.5
  0
TEXT
  5
16F
  8
_________2
 62
     7
 10
44.303290666666669
 20
35.123000000000012
 30
0.0
 40
3.6545800000000002
  1
篠崎
 41
0.5
 72
     1
 11
46.252400000000002
 21
35.123000000000012
 31
0.0
  0
TEXT
  5
170
  8
_________2
 62
     7
 10
25.729290666666671
 20
35.123000000000012
 30
0.0
 40
3.6545800000000002
  1
菅原
 41
0.5
 72
     1
 11
27.6784
 21
35.123000000000012
 31
0.0
  0
TEXT
  5
171
  8
_________2
 62
     7
 10
72.724699999999999
 20
34.7378
 30
0.0
 40
3.6545800000000002
  1
17.12.07
 41
0.5
  0
TEXT
  5
172
  8
_________2
 62
     7
 10
71.531999999999996
 20
40.930399999999999
 30
0.0
 40
3.0923400000000001
  1
日付
 41
0.5
  0
TEXT
  5
173
  8
_________2
 62
     7
 10
34.578299999999999
 20
40.930399999999999
 30
0.0
 40
3.0923400000000001
  1
検図
 41
0.5
  0
TEXT
  5
174
  8
_________2
 62
     7
 10
22.9602
 20
26.731000000000002
 30
0.0
 40
3.0923400000000001
  1
備考
 41
0.5
  0
TEXT
  5
175
  8
_________2
 62
     7
 10
22.9602
 20
40.930399999999999
 30
0.0
 40
3.0923400000000001
  1
製図
 41
0.5
  0
TEXT
  5
176
  8
_________2
 62
     7
 10
28.727365333333339
 20
49.456400000000002
 30
0.0
 40
4.4979399999999989
  1
セラトレーディング株式会社
 41
0.5
 72
     1
 11
46.119399999999992
 21
49.456400000000002
 31
0.0
  0
LINE
  5
177
  8
_________2
 62
     7
 10
188.49000000000001
 20
17.4285
 30
0.0
 11
21.988499999999998
 21
17.4285
 31
0.0
  0
LINE
  5
178
  8
_________2
 62
     7
 10
21.988499999999998
 20
17.4285
 30
0.0
 11
21.988499999999998
 21
280.43000000000001
 31
0.0
  0
LINE
  5
179
  8
_________2
 62
     7
 10
21.988499999999998
 20
280.43000000000001
 30
0.0
 11
188.49000000000001
 21
280.43000000000001
 31
0.0
  0
LINE
  5
17A
  8
_________2
 62
     7
 10
188.49000000000001
 20
280.43000000000001
 30
0.0
 11
188.49000000000001
 21
17.4285
 31
0.0
  0
LINE
  5
17B
  8
_________2
 62
     7
 10
70.488799999999998
 20
30.928899999999999
 30
0.0
 11
70.488799999999998
 21
57.428699999999992
 31
0.0
  0
LINE
  5
17C
  8
_________2
 62
     7
 10
89.488600000000005
 20
30.928899999999999
 30
0.0
 11
89.488600000000005
 21
57.428699999999992
 31
0.0
  0
LINE
  5
17D
  8
_________2
 62
     7
 10
108.489
 20
17.4285
 30
0.0
 11
108.489
 21
57.428699999999992
 31
0.0
  0
LINE
  5
17E
  8
_________2
 62
     7
 10
33.488300000000002
 20
30.928899999999999
 30
0.0
 11
33.488300000000002
 21
44.928800000000003
 31
0.0
  0
LINE
  5
17F
  8
_________2
 62
     7
 10
21.988499999999998
 20
30.928899999999999
 30
0.0
 11
108.489
 21
30.928899999999999
 31
0.0
  0
LINE
  5
180
  8
_________2
 62
     7
 10
21.988499999999998
 20
44.928800000000003
 30
0.0
 11
108.489
 21
44.928800000000003
 31
0.0
  0
LINE
  5
181
  8
_________2
 62
     7
 10
108.489
 20
37.428100000000001
 30
0.0
 11
188.49000000000001
 21
37.428100000000001
 31
0.0
  0
LINE
  5
182
  8
_________2
 62
     7
 10
21.988499999999998
 20
57.428699999999992
 30
0.0
 11
188.49000000000001
 21
57.428699999999992
 31
0.0
  0
LINE
  5
183
  8
_________2
 62
     7
 10
210.24000000000001
 20
148.93100000000001
 30
0.0
 11
188.489
 21
148.93100000000001
 31
0.0
  0
LINE
  5
184
  8
_________2
 62
     7
 10
105.239
 20
297.45100000000002
 30
0.0
 11
105.239
 21
280.43000000000001
 31
0.0
  0
LINE
  5
185
  8
_________2
 62
     7
 10
21.988499999999998
 20
148.93100000000001
 30
0.0
 11
0.238402
 21
148.93100000000001
 31
0.0
  0
ENDSEC
  0
EOF
