  0
SECTION
  2
HEADER
  9
$ACADVER
  1
AC1014
  9
$ACADMAINTVER
 70
     9
  9
$DWGCODEPAGE
  3
ANSI_932
  9
$INSBASE
 10
0.0
 20
0.0
 30
0.0
  9
$EXTMIN
 10
-630.0
 20
-445.5
 30
0.0
  9
$EXTMAX
 10
630.0
 20
445.5
 30
0.0
  9
$LIMMIN
 10
-210.0
 20
-148.5
  9
$LIMMAX
 10
210.0
 20
148.5
  9
$ORTHOMODE
 70
     0
  9
$REGENMODE
 70
     1
  9
$FILLMODE
 70
     1
  9
$QTEXTMODE
 70
     0
  9
$MIRRTEXT
 70
     1
  9
$DRAGMODE
 70
     2
  9
$LTSCALE
 40
1.0
  9
$OSMODE
 70
    37
  9
$ATTMODE
 70
     1
  9
$TEXTSIZE
 40
0.2
  9
$TRACEWID
 40
0.05
  9
$TEXTSTYLE
  7
STANDARD
  9
$CLAYER
  8
0
  9
$CELTYPE
  6
BYLAYER
  9
$CECOLOR
 62
   256
  9
$CELTSCALE
 40
1.0
  9
$DELOBJ
 70
     1
  9
$DISPSILH
 70
     0
  9
$DIMSCALE
 40
1.0
  9
$DIMASZ
 40
2.5
  9
$DIMEXO
 40
0.0625
  9
$DIMDLI
 40
0.38
  9
$DIMRND
 40
0.0
  9
$DIMDLE
 40
0.0
  9
$DIMEXE
 40
0.18
  9
$DIMTP
 40
0.0
  9
$DIMTM
 40
0.0
  9
$DIMTXT
 40
0.18
  9
$DIMCEN
 40
0.09
  9
$DIMTSZ
 40
0.0
  9
$DIMTOL
 70
     0
  9
$DIMLIM
 70
     0
  9
$DIMTIH
 70
     1
  9
$DIMTOH
 70
     1
  9
$DIMSE1
 70
     0
  9
$DIMSE2
 70
     0
  9
$DIMTAD
 70
     3
  9
$DIMZIN
 70
     0
  9
$DIMBLK
  1

  9
$DIMASO
 70
     1
  9
$DIMSHO
 70
     1
  9
$DIMPOST
  1

  9
$DIMAPOST
  1

  9
$DIMALT
 70
     0
  9
$DIMALTD
 70
     2
  9
$DIMALTF
 40
25.4
  9
$DIMLFAC
 40
1.0
  9
$DIMTOFL
 70
     0
  9
$DIMTVP
 40
0.0
  9
$DIMTIX
 70
     0
  9
$DIMSOXD
 70
     0
  9
$DIMSAH
 70
     0
  9
$DIMBLK1
  1

  9
$DIMBLK2
  1

  9
$DIMSTYLE
  2
STANDARD
  9
$DIMCLRD
 70
     0
  9
$DIMCLRE
 70
     0
  9
$DIMCLRT
 70
     0
  9
$DIMTFAC
 40
1.0
  9
$DIMGAP
 40
0.09
  9
$DIMJUST
 70
     0
  9
$DIMSD1
 70
     0
  9
$DIMSD2
 70
     0
  9
$DIMTOLJ
 70
     1
  9
$DIMTZIN
 70
     0
  9
$DIMALTZ
 70
     0
  9
$DIMALTTZ
 70
     0
  9
$DIMFIT
 70
     3
  9
$DIMUPT
 70
     0
  9
$DIMUNIT
 70
     2
  9
$DIMDEC
 70
     4
  9
$DIMTDEC
 70
     4
  9
$DIMALTU
 70
     2
  9
$DIMALTTD
 70
     2
  9
$DIMTXSTY
  7
STANDARD
  9
$DIMAUNIT
 70
     0
  9
$LUNITS
 70
     2
  9
$LUPREC
 70
     4
  9
$SKETCHINC
 40
0.1
  9
$FILLETRAD
 40
0.5
  9
$AUNITS
 70
     0
  9
$AUPREC
 70
     0
  9
$MENU
  1
.
  9
$ELEVATION
 40
0.0
  9
$PELEVATION
 40
0.0
  9
$THICKNESS
 40
0.0
  9
$LIMCHECK
 70
     0
  9
$CHAMFERA
 40
0.5
  9
$CHAMFERB
 40
0.5
  9
$CHAMFERC
 40
1.0
  9
$CHAMFERD
 40
0.0
  9
$SKPOLY
 70
     0
  9
$TDCREATE
 40
2455593.670128669
  9
$TDUPDATE
 40
2455593.670128681
  9
$TDINDWG
 40
0.0000000116
  9
$TDUSRTIMER
 40
0.0000000116
  9
$USRTIMER
 70
     1
  9
$ANGBASE
 50
0.0
  9
$ANGDIR
 70
     0
  9
$PDMODE
 70
     0
  9
$PDSIZE
 40
1.0
  9
$PLINEWID
 40
0.0
  9
$COORDS
 70
     1
  9
$SPLFRAME
 70
     0
  9
$SPLINETYPE
 70
     6
  9
$SPLINESEGS
 70
     8
  9
$ATTDIA
 70
     0
  9
$ATTREQ
 70
     1
  9
$HANDLING
 70
     1
  9
$HANDSEED
  5
620
  9
$SURFTAB1
 70
     6
  9
$SURFTAB2
 70
     6
  9
$SURFTYPE
 70
     6
  9
$SURFU
 70
     6
  9
$SURFV
 70
     6
  9
$UCSNAME
  2

  9
$UCSORG
 10
0.0
 20
0.0
 30
0.0
  9
$UCSXDIR
 10
1.0
 20
0.0
 30
0.0
  9
$UCSYDIR
 10
0.0
 20
1.0
 30
0.0
  9
$PUCSNAME
  2

  9
$PUCSORG
 10
0.0
 20
0.0
 30
0.0
  9
$PUCSXDIR
 10
1.0
 20
0.0
 30
0.0
  9
$PUCSYDIR
 10
0.0
 20
1.0
 30
0.0
  9
$USERI1
 70
     0
  9
$USERI2
 70
     0
  9
$USERI3
 70
     0
  9
$USERI4
 70
     0
  9
$USERI5
 70
     0
  9
$USERR1
 40
0.0
  9
$USERR2
 40
0.0
  9
$USERR3
 40
0.0
  9
$USERR4
 40
0.0
  9
$USERR5
 40
0.0
  9
$WORLDVIEW
 70
     1
  9
$SHADEDGE
 70
     3
  9
$SHADEDIF
 70
    70
  9
$TILEMODE
 70
     1
  9
$MAXACTVP
 70
    64
  9
$PINSBASE
 10
0.0
 20
0.0
 30
0.0
  9
$PLIMCHECK
 70
     0
  9
$PEXTMIN
 10
1.000000000000000E+20
 20
1.000000000000000E+20
 30
1.000000000000000E+20
  9
$PEXTMAX
 10
-1.000000000000000E+20
 20
-1.000000000000000E+20
 30
-1.000000000000000E+20
  9
$PLIMMIN
 10
0.0
 20
0.0
  9
$PLIMMAX
 10
12.0
 20
9.0
  9
$UNITMODE
 70
     0
  9
$VISRETAIN
 70
     0
  9
$PLINEGEN
 70
     1
  9
$PSLTSCALE
 70
     0
  9
$TREEDEPTH
 70
  3020
  9
$PICKSTYLE
 70
     1
  9
$CMLSTYLE
  2
STANDARD
  9
$CMLJUST
 70
     0
  9
$CMLSCALE
 40
1.0
  9
$PROXYGRAPHICS
 70
     0
  9
$MEASUREMENT
 70
     1
  0
ENDSEC
  0
SECTION
  2
CLASSES
  0
CLASS
  1
ACDBDICTIONARYWDFLT
  2
AcDbDictionaryWithDefault
  3
ObjectDBX Classes
 90
        0
280
     0
281
     0
  0
CLASS
  1
XRECORD
  2
AcDbXrecord
  3
AutoCAD 2000
 90
        0
280
     0
281
     0
  0
CLASS
  1
LWPOLYLINE
  2
AcDbPolyline
  3
AutoCAD 2000
 90
        0
280
     0
281
     1
  0
CLASS
  1
HATCH
  2
AcDbHatch
  3
AutoCAD 2000
 90
        0
280
     0
281
     1
  0
CLASS
  1
ACDBPLACEHOLDER
  2
AcDbPlaceHolder
  3
ObjectDBX Classes
 90
        0
280
     0
281
     0
  0
CLASS
  1
LAYOUT
  2
AcDbLayout
  3
ObjectDBX Classes
 90
        0
280
     0
281
     0
  0
ENDSEC
  0
SECTION
  2
TABLES
  0
TABLE
  2
VPORT
  5
8
330
0
100
AcDbSymbolTable
 70
     1
  0
VPORT
  5
29
330
8
100
AcDbSymbolTableRecord
100
AcDbViewportTableRecord
  2
*ACTIVE
 70
     0
 10
0.0
 20
0.0
 11
1.0
 21
1.0
 12
0.0
 22
0.0
 13
0.0
 23
0.0
 14
0.5
 24
0.5
 15
0.5
 25
0.5
 16
0.0
 26
0.0
 36
1.0
 17
-0.0000000000000036
 27
0.0
 37
0.0
 40
302.94
 41
1.414141414141414
 42
50.0
 43
0.0
 44
0.0
 50
0.0
 51
0.0
 71
     0
 72
  1000
 73
     1
 74
     1
 75
     0
 76
     0
 77
     0
 78
     0
  0
ENDTAB
  0
TABLE
  2
LTYPE
  5
5
330
0
100
AcDbSymbolTable
 70
    28
  0
LTYPE
  5
14
330
5
100
AcDbSymbolTableRecord
100
AcDbLinetypeTableRecord
  2
BYBLOCK
 70
     0
  3

 72
    65
 73
     0
 40
0.0
  0
LTYPE
  5
15
330
5
100
AcDbSymbolTableRecord
100
AcDbLinetypeTableRecord
  2
BYLAYER
 70
     0
  3

 72
    65
 73
     0
 40
0.0
  0
LTYPE
  5
16
330
5
100
AcDbSymbolTableRecord
100
AcDbLinetypeTableRecord
  2
CONTINUOUS
 70
     0
  3
Solid line
 72
    65
 73
     0
 40
0.0
  0
LTYPE
  5
2B
330
5
100
AcDbSymbolTableRecord
100
AcDbLinetypeTableRecord
  2
HIDDENX2
 70
     0
  3
CADPAC LINETYPE
 72
    65
 73
     2
 40
11.00752467507095
 49
8.255643506303215
 74
     0
 49
-2.751881168767739
 74
     0
  0
LTYPE
  5
2C
330
5
100
AcDbSymbolTableRecord
100
AcDbLinetypeTableRecord
  2
HIDDEN
 70
     0
  3
CADPAC LINETYPE
 72
    65
 73
     2
 40
8.255643506303215
 49
5.503762337535477
 74
     0
 49
-2.751881168767739
 74
     0
  0
LTYPE
  5
2D
330
5
100
AcDbSymbolTableRecord
100
AcDbLinetypeTableRecord
  2
HIDDEN2
 70
     0
  3
CADPAC LINETYPE
 72
    65
 73
     2
 40
6.879702921919346
 49
4.127821753151608
 74
     0
 49
-2.751881168767739
 74
     0
  0
LTYPE
  5
2E
330
5
100
AcDbSymbolTableRecord
100
AcDbLinetypeTableRecord
  2
DASHED
 70
     0
  3
CADPAC LINETYPE
 72
    65
 73
     2
 40
7.705267272549634
 49
5.503762337535477
 74
     0
 49
-2.201504935014157
 74
     0
  0
LTYPE
  5
2F
330
5
100
AcDbSymbolTableRecord
100
AcDbLinetypeTableRecord
  2
DASHED2
 70
     0
  3
CADPAC LINETYPE
 72
    65
 73
     2
 40
4.953386103781895
 49
3.302257402521263
 74
     0
 49
-1.651128701260632
 74
     0
  0
LTYPE
  5
30
330
5
100
AcDbSymbolTableRecord
100
AcDbLinetypeTableRecord
  2
DASHEDX2
 70
     0
  3
CADPAC LINETYPE
 72
    65
 73
     2
 40
13.209029610085
 49
11.00752467507084
 74
     0
 49
-2.201504935014157
 74
     0
  0
LTYPE
  5
31
330
5
100
AcDbSymbolTableRecord
100
AcDbLinetypeTableRecord
  2
DOTX2
 70
     0
  3
CADPAC LINETYPE
 72
    65
 73
     2
 40
4.815792045343486
 49
0.0
 74
     0
 49
-4.815792045343486
 74
     0
  0
LTYPE
  5
32
330
5
100
AcDbSymbolTableRecord
100
AcDbLinetypeTableRecord
  2
DOT
 70
     0
  3
CADPAC LINETYPE
 72
    65
 73
     2
 40
3.852633636274788
 49
0.0
 74
     0
 49
-3.852633636274788
 74
     0
  0
LTYPE
  5
33
330
5
100
AcDbSymbolTableRecord
100
AcDbLinetypeTableRecord
  2
DOT2
 70
     0
  3
CADPAC LINETYPE
 72
    65
 73
     2
 40
2.889475227206091
 49
0.0
 74
     0
 49
-2.889475227206091
 74
     0
  0
LTYPE
  5
34
330
5
100
AcDbSymbolTableRecord
100
AcDbLinetypeTableRecord
  2
CENTERX2
 70
     0
  3
CADPAC LINETYPE
 72
    65
 73
     4
 40
16.51128701260643
 49
6.879702921919346
 74
     0
 49
-3.439851460959673
 74
     0
 49
2.751881168767739
 74
     0
 49
-3.439851460959673
 74
     0
  0
LTYPE
  5
35
330
5
100
AcDbSymbolTableRecord
100
AcDbLinetypeTableRecord
  2
CENTER
 70
     0
  3
CADPAC LINETYPE
 72
    65
 73
     4
 40
12.6586533763316
 49
5.503762337535477
 74
     0
 49
-2.751881168767739
 74
     0
 49
1.651128701260643
 74
     0
 49
-2.751881168767739
 74
     0
  0
LTYPE
  5
36
330
5
100
AcDbSymbolTableRecord
100
AcDbLinetypeTableRecord
  2
CENTER2
 70
     0
  3
CADPAC LINETYPE
 72
    65
 73
     4
 40
8.806019740056764
 49
4.127821753151608
 74
     0
 49
-2.063910876575804
 74
     0
 49
0.5503762337535477
 74
     0
 49
-2.063910876575804
 74
     0
  0
LTYPE
  5
37
330
5
100
AcDbSymbolTableRecord
100
AcDbLinetypeTableRecord
  2
DASHDOTX2
 70
     0
  3
CADPAC LINETYPE
 72
    65
 73
     4
 40
26.41805922017016
 49
13.20902961008505
 74
     0
 49
-4.40300987002837
 74
     0
 49
4.40300987002837
 74
     0
 49
-4.40300987002837
 74
     0
  0
LTYPE
  5
38
330
5
100
AcDbSymbolTableRecord
100
AcDbLinetypeTableRecord
  2
DASHDOT
 70
     0
  3
CADPAC LINETYPE
 72
    65
 73
     4
 40
13.209029610085
 49
6.604514805042527
 74
     0
 49
-2.201504935014157
 74
     0
 49
2.201504935014157
 74
     0
 49
-2.201504935014157
 74
     0
  0
LTYPE
  5
39
330
5
100
AcDbSymbolTableRecord
100
AcDbLinetypeTableRecord
  2
DASHDOT2
 70
     0
  3
CADPAC LINETYPE
 72
    65
 73
     4
 40
8.475793999804546
 49
4.953386103781895
 74
     0
 49
-1.651128701260618
 74
     0
 49
0.2201504935014157
 74
     0
 49
-1.651128701260618
 74
     0
  0
LTYPE
  5
3A
330
5
100
AcDbSymbolTableRecord
100
AcDbLinetypeTableRecord
  2
DIVIDEX2
 70
     0
  3
CADPAC LINETYPE
 72
    65
 73
     6
 40
35.22407896022691
 49
13.20902961008505
 74
     0
 49
-4.40300987002837
 74
     0
 49
4.40300987002837
 74
     0
 49
-4.40300987002837
 74
     0
 49
4.40300987002837
 74
     0
 49
-4.40300987002837
 74
     0
  0
LTYPE
  5
3B
330
5
100
AcDbSymbolTableRecord
100
AcDbLinetypeTableRecord
  2
DIVIDE
 70
     0
  3
CADPAC LINETYPE
 72
    65
 73
     6
 40
17.61203948011331
 49
6.604514805042527
 74
     0
 49
-2.201504935014157
 74
     0
 49
2.201504935014157
 74
     0
 49
-2.201504935014157
 74
     0
 49
2.201504935014157
 74
     0
 49
-2.201504935014157
 74
     0
  0
LTYPE
  5
3C
330
5
100
AcDbSymbolTableRecord
100
AcDbLinetypeTableRecord
  2
DIVIDE2
 70
     0
  3
CADPAC LINETYPE
 72
    65
 73
     6
 40
13.20902961008498
 49
4.953386103781895
 74
     0
 49
-1.651128701260618
 74
     0
 49
1.651128701260618
 74
     0
 49
-1.651128701260618
 74
     0
 49
1.651128701260618
 74
     0
 49
-1.651128701260618
 74
     0
  0
LTYPE
  5
3D
330
5
100
AcDbSymbolTableRecord
100
AcDbLinetypeTableRecord
  2
BORDERX2
 70
     0
  3
CADPAC LINETYPE
 72
    65
 73
     6
 40
24.07896022671771
 49
6.879702921919346
 74
     0
 49
-3.439851460959673
 74
     0
 49
6.879702921919346
 74
     0
 49
-3.439851460959673
 74
     0
 49
0.0
 74
     0
 49
-3.439851460959673
 74
     0
  0
LTYPE
  5
3E
330
5
100
AcDbSymbolTableRecord
100
AcDbLinetypeTableRecord
  2
BORDER
 70
     0
  3
CADPAC LINETYPE
 72
    65
 73
     6
 40
19.26316818137417
 49
5.503762337535477
 74
     0
 49
-2.751881168767739
 74
     0
 49
5.503762337535477
 74
     0
 49
-2.751881168767739
 74
     0
 49
0.0
 74
     0
 49
-2.751881168767739
 74
     0
  0
LTYPE
  5
3F
330
5
100
AcDbSymbolTableRecord
100
AcDbLinetypeTableRecord
  2
BORDER2
 70
     0
  3
CADPAC LINETYPE
 72
    65
 73
     6
 40
14.30978207759222
 49
4.40300987002837
 74
     0
 49
-2.751881168767739
 74
     0
 49
1.651128701260632
 74
     0
 49
-2.751881168767739
 74
     0
 49
0.0
 74
     0
 49
-2.751881168767739
 74
     0
  0
LTYPE
  5
40
330
5
100
AcDbSymbolTableRecord
100
AcDbLinetypeTableRecord
  2
PHANTOMX2
 70
     0
  3
CADPAC LINETYPE
 72
    65
 73
     6
 40
20.63910876575804
 49
6.879702921919346
 74
     0
 49
-2.751881168767739
 74
     0
 49
2.751881168767739
 74
     0
 49
-2.751881168767739
 74
     0
 49
2.751881168767739
 74
     0
 49
-2.751881168767739
 74
     0
  0
LTYPE
  5
41
330
5
100
AcDbSymbolTableRecord
100
AcDbLinetypeTableRecord
  2
PHANTOM
 70
     0
  3
CADPAC LINETYPE
 72
    65
 73
     6
 40
17.06166324635998
 49
5.503762337535477
 74
     0
 49
-2.751881168767739
 74
     0
 49
1.651128701260643
 74
     0
 49
-2.751881168767739
 74
     0
 49
1.651128701260643
 74
     0
 49
-2.751881168767739
 74
     0
  0
LTYPE
  5
42
330
5
100
AcDbSymbolTableRecord
100
AcDbLinetypeTableRecord
  2
PHANTOM2
 70
     0
  3
CADPAC LINETYPE
 72
    65
 73
     6
 40
14.58497019446902
 49
4.127821753151608
 74
     0
 49
-2.751881168767739
 74
     0
 49
1.100752467507095
 74
     0
 49
-2.751881168767739
 74
     0
 49
1.100752467507095
 74
     0
 49
-2.751881168767739
 74
     0
  0
LTYPE
  5
43
330
5
100
AcDbSymbolTableRecord
100
AcDbLinetypeTableRecord
  2
ACAD_ISO06W100
 70
     0
  3
CADPAC LINETYPE
 72
    65
 73
     8
 40
29.1699403889379
 49
13.20902961008505
 74
     0
 49
-2.751881168767739
 74
     0
 49
1.651128701260632
 74
     0
 49
-2.751881168767739
 74
     0
 49
1.651128701260632
 74
     0
 49
-2.751881168767739
 74
     0
 49
1.651128701260632
 74
     0
 49
-2.751881168767739
 74
     0
  0
LTYPE
  5
44
330
5
100
AcDbSymbolTableRecord
100
AcDbLinetypeTableRecord
  2
ACAD_ISO13W100
 70
     0
  3
CADPAC LINETYPE
 72
    65
 73
     8
 40
22.01504935014191
 49
5.503762337535477
 74
     0
 49
-2.751881168767739
 74
     0
 49
5.503762337535477
 74
     0
 49
-2.751881168767739
 74
     0
 49
0.0
 74
     0
 49
-2.751881168767739
 74
     0
 49
0.0
 74
     0
 49
-2.751881168767739
 74
     0
  0
LTYPE
  5
45
330
5
100
AcDbSymbolTableRecord
100
AcDbLinetypeTableRecord
  2
ACAD_ISO14W100
 70
     0
  3
CADPAC LINETYPE
 72
    65
 73
     8
 40
16.51128701260643
 49
5.503762337535477
 74
     0
 49
-2.751881168767739
 74
     0
 49
0.0
 74
     0
 49
-2.751881168767739
 74
     0
 49
0.0
 74
     0
 49
-2.751881168767739
 74
     0
 49
0.0
 74
     0
 49
-2.751881168767739
 74
     0
  0
ENDTAB
  0
TABLE
  2
LAYER
  5
2
330
0
100
AcDbSymbolTable
 70
     5
  0
LAYER
  5
10
330
2
100
AcDbSymbolTableRecord
100
AcDbLayerTableRecord
  2
0
 70
     0
 62
     7
  6
CONTINUOUS
  0
LAYER
  5
46
330
2
100
AcDbSymbolTableRecord
100
AcDbLayerTableRecord
  2
LAYER0014
 70
     0
 62
     7
  6
CONTINUOUS
  0
LAYER
  5
47
330
2
100
AcDbSymbolTableRecord
100
AcDbLayerTableRecord
  2
LAYER0015
 70
     0
 62
     7
  6
CONTINUOUS
  0
LAYER
  5
48
330
2
100
AcDbSymbolTableRecord
100
AcDbLayerTableRecord
  2
LAYER0016
 70
     0
 62
     7
  6
CONTINUOUS
  0
LAYER
  5
49
330
2
100
AcDbSymbolTableRecord
100
AcDbLayerTableRecord
  2
ZUWAKU
 70
     0
 62
     7
  6
CONTINUOUS
  0
ENDTAB
  0
TABLE
  2
STYLE
  5
3
330
0
100
AcDbSymbolTable
 70
     2
  0
STYLE
  5
11
330
3
100
AcDbSymbolTableRecord
100
AcDbTextStyleTableRecord
  2
STANDARD
 70
     0
 40
0.0
 41
1.0
 50
0.0
 71
     0
 42
0.2
  3
txt
  4

  0
STYLE
  5
BA
330
3
100
AcDbSymbolTableRecord
100
AcDbTextStyleTableRecord
  2
FDASTYLE0
 70
     0
 40
3.0
 41
0.6666666666666604
 50
0.0
 71
     0
 42
0.2
  3
txt.shx
  4
bigfont
  0
ENDTAB
  0
TABLE
  2
VIEW
  5
6
330
0
100
AcDbSymbolTable
 70
     0
  0
ENDTAB
  0
TABLE
  2
UCS
  5
7
330
0
100
AcDbSymbolTable
 70
     0
  0
ENDTAB
  0
TABLE
  2
APPID
  5
9
330
0
100
AcDbSymbolTable
 70
     2
  0
APPID
  5
12
330
9
100
AcDbSymbolTableRecord
100
AcDbRegAppTableRecord
  2
ACAD
 70
     0
  0
APPID
  5
2A
330
9
100
AcDbSymbolTableRecord
100
AcDbRegAppTableRecord
  2
DAFUSIONOUT
 70
     0
  0
ENDTAB
  0
TABLE
  2
DIMSTYLE
  5
A
330
0
100
AcDbSymbolTable
 70
     1
  0
DIMSTYLE
105
27
330
A
100
AcDbSymbolTableRecord
100
AcDbDimStyleTableRecord
  2
STANDARD
 70
     0
  3

  4

  5

  6

  7

 40
1.0
 41
0.18
 42
0.0625
 43
0.38
 44
0.18
 45
0.0
 46
0.0
 47
0.0
 48
0.0
140
0.18
141
0.09
142
0.0
143
25.4
144
1.0
145
0.0
146
1.0
147
0.09
 71
     0
 72
     0
 73
     1
 74
     1
 75
     0
 76
     0
 77
     0
 78
     0
170
     0
171
     2
172
     0
173
     0
174
     0
175
     0
176
     0
177
     0
178
     0
270
     2
271
     4
272
     4
273
     2
274
     2
340
11
275
     0
280
     0
281
     0
282
     0
283
     1
284
     0
285
     0
286
     0
287
     3
288
     0
  0
ENDTAB
  0
TABLE
  2
BLOCK_RECORD
  5
1
330
0
100
AcDbSymbolTable
 70
    38
  0
BLOCK_RECORD
  5
1F
330
1
100
AcDbSymbolTableRecord
100
AcDbBlockTableRecord
  2
*MODEL_SPACE
  0
BLOCK_RECORD
  5
1B
330
1
100
AcDbSymbolTableRecord
100
AcDbBlockTableRecord
  2
*PAPER_SPACE
  0
BLOCK_RECORD
  5
4B
330
1
100
AcDbSymbolTableRecord
100
AcDbBlockTableRecord
  2
DC_GROUP_1
  0
BLOCK_RECORD
  5
4E
330
1
100
AcDbSymbolTableRecord
100
AcDbBlockTableRecord
  2
DC_GROUP_2
  0
BLOCK_RECORD
  5
51
330
1
100
AcDbSymbolTableRecord
100
AcDbBlockTableRecord
  2
DC_GROUP_3
  0
BLOCK_RECORD
  5
54
330
1
100
AcDbSymbolTableRecord
100
AcDbBlockTableRecord
  2
DC_GROUP_4
  0
BLOCK_RECORD
  5
57
330
1
100
AcDbSymbolTableRecord
100
AcDbBlockTableRecord
  2
DC_GROUP_5
  0
BLOCK_RECORD
  5
5A
330
1
100
AcDbSymbolTableRecord
100
AcDbBlockTableRecord
  2
DC_GROUP_6
  0
BLOCK_RECORD
  5
5D
330
1
100
AcDbSymbolTableRecord
100
AcDbBlockTableRecord
  2
DC_GROUP_7
  0
BLOCK_RECORD
  5
60
330
1
100
AcDbSymbolTableRecord
100
AcDbBlockTableRecord
  2
DC_GROUP_8
  0
BLOCK_RECORD
  5
63
330
1
100
AcDbSymbolTableRecord
100
AcDbBlockTableRecord
  2
DC_GROUP_9
  0
BLOCK_RECORD
  5
66
330
1
100
AcDbSymbolTableRecord
100
AcDbBlockTableRecord
  2
DC_GROUP_10
  0
BLOCK_RECORD
  5
69
330
1
100
AcDbSymbolTableRecord
100
AcDbBlockTableRecord
  2
DC_GROUP_11
  0
BLOCK_RECORD
  5
6C
330
1
100
AcDbSymbolTableRecord
100
AcDbBlockTableRecord
  2
DC_GROUP_12
  0
BLOCK_RECORD
  5
6F
330
1
100
AcDbSymbolTableRecord
100
AcDbBlockTableRecord
  2
DC_GROUP_13
  0
BLOCK_RECORD
  5
72
330
1
100
AcDbSymbolTableRecord
100
AcDbBlockTableRecord
  2
DC_GROUP_14
  0
BLOCK_RECORD
  5
75
330
1
100
AcDbSymbolTableRecord
100
AcDbBlockTableRecord
  2
DC_GROUP_15
  0
BLOCK_RECORD
  5
78
330
1
100
AcDbSymbolTableRecord
100
AcDbBlockTableRecord
  2
DC_GROUP_16
  0
BLOCK_RECORD
  5
7B
330
1
100
AcDbSymbolTableRecord
100
AcDbBlockTableRecord
  2
DC_GROUP_17
  0
BLOCK_RECORD
  5
7E
330
1
100
AcDbSymbolTableRecord
100
AcDbBlockTableRecord
  2
DC_GROUP_18
  0
BLOCK_RECORD
  5
81
330
1
100
AcDbSymbolTableRecord
100
AcDbBlockTableRecord
  2
DC_GROUP_19
  0
BLOCK_RECORD
  5
84
330
1
100
AcDbSymbolTableRecord
100
AcDbBlockTableRecord
  2
DC_GROUP_20
  0
BLOCK_RECORD
  5
87
330
1
100
AcDbSymbolTableRecord
100
AcDbBlockTableRecord
  2
DC_GROUP_21
  0
BLOCK_RECORD
  5
8A
330
1
100
AcDbSymbolTableRecord
100
AcDbBlockTableRecord
  2
DC_GROUP_22
  0
BLOCK_RECORD
  5
8D
330
1
100
AcDbSymbolTableRecord
100
AcDbBlockTableRecord
  2
DC_GROUP_23
  0
BLOCK_RECORD
  5
90
330
1
100
AcDbSymbolTableRecord
100
AcDbBlockTableRecord
  2
DC_GROUP_24
  0
BLOCK_RECORD
  5
93
330
1
100
AcDbSymbolTableRecord
100
AcDbBlockTableRecord
  2
DC_GROUP_25
  0
BLOCK_RECORD
  5
96
330
1
100
AcDbSymbolTableRecord
100
AcDbBlockTableRecord
  2
DC_GROUP_26
  0
BLOCK_RECORD
  5
99
330
1
100
AcDbSymbolTableRecord
100
AcDbBlockTableRecord
  2
DC_GROUP_27
  0
BLOCK_RECORD
  5
9C
330
1
100
AcDbSymbolTableRecord
100
AcDbBlockTableRecord
  2
DA_IMAGEDIMGROUP_1
  0
BLOCK_RECORD
  5
9F
330
1
100
AcDbSymbolTableRecord
100
AcDbBlockTableRecord
  2
DA_IMAGEDIMGROUP_2
  0
BLOCK_RECORD
  5
A2
330
1
100
AcDbSymbolTableRecord
100
AcDbBlockTableRecord
  2
DA_IMAGEDIMGROUP_3
  0
BLOCK_RECORD
  5
A5
330
1
100
AcDbSymbolTableRecord
100
AcDbBlockTableRecord
  2
DC_GROUP_28
  0
BLOCK_RECORD
  5
A8
330
1
100
AcDbSymbolTableRecord
100
AcDbBlockTableRecord
  2
DC_GROUP_29
  0
BLOCK_RECORD
  5
AB
330
1
100
AcDbSymbolTableRecord
100
AcDbBlockTableRecord
  2
DA_IMAGEDIMGROUP_4
  0
BLOCK_RECORD
  5
AE
330
1
100
AcDbSymbolTableRecord
100
AcDbBlockTableRecord
  2
DA_IMAGEDIMGROUP_5
  0
BLOCK_RECORD
  5
B1
330
1
100
AcDbSymbolTableRecord
100
AcDbBlockTableRecord
  2
DC_GROUP_30
  0
BLOCK_RECORD
  5
B4
330
1
100
AcDbSymbolTableRecord
100
AcDbBlockTableRecord
  2
DA_IMAGEDIMGROUP_6
  0
BLOCK_RECORD
  5
245
330
1
100
AcDbSymbolTableRecord
100
AcDbBlockTableRecord
  2
_OPEN30
  0
ENDTAB
  0
ENDSEC
  0
SECTION
  2
BLOCKS
  0
BLOCK
  5
20
330
1F
100
AcDbEntity
  8
0
100
AcDbBlockBegin
  2
*MODEL_SPACE
 70
     0
 71
     0
 10
0.0
 20
0.0
 30
0.0
  3
*MODEL_SPACE
  1

  0
ENDBLK
  5
21
330
1F
100
AcDbEntity
  8
0
100
AcDbBlockEnd
  0
BLOCK
  5
1C
330
1B
100
AcDbEntity
 67
     1
  8
0
100
AcDbBlockBegin
  2
*PAPER_SPACE
 70
     0
 71
     0
 10
0.0
 20
0.0
 30
0.0
  3
*PAPER_SPACE
  1

  0
ENDBLK
  5
1D
330
1B
100
AcDbEntity
 67
     1
  8
0
100
AcDbBlockEnd
  0
BLOCK
  5
4C
330
4B
100
AcDbEntity
  8
0
100
AcDbBlockBegin
  2
DC_GROUP_1
 70
     0
 71
     0
 10
0.0
 20
0.0
 30
0.0
  3
DC_GROUP_1
  1

  0
LINE
  5
B7
330
4B
100
AcDbEntity
  8
ZUWAKU
  6
CONTINUOUS
 62
     4
100
AcDbLine
 10
-192.5
 20
-131.5
 30
0.0
 11
-189.0358983848622
 21
-125.5
 31
0.0
  0
LINE
  5
B8
330
4B
100
AcDbEntity
  8
ZUWAKU
  6
CONTINUOUS
 62
     4
100
AcDbLine
 10
-189.0358983848622
 20
-125.5
 30
0.0
 11
-185.5717967697245
 21
-131.5
 31
0.0
  0
LINE
  5
B9
330
4B
100
AcDbEntity
  8
ZUWAKU
  6
CONTINUOUS
 62
     4
100
AcDbLine
 10
-192.5
 20
-131.5
 30
0.0
 11
-185.5717967697245
 21
-131.5
 31
0.0
  0
TEXT
  5
BB
330
4B
100
AcDbEntity
  8
ZUWAKU
 62
     7
100
AcDbText
 10
-190.2358983848622
 20
-131.0
 30
0.0
 40
3.0
  1
１
 41
0.6666666666666604
  7
FDASTYLE0
 72
     5
 11
-187.8358983848623
 21
-131.0
 31
0.0
100
AcDbText
  0
ENDBLK
  5
4D
330
4B
100
AcDbEntity
  8
0
100
AcDbBlockEnd
  0
BLOCK
  5
4F
330
4E
100
AcDbEntity
  8
0
100
AcDbBlockBegin
  2
DC_GROUP_2
 70
     0
 71
     0
 10
0.0
 20
0.0
 30
0.0
  3
DC_GROUP_2
  1

  0
LINE
  5
BC
330
4E
100
AcDbEntity
  8
ZUWAKU
  6
CONTINUOUS
 62
     4
100
AcDbLine
 10
-192.5
 20
-124.5
 30
0.0
 11
-189.0358983848622
 21
-118.5
 31
0.0
  0
LINE
  5
BD
330
4E
100
AcDbEntity
  8
ZUWAKU
  6
CONTINUOUS
 62
     4
100
AcDbLine
 10
-189.0358983848622
 20
-118.5
 30
0.0
 11
-185.5717967697245
 21
-124.5
 31
0.0
  0
LINE
  5
BE
330
4E
100
AcDbEntity
  8
ZUWAKU
  6
CONTINUOUS
 62
     4
100
AcDbLine
 10
-192.5
 20
-124.5
 30
0.0
 11
-185.5717967697245
 21
-124.5
 31
0.0
  0
TEXT
  5
BF
330
4E
100
AcDbEntity
  8
ZUWAKU
 62
     7
100
AcDbText
 10
-190.2358983848622
 20
-124.0
 30
0.0
 40
3.0
  1
２
 41
0.6666666666666604
  7
FDASTYLE0
 72
     5
 11
-187.8358983848623
 21
-124.0
 31
0.0
100
AcDbText
  0
ENDBLK
  5
50
330
4E
100
AcDbEntity
  8
0
100
AcDbBlockEnd
  0
BLOCK
  5
52
330
51
100
AcDbEntity
  8
0
100
AcDbBlockBegin
  2
DC_GROUP_3
 70
     0
 71
     0
 10
0.0
 20
0.0
 30
0.0
  3
DC_GROUP_3
  1

  0
LINE
  5
C0
330
51
100
AcDbEntity
  8
ZUWAKU
  6
CONTINUOUS
 62
     4
100
AcDbLine
 10
-192.5
 20
-117.5
 30
0.0
 11
-189.0358983848622
 21
-111.5
 31
0.0
  0
LINE
  5
C1
330
51
100
AcDbEntity
  8
ZUWAKU
  6
CONTINUOUS
 62
     4
100
AcDbLine
 10
-189.0358983848622
 20
-111.5
 30
0.0
 11
-185.5717967697245
 21
-117.5
 31
0.0
  0
LINE
  5
C2
330
51
100
AcDbEntity
  8
ZUWAKU
  6
CONTINUOUS
 62
     4
100
AcDbLine
 10
-192.5
 20
-117.5
 30
0.0
 11
-185.5717967697245
 21
-117.5
 31
0.0
  0
TEXT
  5
C3
330
51
100
AcDbEntity
  8
ZUWAKU
 62
     7
100
AcDbText
 10
-190.2358983848622
 20
-117.0
 30
0.0
 40
3.0
  1
３
 41
0.6666666666666604
  7
FDASTYLE0
 72
     5
 11
-187.8358983848623
 21
-117.0
 31
0.0
100
AcDbText
  0
ENDBLK
  5
53
330
51
100
AcDbEntity
  8
0
100
AcDbBlockEnd
  0
BLOCK
  5
55
330
54
100
AcDbEntity
  8
0
100
AcDbBlockBegin
  2
DC_GROUP_4
 70
     0
 71
     0
 10
0.0
 20
0.0
 30
0.0
  3
DC_GROUP_4
  1

  0
LINE
  5
C4
330
54
100
AcDbEntity
  8
ZUWAKU
  6
CONTINUOUS
 62
     4
100
AcDbLine
 10
-192.5
 20
-110.5
 30
0.0
 11
-189.0358983848622
 21
-104.5
 31
0.0
  0
LINE
  5
C5
330
54
100
AcDbEntity
  8
ZUWAKU
  6
CONTINUOUS
 62
     4
100
AcDbLine
 10
-189.0358983848622
 20
-104.5
 30
0.0
 11
-185.5717967697245
 21
-110.5
 31
0.0
  0
LINE
  5
C6
330
54
100
AcDbEntity
  8
ZUWAKU
  6
CONTINUOUS
 62
     4
100
AcDbLine
 10
-192.5
 20
-110.5
 30
0.0
 11
-185.5717967697245
 21
-110.5
 31
0.0
  0
TEXT
  5
C7
330
54
100
AcDbEntity
  8
ZUWAKU
 62
     7
100
AcDbText
 10
-190.2358983848622
 20
-110.0
 30
0.0
 40
3.0
  1
４
 41
0.6666666666666604
  7
FDASTYLE0
 72
     5
 11
-187.8358983848623
 21
-110.0
 31
0.0
100
AcDbText
  0
ENDBLK
  5
56
330
54
100
AcDbEntity
  8
0
100
AcDbBlockEnd
  0
BLOCK
  5
58
330
57
100
AcDbEntity
  8
0
100
AcDbBlockBegin
  2
DC_GROUP_5
 70
     0
 71
     0
 10
0.0
 20
0.0
 30
0.0
  3
DC_GROUP_5
  1

  0
LINE
  5
C8
330
57
100
AcDbEntity
  8
ZUWAKU
  6
CONTINUOUS
 62
     4
100
AcDbLine
 10
-192.5
 20
-103.5
 30
0.0
 11
-189.0358983848622
 21
-97.50000000000003
 31
0.0
  0
LINE
  5
C9
330
57
100
AcDbEntity
  8
ZUWAKU
  6
CONTINUOUS
 62
     4
100
AcDbLine
 10
-189.0358983848622
 20
-97.50000000000003
 30
0.0
 11
-185.5717967697245
 21
-103.5
 31
0.0
  0
LINE
  5
CA
330
57
100
AcDbEntity
  8
ZUWAKU
  6
CONTINUOUS
 62
     4
100
AcDbLine
 10
-192.5
 20
-103.5
 30
0.0
 11
-185.5717967697245
 21
-103.5
 31
0.0
  0
TEXT
  5
CB
330
57
100
AcDbEntity
  8
ZUWAKU
 62
     7
100
AcDbText
 10
-190.2358983848622
 20
-103.0
 30
0.0
 40
3.0
  1
５
 41
0.6666666666666604
  7
FDASTYLE0
 72
     5
 11
-187.8358983848623
 21
-103.0
 31
0.0
100
AcDbText
  0
ENDBLK
  5
59
330
57
100
AcDbEntity
  8
0
100
AcDbBlockEnd
  0
BLOCK
  5
5B
330
5A
100
AcDbEntity
  8
0
100
AcDbBlockBegin
  2
DC_GROUP_6
 70
     0
 71
     0
 10
0.0
 20
0.0
 30
0.0
  3
DC_GROUP_6
  1

  0
INSERT
  5
CC
330
5A
100
AcDbEntity
  8
ZUWAKU
  6
CONTINUOUS
100
AcDbBlockReference
  2
DC_GROUP_7
 10
0.0
 20
0.0
 30
0.0
  0
INSERT
  5
CD
330
5A
100
AcDbEntity
  8
ZUWAKU
  6
CONTINUOUS
100
AcDbBlockReference
  2
DC_GROUP_8
 10
0.0
 20
0.0
 30
0.0
  0
INSERT
  5
CE
330
5A
100
AcDbEntity
  8
ZUWAKU
  6
CONTINUOUS
100
AcDbBlockReference
  2
DC_GROUP_9
 10
0.0
 20
0.0
 30
0.0
  0
INSERT
  5
CF
330
5A
100
AcDbEntity
  8
ZUWAKU
  6
CONTINUOUS
100
AcDbBlockReference
  2
DC_GROUP_10
 10
0.0
 20
0.0
 30
0.0
  0
INSERT
  5
D0
330
5A
100
AcDbEntity
  8
ZUWAKU
  6
CONTINUOUS
100
AcDbBlockReference
  2
DC_GROUP_11
 10
0.0
 20
0.0
 30
0.0
  0
INSERT
  5
D1
330
5A
100
AcDbEntity
  8
ZUWAKU
  6
CONTINUOUS
100
AcDbBlockReference
  2
DC_GROUP_12
 10
0.0
 20
0.0
 30
0.0
  0
INSERT
  5
D2
330
5A
100
AcDbEntity
  8
ZUWAKU
  6
CONTINUOUS
100
AcDbBlockReference
  2
DC_GROUP_13
 10
0.0
 20
0.0
 30
0.0
  0
INSERT
  5
D3
330
5A
100
AcDbEntity
  8
ZUWAKU
  6
CONTINUOUS
100
AcDbBlockReference
  2
DC_GROUP_14
 10
0.0
 20
0.0
 30
0.0
  0
INSERT
  5
D4
330
5A
100
AcDbEntity
  8
ZUWAKU
  6
CONTINUOUS
100
AcDbBlockReference
  2
DC_GROUP_15
 10
0.0
 20
0.0
 30
0.0
  0
INSERT
  5
D5
330
5A
100
AcDbEntity
  8
ZUWAKU
  6
CONTINUOUS
100
AcDbBlockReference
  2
DC_GROUP_16
 10
0.0
 20
0.0
 30
0.0
  0
INSERT
  5
D6
330
5A
100
AcDbEntity
  8
ZUWAKU
  6
CONTINUOUS
100
AcDbBlockReference
  2
DC_GROUP_17
 10
0.0
 20
0.0
 30
0.0
  0
LINE
  5
D7
330
5A
100
AcDbEntity
  8
ZUWAKU
  6
CONTINUOUS
 62
     7
100
AcDbLine
 10
148.6163728456568
 20
-131.5305456568976
 30
0.0
 11
157.2163728456568
 21
-131.5305456568976
 31
0.0
  0
ENDBLK
  5
5C
330
5A
100
AcDbEntity
  8
0
100
AcDbBlockEnd
  0
BLOCK
  5
5E
330
5D
100
AcDbEntity
  8
0
100
AcDbBlockBegin
  2
DC_GROUP_7
 70
     0
 71
     0
 10
0.0
 20
0.0
 30
0.0
  3
DC_GROUP_7
  1

  0
LINE
  5
D8
330
5D
100
AcDbEntity
  8
ZUWAKU
  6
CONTINUOUS
 62
     7
100
AcDbLine
 10
95.8592354484195
 20
-130.8811630926134
 30
0.0
 11
98.10445716765031
 21
-130.8811630926134
 31
0.0
  0
LINE
  5
D9
330
5D
100
AcDbEntity
  8
ZUWAKU
  6
CONTINUOUS
 62
     7
100
AcDbLine
 10
102.1463728456568
 20
-130.8811630926134
 30
0.0
 11
104.5463728456568
 21
-130.8811630926134
 31
0.0
  0
LINE
  5
DA
330
5D
100
AcDbEntity
  8
ZUWAKU
  6
CONTINUOUS
 62
     7
100
AcDbLine
 10
95.97484530437535
 20
-130.3811630926134
 30
0.0
 11
98.27109928792987
 21
-130.3811630926134
 31
0.0
  0
LINE
  5
DB
330
5D
100
AcDbEntity
  8
ZUWAKU
  6
CONTINUOUS
 62
     7
100
AcDbLine
 10
102.1463728456568
 20
-130.3811630926134
 30
0.0
 11
104.5463728456568
 21
-130.3811630926134
 31
0.0
  0
LINE
  5
DC
330
5D
100
AcDbEntity
  8
ZUWAKU
  6
CONTINUOUS
 62
     7
100
AcDbLine
 10
96.03791022019186
 20
-129.8811630926134
 30
0.0
 11
98.39941093985408
 21
-129.8811630926134
 31
0.0
  0
LINE
  5
DD
330
5D
100
AcDbEntity
  8
ZUWAKU
  6
CONTINUOUS
 62
     7
100
AcDbLine
 10
102.1463728456568
 20
-129.8811630926134
 30
0.0
 11
104.5463728456568
 21
-129.8811630926134
 31
0.0
  0
LINE
  5
DE
330
5D
100
AcDbEntity
  8
ZUWAKU
  6
CONTINUOUS
 62
     7
100
AcDbLine
 10
96.05041945969171
 20
-129.3811630926134
 30
0.0
 11
98.49140820304567
 21
-129.3811630926134
 31
0.0
  0
LINE
  5
DF
330
5D
100
AcDbEntity
  8
ZUWAKU
  6
CONTINUOUS
 62
     7
100
AcDbLine
 10
102.1463728456568
 20
-129.3811630926134
 30
0.0
 11
104.5463728456568
 21
-129.3811630926134
 31
0.0
  0
LINE
  5
E0
330
5D
100
AcDbEntity
  8
ZUWAKU
  6
CONTINUOUS
 62
     7
100
AcDbLine
 10
90.58362715434316
 20
-128.8811630926134
 30
0.0
 11
104.5463728456568
 21
-128.8811630926134
 31
0.0
  0
LINE
  5
E1
330
5D
100
AcDbEntity
  8
ZUWAKU
  6
CONTINUOUS
 62
     7
100
AcDbLine
 10
90.58362715434316
 20
-128.3811630926134
 30
0.0
 11
104.5463728456568
 21
-128.3811630926134
 31
0.0
  0
LINE
  5
E2
330
5D
100
AcDbEntity
  8
ZUWAKU
  6
CONTINUOUS
 62
     7
100
AcDbLine
 10
90.58362715434316
 20
-127.8811630926134
 30
0.0
 11
104.5463728456568
 21
-127.8811630926134
 31
0.0
  0
LINE
  5
E3
330
5D
100
AcDbEntity
  8
ZUWAKU
  6
CONTINUOUS
 62
     7
100
AcDbLine
 10
96.04637284565683
 20
-127.3811630926134
 30
0.0
 11
98.44637284565681
 21
-127.3811630926134
 31
0.0
  0
LINE
  5
E4
330
5D
100
AcDbEntity
  8
ZUWAKU
  6
CONTINUOUS
 62
     7
100
AcDbLine
 10
96.04637284565683
 20
-126.8811630926134
 30
0.0
 11
98.44637284565681
 21
-126.8811630926134
 31
0.0
  0
LINE
  5
E5
330
5D
100
AcDbEntity
  8
ZUWAKU
  6
CONTINUOUS
 62
     7
100
AcDbLine
 10
96.04637284565683
 20
-126.3811630926134
 30
0.0
 11
98.44637284565681
 21
-126.3811630926134
 31
0.0
  0
LINE
  5
E6
330
5D
100
AcDbEntity
  8
ZUWAKU
  6
CONTINUOUS
 62
     7
100
AcDbLine
 10
92.44637284565681
 20
-131.3811630926134
 30
0.0
 11
100.4463728456568
 21
-131.3811630926134
 31
0.0
  0
LINE
  5
E7
330
5D
100
AcDbEntity
  8
ZUWAKU
  6
CONTINUOUS
 62
     7
100
AcDbLine
 10
102.1463728456568
 20
-131.3811630926134
 30
0.0
 11
104.5463728456568
 21
-131.3811630926134
 31
0.0
  0
LINE
  5
E8
330
5D
100
AcDbEntity
  8
ZUWAKU
  6
CONTINUOUS
 62
     7
100
AcDbLine
 10
92.44637284565681
 20
-131.8811630926134
 30
0.0
 11
100.4463728456568
 21
-131.8811630926134
 31
0.0
  0
LINE
  5
E9
330
5D
100
AcDbEntity
  8
ZUWAKU
  6
CONTINUOUS
 62
     7
100
AcDbLine
 10
102.1463728456568
 20
-131.8811630926134
 30
0.0
 11
104.5463728456568
 21
-131.8811630926134
 31
0.0
  0
LINE
  5
EA
330
5D
100
AcDbEntity
  8
ZUWAKU
  6
CONTINUOUS
 62
     7
100
AcDbLine
 10
92.44637284565681
 20
-132.3811630926134
 30
0.0
 11
100.4463728456568
 21
-132.3811630926134
 31
0.0
  0
LINE
  5
EB
330
5D
100
AcDbEntity
  8
ZUWAKU
  6
CONTINUOUS
 62
     7
100
AcDbLine
 10
102.1463728456568
 20
-132.3811630926134
 30
0.0
 11
104.5463728456568
 21
-132.3811630926134
 31
0.0
  0
LINE
  5
EC
330
5D
100
AcDbEntity
  8
ZUWAKU
  6
CONTINUOUS
 62
     7
100
AcDbLine
 10
110.604536355518
 20
-132.3811630926134
 30
0.0
 11
113.8417405120595
 21
-132.3811630926134
 31
0.0
  0
LINE
  5
ED
330
5D
100
AcDbEntity
  8
ZUWAKU
  6
CONTINUOUS
 62
     7
100
AcDbLine
 10
94.74116788281884
 20
-132.8811630926134
 30
0.0
 11
96.97769441725583
 21
-132.8811630926134
 31
0.0
  0
LINE
  5
EE
330
5D
100
AcDbEntity
  8
ZUWAKU
  6
CONTINUOUS
 62
     7
100
AcDbLine
 10
102.1463728456568
 20
-132.8811630926134
 30
0.0
 11
104.5463728456568
 21
-132.8811630926134
 31
0.0
  0
LINE
  5
EF
330
5D
100
AcDbEntity
  8
ZUWAKU
  6
CONTINUOUS
 62
     7
100
AcDbLine
 10
109.8963228939548
 20
-132.8811630926134
 30
0.0
 11
113.3333876979017
 21
-132.8811630926134
 31
0.0
  0
LINE
  5
F0
330
5D
100
AcDbEntity
  8
ZUWAKU
  6
CONTINUOUS
 62
     7
100
AcDbLine
 10
94.21191756518869
 20
-133.3811630926134
 30
0.0
 11
96.5448863676931
 21
-133.3811630926134
 31
0.0
  0
LINE
  5
F1
330
5D
100
AcDbEntity
  8
ZUWAKU
  6
CONTINUOUS
 62
     7
100
AcDbLine
 10
102.1463728456568
 20
-133.3811630926134
 30
0.0
 11
104.5463728456568
 21
-133.3811630926134
 31
0.0
  0
LINE
  5
F2
330
5D
100
AcDbEntity
  8
ZUWAKU
  6
CONTINUOUS
 62
     7
100
AcDbLine
 10
109.025375517766
 20
-133.3811630926134
 30
0.0
 11
112.7480747417856
 21
-133.3811630926134
 31
0.0
  0
LINE
  5
F3
330
5D
100
AcDbEntity
  8
ZUWAKU
  6
CONTINUOUS
 62
     7
100
AcDbLine
 10
93.47278597893467
 20
-133.8811630926134
 30
0.0
 11
96.02274748755042
 21
-133.8811630926134
 31
0.0
  0
LINE
  5
F4
330
5D
100
AcDbEntity
  8
ZUWAKU
  6
CONTINUOUS
 62
     7
100
AcDbLine
 10
102.1463728456568
 20
-133.8811630926134
 30
0.0
 11
104.5463728456568
 21
-133.8811630926134
 31
0.0
  0
LINE
  5
F5
330
5D
100
AcDbEntity
  8
ZUWAKU
  6
CONTINUOUS
 62
     7
100
AcDbLine
 10
107.8681459252262
 20
-133.8811630926134
 30
0.0
 11
112.0628740626163
 21
-133.8811630926134
 31
0.0
  0
LINE
  5
F6
330
5D
100
AcDbEntity
  8
ZUWAKU
  6
CONTINUOUS
 62
     7
100
AcDbLine
 10
92.16346202882176
 20
-134.3811630926134
 30
0.0
 11
95.37814146302139
 21
-134.3811630926134
 31
0.0
  0
LINE
  5
F7
330
5D
100
AcDbEntity
  8
ZUWAKU
  6
CONTINUOUS
 62
     7
100
AcDbLine
 10
102.1463728456568
 20
-134.3811630926134
 30
0.0
 11
104.5463728456568
 21
-134.3811630926134
 31
0.0
  0
LINE
  5
F8
330
5D
100
AcDbEntity
  8
ZUWAKU
  6
CONTINUOUS
 62
     7
100
AcDbLine
 10
105.8155311692083
 20
-134.3811630926134
 30
0.0
 11
111.2373451587009
 21
-134.3811630926134
 31
0.0
  0
LINE
  5
F9
330
5D
100
AcDbEntity
  8
ZUWAKU
  6
CONTINUOUS
 62
     7
100
AcDbLine
 10
90.58362715434316
 20
-134.8811630926134
 30
0.0
 11
94.54150297508784
 21
-134.8811630926134
 31
0.0
  0
LINE
  5
FA
330
5D
100
AcDbEntity
  8
ZUWAKU
  6
CONTINUOUS
 62
     7
100
AcDbLine
 10
102.1748475825431
 20
-134.8811630926134
 30
0.0
 11
110.1856413090584
 21
-134.8811630926134
 31
0.0
  0
LINE
  5
FB
330
5D
100
AcDbEntity
  8
ZUWAKU
  6
CONTINUOUS
 62
     7
100
AcDbLine
 10
90.58362715434316
 20
-135.3811630926134
 30
0.0
 11
93.29698933454563
 21
-135.3811630926134
 31
0.0
  0
LINE
  5
FC
330
5D
100
AcDbEntity
  8
ZUWAKU
  6
CONTINUOUS
 62
     7
100
AcDbLine
 10
103.7282777975827
 20
-135.3811630926134
 30
0.0
 11
108.6322110940188
 21
-135.3811630926134
 31
0.0
  0
ENDBLK
  5
5F
330
5D
100
AcDbEntity
  8
0
100
AcDbBlockEnd
  0
BLOCK
  5
61
330
60
100
AcDbEntity
  8
0
100
AcDbBlockBegin
  2
DC_GROUP_8
 70
     0
 71
     0
 10
0.0
 20
0.0
 30
0.0
  3
DC_GROUP_8
  1

  0
LINE
  5
FD
330
60
100
AcDbEntity
  8
ZUWAKU
  6
CONTINUOUS
 62
     7
100
AcDbLine
 10
106.5463728456568
 20
-130.6694543431024
 30
0.0
 11
117.9463728456568
 21
-130.6694543431024
 31
0.0
  0
LINE
  5
FE
330
60
100
AcDbEntity
  8
ZUWAKU
  6
CONTINUOUS
 62
     7
100
AcDbLine
 10
106.5463728456568
 20
-130.1694543431024
 30
0.0
 11
117.9463728456568
 21
-130.1694543431024
 31
0.0
  0
LINE
  5
FF
330
60
100
AcDbEntity
  8
ZUWAKU
  6
CONTINUOUS
 62
     7
100
AcDbLine
 10
106.5463728456568
 20
-131.1694543431024
 30
0.0
 11
117.9463728456568
 21
-131.1694543431024
 31
0.0
  0
ENDBLK
  5
62
330
60
100
AcDbEntity
  8
0
100
AcDbBlockEnd
  0
BLOCK
  5
64
330
63
100
AcDbEntity
  8
0
100
AcDbBlockBegin
  2
DC_GROUP_9
 70
     0
 71
     0
 10
0.0
 20
0.0
 30
0.0
  3
DC_GROUP_9
  1

  0
LINE
  5
100
330
63
100
AcDbEntity
  8
ZUWAKU
  6
CONTINUOUS
 62
     7
100
AcDbLine
 10
120.3762688606991
 20
-131.55
 30
0.0
 11
122.9463728456568
 21
-131.55
 31
0.0
  0
LINE
  5
101
330
63
100
AcDbEntity
  8
ZUWAKU
  6
CONTINUOUS
 62
     7
100
AcDbLine
 10
123.4880098163495
 20
-131.55
 30
0.0
 11
124.1463728456568
 21
-131.55
 31
0.0
  0
LINE
  5
102
330
63
100
AcDbEntity
  8
ZUWAKU
  6
CONTINUOUS
 62
     7
100
AcDbLine
 10
120.5401914483943
 20
-131.05
 30
0.0
 11
124.1463728456568
 21
-131.05
 31
0.0
  0
LINE
  5
103
330
63
100
AcDbEntity
  8
ZUWAKU
  6
CONTINUOUS
 62
     7
100
AcDbLine
 10
120.6573329194075
 20
-130.55
 30
0.0
 11
123.9671913310034
 21
-130.55
 31
0.0
  0
LINE
  5
104
330
63
100
AcDbEntity
  8
ZUWAKU
  6
CONTINUOUS
 62
     7
100
AcDbLine
 10
120.7304485357685
 20
-130.05
 30
0.0
 11
123.2171913310033
 21
-130.05
 31
0.0
  0
LINE
  5
105
330
63
100
AcDbEntity
  8
ZUWAKU
  6
CONTINUOUS
 62
     7
100
AcDbLine
 10
119.4463728456568
 20
-129.55
 30
0.0
 11
124.1463728456568
 21
-129.55
 31
0.0
  0
LINE
  5
106
330
63
100
AcDbEntity
  8
ZUWAKU
  6
CONTINUOUS
 62
     7
100
AcDbLine
 10
119.4463728456568
 20
-129.05
 30
0.0
 11
124.1463728456568
 21
-129.05
 31
0.0
  0
LINE
  5
107
330
63
100
AcDbEntity
  8
ZUWAKU
  6
CONTINUOUS
 62
     7
100
AcDbLine
 10
121.5463728456568
 20
-128.55
 30
0.0
 11
122.9463728456568
 21
-128.55
 31
0.0
  0
LINE
  5
108
330
63
100
AcDbEntity
  8
ZUWAKU
  6
CONTINUOUS
 62
     7
100
AcDbLine
 10
121.5463728456568
 20
-128.05
 30
0.0
 11
122.9463728456568
 21
-128.05
 31
0.0
  0
LINE
  5
109
330
63
100
AcDbEntity
  8
ZUWAKU
  6
CONTINUOUS
 62
     7
100
AcDbLine
 10
120.1613057869596
 20
-132.05
 30
0.0
 11
122.9463728456568
 21
-132.05
 31
0.0
  0
LINE
  5
10A
330
63
100
AcDbEntity
  8
ZUWAKU
  6
CONTINUOUS
 62
     7
100
AcDbLine
 10
119.8888857047598
 20
-132.55
 30
0.0
 11
122.9463728456568
 21
-132.55
 31
0.0
  0
LINE
  5
10B
330
63
100
AcDbEntity
  8
ZUWAKU
  6
CONTINUOUS
 62
     7
100
AcDbLine
 10
119.5492091213338
 20
-133.05
 30
0.0
 11
122.9463728456568
 21
-133.05
 31
0.0
  0
LINE
  5
10C
330
63
100
AcDbEntity
  8
ZUWAKU
  6
CONTINUOUS
 62
     7
100
AcDbLine
 10
119.3463728456568
 20
-133.55
 30
0.0
 11
120.5627654424019
 21
-133.55
 31
0.0
  0
LINE
  5
10D
330
63
100
AcDbEntity
  8
ZUWAKU
  6
CONTINUOUS
 62
     7
100
AcDbLine
 10
121.3463728456568
 20
-133.55
 30
0.0
 11
122.9463728456568
 21
-133.55
 31
0.0
  0
LINE
  5
10E
330
63
100
AcDbEntity
  8
ZUWAKU
  6
CONTINUOUS
 62
     7
100
AcDbLine
 10
119.3463728456568
 20
-134.05
 30
0.0
 11
120.0135150512066
 21
-134.05
 31
0.0
  0
LINE
  5
10F
330
63
100
AcDbEntity
  8
ZUWAKU
  6
CONTINUOUS
 62
     7
100
AcDbLine
 10
121.3463728456568
 20
-134.05
 30
0.0
 11
122.9463728456568
 21
-134.05
 31
0.0
  0
LINE
  5
110
330
63
100
AcDbEntity
  8
ZUWAKU
  6
CONTINUOUS
 62
     7
100
AcDbLine
 10
121.3463728456568
 20
-134.55
 30
0.0
 11
122.9463728456568
 21
-134.55
 31
0.0
  0
LINE
  5
111
330
63
100
AcDbEntity
  8
ZUWAKU
  6
CONTINUOUS
 62
     7
100
AcDbLine
 10
121.3463728456568
 20
-135.05
 30
0.0
 11
122.9463728456568
 21
-135.05
 31
0.0
  0
ENDBLK
  5
65
330
63
100
AcDbEntity
  8
0
100
AcDbBlockEnd
  0
BLOCK
  5
67
330
66
100
AcDbEntity
  8
0
100
AcDbBlockBegin
  2
DC_GROUP_10
 70
     0
 71
     0
 10
0.0
 20
0.0
 30
0.0
  3
DC_GROUP_10
  1

  0
LINE
  5
112
330
66
100
AcDbEntity
  8
ZUWAKU
  6
CONTINUOUS
 62
     7
100
AcDbLine
 10
124.6463728456568
 20
-131.55
 30
0.0
 11
131.7463728456568
 21
-131.55
 31
0.0
  0
LINE
  5
113
330
66
100
AcDbEntity
  8
ZUWAKU
  6
CONTINUOUS
 62
     7
100
AcDbLine
 10
124.6463728456568
 20
-131.05
 30
0.0
 11
131.7463728456568
 21
-131.05
 31
0.0
  0
LINE
  5
114
330
66
100
AcDbEntity
  8
ZUWAKU
  6
CONTINUOUS
 62
     7
100
AcDbLine
 10
127.1463728456568
 20
-130.55
 30
0.0
 11
128.9463728456568
 21
-130.55
 31
0.0
  0
LINE
  5
115
330
66
100
AcDbEntity
  8
ZUWAKU
  6
CONTINUOUS
 62
     7
100
AcDbLine
 10
127.1463728456568
 20
-130.05
 30
0.0
 11
128.9463728456568
 21
-130.05
 31
0.0
  0
LINE
  5
116
330
66
100
AcDbEntity
  8
ZUWAKU
  6
CONTINUOUS
 62
     7
100
AcDbLine
 10
124.6463728456568
 20
-129.55
 30
0.0
 11
131.5463728456568
 21
-129.55
 31
0.0
  0
LINE
  5
117
330
66
100
AcDbEntity
  8
ZUWAKU
  6
CONTINUOUS
 62
     7
100
AcDbLine
 10
124.6463728456568
 20
-129.05
 30
0.0
 11
131.5463728456568
 21
-129.05
 31
0.0
  0
LINE
  5
118
330
66
100
AcDbEntity
  8
ZUWAKU
  6
CONTINUOUS
 62
     7
100
AcDbLine
 10
124.6463728456568
 20
-128.55
 30
0.0
 11
126.2063728456568
 21
-128.55
 31
0.0
  0
LINE
  5
119
330
66
100
AcDbEntity
  8
ZUWAKU
  6
CONTINUOUS
 62
     7
100
AcDbLine
 10
127.1463728456568
 20
-128.55
 30
0.0
 11
128.9463728456568
 21
-128.55
 31
0.0
  0
LINE
  5
11A
330
66
100
AcDbEntity
  8
ZUWAKU
  6
CONTINUOUS
 62
     7
100
AcDbLine
 10
124.6463728456568
 20
-128.05
 30
0.0
 11
126.2063728456568
 21
-128.05
 31
0.0
  0
LINE
  5
11B
330
66
100
AcDbEntity
  8
ZUWAKU
  6
CONTINUOUS
 62
     7
100
AcDbLine
 10
127.1463728456568
 20
-128.05
 30
0.0
 11
128.9463728456568
 21
-128.05
 31
0.0
  0
LINE
  5
11C
330
66
100
AcDbEntity
  8
ZUWAKU
  6
CONTINUOUS
 62
     7
100
AcDbLine
 10
125.8786611924532
 20
-132.05
 30
0.0
 11
130.4774938194927
 21
-132.05
 31
0.0
  0
LINE
  5
11D
330
66
100
AcDbEntity
  8
ZUWAKU
  6
CONTINUOUS
 62
     7
100
AcDbLine
 10
125.7022203023616
 20
-132.55
 30
0.0
 11
130.5839164239199
 21
-132.55
 31
0.0
  0
LINE
  5
11E
330
66
100
AcDbEntity
  8
ZUWAKU
  6
CONTINUOUS
 62
     7
100
AcDbLine
 10
125.4444907322737
 20
-133.05
 30
0.0
 11
130.7607865985839
 21
-133.05
 31
0.0
  0
LINE
  5
11F
330
66
100
AcDbEntity
  8
ZUWAKU
  6
CONTINUOUS
 62
     7
100
AcDbLine
 10
125.0849898652322
 20
-133.55
 30
0.0
 11
127.0512574302935
 21
-133.55
 31
0.0
  0
LINE
  5
120
330
66
100
AcDbEntity
  8
ZUWAKU
  6
CONTINUOUS
 62
     7
100
AcDbLine
 10
127.1463728456568
 20
-133.55
 30
0.0
 11
131.019029431235
 21
-133.55
 31
0.0
  0
LINE
  5
121
330
66
100
AcDbEntity
  8
ZUWAKU
  6
CONTINUOUS
 62
     7
100
AcDbLine
 10
124.5811039379163
 20
-134.05
 30
0.0
 11
126.5931405813734
 21
-134.05
 31
0.0
  0
LINE
  5
122
330
66
100
AcDbEntity
  8
ZUWAKU
  6
CONTINUOUS
 62
     7
100
AcDbLine
 10
127.1463728456568
 20
-134.05
 30
0.0
 11
128.9463728456568
 21
-134.05
 31
0.0
  0
LINE
  5
123
330
66
100
AcDbEntity
  8
ZUWAKU
  6
CONTINUOUS
 62
     7
100
AcDbLine
 10
129.2557665128225
 20
-134.05
 30
0.0
 11
131.3792055022369
 21
-134.05
 31
0.0
  0
LINE
  5
124
330
66
100
AcDbEntity
  8
ZUWAKU
  6
CONTINUOUS
 62
     7
100
AcDbLine
 10
124.3463728456568
 20
-134.55
 30
0.0
 11
126.0096133195874
 21
-134.55
 31
0.0
  0
LINE
  5
125
330
66
100
AcDbEntity
  8
ZUWAKU
  6
CONTINUOUS
 62
     7
100
AcDbLine
 10
127.1463728456568
 20
-134.55
 30
0.0
 11
128.9463728456568
 21
-134.55
 31
0.0
  0
LINE
  5
126
330
66
100
AcDbEntity
  8
ZUWAKU
  6
CONTINUOUS
 62
     7
100
AcDbLine
 10
129.7599871032927
 20
-134.55
 30
0.0
 11
131.7463728456568
 21
-134.55
 31
0.0
  0
LINE
  5
127
330
66
100
AcDbEntity
  8
ZUWAKU
  6
CONTINUOUS
 62
     7
100
AcDbLine
 10
124.3463728456568
 20
-135.05
 30
0.0
 11
125.2238286865397
 21
-135.05
 31
0.0
  0
LINE
  5
128
330
66
100
AcDbEntity
  8
ZUWAKU
  6
CONTINUOUS
 62
     7
100
AcDbLine
 10
127.1463728456568
 20
-135.05
 30
0.0
 11
128.9463728456568
 21
-135.05
 31
0.0
  0
LINE
  5
129
330
66
100
AcDbEntity
  8
ZUWAKU
  6
CONTINUOUS
 62
     7
100
AcDbLine
 10
130.5271619874551
 20
-135.05
 30
0.0
 11
131.7463728456568
 21
-135.05
 31
0.0
  0
ENDBLK
  5
68
330
66
100
AcDbEntity
  8
0
100
AcDbBlockEnd
  0
BLOCK
  5
6A
330
69
100
AcDbEntity
  8
0
100
AcDbBlockBegin
  2
DC_GROUP_11
 70
     0
 71
     0
 10
0.0
 20
0.0
 30
0.0
  3
DC_GROUP_11
  1

  0
LINE
  5
12A
330
69
100
AcDbEntity
  8
ZUWAKU
  6
CONTINUOUS
 62
     7
100
AcDbLine
 10
140.6463728456568
 20
-131.55
 30
0.0
 11
142.7963728456568
 21
-131.55
 31
0.0
  0
LINE
  5
12B
330
69
100
AcDbEntity
  8
ZUWAKU
  6
CONTINUOUS
 62
     7
100
AcDbLine
 10
140.6463728456568
 20
-131.05
 30
0.0
 11
142.7963728456568
 21
-131.05
 31
0.0
  0
LINE
  5
12C
330
69
100
AcDbEntity
  8
ZUWAKU
  6
CONTINUOUS
 62
     7
100
AcDbLine
 10
140.6463728456568
 20
-130.55
 30
0.0
 11
142.7963728456568
 21
-130.55
 31
0.0
  0
LINE
  5
12D
330
69
100
AcDbEntity
  8
ZUWAKU
  6
CONTINUOUS
 62
     7
100
AcDbLine
 10
140.6463728456568
 20
-130.05
 30
0.0
 11
142.7963728456568
 21
-130.05
 31
0.0
  0
LINE
  5
12E
330
69
100
AcDbEntity
  8
ZUWAKU
  6
CONTINUOUS
 62
     7
100
AcDbLine
 10
133.1463728456568
 20
-129.55
 30
0.0
 11
145.7163728456568
 21
-129.55
 31
0.0
  0
LINE
  5
12F
330
69
100
AcDbEntity
  8
ZUWAKU
  6
CONTINUOUS
 62
     7
100
AcDbLine
 10
133.1463728456568
 20
-129.05
 30
0.0
 11
145.7163728456568
 21
-129.05
 31
0.0
  0
LINE
  5
130
330
69
100
AcDbEntity
  8
ZUWAKU
  6
CONTINUOUS
 62
     7
100
AcDbLine
 10
140.6463728456568
 20
-128.55
 30
0.0
 11
142.7963728456568
 21
-128.55
 31
0.0
  0
LINE
  5
131
330
69
100
AcDbEntity
  8
ZUWAKU
  6
CONTINUOUS
 62
     7
100
AcDbLine
 10
144.1963728456568
 20
-128.55
 30
0.0
 11
145.7163728456568
 21
-128.55
 31
0.0
  0
LINE
  5
132
330
69
100
AcDbEntity
  8
ZUWAKU
  6
CONTINUOUS
 62
     7
100
AcDbLine
 10
140.6463728456568
 20
-128.05
 30
0.0
 11
142.7963728456568
 21
-128.05
 31
0.0
  0
LINE
  5
133
330
69
100
AcDbEntity
  8
ZUWAKU
  6
CONTINUOUS
 62
     7
100
AcDbLine
 10
144.1963728456568
 20
-128.05
 30
0.0
 11
145.7163728456568
 21
-128.05
 31
0.0
  0
LINE
  5
134
330
69
100
AcDbEntity
  8
ZUWAKU
  6
CONTINUOUS
 62
     7
100
AcDbLine
 10
140.6463728456568
 20
-132.05
 30
0.0
 11
142.7963728456568
 21
-132.05
 31
0.0
  0
LINE
  5
135
330
69
100
AcDbEntity
  8
ZUWAKU
  6
CONTINUOUS
 62
     7
100
AcDbLine
 10
140.6463728456568
 20
-132.55
 30
0.0
 11
142.7963728456568
 21
-132.55
 31
0.0
  0
LINE
  5
136
330
69
100
AcDbEntity
  8
ZUWAKU
  6
CONTINUOUS
 62
     7
100
AcDbLine
 10
140.6463728456568
 20
-133.05
 30
0.0
 11
142.7963728456568
 21
-133.05
 31
0.0
  0
LINE
  5
137
330
69
100
AcDbEntity
  8
ZUWAKU
  6
CONTINUOUS
 62
     7
100
AcDbLine
 10
144.1358445034737
 20
-133.05
 30
0.0
 11
145.5814320923754
 21
-133.05
 31
0.0
  0
LINE
  5
138
330
69
100
AcDbEntity
  8
ZUWAKU
  6
CONTINUOUS
 62
     7
100
AcDbLine
 10
140.6463728456568
 20
-133.55
 30
0.0
 11
142.7963728456568
 21
-133.55
 31
0.0
  0
LINE
  5
139
330
69
100
AcDbEntity
  8
ZUWAKU
  6
CONTINUOUS
 62
     7
100
AcDbLine
 10
143.9214609952618
 20
-133.55
 30
0.0
 11
145.3352302649021
 21
-133.55
 31
0.0
  0
LINE
  5
13A
330
69
100
AcDbEntity
  8
ZUWAKU
  6
CONTINUOUS
 62
     7
100
AcDbLine
 10
140.6463728456568
 20
-134.05
 30
0.0
 11
142.7963728456568
 21
-134.05
 31
0.0
  0
LINE
  5
13B
330
69
100
AcDbEntity
  8
ZUWAKU
  6
CONTINUOUS
 62
     7
100
AcDbLine
 10
143.4946600818465
 20
-134.05
 30
0.0
 11
144.990775923055
 21
-134.05
 31
0.0
  0
LINE
  5
13C
330
69
100
AcDbEntity
  8
ZUWAKU
  6
CONTINUOUS
 62
     7
100
AcDbLine
 10
140.6463728456568
 20
-134.55
 30
0.0
 11
144.5097616138391
 21
-134.55
 31
0.0
  0
LINE
  5
13D
330
69
100
AcDbEntity
  8
ZUWAKU
  6
CONTINUOUS
 62
     7
100
AcDbLine
 10
140.6463728456568
 20
-135.05
 30
0.0
 11
143.7918248912179
 21
-135.05
 31
0.0
  0
ENDBLK
  5
6B
330
69
100
AcDbEntity
  8
0
100
AcDbBlockEnd
  0
BLOCK
  5
6D
330
6C
100
AcDbEntity
  8
0
100
AcDbBlockBegin
  2
DC_GROUP_12
 70
     0
 71
     0
 10
0.0
 20
0.0
 30
0.0
  3
DC_GROUP_12
  1

  0
LINE
  5
13E
330
6C
100
AcDbEntity
  8
ZUWAKU
  6
CONTINUOUS
 62
     7
100
AcDbLine
 10
135.8463728456568
 20
-133.25
 30
0.0
 11
137.9463728456568
 21
-133.25
 31
0.0
  0
LINE
  5
13F
330
6C
100
AcDbEntity
  8
ZUWAKU
  6
CONTINUOUS
 62
     7
100
AcDbLine
 10
135.8463728456568
 20
-132.75
 30
0.0
 11
137.9463728456568
 21
-132.75
 31
0.0
  0
LINE
  5
140
330
6C
100
AcDbEntity
  8
ZUWAKU
  6
CONTINUOUS
 62
     7
100
AcDbLine
 10
135.8463728456568
 20
-132.25
 30
0.0
 11
137.9463728456568
 21
-132.25
 31
0.0
  0
LINE
  5
141
330
6C
100
AcDbEntity
  8
ZUWAKU
  6
CONTINUOUS
 62
     7
100
AcDbLine
 10
133.1463728456568
 20
-131.75
 30
0.0
 11
139.7463728456568
 21
-131.75
 31
0.0
  0
LINE
  5
142
330
6C
100
AcDbEntity
  8
ZUWAKU
  6
CONTINUOUS
 62
     7
100
AcDbLine
 10
133.1463728456568
 20
-131.25
 30
0.0
 11
139.7463728456568
 21
-131.25
 31
0.0
  0
LINE
  5
143
330
6C
100
AcDbEntity
  8
ZUWAKU
  6
CONTINUOUS
 62
     7
100
AcDbLine
 10
133.1463728456568
 20
-133.75
 30
0.0
 11
139.7463728456568
 21
-133.75
 31
0.0
  0
LINE
  5
144
330
6C
100
AcDbEntity
  8
ZUWAKU
  6
CONTINUOUS
 62
     7
100
AcDbLine
 10
133.1463728456568
 20
-134.25
 30
0.0
 11
139.7463728456568
 21
-134.25
 31
0.0
  0
LINE
  5
145
330
6C
100
AcDbEntity
  8
ZUWAKU
  6
CONTINUOUS
 62
     7
100
AcDbLine
 10
133.1463728456568
 20
-134.75
 30
0.0
 11
139.3256932440106
 21
-134.75
 31
0.0
  0
LINE
  5
146
330
6C
100
AcDbEntity
  8
ZUWAKU
  6
CONTINUOUS
 62
     7
100
AcDbLine
 10
133.1463728456568
 20
-135.25
 30
0.0
 11
136.9087996408371
 21
-135.25
 31
0.0
  0
ENDBLK
  5
6E
330
6C
100
AcDbEntity
  8
0
100
AcDbBlockEnd
  0
BLOCK
  5
70
330
6F
100
AcDbEntity
  8
0
100
AcDbBlockBegin
  2
DC_GROUP_13
 70
     0
 71
     0
 10
0.0
 20
0.0
 30
0.0
  3
DC_GROUP_13
  1

  0
LINE
  5
147
330
6F
100
AcDbEntity
  8
ZUWAKU
  6
CONTINUOUS
 62
     7
100
AcDbLine
 10
168.4163728456568
 20
-131.55
 30
0.0
 11
170.3163728456568
 21
-131.55
 31
0.0
  0
LINE
  5
148
330
6F
100
AcDbEntity
  8
ZUWAKU
  6
CONTINUOUS
 62
     7
100
AcDbLine
 10
168.4163728456568
 20
-131.05
 30
0.0
 11
170.3163728456568
 21
-131.05
 31
0.0
  0
LINE
  5
149
330
6F
100
AcDbEntity
  8
ZUWAKU
  6
CONTINUOUS
 62
     7
100
AcDbLine
 10
168.4163728456568
 20
-130.55
 30
0.0
 11
170.3163728456568
 21
-130.55
 31
0.0
  0
LINE
  5
14A
330
6F
100
AcDbEntity
  8
ZUWAKU
  6
CONTINUOUS
 62
     7
100
AcDbLine
 10
166.6163728456568
 20
-130.05
 30
0.0
 11
171.9163728456568
 21
-130.05
 31
0.0
  0
LINE
  5
14B
330
6F
100
AcDbEntity
  8
ZUWAKU
  6
CONTINUOUS
 62
     7
100
AcDbLine
 10
166.6163728456568
 20
-129.55
 30
0.0
 11
171.9163728456568
 21
-129.55
 31
0.0
  0
LINE
  5
14C
330
6F
100
AcDbEntity
  8
ZUWAKU
  6
CONTINUOUS
 62
     7
100
AcDbLine
 10
166.6163728456568
 20
-129.05
 30
0.0
 11
171.9163728456568
 21
-129.05
 31
0.0
  0
LINE
  5
14D
330
6F
100
AcDbEntity
  8
ZUWAKU
  6
CONTINUOUS
 62
     7
100
AcDbLine
 10
168.4163728456568
 20
-128.55
 30
0.0
 11
170.3163728456568
 21
-128.55
 31
0.0
  0
LINE
  5
14E
330
6F
100
AcDbEntity
  8
ZUWAKU
  6
CONTINUOUS
 62
     7
100
AcDbLine
 10
168.4163728456568
 20
-128.05
 30
0.0
 11
170.3163728456568
 21
-128.05
 31
0.0
  0
LINE
  5
14F
330
6F
100
AcDbEntity
  8
ZUWAKU
  6
CONTINUOUS
 62
     7
100
AcDbLine
 10
168.4163728456568
 20
-132.05
 30
0.0
 11
170.3163728456568
 21
-132.05
 31
0.0
  0
LINE
  5
150
330
6F
100
AcDbEntity
  8
ZUWAKU
  6
CONTINUOUS
 62
     7
100
AcDbLine
 10
168.4163728456568
 20
-132.55
 30
0.0
 11
170.3163728456568
 21
-132.55
 31
0.0
  0
LINE
  5
151
330
6F
100
AcDbEntity
  8
ZUWAKU
  6
CONTINUOUS
 62
     7
100
AcDbLine
 10
168.4163728456568
 20
-133.05
 30
0.0
 11
170.3163728456568
 21
-133.05
 31
0.0
  0
LINE
  5
152
330
6F
100
AcDbEntity
  8
ZUWAKU
  6
CONTINUOUS
 62
     7
100
AcDbLine
 10
166.4163728456568
 20
-133.55
 30
0.0
 11
172.4163728456568
 21
-133.55
 31
0.0
  0
LINE
  5
153
330
6F
100
AcDbEntity
  8
ZUWAKU
  6
CONTINUOUS
 62
     7
100
AcDbLine
 10
166.4163728456568
 20
-134.05
 30
0.0
 11
172.4163728456568
 21
-134.05
 31
0.0
  0
LINE
  5
154
330
6F
100
AcDbEntity
  8
ZUWAKU
  6
CONTINUOUS
 62
     7
100
AcDbLine
 10
166.4163728456568
 20
-134.55
 30
0.0
 11
172.4163728456568
 21
-134.55
 31
0.0
  0
LINE
  5
155
330
6F
100
AcDbEntity
  8
ZUWAKU
  6
CONTINUOUS
 62
     7
100
AcDbLine
 10
166.4163728456568
 20
-135.05
 30
0.0
 11
172.4163728456568
 21
-135.05
 31
0.0
  0
ENDBLK
  5
71
330
6F
100
AcDbEntity
  8
0
100
AcDbBlockEnd
  0
BLOCK
  5
73
330
72
100
AcDbEntity
  8
0
100
AcDbBlockBegin
  2
DC_GROUP_14
 70
     0
 71
     0
 10
0.0
 20
0.0
 30
0.0
  3
DC_GROUP_14
  1

  0
LINE
  5
156
330
72
100
AcDbEntity
  8
ZUWAKU
  6
CONTINUOUS
 62
     7
100
AcDbLine
 10
148.53659593608
 20
-129.1512995588781
 30
0.0
 11
152.6827745314139
 21
-129.1512995588781
 31
0.0
  0
LINE
  5
157
330
72
100
AcDbEntity
  8
ZUWAKU
  6
CONTINUOUS
 62
     7
100
AcDbLine
 10
152.7537677038454
 20
-129.1512995588781
 30
0.0
 11
156.919704031706
 21
-129.1512995588781
 31
0.0
  0
LINE
  5
158
330
72
100
AcDbEntity
  8
ZUWAKU
  6
CONTINUOUS
 62
     7
100
AcDbLine
 10
149.647730764762
 20
-128.6512995588781
 30
0.0
 11
155.7936103080192
 21
-128.6512995588781
 31
0.0
  0
LINE
  5
159
330
72
100
AcDbEntity
  8
ZUWAKU
  6
CONTINUOUS
 62
     7
100
AcDbLine
 10
150.3808204717105
 20
-128.1512995588781
 30
0.0
 11
155.0550444732114
 21
-128.1512995588781
 31
0.0
  0
LINE
  5
15A
330
72
100
AcDbEntity
  8
ZUWAKU
  6
CONTINUOUS
 62
     7
100
AcDbLine
 10
147.2163728456568
 20
-129.6512995588781
 30
0.0
 11
151.7655682998408
 21
-129.6512995588781
 31
0.0
  0
LINE
  5
15B
330
72
100
AcDbEntity
  8
ZUWAKU
  6
CONTINUOUS
 62
     7
100
AcDbLine
 10
153.7687259431705
 20
-129.6512995588781
 30
0.0
 11
159.2163728456568
 21
-129.6512995588781
 31
0.0
  0
LINE
  5
15C
330
72
100
AcDbEntity
  8
ZUWAKU
  6
CONTINUOUS
 62
     7
100
AcDbLine
 10
147.2163728456568
 20
-130.1512995588781
 30
0.0
 11
150.5110681543286
 21
-130.1512995588781
 31
0.0
  0
LINE
  5
15D
330
72
100
AcDbEntity
  8
ZUWAKU
  6
CONTINUOUS
 62
     7
100
AcDbLine
 10
155.1396032344489
 20
-130.1512995588781
 30
0.0
 11
159.2163728456568
 21
-130.1512995588781
 31
0.0
  0
ENDBLK
  5
74
330
72
100
AcDbEntity
  8
0
100
AcDbBlockEnd
  0
BLOCK
  5
76
330
75
100
AcDbEntity
  8
0
100
AcDbBlockBegin
  2
DC_GROUP_15
 70
     0
 71
     0
 10
0.0
 20
0.0
 30
0.0
  3
DC_GROUP_15
  1

  0
LINE
  5
15E
330
75
100
AcDbEntity
  8
ZUWAKU
  6
CONTINUOUS
 62
     7
100
AcDbLine
 10
162.4372031523923
 20
-131.55
 30
0.0
 11
165.0309087734352
 21
-131.55
 31
0.0
  0
LINE
  5
15F
330
75
100
AcDbEntity
  8
ZUWAKU
  6
CONTINUOUS
 62
     7
100
AcDbLine
 10
163.0235540538986
 20
-131.05
 30
0.0
 11
165.2616456754909
 21
-131.05
 31
0.0
  0
LINE
  5
160
330
75
100
AcDbEntity
  8
ZUWAKU
  6
CONTINUOUS
 62
     7
100
AcDbLine
 10
163.3899766640403
 20
-130.55
 30
0.0
 11
165.5505367479891
 21
-130.55
 31
0.0
  0
LINE
  5
161
330
75
100
AcDbEntity
  8
ZUWAKU
  6
CONTINUOUS
 62
     7
100
AcDbLine
 10
160.6163728456568
 20
-130.05
 30
0.0
 11
165.7631269437853
 21
-130.05
 31
0.0
  0
LINE
  5
162
330
75
100
AcDbEntity
  8
ZUWAKU
  6
CONTINUOUS
 62
     7
100
AcDbLine
 10
160.6163728456568
 20
-129.55
 30
0.0
 11
165.9102932726119
 21
-129.55
 31
0.0
  0
LINE
  5
163
330
75
100
AcDbEntity
  8
ZUWAKU
  6
CONTINUOUS
 62
     7
100
AcDbLine
 10
160.6163728456568
 20
-129.05
 30
0.0
 11
165.9983642039967
 21
-129.05
 31
0.0
  0
LINE
  5
164
330
75
100
AcDbEntity
  8
ZUWAKU
  6
CONTINUOUS
 62
     7
100
AcDbLine
 10
162.6163728456568
 20
-128.55
 30
0.0
 11
164.2163728456568
 21
-128.55
 31
0.0
  0
LINE
  5
165
330
75
100
AcDbEntity
  8
ZUWAKU
  6
CONTINUOUS
 62
     7
100
AcDbLine
 10
162.6163728456568
 20
-128.05
 30
0.0
 11
164.2163728456568
 21
-128.05
 31
0.0
  0
LINE
  5
166
330
75
100
AcDbEntity
  8
ZUWAKU
  6
CONTINUOUS
 62
     7
100
AcDbLine
 10
160.6163728456568
 20
-132.05
 30
0.0
 11
166.0163728456568
 21
-132.05
 31
0.0
  0
LINE
  5
167
330
75
100
AcDbEntity
  8
ZUWAKU
  6
CONTINUOUS
 62
     7
100
AcDbLine
 10
160.6163728456568
 20
-132.55
 30
0.0
 11
164.2163728456568
 21
-132.55
 31
0.0
  0
LINE
  5
168
330
75
100
AcDbEntity
  8
ZUWAKU
  6
CONTINUOUS
 62
     7
100
AcDbLine
 10
164.4937661375371
 20
-132.55
 30
0.0
 11
166.0163728456568
 21
-132.55
 31
0.0
  0
LINE
  5
169
330
75
100
AcDbEntity
  8
ZUWAKU
  6
CONTINUOUS
 62
     7
100
AcDbLine
 10
160.6163728456568
 20
-133.05
 30
0.0
 11
161.2391757382088
 21
-133.05
 31
0.0
  0
LINE
  5
16A
330
75
100
AcDbEntity
  8
ZUWAKU
  6
CONTINUOUS
 62
     7
100
AcDbLine
 10
162.6163728456568
 20
-133.05
 30
0.0
 11
164.2163728456568
 21
-133.05
 31
0.0
  0
LINE
  5
16B
330
75
100
AcDbEntity
  8
ZUWAKU
  6
CONTINUOUS
 62
     7
100
AcDbLine
 10
162.6163728456568
 20
-133.55
 30
0.0
 11
164.2163728456568
 21
-133.55
 31
0.0
  0
LINE
  5
16C
330
75
100
AcDbEntity
  8
ZUWAKU
  6
CONTINUOUS
 62
     7
100
AcDbLine
 10
162.6163728456568
 20
-134.05
 30
0.0
 11
164.2163728456568
 21
-134.05
 31
0.0
  0
LINE
  5
16D
330
75
100
AcDbEntity
  8
ZUWAKU
  6
CONTINUOUS
 62
     7
100
AcDbLine
 10
162.6163728456568
 20
-134.55
 30
0.0
 11
164.2163728456568
 21
-134.55
 31
0.0
  0
LINE
  5
16E
330
75
100
AcDbEntity
  8
ZUWAKU
  6
CONTINUOUS
 62
     7
100
AcDbLine
 10
162.6163728456568
 20
-135.05
 30
0.0
 11
164.2163728456568
 21
-135.05
 31
0.0
  0
ENDBLK
  5
77
330
75
100
AcDbEntity
  8
0
100
AcDbBlockEnd
  0
BLOCK
  5
79
330
78
100
AcDbEntity
  8
0
100
AcDbBlockBegin
  2
DC_GROUP_16
 70
     0
 71
     0
 10
0.0
 20
0.0
 30
0.0
  3
DC_GROUP_16
  1

  0
LINE
  5
16F
330
78
100
AcDbEntity
  8
ZUWAKU
  6
CONTINUOUS
 62
     7
100
AcDbLine
 10
160.6163728456568
 20
-132.0361668241051
 30
0.0
 11
160.7999359294301
 21
-132.0361668241051
 31
0.0
  0
LINE
  5
170
330
78
100
AcDbEntity
  8
ZUWAKU
  6
CONTINUOUS
 62
     7
100
AcDbLine
 10
160.6163728456568
 20
-133.0524216486367
 30
0.0
 11
161.0835787514163
 21
-133.0524216486367
 31
0.0
  0
LINE
  5
171
330
78
100
AcDbEntity
  8
ZUWAKU
  6
CONTINUOUS
 62
     7
100
AcDbLine
 10
160.6163728456568
 20
-128.8694543431024
 30
0.0
 11
160.6163728456568
 21
-130.0694543431024
 31
0.0
  0
LINE
  5
172
330
78
100
AcDbEntity
  8
ZUWAKU
  6
CONTINUOUS
 62
     7
100
AcDbLine
 10
164.2163728456568
 20
-127.6694543431024
 30
0.0
 11
164.2163728456568
 21
-128.8694543431024
 31
0.0
  0
LINE
  5
173
330
78
100
AcDbEntity
  8
ZUWAKU
  6
CONTINUOUS
 62
     7
100
AcDbLine
 10
166.4163728456568
 20
-135.4305456568976
 30
0.0
 11
172.4163728456568
 21
-135.4305456568976
 31
0.0
  0
LINE
  5
174
330
78
100
AcDbEntity
  8
ZUWAKU
  6
CONTINUOUS
 62
     7
100
AcDbLine
 10
162.6163728456568
 20
-132.8116802321412
 30
0.0
 11
162.6163728456568
 21
-135.4305456568976
 31
0.0
  0
LINE
  5
175
330
78
100
AcDbEntity
  8
ZUWAKU
  6
CONTINUOUS
 62
     7
100
AcDbLine
 10
160.6163728456568
 20
-130.0694543431024
 30
0.0
 11
163.6163728456568
 21
-130.0694543431024
 31
0.0
  0
LINE
  5
176
330
78
100
AcDbEntity
  8
ZUWAKU
  6
CONTINUOUS
 62
     7
100
AcDbLine
 10
164.2163728456568
 20
-128.8694543431024
 30
0.0
 11
166.0163728456568
 21
-128.8694543431024
 31
0.0
  0
LINE
  5
177
330
78
100
AcDbEntity
  8
ZUWAKU
  6
CONTINUOUS
 62
     7
100
AcDbLine
 10
160.6163728456568
 20
-128.8694543431024
 30
0.0
 11
162.6163728456568
 21
-128.8694543431024
 31
0.0
  0
LINE
  5
178
330
78
100
AcDbEntity
  8
ZUWAKU
  6
CONTINUOUS
 62
     7
100
AcDbLine
 10
170.3163728456568
 20
-130.0694543431024
 30
0.0
 11
171.9163728456568
 21
-130.0694543431024
 31
0.0
  0
LINE
  5
179
330
78
100
AcDbEntity
  8
ZUWAKU
  6
CONTINUOUS
 62
     7
100
AcDbLine
 10
170.3163728456568
 20
-128.8694543431024
 30
0.0
 11
171.9163728456568
 21
-128.8694543431024
 31
0.0
  0
LINE
  5
17A
330
78
100
AcDbEntity
  8
ZUWAKU
  6
CONTINUOUS
 62
     7
100
AcDbLine
 10
170.3163728456568
 20
-130.0694543431024
 30
0.0
 11
170.3163728456568
 21
-133.4694543431024
 31
0.0
  0
LINE
  5
17B
330
78
100
AcDbEntity
  8
ZUWAKU
  6
CONTINUOUS
 62
     7
100
AcDbLine
 10
170.3163728456568
 20
-133.4694543431024
 30
0.0
 11
172.4163728456568
 21
-133.4694543431024
 31
0.0
  0
LINE
  5
17C
330
78
100
AcDbEntity
  8
ZUWAKU
  6
CONTINUOUS
 62
     7
100
AcDbLine
 10
162.6163728456568
 20
-127.6694543431024
 30
0.0
 11
164.2163728456568
 21
-127.6694543431024
 31
0.0
  0
LINE
  5
17D
330
78
100
AcDbEntity
  8
ZUWAKU
  6
CONTINUOUS
 62
     7
100
AcDbLine
 10
166.4163728456568
 20
-133.4694543431024
 30
0.0
 11
168.4163728456568
 21
-133.4694543431024
 31
0.0
  0
LINE
  5
17E
330
78
100
AcDbEntity
  8
ZUWAKU
  6
CONTINUOUS
 62
     7
100
AcDbLine
 10
168.4163728456568
 20
-130.0694543431024
 30
0.0
 11
168.4163728456568
 21
-133.4694543431024
 31
0.0
  0
LINE
  5
17F
330
78
100
AcDbEntity
  8
ZUWAKU
  6
CONTINUOUS
 62
     7
100
AcDbLine
 10
166.6163728456568
 20
-130.0694543431024
 30
0.0
 11
168.4163728456568
 21
-130.0694543431024
 31
0.0
  0
LINE
  5
180
330
78
100
AcDbEntity
  8
ZUWAKU
  6
CONTINUOUS
 62
     7
100
AcDbLine
 10
168.4163728456568
 20
-127.6694543431024
 30
0.0
 11
170.3163728456568
 21
-127.6694543431024
 31
0.0
  0
LINE
  5
181
330
78
100
AcDbEntity
  8
ZUWAKU
  6
CONTINUOUS
 62
     7
100
AcDbLine
 10
166.6163728456568
 20
-128.8694543431024
 30
0.0
 11
168.4163728456568
 21
-128.8694543431024
 31
0.0
  0
LINE
  5
182
330
78
100
AcDbEntity
  8
ZUWAKU
  6
CONTINUOUS
 62
     7
100
AcDbLine
 10
162.6163728456568
 20
-135.4305456568976
 30
0.0
 11
164.2163728456568
 21
-135.4305456568976
 31
0.0
  0
LINE
  5
183
330
78
100
AcDbEntity
  8
ZUWAKU
  6
CONTINUOUS
 62
     7
100
AcDbLine
 10
172.4163728456568
 20
-133.4694543431024
 30
0.0
 11
172.4163728456568
 21
-135.4305456568976
 31
0.0
  0
LINE
  5
184
330
78
100
AcDbEntity
  8
ZUWAKU
  6
CONTINUOUS
 62
     7
100
AcDbLine
 10
155.0163728456568
 20
-133.8305456568976
 30
0.0
 11
154.8163728456569
 21
-133.6305456568977
 31
0.0
  0
LINE
  5
185
330
78
100
AcDbEntity
  8
ZUWAKU
  6
CONTINUOUS
 62
     7
100
AcDbLine
 10
170.3163728456568
 20
-127.6694543431024
 30
0.0
 11
170.3163728456568
 21
-128.8694543431024
 31
0.0
  0
LINE
  5
186
330
78
100
AcDbEntity
  8
ZUWAKU
  6
CONTINUOUS
 62
     7
100
AcDbLine
 10
171.9163728456568
 20
-128.8694543431024
 30
0.0
 11
171.9163728456568
 21
-130.0694543431024
 31
0.0
  0
LINE
  5
187
330
78
100
AcDbEntity
  8
ZUWAKU
  6
CONTINUOUS
 62
     7
100
AcDbLine
 10
166.4163728456568
 20
-133.4694543431024
 30
0.0
 11
166.4163728456568
 21
-135.4305456568976
 31
0.0
  0
LINE
  5
188
330
78
100
AcDbEntity
  8
ZUWAKU
  6
CONTINUOUS
 62
     7
100
AcDbLine
 10
159.2163728456568
 20
-134.6305456568976
 30
0.0
 11
159.2163728456568
 21
-135.4305456568976
 31
0.0
  0
LINE
  5
189
330
78
100
AcDbEntity
  8
ZUWAKU
  6
CONTINUOUS
 62
     7
100
AcDbLine
 10
168.4163728456568
 20
-127.6694543431024
 30
0.0
 11
168.4163728456568
 21
-128.8694543431024
 31
0.0
  0
LINE
  5
18A
330
78
100
AcDbEntity
  8
ZUWAKU
  6
CONTINUOUS
 62
     7
100
AcDbLine
 10
151.6163728456567
 20
-133.6305456568975
 30
0.0
 11
151.2163728456567
 21
-134.4305456568976
 31
0.0
  0
LINE
  5
18B
330
78
100
AcDbEntity
  8
ZUWAKU
  6
CONTINUOUS
 62
     7
100
AcDbLine
 10
151.6163728456568
 20
-133.6305456568976
 30
0.0
 11
154.8163728456568
 21
-133.6305456568976
 31
0.0
  0
LINE
  5
18C
330
78
100
AcDbEntity
  8
ZUWAKU
  6
CONTINUOUS
 62
     7
100
AcDbLine
 10
157.4163728456568
 20
-133.6305456568976
 30
0.0
 11
159.2163728456568
 21
-133.6305456568976
 31
0.0
  0
LINE
  5
18D
330
78
100
AcDbEntity
  8
ZUWAKU
  6
CONTINUOUS
 62
     7
100
AcDbLine
 10
149.2163728456567
 20
-133.6305456568975
 30
0.0
 11
148.2163728456567
 21
-135.4305456568975
 31
0.0
  0
LINE
  5
18E
330
78
100
AcDbEntity
  8
ZUWAKU
  6
CONTINUOUS
 62
     7
100
AcDbLine
 10
166.6163728456568
 20
-128.8694543431024
 30
0.0
 11
166.6163728456568
 21
-130.0694543431024
 31
0.0
  0
LINE
  5
18F
330
78
100
AcDbEntity
  8
ZUWAKU
  6
CONTINUOUS
 62
     7
100
AcDbLine
 10
159.2163728456568
 20
-129.4305456568976
 30
0.0
 11
159.2163728456568
 21
-130.6331447746538
 31
0.0
  0
LINE
  5
190
330
78
100
AcDbEntity
  8
ZUWAKU
  6
CONTINUOUS
 62
     7
100
AcDbLine
 10
147.2163728456568
 20
-129.4305456568976
 30
0.0
 11
147.2163728456568
 21
-130.6331447746538
 31
0.0
  0
LINE
  5
191
330
78
100
AcDbEntity
  8
ZUWAKU
  6
CONTINUOUS
 62
     7
100
AcDbLine
 10
166.0163728456568
 20
-132.0305456568976
 30
0.0
 11
166.0163728456568
 21
-133.0305456568976
 31
0.0
  0
LINE
  5
192
330
78
100
AcDbEntity
  8
ZUWAKU
  6
CONTINUOUS
 62
     7
100
AcDbLine
 10
162.6163728456568
 20
-127.6694543431024
 30
0.0
 11
162.6163728456568
 21
-128.8694543431024
 31
0.0
  0
LINE
  5
193
330
78
100
AcDbEntity
  8
ZUWAKU
  6
CONTINUOUS
 62
     7
100
AcDbLine
 10
147.2163728456568
 20
-130.6331447746538
 30
0.0
 11
147.4443544232267
 21
-130.6331447746538
 31
0.0
  0
LINE
  5
194
330
78
100
AcDbEntity
  8
ZUWAKU
  6
CONTINUOUS
 62
     7
100
AcDbLine
 10
164.2163728456568
 20
-132.5305456568976
 30
0.0
 11
164.2163728456568
 21
-135.4305456568976
 31
0.0
  0
LINE
  5
195
330
78
100
AcDbEntity
  8
ZUWAKU
  6
CONTINUOUS
 62
     7
100
AcDbLine
 10
151.2163728456568
 20
-134.4305456568976
 30
0.0
 11
152.9092420950863
 21
-134.4305456568976
 31
0.0
  0
LINE
  5
196
330
78
100
AcDbEntity
  8
ZUWAKU
  6
CONTINUOUS
 62
     7
100
AcDbLine
 10
147.2163728456568
 20
-133.6305456568976
 30
0.0
 11
149.2163728456568
 21
-133.6305456568976
 31
0.0
  0
LINE
  5
197
330
78
100
AcDbEntity
  8
ZUWAKU
  6
CONTINUOUS
 62
     7
100
AcDbLine
 10
147.2163728456568
 20
-132.6305456568976
 30
0.0
 11
159.2163728456568
 21
-132.6305456568976
 31
0.0
  0
LINE
  5
198
330
78
100
AcDbEntity
  8
ZUWAKU
  6
CONTINUOUS
 62
     7
100
AcDbLine
 10
148.6163728456568
 20
-132.0305456568976
 30
0.0
 11
157.2163728456568
 21
-132.0305456568976
 31
0.0
  0
LINE
  5
199
330
78
100
AcDbEntity
  8
ZUWAKU
  6
CONTINUOUS
 62
     7
100
AcDbLine
 10
157.9495181016829
 20
-130.6331447746538
 30
0.0
 11
159.2163728456568
 21
-130.6331447746538
 31
0.0
  0
LINE
  5
19A
330
78
100
AcDbEntity
  8
ZUWAKU
  6
CONTINUOUS
 62
     7
100
AcDbLine
 10
148.6163728456568
 20
-131.0305456568976
 30
0.0
 11
157.2163728456568
 21
-131.0305456568976
 31
0.0
  0
LINE
  5
19B
330
78
100
AcDbEntity
  8
ZUWAKU
  6
CONTINUOUS
 62
     7
100
AcDbLine
 10
157.2163728456568
 20
-131.0305456568976
 30
0.0
 11
157.2163728456568
 21
-132.0305456568976
 31
0.0
  0
LINE
  5
19C
330
78
100
AcDbEntity
  8
ZUWAKU
  6
CONTINUOUS
 62
     7
100
AcDbLine
 10
148.6163728456568
 20
-131.0305456568976
 30
0.0
 11
148.6163728456568
 21
-132.0305456568976
 31
0.0
  0
LINE
  5
19D
330
78
100
AcDbEntity
  8
ZUWAKU
  6
CONTINUOUS
 62
     7
100
AcDbLine
 10
159.2163728456568
 20
-132.6305456568976
 30
0.0
 11
159.2163728456568
 21
-133.6305456568976
 31
0.0
  0
LINE
  5
19E
330
78
100
AcDbEntity
  8
ZUWAKU
  6
CONTINUOUS
 62
     7
100
AcDbLine
 10
147.2163728456568
 20
-132.6305456568976
 30
0.0
 11
147.2163728456568
 21
-133.6305456568976
 31
0.0
  0
LINE
  5
19F
330
78
100
AcDbEntity
  8
ZUWAKU
  6
CONTINUOUS
 62
     7
100
AcDbLine
 10
158.7786428876944
 20
-129.4465342528391
 30
0.0
 11
159.2163728456568
 21
-129.4465342528391
 31
0.0
  0
LINE
  5
1A0
330
78
100
AcDbEntity
  8
ZUWAKU
  6
CONTINUOUS
 62
     7
100
AcDbLine
 10
150.9163728456568
 20
-127.6694543431024
 30
0.0
 11
154.5163728456568
 21
-127.6694543431024
 31
0.0
  0
LINE
  5
1A1
330
78
100
AcDbEntity
  8
ZUWAKU
  6
CONTINUOUS
 62
     7
100
AcDbLine
 10
121.3463728456568
 20
-135.4305456568976
 30
0.0
 11
122.9463728456568
 21
-135.4305456568976
 31
0.0
  0
LINE
  5
1A2
330
78
100
AcDbEntity
  8
ZUWAKU
  6
CONTINUOUS
 62
     7
100
AcDbLine
 10
127.1463728456568
 20
-135.4305456568976
 30
0.0
 11
128.9463728456568
 21
-135.4305456568976
 31
0.0
  0
LINE
  5
1A3
330
78
100
AcDbEntity
  8
ZUWAKU
  6
CONTINUOUS
 62
     7
100
AcDbLine
 10
144.1963728456568
 20
-132.7305456568976
 30
0.0
 11
145.6963728456568
 21
-132.7305456568976
 31
0.0
  0
LINE
  5
1A4
330
78
100
AcDbEntity
  8
ZUWAKU
  6
CONTINUOUS
 62
     7
100
AcDbLine
 10
142.7963728456568
 20
-129.8694543431024
 30
0.0
 11
145.7163728456568
 21
-129.8694543431024
 31
0.0
  0
LINE
  5
1A5
330
78
100
AcDbEntity
  8
ZUWAKU
  6
CONTINUOUS
 62
     7
100
AcDbLine
 10
144.1963728456568
 20
-127.6694543431024
 30
0.0
 11
145.7163728456568
 21
-127.6694543431024
 31
0.0
  0
LINE
  5
1A6
330
78
100
AcDbEntity
  8
ZUWAKU
  6
CONTINUOUS
 62
     7
100
AcDbLine
 10
137.9463728456568
 20
-131.9694543431024
 30
0.0
 11
139.7463728456568
 21
-131.9694543431024
 31
0.0
  0
LINE
  5
1A7
330
78
100
AcDbEntity
  8
ZUWAKU
  6
CONTINUOUS
 62
     7
100
AcDbLine
 10
133.1463728456568
 20
-131.9694543431024
 30
0.0
 11
135.8463728456568
 21
-131.9694543431024
 31
0.0
  0
LINE
  5
1A8
330
78
100
AcDbEntity
  8
ZUWAKU
  6
CONTINUOUS
 62
     7
100
AcDbLine
 10
133.1463728456568
 20
-129.8694543431024
 30
0.0
 11
133.1463728456568
 21
-128.8694543431024
 31
0.0
  0
LINE
  5
1A9
330
78
100
AcDbEntity
  8
ZUWAKU
  6
CONTINUOUS
 62
     7
100
AcDbLine
 10
140.6463728456568
 20
-135.4305456568976
 30
0.0
 11
142.7963728456568
 21
-135.4305456568976
 31
0.0
  0
LINE
  5
1AA
330
78
100
AcDbEntity
  8
ZUWAKU
  6
CONTINUOUS
 62
     7
100
AcDbLine
 10
137.9463728456568
 20
-133.3694543431024
 30
0.0
 11
139.7463728456568
 21
-133.3694543431024
 31
0.0
  0
LINE
  5
1AB
330
78
100
AcDbEntity
  8
ZUWAKU
  6
CONTINUOUS
 62
     7
100
AcDbLine
 10
133.1463728456568
 20
-133.3694543431024
 30
0.0
 11
133.1463728456568
 21
-135.4305456568976
 31
0.0
  0
LINE
  5
1AC
330
78
100
AcDbEntity
  8
ZUWAKU
  6
CONTINUOUS
 62
     7
100
AcDbLine
 10
140.6463728456568
 20
-129.8694543431024
 30
0.0
 11
140.6463728456568
 21
-135.4305456568976
 31
0.0
  0
LINE
  5
1AD
330
78
100
AcDbEntity
  8
ZUWAKU
  6
CONTINUOUS
 62
     7
100
AcDbLine
 10
133.1463728456568
 20
-133.3694543431024
 30
0.0
 11
135.8463728456568
 21
-133.3694543431024
 31
0.0
  0
LINE
  5
1AE
330
78
100
AcDbEntity
  8
ZUWAKU
  6
CONTINUOUS
 62
     7
100
AcDbLine
 10
139.7463728456568
 20
-133.3694543431024
 30
0.0
 11
139.7463728456568
 21
-134.6305456568976
 31
0.0
  0
LINE
  5
1AF
330
78
100
AcDbEntity
  8
ZUWAKU
  6
CONTINUOUS
 62
     7
100
AcDbLine
 10
142.7963728456568
 20
-129.8694543431024
 30
0.0
 11
142.7963728456568
 21
-134.4305456568976
 31
0.0
  0
LINE
  5
1B0
330
78
100
AcDbEntity
  8
ZUWAKU
  6
CONTINUOUS
 62
     7
100
AcDbLine
 10
137.9463728456568
 20
-131.9694543431024
 30
0.0
 11
137.9463728456568
 21
-133.3694543431024
 31
0.0
  0
LINE
  5
1B1
330
78
100
AcDbEntity
  8
ZUWAKU
  6
CONTINUOUS
 62
     7
100
AcDbLine
 10
135.8463728456568
 20
-131.9694543431024
 30
0.0
 11
135.8463728456568
 21
-133.3694543431024
 31
0.0
  0
LINE
  5
1B2
330
78
100
AcDbEntity
  8
ZUWAKU
  6
CONTINUOUS
 62
     7
100
AcDbLine
 10
142.7963728456568
 20
-128.8694543431024
 30
0.0
 11
144.1963728456568
 21
-128.8694543431024
 31
0.0
  0
LINE
  5
1B3
330
78
100
AcDbEntity
  8
ZUWAKU
  6
CONTINUOUS
 62
     7
100
AcDbLine
 10
131.7463728456568
 20
-130.6694543431024
 30
0.0
 11
131.7463728456568
 21
-131.7694543431024
 31
0.0
  0
LINE
  5
1B4
330
78
100
AcDbEntity
  8
ZUWAKU
  6
CONTINUOUS
 62
     7
100
AcDbLine
 10
133.1463728456568
 20
-131.0694543431024
 30
0.0
 11
133.1463728456568
 21
-131.9694543431024
 31
0.0
  0
LINE
  5
1B5
330
78
100
AcDbEntity
  8
ZUWAKU
  6
CONTINUOUS
 62
     7
100
AcDbLine
 10
148.2163728456568
 20
-135.4305456568976
 30
0.0
 11
151.6971892572037
 21
-135.4305456568976
 31
0.0
  0
LINE
  5
1B6
330
78
100
AcDbEntity
  8
ZUWAKU
  6
CONTINUOUS
 62
     7
100
AcDbLine
 10
133.1463728456568
 20
-131.0694543431024
 30
0.0
 11
139.7463728456568
 21
-131.0694543431024
 31
0.0
  0
LINE
  5
1B7
330
78
100
AcDbEntity
  8
ZUWAKU
  6
CONTINUOUS
 62
     7
100
AcDbLine
 10
121.3463728456568
 20
-133.0569023297954
 30
0.0
 11
121.3463728456568
 21
-135.4305456568976
 31
0.0
  0
LINE
  5
1B8
330
78
100
AcDbEntity
  8
ZUWAKU
  6
CONTINUOUS
 62
     7
100
AcDbLine
 10
131.7463728456568
 20
-134.4305456568976
 30
0.0
 11
131.7463728456568
 21
-135.4305456568976
 31
0.0
  0
LINE
  5
1B9
330
78
100
AcDbEntity
  8
ZUWAKU
  6
CONTINUOUS
 62
     7
100
AcDbLine
 10
124.3463728456568
 20
-134.2305456568976
 30
0.0
 11
124.3463728456568
 21
-135.4305456568976
 31
0.0
  0
LINE
  5
1BA
330
78
100
AcDbEntity
  8
ZUWAKU
  6
CONTINUOUS
 62
     7
100
AcDbLine
 10
119.3463728456568
 20
-133.3038225185832
 30
0.0
 11
119.3463728456568
 21
-134.4569023297954
 31
0.0
  0
LINE
  5
1BB
330
78
100
AcDbEntity
  8
ZUWAKU
  6
CONTINUOUS
 62
     7
100
AcDbLine
 10
122.9463728456568
 20
-129.8694543431024
 30
0.0
 11
124.1463728456568
 21
-129.8694543431024
 31
0.0
  0
LINE
  5
1BC
330
78
100
AcDbEntity
  8
ZUWAKU
  6
CONTINUOUS
 62
     7
100
AcDbLine
 10
128.9463728456568
 20
-129.8694543431024
 30
0.0
 11
131.5463728456568
 21
-129.8694543431024
 31
0.0
  0
LINE
  5
1BD
330
78
100
AcDbEntity
  8
ZUWAKU
  6
CONTINUOUS
 62
     7
100
AcDbLine
 10
130.4463728456568
 20
-131.7694543431024
 30
0.0
 11
131.7463728456568
 21
-131.7694543431024
 31
0.0
  0
LINE
  5
1BE
330
78
100
AcDbEntity
  8
ZUWAKU
  6
CONTINUOUS
 62
     7
100
AcDbLine
 10
128.9463728456568
 20
-130.6694543431024
 30
0.0
 11
131.7463728456568
 21
-130.6694543431024
 31
0.0
  0
LINE
  5
1BF
330
78
100
AcDbEntity
  8
ZUWAKU
  6
CONTINUOUS
 62
     7
100
AcDbLine
 10
128.9463728456568
 20
-133.6305456568976
 30
0.0
 11
128.9463728456568
 21
-135.4305456568976
 31
0.0
  0
LINE
  5
1C0
330
78
100
AcDbEntity
  8
ZUWAKU
  6
CONTINUOUS
 62
     7
100
AcDbLine
 10
127.1463728456568
 20
-133.4305456568976
 30
0.0
 11
127.1463728456568
 21
-135.4305456568976
 31
0.0
  0
LINE
  5
1C1
330
78
100
AcDbEntity
  8
ZUWAKU
  6
CONTINUOUS
 62
     7
100
AcDbLine
 10
124.6463728456568
 20
-130.6694543431024
 30
0.0
 11
124.6463728456568
 21
-131.7694543431024
 31
0.0
  0
LINE
  5
1C2
330
78
100
AcDbEntity
  8
ZUWAKU
  6
CONTINUOUS
 62
     7
100
AcDbLine
 10
122.9463728456568
 20
-131.3694543431024
 30
0.0
 11
122.9463728456568
 21
-135.4305456568976
 31
0.0
  0
LINE
  5
1C3
330
78
100
AcDbEntity
  8
ZUWAKU
  6
CONTINUOUS
 62
     7
100
AcDbLine
 10
120.9463728456568
 20
-133.0569023297954
 30
0.0
 11
121.3463728456568
 21
-133.0569023297954
 31
0.0
  0
LINE
  5
1C4
330
78
100
AcDbEntity
  8
ZUWAKU
  6
CONTINUOUS
 62
     7
100
AcDbLine
 10
124.1463728456568
 20
-130.6694543431024
 30
0.0
 11
124.1463728456568
 21
-131.7694543431024
 31
0.0
  0
LINE
  5
1C5
330
78
100
AcDbEntity
  8
ZUWAKU
  6
CONTINUOUS
 62
     7
100
AcDbLine
 10
124.6463728456568
 20
-129.8694543431024
 30
0.0
 11
127.1463728456568
 21
-129.8694543431024
 31
0.0
  0
LINE
  5
1C6
330
78
100
AcDbEntity
  8
ZUWAKU
  6
CONTINUOUS
 62
     7
100
AcDbLine
 10
128.9463728456568
 20
-128.8694543431024
 30
0.0
 11
131.5463728456568
 21
-128.8694543431024
 31
0.0
  0
LINE
  5
1C7
330
78
100
AcDbEntity
  8
ZUWAKU
  6
CONTINUOUS
 62
     7
100
AcDbLine
 10
126.2063728456568
 20
-128.8694543431024
 30
0.0
 11
127.1463728456568
 21
-128.8694543431024
 31
0.0
  0
LINE
  5
1C8
330
78
100
AcDbEntity
  8
ZUWAKU
  6
CONTINUOUS
 62
     7
100
AcDbLine
 10
127.1463728456568
 20
-127.6694543431024
 30
0.0
 11
128.9463728456568
 21
-127.6694543431024
 31
0.0
  0
LINE
  5
1C9
330
78
100
AcDbEntity
  8
ZUWAKU
  6
CONTINUOUS
 62
     7
100
AcDbLine
 10
122.9463728456568
 20
-128.8694543431024
 30
0.0
 11
124.1463728456568
 21
-128.8694543431024
 31
0.0
  0
LINE
  5
1CA
330
78
100
AcDbEntity
  8
ZUWAKU
  6
CONTINUOUS
 62
     7
100
AcDbLine
 10
122.9463728456568
 20
-131.3694543431025
 30
0.0
 11
124.1463728456568
 21
-131.7694543431024
 31
0.0
  0
LINE
  5
1CB
330
78
100
AcDbEntity
  8
ZUWAKU
  6
CONTINUOUS
 62
     7
100
AcDbLine
 10
122.9463728456569
 20
-129.8694543431023
 30
0.0
 11
124.1463728456568
 21
-130.6694543431023
 31
0.0
  0
LINE
  5
1CC
330
78
100
AcDbEntity
  8
ZUWAKU
  6
CONTINUOUS
 62
     7
100
AcDbLine
 10
128.9463728456568
 20
-129.8694543431024
 30
0.0
 11
128.9463728456568
 21
-130.6694543431024
 31
0.0
  0
LINE
  5
1CD
330
78
100
AcDbEntity
  8
ZUWAKU
  6
CONTINUOUS
 62
     7
100
AcDbLine
 10
124.6463728456568
 20
-127.6694543431024
 30
0.0
 11
124.6463728456568
 21
-129.8694543431024
 31
0.0
  0
LINE
  5
1CE
330
78
100
AcDbEntity
  8
ZUWAKU
  6
CONTINUOUS
 62
     7
100
AcDbLine
 10
133.1463728456568
 20
-135.4305456568976
 30
0.0
 11
135.0000668278699
 21
-135.4305456568976
 31
0.0
  0
LINE
  5
1CF
330
78
100
AcDbEntity
  8
ZUWAKU
  6
CONTINUOUS
 62
     7
100
AcDbLine
 10
140.6463728456568
 20
-127.6694543431024
 30
0.0
 11
142.7963728456568
 21
-127.6694543431024
 31
0.0
  0
LINE
  5
1D0
330
78
100
AcDbEntity
  8
ZUWAKU
  6
CONTINUOUS
 62
     7
100
AcDbLine
 10
140.6463728456568
 20
-127.6694543431024
 30
0.0
 11
140.6463728456568
 21
-128.8694543431024
 31
0.0
  0
LINE
  5
1D1
330
78
100
AcDbEntity
  8
ZUWAKU
  6
CONTINUOUS
 62
     7
100
AcDbLine
 10
124.6463728456568
 20
-131.7694543431024
 30
0.0
 11
125.9463728456568
 21
-131.7694543431024
 31
0.0
  0
LINE
  5
1D2
330
78
100
AcDbEntity
  8
ZUWAKU
  6
CONTINUOUS
 62
     7
100
AcDbLine
 10
124.6463728456568
 20
-130.6694543431024
 30
0.0
 11
127.1463728456568
 21
-130.6694543431024
 31
0.0
  0
LINE
  5
1D3
330
78
100
AcDbEntity
  8
ZUWAKU
  6
CONTINUOUS
 62
     7
100
AcDbLine
 10
127.1463728456568
 20
-129.8694543431024
 30
0.0
 11
127.1463728456568
 21
-130.6694543431024
 31
0.0
  0
LINE
  5
1D4
330
78
100
AcDbEntity
  8
ZUWAKU
  6
CONTINUOUS
 62
     7
100
AcDbLine
 10
145.7163728456568
 20
-127.6694543431024
 30
0.0
 11
145.7163728456568
 21
-129.8694543431024
 31
0.0
  0
LINE
  5
1D5
330
78
100
AcDbEntity
  8
ZUWAKU
  6
CONTINUOUS
 62
     7
100
AcDbLine
 10
144.1963728456568
 20
-127.6694543431024
 30
0.0
 11
144.1963728456568
 21
-128.8694543431024
 31
0.0
  0
LINE
  5
1D6
330
78
100
AcDbEntity
  8
ZUWAKU
  6
CONTINUOUS
 62
     7
100
AcDbLine
 10
142.7963728456568
 20
-127.6694543431024
 30
0.0
 11
142.7963728456568
 21
-128.8694543431024
 31
0.0
  0
LINE
  5
1D7
330
78
100
AcDbEntity
  8
ZUWAKU
  6
CONTINUOUS
 62
     7
100
AcDbLine
 10
133.1463728456568
 20
-128.8694543431024
 30
0.0
 11
140.6463728456568
 21
-128.8694543431024
 31
0.0
  0
LINE
  5
1D8
330
78
100
AcDbEntity
  8
ZUWAKU
  6
CONTINUOUS
 62
     7
100
AcDbLine
 10
133.1463728456568
 20
-129.8694543431024
 30
0.0
 11
140.6463728456568
 21
-129.8694543431024
 31
0.0
  0
LINE
  5
1D9
330
78
100
AcDbEntity
  8
ZUWAKU
  6
CONTINUOUS
 62
     7
100
AcDbLine
 10
133.1463728456568
 20
-131.9694543431024
 30
0.0
 11
135.8463728456568
 21
-131.9694543431024
 31
0.0
  0
LINE
  5
1DA
330
78
100
AcDbEntity
  8
ZUWAKU
  6
CONTINUOUS
 62
     7
100
AcDbLine
 10
131.5463728456568
 20
-128.8694543431024
 30
0.0
 11
131.5463728456568
 21
-129.8694543431024
 31
0.0
  0
LINE
  5
1DB
330
78
100
AcDbEntity
  8
ZUWAKU
  6
CONTINUOUS
 62
     7
100
AcDbLine
 10
160.6163728456568
 20
-132.0305456568976
 30
0.0
 11
160.6163728456568
 21
-133.0524216486367
 31
0.0
  0
LINE
  5
1DC
330
78
100
AcDbEntity
  8
ZUWAKU
  6
CONTINUOUS
 62
     7
100
AcDbLine
 10
121.5463728456568
 20
-127.6694543431024
 30
0.0
 11
122.9463728456568
 21
-127.6694543431024
 31
0.0
  0
LINE
  5
1DD
330
78
100
AcDbEntity
  8
ZUWAKU
  6
CONTINUOUS
 62
     7
100
AcDbLine
 10
126.2063728456568
 20
-127.6694543431024
 30
0.0
 11
126.2063728456568
 21
-128.8694543431024
 31
0.0
  0
LINE
  5
1DE
330
78
100
AcDbEntity
  8
ZUWAKU
  6
CONTINUOUS
 62
     7
100
AcDbLine
 10
124.6463728456568
 20
-127.6694543431024
 30
0.0
 11
126.2063728456568
 21
-127.6694543431024
 31
0.0
  0
LINE
  5
1DF
330
78
100
AcDbEntity
  8
ZUWAKU
  6
CONTINUOUS
 62
     7
100
AcDbLine
 10
127.1463728456568
 20
-127.6694543431024
 30
0.0
 11
127.1463728456568
 21
-128.8694543431024
 31
0.0
  0
LINE
  5
1E0
330
78
100
AcDbEntity
  8
ZUWAKU
  6
CONTINUOUS
 62
     7
100
AcDbLine
 10
128.9463728456568
 20
-127.6694543431024
 30
0.0
 11
128.9463728456568
 21
-128.8694543431024
 31
0.0
  0
LINE
  5
1E1
330
78
100
AcDbEntity
  8
ZUWAKU
  6
CONTINUOUS
 62
     7
100
AcDbLine
 10
124.1463728456568
 20
-128.8694543431024
 30
0.0
 11
124.1463728456568
 21
-129.8694543431024
 31
0.0
  0
LINE
  5
1E2
330
78
100
AcDbEntity
  8
ZUWAKU
  6
CONTINUOUS
 62
     7
100
AcDbLine
 10
119.4463728456568
 20
-129.8694543431024
 30
0.0
 11
120.7463728456568
 21
-129.8694543431024
 31
0.0
  0
LINE
  5
1E3
330
78
100
AcDbEntity
  8
ZUWAKU
  6
CONTINUOUS
 62
     7
100
AcDbLine
 10
92.44637284565681
 20
-131.0694543431024
 30
0.0
 11
95.80134639299502
 21
-131.0694543431024
 31
0.0
  0
LINE
  5
1E4
330
78
100
AcDbEntity
  8
ZUWAKU
  6
CONTINUOUS
 62
     7
100
AcDbLine
 10
98.44637284565681
 20
-127.6694543431024
 30
0.0
 11
104.5463728456568
 21
-127.6694543431024
 31
0.0
  0
LINE
  5
1E5
330
78
100
AcDbEntity
  8
ZUWAKU
  6
CONTINUOUS
 62
     7
100
AcDbLine
 10
92.44637284565681
 20
-131.0694543431023
 30
0.0
 11
92.44637284565681
 21
-132.8694543431024
 31
0.0
  0
LINE
  5
1E6
330
78
100
AcDbEntity
  8
ZUWAKU
  6
CONTINUOUS
 62
     7
100
AcDbLine
 10
119.4463728456568
 20
-128.8694543431024
 30
0.0
 11
121.5463728456568
 21
-128.8694543431024
 31
0.0
  0
LINE
  5
1E7
330
78
100
AcDbEntity
  8
ZUWAKU
  6
CONTINUOUS
 62
     7
100
AcDbLine
 10
92.44637284565681
 20
-132.8694543431024
 30
0.0
 11
94.75184431632226
 21
-132.8694543431024
 31
0.0
  0
LINE
  5
1E8
330
78
100
AcDbEntity
  8
ZUWAKU
  6
CONTINUOUS
 62
     7
100
AcDbLine
 10
100.4463728456568
 20
-131.0694543431024
 30
0.0
 11
100.4463728456568
 21
-132.8694543431024
 31
0.0
  0
LINE
  5
1E9
330
78
100
AcDbEntity
  8
ZUWAKU
  6
CONTINUOUS
 62
     7
100
AcDbLine
 10
98.50714767707265
 20
-129.2694543431024
 30
0.0
 11
102.1463728456568
 21
-129.2694543431024
 31
0.0
  0
LINE
  5
1EA
330
78
100
AcDbEntity
  8
ZUWAKU
  6
CONTINUOUS
 62
     7
100
AcDbLine
 10
139.7463728456568
 20
-131.0694543431024
 30
0.0
 11
139.7463728456568
 21
-131.9694543431024
 31
0.0
  0
LINE
  5
1EB
330
78
100
AcDbEntity
  8
ZUWAKU
  6
CONTINUOUS
 62
     7
100
AcDbLine
 10
122.9463728456568
 20
-127.6694543431024
 30
0.0
 11
122.9463728456568
 21
-128.8694543431024
 31
0.0
  0
LINE
  5
1EC
330
78
100
AcDbEntity
  8
ZUWAKU
  6
CONTINUOUS
 62
     7
100
AcDbLine
 10
110.7463728456568
 20
-132.2694543431024
 30
0.0
 11
113.9463728456568
 21
-132.2694543431024
 31
0.0
  0
LINE
  5
1ED
330
78
100
AcDbEntity
  8
ZUWAKU
  6
CONTINUOUS
 62
     7
100
AcDbLine
 10
106.5463728456568
 20
-131.6694543431024
 30
0.0
 11
117.9463728456568
 21
-131.6694543431024
 31
0.0
  0
LINE
  5
1EE
330
78
100
AcDbEntity
  8
ZUWAKU
  6
CONTINUOUS
 62
     7
100
AcDbLine
 10
106.5463728456568
 20
-129.6694543431024
 30
0.0
 11
117.9463728456568
 21
-129.6694543431024
 31
0.0
  0
LINE
  5
1EF
330
78
100
AcDbEntity
  8
ZUWAKU
  6
CONTINUOUS
 62
     7
100
AcDbLine
 10
117.9463728456568
 20
-129.6694543431024
 30
0.0
 11
117.9463728456568
 21
-131.6694543431024
 31
0.0
  0
LINE
  5
1F0
330
78
100
AcDbEntity
  8
ZUWAKU
  6
CONTINUOUS
 62
     7
100
AcDbLine
 10
106.5463728456568
 20
-129.6694543431024
 30
0.0
 11
106.5463728456568
 21
-131.6694543431024
 31
0.0
  0
LINE
  5
1F1
330
78
100
AcDbEntity
  8
ZUWAKU
  6
CONTINUOUS
 62
     7
100
AcDbLine
 10
104.5463728456568
 20
-127.6694543431024
 30
0.0
 11
104.5463728456568
 21
-134.4694543431024
 31
0.0
  0
LINE
  5
1F2
330
78
100
AcDbEntity
  8
ZUWAKU
  6
CONTINUOUS
 62
     7
100
AcDbLine
 10
102.1463728456568
 20
-129.2694543431024
 30
0.0
 11
102.1463728456568
 21
-134.8694543431024
 31
0.0
  0
LINE
  5
1F3
330
78
100
AcDbEntity
  8
ZUWAKU
  6
CONTINUOUS
 62
     7
100
AcDbLine
 10
90.58362715434316
 20
-129.2694543431024
 30
0.0
 11
96.04637284565683
 21
-129.2694543431024
 31
0.0
  0
LINE
  5
1F4
330
78
100
AcDbEntity
  8
ZUWAKU
  6
CONTINUOUS
 62
     7
100
AcDbLine
 10
96.04637284565683
 20
-126.0694543431023
 30
0.0
 11
96.04637284565683
 21
-127.6694543431024
 31
0.0
  0
LINE
  5
1F5
330
78
100
AcDbEntity
  8
ZUWAKU
  6
CONTINUOUS
 62
     7
100
AcDbLine
 10
98.44637284565681
 20
-126.0694543431023
 30
0.0
 11
98.44637284565681
 21
-127.6694543431024
 31
0.0
  0
LINE
  5
1F6
330
78
100
AcDbEntity
  8
ZUWAKU
  6
CONTINUOUS
 62
     7
100
AcDbLine
 10
96.04637284565683
 20
-126.0694543431024
 30
0.0
 11
98.44637284565681
 21
-126.0694543431024
 31
0.0
  0
LINE
  5
1F7
330
78
100
AcDbEntity
  8
ZUWAKU
  6
CONTINUOUS
 62
     7
100
AcDbLine
 10
90.58362715434316
 20
-127.6694543431024
 30
0.0
 11
90.58362715434316
 21
-129.2694543431024
 31
0.0
  0
LINE
  5
1F8
330
78
100
AcDbEntity
  8
ZUWAKU
  6
CONTINUOUS
 62
     7
100
AcDbLine
 10
90.58362715434316
 20
-127.6694543431024
 30
0.0
 11
96.04637284565683
 21
-127.6694543431024
 31
0.0
  0
LINE
  5
1F9
330
78
100
AcDbEntity
  8
ZUWAKU
  6
CONTINUOUS
 62
     7
100
AcDbLine
 10
98.03121405164808
 20
-131.0694543431024
 30
0.0
 11
100.4463728456568
 21
-131.0694543431024
 31
0.0
  0
LINE
  5
1FA
330
78
100
AcDbEntity
  8
ZUWAKU
  6
CONTINUOUS
 62
     7
100
AcDbLine
 10
121.5463728456568
 20
-127.6694543431024
 30
0.0
 11
121.5463728456568
 21
-128.8694543431024
 31
0.0
  0
LINE
  5
1FB
330
78
100
AcDbEntity
  8
ZUWAKU
  6
CONTINUOUS
 62
     7
100
AcDbLine
 10
119.4463728456568
 20
-128.8694543431024
 30
0.0
 11
119.4463728456568
 21
-129.8694543431024
 31
0.0
  0
LINE
  5
1FC
330
78
100
AcDbEntity
  8
ZUWAKU
  6
CONTINUOUS
 62
     7
100
AcDbLine
 10
96.98692822066201
 20
-132.8694543431024
 30
0.0
 11
100.4463728456568
 21
-132.8694543431024
 31
0.0
  0
LINE
  5
1FD
330
78
100
AcDbEntity
  8
ZUWAKU
  6
CONTINUOUS
 62
     7
100
AcDbLine
 10
157.2163728456568
 20
-135.4305456568976
 30
0.0
 11
159.2163728456568
 21
-135.4305456568976
 31
0.0
  0
LINE
  5
1FE
330
78
100
AcDbEntity
  8
ZUWAKU
  6
CONTINUOUS
 62
     7
100
AcDbLine
 10
90.58362715434316
 20
-134.4842821983328
 30
0.0
 11
90.58362715434316
 21
-135.6694543431024
 31
0.0
  0
ARC
  5
1FF
330
78
100
AcDbEntity
  8
ZUWAKU
  6
CONTINUOUS
 62
     7
100
AcDbCircle
 10
164.0753964745717
 20
-136.5280605928041
 30
0.0
 40
4.0
100
AcDbArc
 50
60.9715340609843
 51
87.98024394550768
  0
ARC
  5
200
330
78
100
AcDbEntity
  8
ZUWAKU
  6
CONTINUOUS
 62
     7
100
AcDbCircle
 10
161.4309728961217
 20
-128.5032477036166
 30
0.0
 40
4.6
100
AcDbArc
 50
318.8442436704028
 51
355.4338431265014
  0
ARC
  5
201
330
78
100
AcDbEntity
  8
ZUWAKU
  6
CONTINUOUS
 62
     7
100
AcDbCircle
 10
164.6806138811
 20
-133.5190845339868
 30
0.0
 40
2.0
100
AcDbArc
 50
48.09638755561873
 51
83.86317369123302
  0
ARC
  5
202
330
78
100
AcDbEntity
  8
ZUWAKU
  6
CONTINUOUS
 62
     7
100
AcDbCircle
 10
161.0835787514163
 20
-128.0524216486367
 30
0.0
 40
5.0
100
AcDbArc
 50
270.0
 51
287.8519707863945
  0
ARC
  5
203
330
78
100
AcDbEntity
  8
ZUWAKU
  6
CONTINUOUS
 62
     7
100
AcDbCircle
 10
160.7999359294301
 20
-129.0361668241051
 30
0.0
 40
3.0
100
AcDbArc
 50
270.0
 51
339.8530457328942
  0
ARC
  5
204
330
78
100
AcDbEntity
  8
ZUWAKU
  6
CONTINUOUS
 62
     7
100
AcDbCircle
 10
152.9092420950863
 20
-130.4305456568976
 30
0.0
 40
4.0
100
AcDbArc
 50
270.0
 51
301.7883306170518
  0
ARC
  5
205
330
78
100
AcDbEntity
  8
ZUWAKU
  6
CONTINUOUS
 62
     7
100
AcDbCircle
 10
159.1490770106609
 20
-132.6316781598903
 30
0.0
 40
2.0
100
AcDbArc
 50
209.9625441683634
 51
271.9282476334827
  0
ARC
  5
206
330
78
100
AcDbEntity
  8
ZUWAKU
  6
CONTINUOUS
 62
     7
100
AcDbCircle
 10
151.6971892572037
 20
-125.4305456568976
 30
0.0
 40
10.0
100
AcDbArc
 50
270.0
 51
293.073918065631
  0
ARC
  5
207
330
78
100
AcDbEntity
  8
ZUWAKU
  6
CONTINUOUS
 62
     7
100
AcDbCircle
 10
157.2163728456568
 20
-133.4305456568976
 30
0.0
 40
2.0
100
AcDbArc
 50
216.8698976458439
 51
270.0
  0
ARC
  5
208
330
78
100
AcDbEntity
  8
ZUWAKU
  6
CONTINUOUS
 62
     7
100
AcDbCircle
 10
146.6427444155
 20
-123.4580294012382
 30
0.0
 40
6.0
100
AcDbArc
 50
275.4861271989983
 51
315.4200248778122
  0
ARC
  5
209
330
78
100
AcDbEntity
  8
ZUWAKU
  6
CONTINUOUS
 62
     7
100
AcDbCircle
 10
158.7786428876944
 20
-123.4465342528391
 30
0.0
 40
6.0
100
AcDbArc
 50
224.7342935204538
 51
270.0
  0
ARC
  5
20A
330
78
100
AcDbEntity
  8
ZUWAKU
  6
CONTINUOUS
 62
     7
100
AcDbCircle
 10
158.5583602832044
 20
-118.6486000941914
 30
0.0
 40
12.0
100
AcDbArc
 50
240.8674112692758
 51
267.0917440539539
  0
ARC
  5
20B
330
78
100
AcDbEntity
  8
ZUWAKU
  6
CONTINUOUS
 62
     7
100
AcDbCircle
 10
147.4443544232267
 20
-120.6331447746538
 30
0.0
 40
10.0
100
AcDbArc
 50
270.0
 51
301.8165888069296
  0
ARC
  5
20C
330
78
100
AcDbEntity
  8
ZUWAKU
  6
CONTINUOUS
 62
     7
100
AcDbCircle
 10
141.8785047405764
 20
-131.5372799144038
 30
0.0
 40
4.0
100
AcDbArc
 50
283.265695396094
 51
342.6434876261313
  0
ARC
  5
20D
330
78
100
AcDbEntity
  8
ZUWAKU
  6
CONTINUOUS
 62
     7
100
AcDbCircle
 10
142.2075729563648
 20
-132.5191810421865
 30
0.0
 40
2.0
100
AcDbArc
 50
287.1215589227386
 51
353.9335213805733
  0
ARC
  5
20E
330
78
100
AcDbEntity
  8
ZUWAKU
  6
CONTINUOUS
 62
     7
100
AcDbCircle
 10
134.0732198367634
 20
-115.4520333335269
 30
0.0
 40
20.0
100
AcDbArc
 50
272.6561723599371
 51
286.4786265979867
  0
ARC
  5
20F
330
78
100
AcDbEntity
  8
ZUWAKU
  6
CONTINUOUS
 62
     7
100
AcDbCircle
 10
134.4350708718812
 20
-131.4689746339814
 30
0.0
 40
4.0
100
AcDbArc
 50
184.3081130703794
 51
227.7648830848148
  0
ARC
  5
210
330
78
100
AcDbEntity
  8
ZUWAKU
  6
CONTINUOUS
 62
     7
100
AcDbCircle
 10
132.3132740533973
 20
-131.470921555968
 30
0.0
 40
4.0
100
AcDbArc
 50
212.6772418063084
 51
261.8523056494763
  0
ARC
  5
211
330
78
100
AcDbEntity
  8
ZUWAKU
  6
CONTINUOUS
 62
     7
100
AcDbCircle
 10
122.0267019278491
 20
-130.9718454815092
 30
0.0
 40
4.0
100
AcDbArc
 50
305.4447563754824
 51
348.4979955985226
  0
ARC
  5
212
330
78
100
AcDbEntity
  8
ZUWAKU
  6
CONTINUOUS
 62
     7
100
AcDbCircle
 10
117.607071150831
 20
-130.8548432499945
 30
0.0
 40
4.0
100
AcDbArc
 50
295.7741858394136
 51
326.5976644920056
  0
ARC
  5
213
330
78
100
AcDbEntity
  8
ZUWAKU
  6
CONTINUOUS
 62
     7
100
AcDbCircle
 10
122.4053906304749
 20
-129.7531705556429
 30
0.0
 40
6.0
100
AcDbArc
 50
288.8745432034554
 51
322.2008123804935
  0
ARC
  5
214
330
78
100
AcDbEntity
  8
ZUWAKU
  6
CONTINUOUS
 62
     7
100
AcDbCircle
 10
114.7622963094578
 20
-129.4326156899224
 30
0.0
 40
6.0
100
AcDbArc
 50
319.8192422116139
 51
355.8248039544737
  0
ARC
  5
215
330
78
100
AcDbEntity
  8
ZUWAKU
  6
CONTINUOUS
 62
     7
100
AcDbCircle
 10
91.05198398637199
 20
-129.5062663407956
 30
0.0
 40
5.0
100
AcDbArc
 50
264.6251462956196
 51
317.7290360759776
  0
ARC
  5
216
330
78
100
AcDbEntity
  8
ZUWAKU
  6
CONTINUOUS
 62
     7
100
AcDbCircle
 10
106.1802438133988
 20
-125.1000995043927
 30
0.0
 40
10.56940911068407
100
AcDbArc
 50
247.5637467185126
 51
317.2881390123424
  0
ARC
  5
217
330
78
100
AcDbEntity
  8
ZUWAKU
  6
CONTINUOUS
 62
     7
100
AcDbCircle
 10
104.4883680238249
 20
-124.4696225724852
 30
0.0
 40
10.0
100
AcDbArc
 50
270.3323450119129
 51
308.7409648643439
  0
ARC
  5
218
330
78
100
AcDbEntity
  8
ZUWAKU
  6
CONTINUOUS
 62
     7
100
AcDbCircle
 10
91.17187081666828
 20
-128.2928718421244
 30
0.0
 40
7.4
100
AcDbArc
 50
337.9624692219032
 51
352.416518898312
  0
ARC
  5
219
330
78
100
AcDbEntity
  8
ZUWAKU
  6
CONTINUOUS
 62
     7
100
AcDbCircle
 10
91.05198398637199
 20
-129.5062663407956
 30
0.0
 40
5.0
100
AcDbArc
 50
341.7817433502872
 51
362.7146811743762
  0
ARC
  5
21A
330
78
100
AcDbEntity
  8
ZUWAKU
  6
CONTINUOUS
 62
     7
100
AcDbCircle
 10
91.17187081666828
 20
-128.2928718421244
 30
0.0
 40
7.4
100
AcDbArc
 50
265.4406112814197
 51
321.7964493072675
  0
ENDBLK
  5
7A
330
78
100
AcDbEntity
  8
0
100
AcDbBlockEnd
  0
BLOCK
  5
7C
330
7B
100
AcDbEntity
  8
0
100
AcDbBlockBegin
  2
DC_GROUP_17
 70
     0
 71
     0
 10
0.0
 20
0.0
 30
0.0
  3
DC_GROUP_17
  1

  0
LINE
  5
21B
330
7B
100
AcDbEntity
  8
ZUWAKU
  6
CONTINUOUS
 62
     7
100
AcDbLine
 10
148.9941506234345
 20
-134.0305456568976
 30
0.0
 11
151.4163728456568
 21
-134.0305456568976
 31
0.0
  0
LINE
  5
21C
330
7B
100
AcDbEntity
  8
ZUWAKU
  6
CONTINUOUS
 62
     7
100
AcDbLine
 10
154.6528016725025
 20
-134.0305456568976
 30
0.0
 11
157.7196821296652
 21
-134.0305456568976
 31
0.0
  0
LINE
  5
21D
330
7B
100
AcDbEntity
  8
ZUWAKU
  6
CONTINUOUS
 62
     7
100
AcDbLine
 10
147.2163728456568
 20
-133.5305456568976
 30
0.0
 11
159.2163728456568
 21
-133.5305456568976
 31
0.0
  0
LINE
  5
21E
330
7B
100
AcDbEntity
  8
ZUWAKU
  6
CONTINUOUS
 62
     7
100
AcDbLine
 10
147.2163728456568
 20
-133.0305456568976
 30
0.0
 11
159.2163728456568
 21
-133.0305456568976
 31
0.0
  0
LINE
  5
21F
330
7B
100
AcDbEntity
  8
ZUWAKU
  6
CONTINUOUS
 62
     7
100
AcDbLine
 10
148.7163728456567
 20
-134.5305456568976
 30
0.0
 11
158.521142118487
 21
-134.5305456568976
 31
0.0
  0
LINE
  5
220
330
7B
100
AcDbEntity
  8
ZUWAKU
  6
CONTINUOUS
 62
     7
100
AcDbLine
 10
148.4385950678789
 20
-135.0305456568976
 30
0.0
 11
154.4971892572037
 21
-135.0305456568976
 31
0.0
  0
LINE
  5
221
330
7B
100
AcDbEntity
  8
ZUWAKU
  6
CONTINUOUS
 62
     7
100
AcDbLine
 10
156.0163728456568
 20
-135.0305456568976
 30
0.0
 11
159.2163728456568
 21
-135.0305456568976
 31
0.0
  0
ENDBLK
  5
7D
330
7B
100
AcDbEntity
  8
0
100
AcDbBlockEnd
  0
BLOCK
  5
7F
330
7E
100
AcDbEntity
  8
0
100
AcDbBlockBegin
  2
DC_GROUP_18
 70
     0
 71
     0
 10
0.0
 20
0.0
 30
0.0
  3
DC_GROUP_18
  1

  0
POINT
  5
222
330
7E
100
AcDbEntity
  8
ZUWAKU
  6
CONTINUOUS
 62
     2
100
AcDbPoint
 10
162.0006765899865
 20
-97.57239512855193
 30
0.0
  0
POINT
  5
223
330
7E
100
AcDbEntity
  8
ZUWAKU
  6
CONTINUOUS
 62
     2
100
AcDbPoint
 10
75.50118055207491
 20
-85.16260991106857
 30
0.0
  0
POINT
  5
224
330
7E
100
AcDbEntity
  8
ZUWAKU
  6
CONTINUOUS
 62
     2
100
AcDbPoint
 10
142.4853351955303
 20
-120.3443513345745
 30
0.0
  0
POINT
  5
225
330
7E
100
AcDbEntity
  8
ZUWAKU
  6
CONTINUOUS
 62
     2
100
AcDbPoint
 10
161.0193620275377
 20
-87.26949353429845
 30
0.0
  0
POINT
  5
226
330
7E
100
AcDbEntity
  8
ZUWAKU
  6
CONTINUOUS
 62
     2
100
AcDbPoint
 10
162.145474507651
 20
-119.9080450954827
 30
0.0
  0
POINT
  5
227
330
7E
100
AcDbEntity
  8
ZUWAKU
  6
CONTINUOUS
 62
     2
100
AcDbPoint
 10
169.0941648737996
 20
-108.7969250144304
 30
0.0
  0
ENDBLK
  5
80
330
7E
100
AcDbEntity
  8
0
100
AcDbBlockEnd
  0
BLOCK
  5
82
330
81
100
AcDbEntity
  8
0
100
AcDbBlockBegin
  2
DC_GROUP_19
 70
     0
 71
     0
 10
0.0
 20
0.0
 30
0.0
  3
DC_GROUP_19
  1

  0
LINE
  5
228
330
81
100
AcDbEntity
  8
LAYER0016
  6
CONTINUOUS
 62
     4
100
AcDbLine
 10
-165.4919423010127
 20
120.2289805164667
 30
0.0
 11
-165.84706620878
 21
124.9565804451897
 31
0.0
  0
CIRCLE
  5
229
330
81
100
AcDbEntity
  8
LAYER0016
  6
CONTINUOUS
 62
     4
100
AcDbCircle
 10
-166.2215968630555
 20
129.9425333921205
 30
0.0
 40
5.0
  0
TEXT
  5
22A
330
81
100
AcDbEntity
  8
LAYER0016
 62
     4
100
AcDbText
 10
-167.7215968630555
 20
128.4425333921205
 30
0.0
 40
3.0
  1
２
 41
0.8333333333333334
  7
FDASTYLE0
 72
     5
 11
-164.7215968630555
 21
128.4425333921205
 31
0.0
100
AcDbText
  0
ENDBLK
  5
83
330
81
100
AcDbEntity
  8
0
100
AcDbBlockEnd
  0
BLOCK
  5
85
330
84
100
AcDbEntity
  8
0
100
AcDbBlockBegin
  2
DC_GROUP_20
 70
     0
 71
     0
 10
0.0
 20
0.0
 30
0.0
  3
DC_GROUP_20
  1

  0
LINE
  5
22B
330
84
100
AcDbEntity
  8
LAYER0016
  6
CONTINUOUS
 62
     4
100
AcDbLine
 10
-147.6361022998311
 20
117.9039014176704
 30
0.0
 11
-143.9753866331075
 21
125.5403959438168
 31
0.0
  0
CIRCLE
  5
22C
330
84
100
AcDbEntity
  8
LAYER0016
  6
CONTINUOUS
 62
     4
100
AcDbCircle
 10
-141.8140357160019
 20
130.0491166285705
 30
0.0
 40
5.0
  0
TEXT
  5
22D
330
84
100
AcDbEntity
  8
LAYER0016
 62
     4
100
AcDbText
 10
-143.3140357160019
 20
128.5491166285705
 30
0.0
 40
3.0
  1
３
 41
0.8333333333333334
  7
FDASTYLE0
 72
     5
 11
-140.3140357160019
 21
128.5491166285705
 31
0.0
100
AcDbText
  0
ENDBLK
  5
86
330
84
100
AcDbEntity
  8
0
100
AcDbBlockEnd
  0
BLOCK
  5
88
330
87
100
AcDbEntity
  8
0
100
AcDbBlockBegin
  2
DC_GROUP_21
 70
     0
 71
     0
 10
0.0
 20
0.0
 30
0.0
  3
DC_GROUP_21
  1

  0
LINE
  5
22E
330
87
100
AcDbEntity
  8
LAYER0016
  6
CONTINUOUS
 62
     4
100
AcDbLine
 10
-112.1301320963719
 20
89.16605624174592
 30
0.0
 11
-102.0221446426904
 21
125.2346014619739
 31
0.0
  0
CIRCLE
  5
22F
330
87
100
AcDbEntity
  8
LAYER0016
  6
CONTINUOUS
 62
     4
100
AcDbCircle
 10
-100.6729064462958
 20
130.0491166285706
 30
0.0
 40
5.0
  0
TEXT
  5
230
330
87
100
AcDbEntity
  8
LAYER0016
 62
     4
100
AcDbText
 10
-102.1729064462958
 20
128.5491166285706
 30
0.0
 40
3.0
  1
４
 41
0.8333333333333334
  7
FDASTYLE0
 72
     5
 11
-99.1729064462958
 21
128.5491166285706
 31
0.0
100
AcDbText
  0
ENDBLK
  5
89
330
87
100
AcDbEntity
  8
0
100
AcDbBlockEnd
  0
BLOCK
  5
8B
330
8A
100
AcDbEntity
  8
0
100
AcDbBlockBegin
  2
DC_GROUP_22
 70
     0
 71
     0
 10
0.0
 20
0.0
 30
0.0
  3
DC_GROUP_22
  1

  0
LINE
  5
231
330
8A
100
AcDbEntity
  8
LAYER0016
  6
CONTINUOUS
 62
     4
100
AcDbLine
 10
-49.35183535554444
 20
77.15390141767038
 30
0.0
 11
-52.40544433687221
 21
125.1118009927454
 31
0.0
  0
CIRCLE
  5
232
330
8A
100
AcDbEntity
  8
LAYER0016
  6
CONTINUOUS
 62
     4
100
AcDbCircle
 10
-52.72316443891018
 20
130.1016961756887
 30
0.0
 40
5.0
  0
TEXT
  5
233
330
8A
100
AcDbEntity
  8
LAYER0016
 62
     4
100
AcDbText
 10
-54.22316443891018
 20
128.6016961756887
 30
0.0
 40
3.0
  1
５
 41
0.8333333333333334
  7
FDASTYLE0
 72
     5
 11
-51.22316443891018
 21
128.6016961756887
 31
0.0
100
AcDbText
  0
ENDBLK
  5
8C
330
8A
100
AcDbEntity
  8
0
100
AcDbBlockEnd
  0
BLOCK
  5
8E
330
8D
100
AcDbEntity
  8
0
100
AcDbBlockBegin
  2
DC_GROUP_23
 70
     0
 71
     0
 10
0.0
 20
0.0
 30
0.0
  3
DC_GROUP_23
  1

  0
LINE
  5
234
330
8D
100
AcDbEntity
  8
LAYER0016
  6
CONTINUOUS
 62
     4
100
AcDbLine
 10
-27.17212625415387
 20
90.17304943925714
 30
0.0
 11
-22.04206482756493
 21
125.1546100825772
 31
0.0
  0
CIRCLE
  5
235
330
8D
100
AcDbEntity
  8
LAYER0016
  6
CONTINUOUS
 62
     4
100
AcDbCircle
 10
-21.31657245176574
 20
130.1016961756887
 30
0.0
 40
5.0
  0
TEXT
  5
236
330
8D
100
AcDbEntity
  8
LAYER0016
 62
     4
100
AcDbText
 10
-22.81657245176574
 20
128.6016961756887
 30
0.0
 40
3.0
  1
６
 41
0.8333333333333334
  7
FDASTYLE0
 72
     5
 11
-19.81657245176574
 21
128.6016961756887
 31
0.0
100
AcDbText
  0
ENDBLK
  5
8F
330
8D
100
AcDbEntity
  8
0
100
AcDbBlockEnd
  0
BLOCK
  5
91
330
90
100
AcDbEntity
  8
0
100
AcDbBlockBegin
  2
DC_GROUP_24
 70
     0
 71
     0
 10
0.0
 20
0.0
 30
0.0
  3
DC_GROUP_24
  1

  0
LINE
  5
237
330
90
100
AcDbEntity
  8
LAYER0016
  6
CONTINUOUS
 62
     4
100
AcDbLine
 10
15.85886720841739
 20
65.45390141767039
 30
0.0
 11
19.15975195486556
 21
76.99400750178472
 31
0.0
  0
CIRCLE
  5
238
330
90
100
AcDbEntity
  8
LAYER0016
  6
CONTINUOUS
 62
     4
100
AcDbCircle
 10
20.53478696194648
 20
81.80121861939772
 30
0.0
 40
5.0
  0
TEXT
  5
239
330
90
100
AcDbEntity
  8
LAYER0016
 62
     4
100
AcDbText
 10
19.03478696194648
 20
80.30121861939772
 30
0.0
 40
3.0
  1
７
 41
0.8333333333333334
  7
FDASTYLE0
 72
     5
 11
22.03478696194648
 21
80.30121861939772
 31
0.0
100
AcDbText
  0
ENDBLK
  5
92
330
90
100
AcDbEntity
  8
0
100
AcDbBlockEnd
  0
BLOCK
  5
94
330
93
100
AcDbEntity
  8
0
100
AcDbBlockBegin
  2
DC_GROUP_25
 70
     0
 71
     0
 10
0.0
 20
0.0
 30
0.0
  3
DC_GROUP_25
  1

  0
LINE
  5
23A
330
93
100
AcDbEntity
  8
LAYER0016
  6
CONTINUOUS
 62
     4
100
AcDbLine
 10
30.48886061679642
 20
52.15390088122858
 30
0.0
 11
37.89376189791429
 21
77.00935087586549
 31
0.0
  0
CIRCLE
  5
23B
330
93
100
AcDbEntity
  8
LAYER0016
  6
CONTINUOUS
 62
     4
100
AcDbCircle
 10
39.3213485077196
 20
81.80121861939772
 30
0.0
 40
5.0
  0
TEXT
  5
23C
330
93
100
AcDbEntity
  8
LAYER0016
 62
     4
100
AcDbText
 10
37.8213485077196
 20
80.30121861939772
 30
0.0
 40
3.0
  1
８
 41
0.8333333333333334
  7
FDASTYLE0
 72
     5
 11
40.8213485077196
 21
80.30121861939772
 31
0.0
100
AcDbText
  0
ENDBLK
  5
95
330
93
100
AcDbEntity
  8
0
100
AcDbBlockEnd
  0
BLOCK
  5
97
330
96
100
AcDbEntity
  8
0
100
AcDbBlockBegin
  2
DC_GROUP_26
 70
     0
 71
     0
 10
0.0
 20
0.0
 30
0.0
  3
DC_GROUP_26
  1

  0
LINE
  5
23D
330
96
100
AcDbEntity
  8
LAYER0016
  6
CONTINUOUS
 62
     4
100
AcDbLine
 10
55.59640072211113
 20
48.70390141767041
 30
0.0
 11
64.83072242660737
 21
77.04717165072172
 31
0.0
  0
CIRCLE
  5
23E
330
96
100
AcDbEntity
  8
LAYER0016
  6
CONTINUOUS
 62
     4
100
AcDbCircle
 10
66.3796050624525
 20
81.80121861939772
 30
0.0
 40
5.0
  0
TEXT
  5
23F
330
96
100
AcDbEntity
  8
LAYER0016
 62
     4
100
AcDbText
 10
64.8796050624525
 20
80.30121861939772
 30
0.0
 40
3.0
  1
９
 41
0.8333333333333334
  7
FDASTYLE0
 72
     5
 11
67.8796050624525
 21
80.30121861939772
 31
0.0
100
AcDbText
  0
ENDBLK
  5
98
330
96
100
AcDbEntity
  8
0
100
AcDbBlockEnd
  0
BLOCK
  5
9A
330
99
100
AcDbEntity
  8
0
100
AcDbBlockBegin
  2
DC_GROUP_27
 70
     0
 71
     0
 10
0.0
 20
0.0
 30
0.0
  3
DC_GROUP_27
  1

  0
LINE
  5
240
330
99
100
AcDbEntity
  8
LAYER0016
  6
CONTINUOUS
 62
     4
100
AcDbLine
 10
155.2987558470252
 20
64.21975393078198
 30
0.0
 11
158.1563869620675
 21
77.29045682090357
 31
0.0
  0
CIRCLE
  5
241
330
99
100
AcDbEntity
  8
LAYER0016
  6
CONTINUOUS
 62
     4
100
AcDbCircle
 10
159.2243060207688
 20
82.17508054070662
 30
0.0
 40
5.0
  0
TEXT
  5
242
330
99
100
AcDbEntity
  8
LAYER0016
 62
     4
100
AcDbText
 10
156.2243060207688
 20
80.67508054070662
 30
0.0
 40
3.0
  1
１０
 41
0.8333333333333334
  7
FDASTYLE0
 72
     5
 11
162.2243060207688
 21
80.67508054070662
 31
0.0
100
AcDbText
  0
ENDBLK
  5
9B
330
99
100
AcDbEntity
  8
0
100
AcDbBlockEnd
  0
BLOCK
  5
9D
330
9C
100
AcDbEntity
  8
0
100
AcDbBlockBegin
  2
DA_IMAGEDIMGROUP_1
 70
     0
 71
     0
 10
0.0
 20
0.0
 30
0.0
  3
DA_IMAGEDIMGROUP_1
  1

  0
LINE
  5
243
330
9C
100
AcDbEntity
  8
LAYER0014
  6
CONTINUOUS
 62
     7
100
AcDbLine
 10
-164.5368372126368
 20
103.6539014176704
 30
0.0
 11
-173.4316233882498
 21
103.6539014176704
 31
0.0
  0
LINE
  5
244
330
9C
100
AcDbEntity
  8
LAYER0014
  6
CONTINUOUS
 62
     7
100
AcDbLine
 10
-172.4316233882498
 20
19.79688645506172
 30
0.0
 11
-172.4316233882498
 21
103.6539014176704
 31
0.0
  0
INSERT
  5
24B
330
9C
100
AcDbEntity
  8
LAYER0014
 62
     7
100
AcDbBlockReference
  2
_OPEN30
 10
-172.4316233882498
 20
103.6539014176704
 30
0.0
 41
3.000002787824364
 42
2.999989273978464
 50
90.0
  0
TEXT
  5
24C
330
9C
100
AcDbEntity
  8
LAYER0014
 62
     7
100
AcDbText
 10
-173.4316233882498
 20
24.79688645506172
 30
0.0
 40
3.0
  1
φ１４５
 50
90.0
 41
0.8333333333333334
  7
FDASTYLE0
 72
     5
 11
-173.4316233882498
 21
36.79688645506172
 31
0.0
100
AcDbText
  0
ENDBLK
  5
9E
330
9C
100
AcDbEntity
  8
0
100
AcDbBlockEnd
  0
BLOCK
  5
A0
330
9F
100
AcDbEntity
  8
0
100
AcDbBlockBegin
  2
DA_IMAGEDIMGROUP_2
 70
     0
 71
     0
 10
0.0
 20
0.0
 30
0.0
  3
DA_IMAGEDIMGROUP_2
  1

  0
LINE
  5
24D
330
9F
100
AcDbEntity
  8
LAYER0014
  6
CONTINUOUS
 62
     7
100
AcDbLine
 10
-169.5352012906222
 20
-58.84609858232962
 30
0.0
 11
-184.7848038843113
 21
-58.84609858232962
 31
0.0
  0
LINE
  5
24E
330
9F
100
AcDbEntity
  8
LAYER0014
  6
CONTINUOUS
 62
     7
100
AcDbLine
 10
-169.5361022998312
 20
121.1539014176704
 30
0.0
 11
-184.7848038843113
 21
121.1539014176704
 31
0.0
  0
LINE
  5
24F
330
9F
100
AcDbEntity
  8
LAYER0014
  6
CONTINUOUS
 62
     7
100
AcDbLine
 10
-183.7848038843113
 20
-58.84609858232962
 30
0.0
 11
-183.7848038843113
 21
121.1539014176704
 31
0.0
  0
INSERT
  5
250
330
9F
100
AcDbEntity
  8
LAYER0014
 62
     7
100
AcDbBlockReference
  2
_OPEN30
 10
-183.7848038843113
 20
-58.84609858232962
 30
0.0
 41
3.000002787824364
 42
2.999989273978464
 50
270.0
  0
INSERT
  5
251
330
9F
100
AcDbEntity
  8
LAYER0014
 62
     7
100
AcDbBlockReference
  2
_OPEN30
 10
-183.7848038843113
 20
121.1539014176704
 30
0.0
 41
3.000002787824364
 42
2.999989273978464
 50
90.0
  0
TEXT
  5
252
330
9F
100
AcDbEntity
  8
LAYER0014
 62
     1
100
AcDbText
 10
-184.7848038843113
 20
25.15390141767038
 30
0.0
 40
3.0
  1
φ１８０
 50
90.0
 41
0.8333333333333334
  7
FDASTYLE0
 72
     5
 11
-184.7848038843113
 21
37.15390141767038
 31
0.0
100
AcDbText
  0
ENDBLK
  5
A1
330
9F
100
AcDbEntity
  8
0
100
AcDbBlockEnd
  0
BLOCK
  5
A3
330
A2
100
AcDbEntity
  8
0
100
AcDbBlockBegin
  2
DA_IMAGEDIMGROUP_3
 70
     0
 71
     0
 10
0.0
 20
0.0
 30
0.0
  3
DA_IMAGEDIMGROUP_3
  1

  0
LINE
  5
253
330
A2
100
AcDbEntity
  8
LAYER0014
  6
CONTINUOUS
 62
     7
100
AcDbLine
 10
184.0964007221114
 20
46.45390141767039
 30
0.0
 11
190.9627715629187
 21
46.45390141767039
 31
0.0
  0
LINE
  5
254
330
A2
100
AcDbEntity
  8
LAYER0014
  6
CONTINUOUS
 62
     7
100
AcDbLine
 10
189.9627715629187
 20
16.7320359278149
 30
0.0
 11
189.9627715629187
 21
46.45390141767039
 31
0.0
  0
INSERT
  5
255
330
A2
100
AcDbEntity
  8
LAYER0014
 62
     7
100
AcDbBlockReference
  2
_OPEN30
 10
189.9627715629187
 20
46.45390141767039
 30
0.0
 41
3.000002787824364
 42
2.999989273978464
 50
90.0
  0
TEXT
  5
256
330
A2
100
AcDbEntity
  8
LAYER0014
 62
     1
100
AcDbText
 10
188.9627715629187
 20
17.7320359278149
 30
0.0
 40
3.0
  1
（φ３０．６）
 50
90.0
 41
0.8333333333333334
  7
FDASTYLE0
 72
     5
 11
188.9627715629187
 21
38.7320359278149
 31
0.0
100
AcDbText
  0
ENDBLK
  5
A4
330
A2
100
AcDbEntity
  8
0
100
AcDbBlockEnd
  0
BLOCK
  5
A6
330
A5
100
AcDbEntity
  8
0
100
AcDbBlockBegin
  2
DC_GROUP_28
 70
     0
 71
     0
 10
0.0
 20
0.0
 30
0.0
  3
DC_GROUP_28
  1

  0
LINE
  5
257
330
A5
100
AcDbEntity
  8
LAYER0015
  6
CONTINUOUS
 62
     7
100
AcDbLine
 10
1.984343432268525
 20
61.17580453555737
 30
0.0
 11
17.82381275785367
 21
93.397190766371
 31
0.0
  0
INSERT
  5
258
330
A5
100
AcDbEntity
  8
LAYER0015
 62
     7
100
AcDbBlockReference
  2
_OPEN30
 10
1.984343432268525
 20
61.17580453555737
 30
0.0
 41
3.000002787824364
 42
2.999989273978464
 50
243.822076577073
  0
LINE
  5
259
330
A5
100
AcDbEntity
  8
LAYER0015
  6
CONTINUOUS
 62
     7
100
AcDbLine
 10
17.82381275785367
 20
93.397190766371
 30
0.0
 11
57.82381275785367
 21
93.397190766371
 31
0.0
  0
TEXT
  5
25A
330
A5
100
AcDbEntity
  8
LAYER0015
 62
     7
100
AcDbText
 10
18.32381275785367
 20
93.897190766371
 30
0.0
 40
3.0
  1
２”ネジ（Ｐ＝２．３０９）
 41
0.8333333333333334
  7
FDASTYLE0
 72
     5
 11
57.32381275785367
 21
93.897190766371
 31
0.0
100
AcDbText
  0
ENDBLK
  5
A7
330
A5
100
AcDbEntity
  8
0
100
AcDbBlockEnd
  0
BLOCK
  5
A9
330
A8
100
AcDbEntity
  8
0
100
AcDbBlockBegin
  2
DC_GROUP_29
 70
     0
 71
     0
 10
0.0
 20
0.0
 30
0.0
  3
DC_GROUP_29
  1

  0
LINE
  5
25B
330
A8
100
AcDbEntity
  8
LAYER0016
  6
CONTINUOUS
 62
     4
100
AcDbLine
 10
-167.5400902389837
 20
102.6722407881504
 30
0.0
 11
-177.9809325176986
 21
125.9919058237047
 31
0.0
  0
CIRCLE
  5
25C
330
A8
100
AcDbEntity
  8
LAYER0016
  6
CONTINUOUS
 62
     4
100
AcDbCircle
 10
-180.0241259833326
 20
130.5553870017081
 30
0.0
 40
5.0
  0
TEXT
  5
25D
330
A8
100
AcDbEntity
  8
LAYER0016
 62
     4
100
AcDbText
 10
-181.5241259833326
 20
129.0553870017081
 30
0.0
 40
3.0
  1
１
 41
0.8333333333333334
  7
FDASTYLE0
 72
     5
 11
-178.5241259833326
 21
129.0553870017081
 31
0.0
100
AcDbText
  0
ENDBLK
  5
AA
330
A8
100
AcDbEntity
  8
0
100
AcDbBlockEnd
  0
BLOCK
  5
AC
330
AB
100
AcDbEntity
  8
0
100
AcDbBlockBegin
  2
DA_IMAGEDIMGROUP_4
 70
     0
 71
     0
 10
0.0
 20
0.0
 30
0.0
  3
DA_IMAGEDIMGROUP_4
  1

  0
LINE
  5
25E
330
AB
100
AcDbEntity
  8
LAYER0014
  6
CONTINUOUS
 62
     7
100
AcDbLine
 10
-79.03610229983119
 20
53.67120415455467
 30
0.0
 11
-79.03610229983119
 21
61.36853197913192
 31
0.0
  0
LINE
  5
25F
330
AB
100
AcDbEntity
  8
LAYER0014
  6
CONTINUOUS
 62
     7
100
AcDbLine
 10
-79.03610229983119
 20
60.36853197913192
 30
0.0
 11
-26.03610611452845
 21
60.36853197913192
 31
0.0
  0
INSERT
  5
260
330
AB
100
AcDbEntity
  8
LAYER0014
 62
     7
100
AcDbBlockReference
  2
_OPEN30
 10
-79.03610229983119
 20
60.36853197913192
 30
0.0
 41
3.000002787824364
 42
2.999989273978464
 50
180.0
  0
INSERT
  5
261
330
AB
100
AcDbEntity
  8
LAYER0014
 62
     7
100
AcDbBlockReference
  2
_OPEN30
 10
-26.03610611452845
 20
60.36853197913192
 30
0.0
 41
3.000002787824364
 42
2.999989273978464
 50
360.0
  0
TEXT
  5
262
330
AB
100
AcDbEntity
  8
LAYER0014
 62
     1
100
AcDbText
 10
-58.53610420717982
 20
61.36853197913192
 30
0.0
 40
3.0
  1
（５３）
 41
0.8333333333333334
  7
FDASTYLE0
 72
     5
 11
-46.53610420717982
 21
61.36853197913192
 31
0.0
100
AcDbText
  0
ENDBLK
  5
AD
330
AB
100
AcDbEntity
  8
0
100
AcDbBlockEnd
  0
BLOCK
  5
AF
330
AE
100
AcDbEntity
  8
0
100
AcDbBlockBegin
  2
DA_IMAGEDIMGROUP_5
 70
     0
 71
     0
 10
0.0
 20
0.0
 30
0.0
  3
DA_IMAGEDIMGROUP_5
  1

  0
LINE
  5
263
330
AE
100
AcDbEntity
  8
LAYER0014
  6
CONTINUOUS
 62
     7
100
AcDbLine
 10
24.35886720841739
 20
60.55390141767036
 30
0.0
 11
24.35886720841739
 21
70.95588553585438
 31
0.0
  0
LINE
  5
264
330
AE
100
AcDbEntity
  8
LAYER0014
  6
CONTINUOUS
 62
     7
100
AcDbLine
 10
183.0964007221114
 20
48.15390141767038
 30
0.0
 11
183.0964007221114
 21
70.95588553585438
 31
0.0
  0
LINE
  5
265
330
AE
100
AcDbEntity
  8
LAYER0014
  6
CONTINUOUS
 62
     7
100
AcDbLine
 10
24.35886720841739
 20
69.95588553585438
 30
0.0
 11
183.0964007221114
 21
69.95588553585438
 31
0.0
  0
INSERT
  5
266
330
AE
100
AcDbEntity
  8
LAYER0014
 62
     7
100
AcDbBlockReference
  2
_OPEN30
 10
24.35886720841739
 20
69.95588553585438
 30
0.0
 41
3.000002787824364
 42
2.999989273978464
 50
180.0
  0
INSERT
  5
267
330
AE
100
AcDbEntity
  8
LAYER0014
 62
     7
100
AcDbBlockReference
  2
_OPEN30
 10
183.0964007221114
 20
69.95588553585438
 30
0.0
 41
3.000002787824364
 42
2.999989273978464
 50
360.0
  0
TEXT
  5
268
330
AE
100
AcDbEntity
  8
LAYER0014
 62
     1
100
AcDbText
 10
99.22763396526437
 20
70.95588553585438
 30
0.0
 40
3.0
  1
８００
 41
0.8333333333333334
  7
FDASTYLE0
 72
     5
 11
108.2276339652644
 21
70.95588553585438
 31
0.0
100
AcDbText
  0
ENDBLK
  5
B0
330
AE
100
AcDbEntity
  8
0
100
AcDbBlockEnd
  0
BLOCK
  5
B2
330
B1
100
AcDbEntity
  8
0
100
AcDbBlockBegin
  2
DC_GROUP_30
 70
     0
 71
     0
 10
0.0
 20
0.0
 30
0.0
  3
DC_GROUP_30
  1

  0
LINE
  5
269
330
B1
100
AcDbEntity
  8
LAYER0015
  6
CONTINUOUS
 62
     7
100
AcDbLine
 10
-143.9611022998311
 20
-46.84609858232962
 30
0.0
 11
-135.5025697332603
 21
-60.76349312067821
 31
0.0
  0
INSERT
  5
26A
330
B1
100
AcDbEntity
  8
LAYER0015
 62
     7
100
AcDbBlockReference
  2
_OPEN30
 10
-143.9611022998311
 20
-46.84609858232962
 30
0.0
 41
3.000002787824364
 42
2.999989273978464
 50
121.2898517883316
  0
LINE
  5
26B
330
B1
100
AcDbEntity
  8
LAYER0015
  6
CONTINUOUS
 62
     7
100
AcDbLine
 10
-135.5025697332603
 20
-60.76349312067821
 30
0.0
 11
-107.5025697332603
 21
-60.76349312067821
 31
0.0
  0
TEXT
  5
26C
330
B1
100
AcDbEntity
  8
LAYER0015
 62
     7
100
AcDbText
 10
-135.0025697332603
 20
-60.26349312067821
 30
0.0
 40
3.0
  1
ネジ（Ｐ＝３．５）
 41
0.8333333333333334
  7
FDASTYLE0
 72
     5
 11
-108.0025697332603
 21
-60.26349312067821
 31
0.0
100
AcDbText
  0
ENDBLK
  5
B3
330
B1
100
AcDbEntity
  8
0
100
AcDbBlockEnd
  0
BLOCK
  5
B5
330
B4
100
AcDbEntity
  8
0
100
AcDbBlockBegin
  2
DA_IMAGEDIMGROUP_6
 70
     0
 71
     0
 10
0.0
 20
0.0
 30
0.0
  3
DA_IMAGEDIMGROUP_6
  1

  0
LINE
  5
26D
330
B4
100
AcDbEntity
  8
LAYER0014
  6
CONTINUOUS
 62
     7
100
AcDbLine
 10
-164.2361022998312
 20
109.1539014176704
 30
0.0
 11
-178.9754974053864
 21
109.1539014176704
 31
0.0
  0
LINE
  5
26E
330
B4
100
AcDbEntity
  8
LAYER0014
  6
CONTINUOUS
 62
     7
100
AcDbLine
 10
-177.9754974053864
 20
19.19151939746378
 30
0.0
 11
-177.9754974053864
 21
109.1539014176704
 31
0.0
  0
INSERT
  5
26F
330
B4
100
AcDbEntity
  8
LAYER0014
 62
     7
100
AcDbBlockReference
  2
_OPEN30
 10
-177.9754974053864
 20
109.1539014176704
 30
0.0
 41
3.000002787824364
 42
2.999989273978464
 50
90.0
  0
TEXT
  5
270
330
B4
100
AcDbEntity
  8
LAYER0014
 62
     7
100
AcDbText
 10
-178.9754974053864
 20
24.19151939746378
 30
0.0
 40
3.0
  1
φ１５６
 50
90.0
 41
0.8333333333333334
  7
FDASTYLE0
 72
     5
 11
-178.9754974053864
 21
36.19151939746378
 31
0.0
100
AcDbText
  0
ENDBLK
  5
B6
330
B4
100
AcDbEntity
  8
0
100
AcDbBlockEnd
  0
BLOCK
  5
246
330
245
100
AcDbEntity
  8
0
100
AcDbBlockBegin
  2
_OPEN30
 70
     0
 71
     0
 10
0.0
 20
0.0
 30
0.0
  3
_OPEN30
  1

  0
LINE
  5
248
330
245
100
AcDbEntity
  8
0
  6
BYBLOCK
 62
     0
100
AcDbLine
 10
-1.0
 20
0.267949
 30
0.0
 11
0.0
 21
0.0
 31
0.0
  0
LINE
  5
249
330
245
100
AcDbEntity
  8
0
  6
BYBLOCK
 62
     0
100
AcDbLine
 10
0.0
 20
0.0
 30
0.0
 11
-1.0
 21
-0.267949
 31
0.0
  0
LINE
  5
24A
330
245
100
AcDbEntity
  8
0
  6
BYBLOCK
 62
     0
100
AcDbLine
 10
0.0
 20
0.0
 30
0.0
 11
-1.0
 21
0.0
 31
0.0
  0
ENDBLK
  5
247
330
245
100
AcDbEntity
  8
0
100
AcDbBlockEnd
  0
ENDSEC
  0
SECTION
  2
ENTITIES
  0
LINE
  5
271
330
1F
100
AcDbEntity
  8
ZUWAKU
  6
CONTINUOUS
 62
     7
100
AcDbLine
 10
-192.5
 20
-138.5
 30
0.0
 11
192.5
 21
-138.5
 31
0.0
  0
LINE
  5
272
330
1F
100
AcDbEntity
  8
ZUWAKU
  6
CONTINUOUS
 62
     7
100
AcDbLine
 10
7.5
 20
-96.50000000000003
 30
0.0
 11
7.5
 21
-128.5000000000001
 31
0.0
  0
LINE
  5
273
330
1F
100
AcDbEntity
  8
ZUWAKU
  6
CONTINUOUS
 62
     7
100
AcDbLine
 10
-192.5
 20
138.5
 30
0.0
 11
192.5
 21
138.5
 31
0.0
  0
LINE
  5
274
330
1F
100
AcDbEntity
  8
ZUWAKU
  6
CONTINUOUS
 62
     7
100
AcDbLine
 10
-192.5
 20
-138.5
 30
0.0
 11
-192.5
 21
138.5
 31
0.0
  0
LINE
  5
275
330
1F
100
AcDbEntity
  8
ZUWAKU
  6
CONTINUOUS
 62
     7
100
AcDbLine
 10
192.5
 20
-138.5
 30
0.0
 11
192.5
 21
138.5
 31
0.0
  0
LINE
  5
276
330
1F
100
AcDbEntity
  8
ZUWAKU
  6
CONTINUOUS
 62
     7
100
AcDbLine
 10
0.0
 20
-148.5
 30
0.0
 11
0.0
 21
-138.5
 31
0.0
  0
LINE
  5
277
330
1F
100
AcDbEntity
  8
ZUWAKU
  6
CONTINUOUS
 62
     7
100
AcDbLine
 10
-210.0
 20
0.0
 30
0.0
 11
-192.5
 21
0.0
 31
0.0
  0
LINE
  5
278
330
1F
100
AcDbEntity
  8
ZUWAKU
  6
CONTINUOUS
 62
     7
100
AcDbLine
 10
0.0
 20
138.5
 30
0.0
 11
0.0
 21
148.5
 31
0.0
  0
LINE
  5
279
330
1F
100
AcDbEntity
  8
ZUWAKU
  6
CONTINUOUS
 62
     7
100
AcDbLine
 10
192.5
 20
0.0
 30
0.0
 11
210.0
 21
0.0
 31
0.0
  0
LINE
  5
27A
330
1F
100
AcDbEntity
  8
ZUWAKU
  6
CONTINUOUS
 62
     7
100
AcDbLine
 10
-9.5
 20
-96.50000000000003
 30
0.0
 11
-9.5
 21
-138.5
 31
0.0
  0
LINE
  5
27B
330
1F
100
AcDbEntity
  8
ZUWAKU
  6
CONTINUOUS
 62
     7
100
AcDbLine
 10
-26.5
 20
-96.50000000000003
 30
0.0
 11
-26.5
 21
-138.5
 31
0.0
  0
LINE
  5
27C
330
1F
100
AcDbEntity
  8
ZUWAKU
  6
CONTINUOUS
 62
     7
100
AcDbLine
 10
-43.5
 20
-96.50000000000003
 30
0.0
 11
-43.5
 21
-138.5
 31
0.0
  0
LINE
  5
27D
330
1F
100
AcDbEntity
  8
ZUWAKU
  6
CONTINUOUS
 62
     7
100
AcDbLine
 10
-60.5
 20
-96.50000000000003
 30
0.0
 11
-60.5
 21
-138.5
 31
0.0
  0
LINE
  5
27E
330
1F
100
AcDbEntity
  8
ZUWAKU
  6
CONTINUOUS
 62
     7
100
AcDbLine
 10
-192.5
 20
-96.50000000000003
 30
0.0
 11
7.5
 21
-96.50000000000003
 31
0.0
  0
LINE
  5
27F
330
1F
100
AcDbEntity
  8
ZUWAKU
  6
CONTINUOUS
 62
     7
100
AcDbLine
 10
-192.5
 20
-103.5
 30
0.0
 11
7.5
 21
-103.5
 31
0.0
  0
LINE
  5
280
330
1F
100
AcDbEntity
  8
ZUWAKU
  6
CONTINUOUS
 62
     7
100
AcDbLine
 10
-192.5
 20
-110.5
 30
0.0
 11
7.5
 21
-110.5
 31
0.0
  0
LINE
  5
281
330
1F
100
AcDbEntity
  8
ZUWAKU
  6
CONTINUOUS
 62
     7
100
AcDbLine
 10
-185.5
 20
-96.50000000000003
 30
0.0
 11
-185.5
 21
-138.5
 31
0.0
  0
LINE
  5
282
330
1F
100
AcDbEntity
  8
ZUWAKU
  6
CONTINUOUS
 62
     7
100
AcDbLine
 10
-192.5
 20
-131.5
 30
0.0
 11
7.5
 21
-131.5
 31
0.0
  0
LINE
  5
283
330
1F
100
AcDbEntity
  8
ZUWAKU
  6
CONTINUOUS
 62
     7
100
AcDbLine
 10
-192.5
 20
-124.5
 30
0.0
 11
7.5
 21
-124.5
 31
0.0
  0
LINE
  5
284
330
1F
100
AcDbEntity
  8
ZUWAKU
  6
CONTINUOUS
 62
     7
100
AcDbLine
 10
-192.0
 20
-117.5
 30
0.0
 11
7.5
 21
-117.5
 31
0.0
  0
LINE
  5
285
330
1F
100
AcDbEntity
  8
ZUWAKU
  6
CONTINUOUS
 62
     7
100
AcDbLine
 10
-155.5
 20
-96.50000000000003
 30
0.0
 11
-155.5
 21
-138.5
 31
0.0
  0
LINE
  5
286
330
1F
100
AcDbEntity
  8
ZUWAKU
  6
CONTINUOUS
 62
     7
100
AcDbLine
 10
7.5
 20
-96.50000000000003
 30
0.0
 11
7.5
 21
-138.5
 31
0.0
  0
LINE
  5
287
330
1F
100
AcDbEntity
  8
ZUWAKU
  6
CONTINUOUS
 62
     7
100
AcDbLine
 10
70.5
 20
-79.5
 30
0.0
 11
192.5
 21
-79.5
 31
0.0
  0
LINE
  5
288
330
1F
100
AcDbEntity
  8
ZUWAKU
  6
CONTINUOUS
 62
     7
100
AcDbLine
 10
70.5
 20
-79.5
 30
0.0
 11
70.5
 21
-138.5
 31
0.0
  0
LINE
  5
289
330
1F
100
AcDbEntity
  8
ZUWAKU
  6
CONTINUOUS
 62
     7
100
AcDbLine
 10
70.5
 20
-101.5
 30
0.0
 11
192.5
 21
-101.5
 31
0.0
  0
LINE
  5
28A
330
1F
100
AcDbEntity
  8
ZUWAKU
  6
CONTINUOUS
 62
     7
100
AcDbLine
 10
70.5
 20
-90.5
 30
0.0
 11
192.5
 21
-90.5
 31
0.0
  0
LINE
  5
28B
330
1F
100
AcDbEntity
  8
ZUWAKU
  6
CONTINUOUS
 62
     7
100
AcDbLine
 10
70.5
 20
-112.5
 30
0.0
 11
192.5
 21
-112.5
 31
0.0
  0
LINE
  5
28C
330
1F
100
AcDbEntity
  8
ZUWAKU
  6
CONTINUOUS
 62
     7
100
AcDbLine
 10
70.5
 20
-123.5
 30
0.0
 11
192.5
 21
-123.5
 31
0.0
  0
LINE
  5
28D
330
1F
100
AcDbEntity
  8
ZUWAKU
  6
CONTINUOUS
 62
     7
100
AcDbLine
 10
158.5
 20
-79.5
 30
0.0
 11
158.5
 21
-123.5
 31
0.0
  0
LINE
  5
28E
330
1F
100
AcDbEntity
  8
ZUWAKU
  6
CONTINUOUS
 62
     7
100
AcDbLine
 10
114.5
 20
-112.5
 30
0.0
 11
114.5
 21
-123.5
 31
0.0
  0
LINE
  5
28F
330
1F
100
AcDbEntity
  8
ZUWAKU
  6
CONTINUOUS
 62
     7
100
AcDbLine
 10
136.5
 20
-112.5
 30
0.0
 11
136.5
 21
-123.5
 31
0.0
  0
LINE
  5
290
330
1F
100
AcDbEntity
  8
ZUWAKU
  6
CONTINUOUS
 62
     7
100
AcDbLine
 10
92.5
 20
-112.5
 30
0.0
 11
92.5
 21
-123.5
 31
0.0
  0
LINE
  5
291
330
1F
100
AcDbEntity
  8
ZUWAKU
  6
CENTER
 62
     7
100
AcDbLine
 10
180.7113630049175
 20
-140.9999737700873
 30
0.0
 11
191.8113538549173
 21
-140.9999737700873
 31
0.0
  0
LINE
  5
292
330
1F
100
AcDbEntity
  8
ZUWAKU
  6
CENTER
 62
     7
100
AcDbLine
 10
183.0113431749173
 20
-138.6999859800873
 30
0.0
 11
183.0113431749173
 21
-143.2999768300873
 31
0.0
  0
TEXT
  5
293
330
1F
100
AcDbEntity
  8
ZUWAKU
 62
     7
100
AcDbText
 10
-39.34299945831299
 20
-136.6000000238419
 30
0.0
 40
3.200000047683716
  1
確　認
 41
0.6507341227548625
  7
FDASTYLE0
 72
     5
 11
-30.65700054168701
 21
-136.6000000238419
 31
0.0
100
AcDbText
  0
TEXT
  5
294
330
1F
100
AcDbEntity
  8
ZUWAKU
 62
     7
100
AcDbText
 10
-124.0859980583191
 20
-136.6000000238419
 30
0.0
 40
3.200000047683716
  1
変　　更　　履　　歴
 41
0.6667094916067029
  7
FDASTYLE0
 72
     5
 11
-93.00000214576721
 21
-136.6000000238419
 31
0.0
100
AcDbText
  0
TEXT
  5
295
330
1F
100
AcDbEntity
  8
ZUWAKU
 62
     7
100
AcDbText
 10
-5.342999458312988
 20
-136.6000000238419
 30
0.0
 40
3.200000047683716
  1
承　認
 41
0.6507341227548625
  7
FDASTYLE0
 72
     5
 11
3.342999458312988
 21
-136.6000000238419
 31
0.0
100
AcDbText
  0
TEXT
  5
296
330
1F
100
AcDbEntity
  8
ZUWAKU
 62
     7
100
AcDbText
 10
-181.2429986000061
 20
-136.6000000238419
 30
0.0
 40
3.200000047683716
  1
年　　月　　日
 41
0.6638857294227287
  7
FDASTYLE0
 72
     5
 11
-159.7570013999939
 21
-136.6000000238419
 31
0.0
100
AcDbText
  0
TEXT
  5
297
330
1F
100
AcDbEntity
  8
ZUWAKU
 62
     7
100
AcDbText
 10
-22.34299945831299
 20
-136.6000000238419
 30
0.0
 40
3.200000047683716
  1
検　図
 41
0.6507341227548625
  7
FDASTYLE0
 72
     5
 11
-13.65700054168701
 21
-136.6000000238419
 31
0.0
100
AcDbText
  0
TEXT
  5
298
330
1F
100
AcDbEntity
  8
ZUWAKU
 62
     7
100
AcDbText
 10
158.6520598751473
 20
-82.43445270859417
 30
0.0
 40
2.299999952316284
  1
設計図番
 41
0.8404558677421614
  7
FDASTYLE0
 72
     5
 11
170.4520600658822
 21
-82.43445270859417
 31
0.0
100
AcDbText
  0
TEXT
  5
299
330
1F
100
AcDbEntity
  8
ZUWAKU
 62
     7
100
AcDbText
 10
158.7325933361632
 20
-93.22593648471417
 30
0.0
 40
2.299999952316284
  1
図面番号
 41
0.8404558677421614
  7
FDASTYLE0
 72
     5
 11
170.532593526898
 21
-93.22593648471417
 31
0.0
100
AcDbText
  0
TEXT
  5
29A
330
1F
100
AcDbEntity
  8
ZUWAKU
 62
     7
100
AcDbText
 10
158.6520598751473
 20
-104.1784871828658
 30
0.0
 40
2.299999952316284
  1
尺　　度
 41
0.8404558677421614
  7
FDASTYLE0
 72
     5
 11
170.4520600658822
 21
-104.1784871828658
 31
0.0
100
AcDbText
  0
TEXT
  5
29B
330
1F
100
AcDbEntity
  8
ZUWAKU
 62
     7
100
AcDbText
 10
158.813126797179
 20
-115.2921048030491
 30
0.0
 40
2.299999952316284
  1
設計年月日
 41
0.8426966561525857
  7
FDASTYLE0
 72
     5
 11
173.8131270355976
 21
-115.2921048030491
 31
0.0
100
AcDbText
  0
TEXT
  5
29C
330
1F
100
AcDbEntity
  8
ZUWAKU
 62
     7
100
AcDbText
 10
149.2318473015103
 20
-142.5
 30
0.0
 40
3.0
  1
Ａ３　　単位：ｍｍ
 41
0.8333333333333334
  7
FDASTYLE0
 72
     5
 11
176.2318473015103
 21
-142.5
 31
0.0
100
AcDbText
  0
TEXT
  5
29D
330
1F
100
AcDbEntity
  8
ZUWAKU
 62
     7
100
AcDbText
 10
136.8245420290309
 20
-115.3968693113115
 30
0.0
 40
2.299999952316284
  1
製図
 41
0.8282208880597839
  7
FDASTYLE0
 72
     5
 11
142.2245421243984
 21
-115.3968693113115
 31
0.0
100
AcDbText
  0
TEXT
  5
29E
330
1F
100
AcDbEntity
  8
ZUWAKU
 62
     7
100
AcDbText
 10
92.80004210336084
 20
-115.3122068114545
 30
0.0
 40
2.299999952316284
  1
検図
 41
0.8282208880597839
  7
FDASTYLE0
 72
     5
 11
98.20004219872827
 21
-115.3122068114545
 31
0.0
100
AcDbText
  0
TEXT
  5
29F
330
1F
100
AcDbEntity
  8
ZUWAKU
 62
     7
100
AcDbText
 10
71.66392216239117
 20
-115.3615687050939
 30
0.0
 40
2.299999952316284
  1
承認
 41
0.8282208880597839
  7
FDASTYLE0
 72
     5
 11
77.06392225775861
 21
-115.3615687050939
 31
0.0
100
AcDbText
  0
TEXT
  5
2A0
330
1F
100
AcDbEntity
  8
ZUWAKU
 62
     7
100
AcDbText
 10
114.8000421033608
 20
-115.3122068114545
 30
0.0
 40
2.299999952316284
  1
確認
 41
0.8282208880597839
  7
FDASTYLE0
 72
     5
 11
120.2000421987283
 21
-115.3122068114545
 31
0.0
100
AcDbText
  0
TEXT
  5
2A1
330
1F
100
AcDbEntity
  8
ZUWAKU
 62
     7
100
AcDbText
 10
-56.34299945831299
 20
-136.6000000238419
 30
0.0
 40
3.200000047683716
  1
変　更
 41
0.6507341227548625
  7
FDASTYLE0
 72
     5
 11
-47.65700054168701
 21
-136.6000000238419
 31
0.0
100
AcDbText
  0
LINE
  5
2A2
330
1F
100
AcDbEntity
  8
ZUWAKU
  6
CONTINUOUS
 62
     7
100
AcDbLine
 10
187.0113889449171
 20
-140.2499966600873
 30
0.0
 11
191.0113889449171
 21
-139.4999814000873
 31
0.0
  0
LINE
  5
2A3
330
1F
100
AcDbEntity
  8
ZUWAKU
  6
CONTINUOUS
 62
     7
100
AcDbLine
 10
191.0113660549173
 20
-142.5000042900873
 30
0.0
 11
187.0113660549172
 21
-141.7499890300873
 31
0.0
  0
CIRCLE
  5
2A4
330
1F
100
AcDbEntity
  8
ZUWAKU
  6
CONTINUOUS
 62
     7
100
AcDbCircle
 10
183.0113431749173
 20
-140.9999737700873
 30
0.0
 40
1.5
  0
CIRCLE
  5
2A5
330
1F
100
AcDbEntity
  8
ZUWAKU
  6
CONTINUOUS
 62
     7
100
AcDbCircle
 10
183.0113431749173
 20
-140.9999737700873
 30
0.0
 40
0.75
  0
LINE
  5
2A6
330
1F
100
AcDbEntity
  8
ZUWAKU
  6
CONTINUOUS
 62
     7
100
AcDbLine
 10
187.0113431749173
 20
-140.2499737700873
 30
0.0
 11
187.0113431749173
 21
-141.7499890300873
 31
0.0
  0
LINE
  5
2A7
330
1F
100
AcDbEntity
  8
ZUWAKU
  6
CONTINUOUS
 62
     7
100
AcDbLine
 10
191.0113431749173
 20
-139.4999737700873
 30
0.0
 11
191.0113431749173
 21
-142.4999890300873
 31
0.0
  0
INSERT
  5
2A8
330
1F
100
AcDbEntity
  8
ZUWAKU
  6
CONTINUOUS
100
AcDbBlockReference
  2
DC_GROUP_1
 10
0.0
 20
0.0
 30
0.0
  0
INSERT
  5
2A9
330
1F
100
AcDbEntity
  8
ZUWAKU
  6
CONTINUOUS
100
AcDbBlockReference
  2
DC_GROUP_2
 10
0.0
 20
0.0
 30
0.0
  0
INSERT
  5
2AA
330
1F
100
AcDbEntity
  8
ZUWAKU
  6
CONTINUOUS
100
AcDbBlockReference
  2
DC_GROUP_3
 10
0.0
 20
0.0
 30
0.0
  0
INSERT
  5
2AB
330
1F
100
AcDbEntity
  8
ZUWAKU
  6
CONTINUOUS
100
AcDbBlockReference
  2
DC_GROUP_4
 10
0.0
 20
0.0
 30
0.0
  0
INSERT
  5
2AC
330
1F
100
AcDbEntity
  8
ZUWAKU
  6
CONTINUOUS
100
AcDbBlockReference
  2
DC_GROUP_5
 10
0.0
 20
0.0
 30
0.0
  0
INSERT
  5
2AD
330
1F
100
AcDbEntity
  8
ZUWAKU
  6
CONTINUOUS
100
AcDbBlockReference
  2
DC_GROUP_18
 10
0.0
 20
0.0
 30
0.0
  0
INSERT
  5
2AE
330
1F
100
AcDbEntity
  8
0
  6
CONTINUOUS
100
AcDbBlockReference
  2
DC_GROUP_6
 10
0.0
 20
0.0
 30
0.0
  0
TEXT
  5
2AF
330
1F
100
AcDbEntity
  8
LAYER0015
 62
     7
100
AcDbText
 10
73.00118055207491
 20
-87.16260991106857
 30
0.0
 40
5.0
  1
ＳＢＫ－ＧＢ２
 41
0.8333333333333334
  7
FDASTYLE0
 72
     5
 11
108.0011805520749
 21
-87.16260991106857
 31
0.0
100
AcDbText
  0
TEXT
  5
2B0
330
1F
100
AcDbEntity
  8
LAYER0015
 62
     7
100
AcDbText
 10
160.645474507651
 20
-120.9080450954827
 30
0.0
 40
3.0
  1
２０１１．０１．３１
 41
0.8333333333333334
  7
FDASTYLE0
 72
     5
 11
190.645474507651
 21
-120.9080450954827
 31
0.0
100
AcDbText
  0
TEXT
  5
2B1
330
1F
100
AcDbEntity
  8
LAYER0015
 62
     7
100
AcDbText
 10
166.5941648737996
 20
-110.7969250144304
 30
0.0
 40
5.0
  1
１／１
 41
0.8333333333333334
  7
FDASTYLE0
 72
     5
 11
181.5941648737996
 21
-110.7969250144304
 31
0.0
100
AcDbText
  0
TEXT
  5
2B2
330
1F
100
AcDbEntity
  8
LAYER0015
 62
     7
100
AcDbText
 10
159.5006765899865
 20
-99.57239512855193
 30
0.0
 40
5.0
  1
１６３０１
 41
0.8333333333333334
  7
FDASTYLE0
 72
     5
 11
184.5006765899865
 21
-99.57239512855193
 31
0.0
100
AcDbText
  0
TEXT
  5
2B3
330
1F
100
AcDbEntity
  8
LAYER0015
 62
     7
100
AcDbText
 10
137.9577384361761
 20
-121.6119853917029
 30
0.0
 40
5.0
  1
清水
 41
0.8333333333333334
  7
FDASTYLE0
 72
     5
 11
147.9577384361761
 21
-121.6119853917029
 31
0.0
100
AcDbText
  0
LINE
  5
2B4
330
1F
100
AcDbEntity
  8
0
  6
CONTINUOUS
 62
     7
100
AcDbLine
 10
-145.1361022998311
 20
-44.54609858232961
 30
0.0
 11
-139.4861022998312
 21
-44.54609858232961
 31
0.0
  0
LINE
  5
2B5
330
1F
100
AcDbEntity
  8
0
  6
CONTINUOUS
 62
     7
100
AcDbLine
 10
-145.1361022998311
 20
-46.84609858232962
 30
0.0
 11
-142.7861022998312
 21
-46.84609858232962
 31
0.0
  0
LINE
  5
2B6
330
1F
100
AcDbEntity
  8
0
  6
CONTINUOUS
 62
     7
100
AcDbLine
 10
-150.1782608249692
 20
96.48414756653061
 30
0.0
 11
-150.1782608249692
 21
73.88737812580779
 31
0.0
  0
LINE
  5
2B7
330
1F
100
AcDbEntity
  8
0
  6
CONTINUOUS
 62
     7
100
AcDbLine
 10
-159.9361022998312
 20
109.1539014176704
 30
0.0
 11
-159.9361022998312
 21
106.8539014176704
 31
0.0
  0
LINE
  5
2B8
330
1F
100
AcDbEntity
  8
0
  6
CONTINUOUS
 62
     7
100
AcDbLine
 10
-142.7861022998312
 20
109.1539014176704
 30
0.0
 11
-140.4861022998312
 21
106.8539014176704
 31
0.0
  0
LINE
  5
2B9
330
1F
100
AcDbEntity
  8
0
  6
CONTINUOUS
 62
     7
100
AcDbLine
 10
-142.7861022998312
 20
109.1539014176704
 30
0.0
 11
-142.7861022998312
 21
106.8539014176704
 31
0.0
  0
LINE
  5
2BA
330
1F
100
AcDbEntity
  8
0
  6
CONTINUOUS
 62
     7
100
AcDbLine
 10
-163.2361022998312
 20
109.1539014176704
 30
0.0
 11
-142.7861022998312
 21
109.1539014176704
 31
0.0
  0
LINE
  5
2BB
330
1F
100
AcDbEntity
  8
0
  6
CONTINUOUS
 62
     7
100
AcDbLine
 10
-159.9361022998312
 20
106.8539014176704
 30
0.0
 11
-139.4861022998312
 21
106.8539014176704
 31
0.0
  0
LINE
  5
2BC
330
1F
100
AcDbEntity
  8
0
  6
CONTINUOUS
 62
     7
100
AcDbLine
 10
-142.7861022998312
 20
-46.84609858232962
 30
0.0
 11
-140.4861022998312
 21
-44.54609858232966
 31
0.0
  0
LINE
  5
2BD
330
1F
100
AcDbEntity
  8
0
  6
CONTINUOUS
 62
     7
100
AcDbLine
 10
-142.7861022998312
 20
-46.84609858232962
 30
0.0
 11
-142.7861022998312
 21
31.15390141767039
 31
0.0
  0
LINE
  5
2BE
330
1F
100
AcDbEntity
  8
0
  6
CONTINUOUS
 62
     7
100
AcDbLine
 10
-149.1361015368917
 20
93.65390098851695
 30
0.0
 11
-149.1361015368917
 21
94.75390098851692
 31
0.0
  0
LINE
  5
2BF
330
1F
100
AcDbEntity
  8
0
  6
CONTINUOUS
 62
     7
100
AcDbLine
 10
-156.4361022998312
 20
104.6089014176704
 30
0.0
 11
-156.0361022998312
 21
104.6089014176704
 31
0.0
  0
LINE
  5
2C0
330
1F
100
AcDbEntity
  8
0
  6
CONTINUOUS
 62
     7
100
AcDbLine
 10
-78.55140770839134
 20
-32.22389954205723
 30
0.0
 11
-97.63610229983121
 21
-33.84609858232962
 31
0.0
  0
LINE
  5
2C1
330
1F
100
AcDbEntity
  8
0
  6
CONTINUOUS
 62
     7
100
AcDbLine
 10
-97.63610229983121
 20
-33.84609858232979
 30
0.0
 11
-131.4669699315473
 21
-36.27125038388654
 31
0.0
  0
LINE
  5
2C2
330
1F
100
AcDbEntity
  8
0
  6
CONTINUOUS
 62
     7
100
AcDbLine
 10
-139.4861022998312
 20
31.15390141767039
 30
0.0
 11
-139.4861022998312
 21
-44.54609858232961
 31
0.0
  0
LINE
  5
2C3
330
1F
100
AcDbEntity
  8
0
  6
CONTINUOUS
 62
     7
100
AcDbLine
 10
-156.0361022998312
 20
104.6539014176704
 30
0.0
 11
-156.0361022998312
 21
103.6539014176704
 31
0.0
  0
LINE
  5
2C4
330
1F
100
AcDbEntity
  8
0
  6
CONTINUOUS
 62
     7
100
AcDbLine
 10
-78.55140770839134
 20
94.53170237739805
 30
0.0
 11
-97.63610229983121
 21
96.15390141767044
 31
0.0
  0
LINE
  5
2C5
330
1F
100
AcDbEntity
  8
0
  6
CONTINUOUS
 62
     7
100
AcDbLine
 10
-97.82915530369891
 20
93.46081201371526
 30
0.0
 11
-137.4651089750929
 21
96.30209901524886
 31
0.0
  0
LINE
  5
2C6
330
1F
100
AcDbEntity
  8
0
  6
CONTINUOUS
 62
     7
100
AcDbLine
 10
-156.4361022998312
 20
104.6539014176704
 30
0.0
 11
-156.4361022998312
 21
104.1539014176704
 31
0.0
  0
LINE
  5
2C7
330
1F
100
AcDbEntity
  8
0
  6
CONTINUOUS
 62
     7
100
AcDbLine
 10
-156.4361022998312
 20
104.6539014176704
 30
0.0
 11
-156.0361022998312
 21
104.6539014176704
 31
0.0
  0
LINE
  5
2C8
330
1F
100
AcDbEntity
  8
0
  6
CONTINUOUS
 62
     7
100
AcDbLine
 10
-86.03610229983119
 20
91.53955922363546
 30
0.0
 11
-86.03610229983119
 21
90.05390141767036
 31
0.0
  0
LINE
  5
2C9
330
1F
100
AcDbEntity
  8
0
  6
CONTINUOUS
 62
     7
100
AcDbLine
 10
-162.2361022998312
 20
109.1539014176704
 30
0.0
 11
-159.9361022998312
 21
106.8539014176704
 31
0.0
  0
LINE
  5
2CA
330
1F
100
AcDbEntity
  8
0
  6
CONTINUOUS
 62
     7
100
AcDbLine
 10
-167.0904504056458
 20
118.2950170205743
 30
0.0
 11
-168.0852366015455
 21
120.3700497975146
 31
0.0
  0
LINE
  5
2CB
330
1F
100
AcDbEntity
  8
0
  6
CONTINUOUS
 62
     7
100
AcDbLine
 10
-168.8361022998311
 20
106.5124952689802
 30
0.0
 11
-168.8361022998311
 21
31.15390141767039
 31
0.0
  0
LINE
  5
2CC
330
1F
100
AcDbEntity
  8
0
  6
CONTINUOUS
 62
     7
100
AcDbLine
 10
-86.95140770839132
 20
92.53596618175094
 30
0.0
 11
-97.86477769671862
 21
93.46360263075876
 31
0.0
  0
LINE
  5
2CD
330
1F
100
AcDbEntity
  8
0
  6
CONTINUOUS
 62
     7
100
AcDbLine
 10
-146.5361022998312
 20
100.1539014176704
 30
0.0
 11
-142.6442205647987
 21
100.1539014176704
 31
0.0
  0
LINE
  5
2CE
330
1F
100
AcDbEntity
  8
0
  6
CONTINUOUS
 62
     7
100
AcDbLine
 10
-133.9736696951509
 20
99.92075861401763
 30
0.0
 11
-97.63610229983121
 21
96.15390141767016
 31
0.0
  0
LINE
  5
2CF
330
1F
100
AcDbEntity
  8
0
  6
CONTINUOUS
 62
     7
100
AcDbLine
 10
-80.0535547062685
 20
88.39568692066716
 30
0.0
 11
-20.3488402676447
 21
87.35353725362027
 31
0.0
  0
LINE
  5
2D0
330
1F
100
AcDbEntity
  8
0
  6
CONTINUOUS
 62
     7
100
AcDbLine
 10
-148.7361015368917
 20
93.65390404027475
 30
0.0
 11
-148.7361015368917
 21
99.15390404027475
 31
0.0
  0
LINE
  5
2D1
330
1F
100
AcDbEntity
  8
0
  6
CONTINUOUS
 62
     7
100
AcDbLine
 10
-81.53610229983119
 20
91.05390141767036
 30
0.0
 11
-81.03610229983119
 21
91.05390141767036
 31
0.0
  0
LINE
  5
2D2
330
1F
100
AcDbEntity
  8
0
  6
CONTINUOUS
 62
     7
100
AcDbLine
 10
-156.0361022998312
 20
103.6539014176704
 30
0.0
 11
-156.0361022998312
 21
103.3539002732612
 31
0.0
  0
LINE
  5
2D3
330
1F
100
AcDbEntity
  8
0
  6
CONTINUOUS
 62
     7
100
AcDbLine
 10
-78.0535547062685
 20
53.67105184971113
 30
0.0
 11
-18.38374508051928
 21
54.71259225098298
 31
0.0
  0
LINE
  5
2D4
330
1F
100
AcDbEntity
  8
0
  6
CONTINUOUS
 62
     7
100
AcDbLine
 10
-76.16228090948707
 20
-28.72037293426861
 30
0.0
 11
-20.29648304833287
 21
-27.74523180533545
 31
0.0
  0
LINE
  5
2D5
330
1F
100
AcDbEntity
  8
0
  6
CONTINUOUS
 62
     7
100
AcDbLine
 10
-76.16228090948707
 20
91.02817576960943
 30
0.0
 11
-20.29648304833287
 21
90.05303464067627
 31
0.0
  0
LINE
  5
2D6
330
1F
100
AcDbEntity
  8
0
  6
CONTINUOUS
 62
     7
100
AcDbLine
 10
-77.63610229983109
 20
31.15390141767039
 30
0.0
 11
-77.63610229983109
 21
-31.22749258394181
 31
0.0
  0
LINE
  5
2D7
330
1F
100
AcDbEntity
  8
0
  6
CONTINUOUS
 62
     7
100
AcDbLine
 10
-77.63610229983109
 20
93.53529541928258
 30
0.0
 11
-77.63610229983109
 21
92.52794731234393
 31
0.0
  0
LINE
  5
2D8
330
1F
100
AcDbEntity
  8
0
  6
CONTINUOUS
 62
     7
100
AcDbLine
 10
-79.03610229983119
 20
52.67120415455467
 30
0.0
 11
-79.03610229983119
 21
31.15390141767039
 31
0.0
  0
LINE
  5
2D9
330
1F
100
AcDbEntity
  8
0
  6
CONTINUOUS
 62
     7
100
AcDbLine
 10
-133.9736696951507
 20
-37.61295577867698
 30
0.0
 11
-97.63610229983109
 21
-33.8460985823295
 31
0.0
  0
LINE
  5
2DA
330
1F
100
AcDbEntity
  8
0
  6
CONTINUOUS
 62
     7
100
AcDbLine
 10
-148.1361015368917
 20
92.65390098851695
 30
0.0
 11
-122.5845937777975
 21
92.65390098851695
 31
0.0
  0
LINE
  5
2DB
330
1F
100
AcDbEntity
  8
0
  6
CONTINUOUS
 62
     7
100
AcDbLine
 10
-147.5361022998312
 20
101.6539002255775
 30
0.0
 11
-147.5361022998312
 21
93.05390404027473
 31
0.0
  0
LINE
  5
2DC
330
1F
100
AcDbEntity
  8
0
  6
CONTINUOUS
 62
     7
100
AcDbLine
 10
-5.536102299831185
 20
1.353901417670379
 30
0.0
 11
7.358867208417389
 21
1.353901417670379
 31
0.0
  0
LINE
  5
2DD
330
1F
100
AcDbEntity
  8
0
  6
CONTINUOUS
 62
     7
100
AcDbLine
 10
-5.536102299831185
 20
1.353901417670379
 30
0.0
 11
-5.536102299831185
 21
31.15390141767039
 31
0.0
  0
LINE
  5
2DE
330
1F
100
AcDbEntity
  8
0
  6
CONTINUOUS
 62
     7
100
AcDbLine
 10
-9.436102299831163
 20
3.353901417670379
 30
0.0
 11
7.358867208417389
 21
3.353901417670379
 31
0.0
  0
LINE
  5
2DF
330
1F
100
AcDbEntity
  8
0
  6
CONTINUOUS
 62
     7
100
AcDbLine
 10
-7.536102299831185
 20
3.353901417670322
 30
0.0
 11
-5.536102299831242
 21
1.353901417670379
 31
0.0
  0
LINE
  5
2E0
330
1F
100
AcDbEntity
  8
0
  6
CONTINUOUS
 62
     7
100
AcDbLine
 10
-7.536102299831185
 20
31.15390141767039
 30
0.0
 11
-7.536102299831185
 21
3.353901417670379
 31
0.0
  0
LINE
  5
2E1
330
1F
100
AcDbEntity
  8
0
  6
CONTINUOUS
 62
     7
100
AcDbLine
 10
-12.43610229983116
 20
-19.74645024408432
 30
0.0
 11
-12.43610229983116
 21
31.15390141767039
 31
0.0
  0
LINE
  5
2E2
330
1F
100
AcDbEntity
  8
0
  6
CONTINUOUS
 62
     7
100
AcDbLine
 10
-139.4861022998312
 20
-44.54609858232961
 30
0.0
 11
-139.4861022998312
 21
-44.11377959232648
 31
0.0
  0
LINE
  5
2E3
330
1F
100
AcDbEntity
  8
0
  6
CONTINUOUS
 62
     7
100
AcDbLine
 10
-150.5361022998312
 20
86.01561820524914
 30
0.0
 11
-150.5361022998312
 21
101.6539002255775
 31
0.0
  0
LINE
  5
2E4
330
1F
100
AcDbEntity
  8
0
  6
CONTINUOUS
 62
     7
100
AcDbLine
 10
-140.4861022998312
 20
31.15390141767039
 30
0.0
 11
-140.4861022998312
 21
-44.54609858232961
 31
0.0
  0
LINE
  5
2E5
330
1F
100
AcDbEntity
  8
0
  6
CONTINUOUS
 62
     7
100
AcDbLine
 10
14.46389770016882
 20
60.95390141767039
 30
0.0
 11
14.46389770016882
 21
58.95390141767039
 31
0.0
  0
LINE
  5
2E6
330
1F
100
AcDbEntity
  8
0
  6
CONTINUOUS
 62
     7
100
AcDbLine
 10
14.46389770016882
 20
60.95390141767034
 30
0.0
 11
16.46389770016882
 21
58.95390141767034
 31
0.0
  0
LINE
  5
2E7
330
1F
100
AcDbEntity
  8
0
  6
CONTINUOUS
 62
     7
100
AcDbLine
 10
13.46389770016882
 20
55.65390141767038
 30
0.0
 11
13.46389770016882
 21
55.45641501352933
 31
0.0
  0
LINE
  5
2E8
330
1F
100
AcDbEntity
  8
0
  6
CONTINUOUS
 62
     7
100
AcDbLine
 10
-11.53610229983119
 20
53.25213026823353
 30
0.0
 11
-11.53610229983119
 21
31.15390141767039
 31
0.0
  0
LINE
  5
2E9
330
1F
100
AcDbEntity
  8
0
  6
CONTINUOUS
 62
     7
100
AcDbLine
 10
18.46389770016882
 20
58.95390141767039
 30
0.0
 11
18.46389770016882
 21
57.95641501352938
 31
0.0
  0
LINE
  5
2EA
330
1F
100
AcDbEntity
  8
0
  6
CONTINUOUS
 62
     7
100
AcDbLine
 10
-5.536102299831185
 20
60.95390141767039
 30
0.0
 11
14.46389770016882
 21
60.95390141767039
 31
0.0
  0
LINE
  5
2EB
330
1F
100
AcDbEntity
  8
0
  6
CONTINUOUS
 62
     7
100
AcDbLine
 10
-79.03610229983119
 20
51.15390141767038
 30
0.0
 11
-12.43610229983116
 21
51.15390141767038
 31
0.0
  0
LINE
  5
2EC
330
1F
100
AcDbEntity
  8
0
  6
CONTINUOUS
 62
     7
100
AcDbLine
 10
-9.571007112705757
 20
55.25182565854639
 30
0.0
 11
13.46389770016882
 21
55.65390141767044
 31
0.0
  0
LINE
  5
2ED
330
1F
100
AcDbEntity
  8
0
  6
CONTINUOUS
 62
     7
100
AcDbLine
 10
-5.536102299831185
 20
60.95390141767039
 30
0.0
 11
-5.536102299831185
 21
58.95390141767039
 31
0.0
  0
LINE
  5
2EE
330
1F
100
AcDbEntity
  8
0
  6
CONTINUOUS
 62
     7
100
AcDbLine
 10
-9.436102299831163
 20
58.95390141767039
 30
0.0
 11
18.46389770016882
 21
58.95390141767039
 31
0.0
  0
LINE
  5
2EF
330
1F
100
AcDbEntity
  8
0
  6
CONTINUOUS
 62
     7
100
AcDbLine
 10
-7.536102299831128
 20
58.95390141767045
 30
0.0
 11
-5.536102299831185
 21
60.95390141767039
 31
0.0
  0
LINE
  5
2F0
330
1F
100
AcDbEntity
  8
0
  6
CONTINUOUS
 62
     7
100
AcDbLine
 10
-143.0361022998312
 20
100.1539014176704
 30
0.0
 11
-143.0361022998312
 21
93.05390404027473
 31
0.0
  0
LINE
  5
2F1
330
1F
100
AcDbEntity
  8
0
  6
CONTINUOUS
 62
     7
100
AcDbLine
 10
18.46389770016882
 20
57.95390141767034
 30
0.0
 11
13.46389770016882
 21
55.65390141767038
 31
0.0
  0
LINE
  5
2F2
330
1F
100
AcDbEntity
  8
0
  6
CONTINUOUS
 62
     7
100
AcDbLine
 10
-12.43610229983116
 20
82.0542530794251
 30
0.0
 11
-12.43610229983116
 21
61.95390141767039
 31
0.0
  0
LINE
  5
2F3
330
1F
100
AcDbEntity
  8
0
  6
CONTINUOUS
 62
     7
100
AcDbLine
 10
-83.53610229983119
 20
91.05390141767036
 30
0.0
 11
-83.53610229983119
 21
87.55390141767036
 31
0.0
  0
LINE
  5
2F4
330
1F
100
AcDbEntity
  8
0
  6
CONTINUOUS
 62
     7
100
AcDbLine
 10
-81.03610229983119
 20
91.05390141767036
 30
0.0
 11
-81.03610229983119
 21
86.15390141767038
 31
0.0
  0
LINE
  5
2F5
330
1F
100
AcDbEntity
  8
0
  6
CONTINUOUS
 62
     7
100
AcDbLine
 10
-15.43610229983116
 20
82.35429877783825
 30
0.0
 11
-15.43610229983116
 21
57.70166229749513
 31
0.0
  0
LINE
  5
2F6
330
1F
100
AcDbEntity
  8
0
  6
CONTINUOUS
 62
     7
100
AcDbLine
 10
-139.4861022998312
 20
106.8539014176704
 30
0.0
 11
-139.4861022998312
 21
106.4215824276673
 31
0.0
  0
LINE
  5
2F7
330
1F
100
AcDbEntity
  8
0
  6
CONTINUOUS
 62
     7
100
AcDbLine
 10
-168.9988065691144
 20
107.484138920031
 30
0.0
 11
-169.5352012906224
 21
120.1114607932606
 31
0.0
  0
LINE
  5
2F8
330
1F
100
AcDbEntity
  8
0
  6
CONTINUOUS
 62
     7
100
AcDbLine
 10
-166.6361022998311
 20
118.5039014176705
 30
0.0
 11
-165.9949489509896
 21
108.2912445039796
 31
0.0
  0
LINE
  5
2F9
330
1F
100
AcDbEntity
  8
0
  6
CONTINUOUS
 62
     7
100
AcDbLine
 10
-168.4992570737189
 20
107.5053592322359
 30
0.0
 11
-169.0356517952269
 21
120.1326811054655
 31
0.0
  0
LINE
  5
2FA
330
1F
100
AcDbEntity
  8
0
  6
CONTINUOUS
 62
     7
100
AcDbLine
 10
-147.5361022998312
 20
103.6539014176704
 30
0.0
 11
-147.5361022998312
 21
101.1539014176704
 31
0.0
  0
LINE
  5
2FB
330
1F
100
AcDbEntity
  8
0
  6
CONTINUOUS
 62
     7
100
AcDbLine
 10
-164.9969138257727
 20
107.3539014176704
 30
0.0
 11
-163.2361022998312
 21
107.3539014176704
 31
0.0
  0
LINE
  5
2FC
330
1F
100
AcDbEntity
  8
0
  6
CONTINUOUS
 62
     7
100
AcDbLine
 10
-167.0903914494564
 20
118.2950441254042
 30
0.0
 11
-166.6361022998313
 21
118.5039014176706
 31
0.0
  0
LINE
  5
2FD
330
1F
100
AcDbEntity
  8
0
  6
CONTINUOUS
 62
     7
100
AcDbLine
 10
-163.2361022998312
 20
109.1539014176704
 30
0.0
 11
-163.2361022998312
 21
107.3539014176704
 31
0.0
  0
LINE
  5
2FE
330
1F
100
AcDbEntity
  8
0
  6
CONTINUOUS
 62
     7
100
AcDbLine
 10
-165.0024106059501
 20
104.1539014176704
 30
0.0
 11
-156.4361022998312
 21
104.1539014176704
 31
0.0
  0
LINE
  5
2FF
330
1F
100
AcDbEntity
  8
0
  6
CONTINUOUS
 62
     7
100
AcDbLine
 10
-165.0024106059501
 20
103.6539014176704
 30
0.0
 11
-144.5361022998312
 21
103.6539014176704
 31
0.0
  0
LINE
  5
300
330
1F
100
AcDbEntity
  8
0
  6
CONTINUOUS
 62
     7
100
AcDbLine
 10
-166.6361022998311
 20
118.5039014176704
 30
0.0
 11
-167.6343709032596
 21
120.5861981773588
 31
0.0
  0
LINE
  5
301
330
1F
100
AcDbEntity
  8
0
  6
CONTINUOUS
 62
     7
100
AcDbLine
 10
-169.5361022998312
 20
120.1539014176704
 30
0.0
 11
-169.5361022998312
 21
31.15390141767039
 31
0.0
  0
LINE
  5
302
330
1F
100
AcDbEntity
  8
0
  6
CONTINUOUS
 62
     7
100
AcDbLine
 10
-149.1361015368917
 20
73.07050999949983
 30
0.0
 11
-149.1361015368917
 21
93.65390098851695
 31
0.0
  0
LINE
  5
303
330
1F
100
AcDbEntity
  8
0
  6
CONTINUOUS
 62
     7
100
AcDbLine
 10
-103.9361015368916
 20
31.15390141767039
 30
0.0
 11
-103.9361015368916
 21
35.55390147727501
 31
0.0
  0
LINE
  5
304
330
1F
100
AcDbEntity
  8
0
  6
CONTINUOUS
 62
     7
100
AcDbLine
 10
-103.5361015368918
 20
30.90390141767039
 30
0.0
 11
-103.5361015368918
 21
35.55390147727501
 31
0.0
  0
LINE
  5
305
330
1F
100
AcDbEntity
  8
0
  6
CONTINUOUS
 62
     7
100
AcDbLine
 10
-148.7361015368917
 20
95.55390404027473
 30
0.0
 11
-148.5361022998312
 21
95.55390404027473
 31
0.0
  0
LINE
  5
306
330
1F
100
AcDbEntity
  8
0
  6
CONTINUOUS
 62
     7
100
AcDbLine
 10
-149.1361015368917
 20
93.65390098851695
 30
0.0
 11
-149.1361015368917
 21
99.15390404027475
 31
0.0
  0
LINE
  5
307
330
1F
100
AcDbEntity
  8
0
  6
CONTINUOUS
 62
     7
100
AcDbLine
 10
-149.1361015368917
 20
99.15390404027475
 30
0.0
 11
-148.7361015368917
 21
99.15390404027475
 31
0.0
  0
LINE
  5
308
330
1F
100
AcDbEntity
  8
0
  6
CONTINUOUS
 62
     7
100
AcDbLine
 10
-148.1361015368917
 20
93.05390404027473
 30
0.0
 11
-122.5845937777975
 21
93.05390404027473
 31
0.0
  0
ARC
  5
309
330
1F
100
AcDbEntity
  8
0
  6
CONTINUOUS
 62
     7
100
AcDbCircle
 10
-133.3550075518325
 20
105.8887781475335
 30
0.0
 40
6.0
100
AcDbArc
 50
200.8601079258215
 51
264.0816929538549
  0
ARC
  5
30A
330
1F
100
AcDbEntity
  8
0
  6
CONTINUOUS
 62
     7
100
AcDbCircle
 10
-403.9361000977455
 20
35.52451631456716
 30
0.0
 40
300.4
100
AcDbArc
 50
0.0056121526871861
 51
8.396614260255088
  0
ARC
  5
30B
330
1F
100
AcDbEntity
  8
0
  6
CONTINUOUS
 62
     7
100
AcDbCircle
 10
-148.1361015368917
 20
93.65390404027475
 30
0.0
 40
0.6000000000000001
100
AcDbArc
 50
180.0
 51
270.0
  0
ARC
  5
30C
330
1F
100
AcDbEntity
  8
0
  6
CONTINUOUS
 62
     7
100
AcDbCircle
 10
-149.0361022998312
 20
101.6539002255775
 30
0.0
 40
1.5
100
AcDbArc
 50
89.99999931675467
 51
180.000008651422
  0
ARC
  5
30D
330
1F
100
AcDbEntity
  8
0
  6
CONTINUOUS
 62
     7
100
AcDbCircle
 10
-18.43610229983116
 20
57.71213533645208
 30
0.0
 40
3.0
100
AcDbArc
 50
270.9999999999999
 51
360.0
  0
ARC
  5
30E
330
1F
100
AcDbEntity
  8
0
  6
CONTINUOUS
 62
     7
100
AcDbCircle
 10
-131.4876517393401
 20
-44.27122365026834
 30
0.0
 40
8.0
100
AcDbArc
 50
89.8518772976019
 51
181.9690342464729
  0
ARC
  5
30F
330
1F
100
AcDbEntity
  8
0
  6
CONTINUOUS
 62
     7
100
AcDbCircle
 10
-146.5361022998312
 20
101.1539014176704
 30
0.0
 40
1.0
100
AcDbArc
 50
180.0
 51
270.0
  0
ARC
  5
310
330
1F
100
AcDbEntity
  8
0
  6
CONTINUOUS
 62
     7
100
AcDbCircle
 10
-20.43610229983116
 20
-19.74645024408432
 30
0.0
 40
8.0
100
AcDbArc
 50
270.9999999999999
 51
360.0
  0
ARC
  5
311
330
1F
100
AcDbEntity
  8
0
  6
CONTINUOUS
 62
     7
100
AcDbCircle
 10
-403.9361000977455
 20
35.52451631456716
 30
0.0
 40
300.0
100
AcDbArc
 50
0.0056121526871861
 51
8.396614260255088
  0
ARC
  5
312
330
1F
100
AcDbEntity
  8
0
  6
CONTINUOUS
 62
     7
100
AcDbCircle
 10
-133.3550075518325
 20
-43.58097531219273
 30
0.0
 40
6.0
100
AcDbArc
 50
95.91830704614505
 51
159.1398920741785
  0
ARC
  5
313
330
1F
100
AcDbEntity
  8
0
  6
CONTINUOUS
 62
     7
100
AcDbCircle
 10
-78.63610229983109
 20
-31.22749258394181
 30
0.0
 40
1.0
100
AcDbArc
 50
274.8584629190343
 51
360.0
  0
ARC
  5
314
330
1F
100
AcDbEntity
  8
0
  6
CONTINUOUS
 62
     7
100
AcDbCircle
 10
-133.3550075518325
 20
105.8887781475335
 30
0.0
 40
6.0
100
AcDbArc
 50
200.8601079258215
 51
264.0816929538549
  0
ARC
  5
315
330
1F
100
AcDbEntity
  8
0
  6
CONTINUOUS
 62
     7
100
AcDbCircle
 10
-156.9361022998312
 20
104.6539014176704
 30
0.0
 40
0.5
100
AcDbArc
 50
270.0
 51
360.0
  0
ARC
  5
316
330
1F
100
AcDbEntity
  8
0
  6
CONTINUOUS
 62
     7
100
AcDbCircle
 10
-78.63610229983109
 20
93.53529541928258
 30
0.0
 40
1.0
100
AcDbArc
 50
0.0
 51
85.14153708096571
  0
ARC
  5
317
330
1F
100
AcDbEntity
  8
0
  6
CONTINUOUS
 62
     7
100
AcDbCircle
 10
-155.5361022998312
 20
104.1539014176704
 30
0.0
 40
0.5
100
AcDbArc
 50
180.0
 51
270.0
  0
ARC
  5
318
330
1F
100
AcDbEntity
  8
0
  6
CONTINUOUS
 62
     7
100
AcDbCircle
 10
-144.5361022998312
 20
102.1539014176704
 30
0.0
 40
1.5
100
AcDbArc
 50
1.014722224427813
 51
90.00000000000003
  0
ARC
  5
319
330
1F
100
AcDbEntity
  8
0
  6
CONTINUOUS
 62
     7
100
AcDbCircle
 10
-165.0024106059501
 20
107.6539014176704
 30
0.0
 40
4.0
100
AcDbArc
 50
182.4323992405142
 51
270.0
  0
ARC
  5
31A
330
1F
100
AcDbEntity
  8
0
  6
CONTINUOUS
 62
     7
100
AcDbCircle
 10
-165.0024106059501
 20
107.6539014176704
 30
0.0
 40
3.5
100
AcDbArc
 50
182.4323992405142
 51
270.0
  0
ARC
  5
31B
330
1F
100
AcDbEntity
  8
0
  6
CONTINUOUS
 62
     7
100
AcDbCircle
 10
-164.9969138257726
 20
108.3539014176704
 30
0.0
 40
1.0
100
AcDbArc
 50
183.5923298462492
 51
270.0
  0
ARC
  5
31C
330
1F
100
AcDbEntity
  8
0
  6
CONTINUOUS
 62
     7
100
AcDbCircle
 10
-87.03610229983119
 20
91.53955922363546
 30
0.0
 40
1.0
100
AcDbArc
 50
0.0
 51
85.14153708096571
  0
ARC
  5
31D
330
1F
100
AcDbEntity
  8
0
  6
CONTINUOUS
 62
     7
100
AcDbCircle
 10
-83.53610229983119
 20
90.05390141767036
 30
0.0
 40
2.5
100
AcDbArc
 50
180.0
 51
270.0
  0
ARC
  5
31E
330
1F
100
AcDbEntity
  8
0
  6
CONTINUOUS
 62
     7
100
AcDbCircle
 10
-137.0361022998312
 20
102.2867421351497
 30
0.0
 40
6.0
100
AcDbArc
 50
181.0147222244279
 51
265.8997892877088
  0
ARC
  5
31F
330
1F
100
AcDbEntity
  8
0
  6
CONTINUOUS
 62
     7
100
AcDbCircle
 10
-80.03610229983119
 20
89.39553461582345
 30
0.0
 40
1.0
100
AcDbArc
 50
180.0
 51
269.0
  0
ARC
  5
320
330
1F
100
AcDbEntity
  8
0
  6
CONTINUOUS
 62
     7
100
AcDbCircle
 10
-76.13610229983109
 20
92.52794731234387
 30
0.0
 40
1.5
100
AcDbArc
 50
180.0
 51
269.0
  0
ARC
  5
321
330
1F
100
AcDbEntity
  8
0
  6
CONTINUOUS
 62
     7
100
AcDbCircle
 10
-76.13610229983109
 20
-30.22014447700316
 30
0.0
 40
1.5
100
AcDbArc
 50
91.0
 51
180.0
  0
ARC
  5
322
330
1F
100
AcDbEntity
  8
0
  6
CONTINUOUS
 62
     7
100
AcDbCircle
 10
-20.43610229983116
 20
82.3542987778382
 30
0.0
 40
5.0
100
AcDbArc
 50
0.0
 51
89.00000000000003
  0
ARC
  5
323
330
1F
100
AcDbEntity
  8
0
  6
CONTINUOUS
 62
     7
100
AcDbCircle
 10
-148.1361015368917
 20
93.65390098851695
 30
0.0
 40
1.0
100
AcDbArc
 50
180.0
 51
270.0
  0
ARC
  5
324
330
1F
100
AcDbEntity
  8
0
  6
CONTINUOUS
 62
     7
100
AcDbCircle
 10
-78.03610229983119
 20
52.67120415455467
 30
0.0
 40
1.0
100
AcDbArc
 50
90.99999999999999
 51
180.0
  0
ARC
  5
325
330
1F
100
AcDbEntity
  8
0
  6
CONTINUOUS
 62
     7
100
AcDbCircle
 10
-20.43610229983116
 20
82.0542530794251
 30
0.0
 40
8.0
100
AcDbArc
 50
0.0
 51
89.00000000000001
  0
ARC
  5
326
330
1F
100
AcDbEntity
  8
0
  6
CONTINUOUS
 62
     7
100
AcDbCircle
 10
-122.5845937777975
 20
77.05390404027473
 30
0.0
 40
15.59999980926514
100
AcDbArc
 50
8.402533230392058
 51
90.00000000000001
  0
ARC
  5
327
330
1F
100
AcDbEntity
  8
0
  6
CONTINUOUS
 62
     7
100
AcDbCircle
 10
-9.436102299831163
 20
0.3539014176703788
 30
0.0
 40
3.0
100
AcDbArc
 50
90.0
 51
180.0
  0
ARC
  5
328
330
1F
100
AcDbEntity
  8
0
  6
CONTINUOUS
 62
     7
100
AcDbCircle
 10
-148.5361022998312
 20
96.55390404027473
 30
0.0
 40
1.0
100
AcDbArc
 50
270.0
 51
360.0
  0
ARC
  5
329
330
1F
100
AcDbEntity
  8
0
  6
CONTINUOUS
 62
     7
100
AcDbCircle
 10
-9.536102299831185
 20
53.25213026823353
 30
0.0
 40
2.0
100
AcDbArc
 50
91.00000000000014
 51
180.0
  0
ARC
  5
32A
330
1F
100
AcDbEntity
  8
0
  6
CONTINUOUS
 62
     7
100
AcDbCircle
 10
-12.43610229983116
 20
52.05390141767036
 30
0.0
 40
0.9
100
AcDbArc
 50
270.0
 51
360.0
  0
ARC
  5
32B
330
1F
100
AcDbEntity
  8
0
  6
CONTINUOUS
 62
     7
100
AcDbCircle
 10
-168.5361022998312
 20
120.1539014176704
 30
0.0
 40
1.0
100
AcDbArc
 50
25.61340682524883
 51
182.4323992405144
  0
ARC
  5
32C
330
1F
100
AcDbEntity
  8
0
  6
CONTINUOUS
 62
     7
100
AcDbCircle
 10
-9.436102299831163
 20
61.95390141767039
 30
0.0
 40
3.0
100
AcDbArc
 50
180.0
 51
270.0
  0
ARC
  5
32D
330
1F
100
AcDbEntity
  8
0
  6
CONTINUOUS
 62
     7
100
AcDbCircle
 10
-146.5361022998312
 20
101.1539014176704
 30
0.0
 40
1.0
100
AcDbArc
 50
180.0
 51
270.0
  0
ARC
  5
32E
330
1F
100
AcDbEntity
  8
0
  6
CONTINUOUS
 62
     7
100
AcDbCircle
 10
-165.0024106059501
 20
107.6539014176704
 30
0.0
 40
3.5
100
AcDbArc
 50
182.4323992405142
 51
270.0
  0
ARC
  5
32F
330
1F
100
AcDbEntity
  8
0
  6
CONTINUOUS
 62
     7
100
AcDbCircle
 10
-164.9969138257726
 20
108.3539014176704
 30
0.0
 40
1.0
100
AcDbArc
 50
183.5923298462491
 51
270.0
  0
ARC
  5
330
330
1F
100
AcDbEntity
  8
0
  6
CONTINUOUS
 62
     7
100
AcDbCircle
 10
-165.0024106059501
 20
107.6539014176704
 30
0.0
 40
4.0
100
AcDbArc
 50
182.4323992405142
 51
270.0
  0
ARC
  5
331
330
1F
100
AcDbEntity
  8
0
  6
CONTINUOUS
 62
     7
100
AcDbCircle
 10
-168.5361022998312
 20
120.1539014176704
 30
0.0
 40
0.5
100
AcDbArc
 50
25.61340682524883
 51
182.4323992405144
  0
ARC
  5
332
330
1F
100
AcDbEntity
  8
0
  6
CONTINUOUS
 62
     7
100
AcDbCircle
 10
-122.5845937777975
 20
77.05390404027473
 30
0.0
 40
16.0
100
AcDbArc
 50
8.402532867895536
 51
90.00000250447816
  0
ARC
  5
333
330
1F
100
AcDbEntity
  8
0
  6
CONTINUOUS
 62
     7
100
AcDbCircle
 10
-149.0361022998312
 20
101.6539002255775
 30
0.0
 40
1.5
100
AcDbArc
 50
0.0
 51
90.00000250447816
  0
LINE
  5
334
330
1F
100
AcDbEntity
  8
0
  6
CONTINUOUS
 62
     7
100
AcDbLine
 10
-166.6361022998311
 20
-56.19609858232964
 30
0.0
 11
-167.6343709032595
 21
-58.27839534201804
 31
0.0
  0
ARC
  5
335
330
1F
100
AcDbEntity
  8
0
  6
CONTINUOUS
 62
     7
100
AcDbCircle
 10
-168.5361022998312
 20
-57.84609858232962
 30
0.0
 40
1.0
100
AcDbArc
 50
177.5676007594856
 51
334.3865931747512
  0
LINE
  5
336
330
1F
100
AcDbEntity
  8
0
  6
CONTINUOUS
 62
     7
100
AcDbLine
 10
-166.6361022998311
 20
31.15390141767039
 30
0.0
 11
-166.6361022998311
 21
-56.19609858232958
 31
0.0
  0
LINE
  5
337
330
1F
100
AcDbEntity
  8
0
  6
CONTINUOUS
 62
     7
100
AcDbLine
 10
-167.6343709032595
 20
31.15390141767039
 30
0.0
 11
-167.6343709032595
 21
-58.27839534201804
 31
0.0
  0
LINE
  5
338
330
1F
100
AcDbEntity
  8
0
  6
CONTINUOUS
 62
     7
100
AcDbLine
 10
-169.5361022998312
 20
-57.84609858232962
 30
0.0
 11
-169.5361022998312
 21
31.15390141767039
 31
0.0
  0
ARC
  5
339
330
1F
100
AcDbEntity
  8
0
  6
CONTINUOUS
 62
     7
100
AcDbCircle
 10
-131.4876517393401
 20
106.5790264856091
 30
0.0
 40
8.0
100
AcDbArc
 50
178.8723171921933
 51
200.7171499699321
  0
LINE
  5
33A
330
1F
100
AcDbEntity
  8
0
  6
DASHED2
 62
     7
100
AcDbLine
 10
-97.63610229983121
 20
96.15390141767078
 30
0.0
 11
-131.4669699315473
 21
98.57905321922748
 31
0.0
  0
ARC
  5
33B
330
1F
100
AcDbEntity
  8
0
  6
DASHED2
 62
     7
100
AcDbCircle
 10
-131.4876517393401
 20
106.5790264856091
 30
0.0
 40
8.0
100
AcDbArc
 50
200.7171499699321
 51
270.1481227023981
  0
LINE
  5
33C
330
1F
100
AcDbEntity
  8
0
  6
CONTINUOUS
 62
    41
100
AcDbLine
 10
-148.6361022998311
 20
107.6539014176704
 30
0.0
 11
-158.1361022998311
 21
107.6539014176704
 31
0.0
  0
LINE
  5
33D
330
1F
100
AcDbEntity
  8
0
  6
CONTINUOUS
 62
    41
100
AcDbLine
 10
-148.6361022998311
 20
-23.84403864580617
 30
0.0
 11
-158.9979892779805
 21
-23.84403864580617
 31
0.0
  0
LINE
  5
33E
330
1F
100
AcDbEntity
  8
0
  6
CONTINUOUS
 62
    41
100
AcDbLine
 10
-147.6361022998311
 20
111.8943799332954
 30
0.0
 11
-147.6361022998311
 21
117.9039014176704
 31
0.0
  0
LINE
  5
33F
330
1F
100
AcDbEntity
  8
0
  6
CONTINUOUS
 62
    41
100
AcDbLine
 10
-147.6361022998311
 20
31.15390141767039
 30
0.0
 11
-147.6361022998311
 21
29.75390179914012
 31
0.0
  0
LINE
  5
340
330
1F
100
AcDbEntity
  8
0
  6
CONTINUOUS
 62
    41
100
AcDbLine
 10
-149.6361022998311
 20
27.75390132230296
 30
0.0
 11
-158.9979892779805
 21
27.75390132230296
 31
0.0
  0
LINE
  5
341
330
1F
100
AcDbEntity
  8
0
  6
CONTINUOUS
 62
    41
100
AcDbLine
 10
-163.253590838112
 20
110.5667477950642
 30
0.0
 11
-164.1361025759744
 21
120.6539031460812
 31
0.0
  0
LINE
  5
342
330
1F
100
AcDbEntity
  8
0
  6
CONTINUOUS
 62
    41
100
AcDbLine
 10
-164.1361022998311
 20
118.5822995811526
 30
0.0
 11
-164.1361022998311
 21
120.6539014176704
 31
0.0
  0
LINE
  5
343
330
1F
100
AcDbEntity
  8
0
  6
CONTINUOUS
 62
    41
100
AcDbLine
 10
-145.1361022998311
 20
109.1539014176704
 30
0.0
 11
-145.1361022998311
 21
110.6539014176704
 31
0.0
  0
LINE
  5
344
330
1F
100
AcDbEntity
  8
0
  6
CONTINUOUS
 62
    41
100
AcDbLine
 10
-147.6361022998311
 20
-24.84403864580618
 30
0.0
 11
-147.6361022998311
 21
-30.59766260820852
 31
0.0
  0
LINE
  5
345
330
1F
100
AcDbEntity
  8
0
  6
CONTINUOUS
 62
    41
100
AcDbLine
 10
-149.6361022998311
 20
-32.59766260820852
 30
0.0
 11
-158.9979892779805
 21
-32.59766260820852
 31
0.0
  0
LINE
  5
346
330
1F
100
AcDbEntity
  8
0
  6
CONTINUOUS
 62
    41
100
AcDbLine
 10
-160.6361022998311
 20
120.6539014176704
 30
0.0
 11
-164.1361022998311
 21
120.6539014176704
 31
0.0
  0
LINE
  5
347
330
1F
100
AcDbEntity
  8
0
  6
CONTINUOUS
 62
    41
100
AcDbLine
 10
-158.9979897468378
 20
27.75390120802336
 30
0.0
 11
-159.6361024833912
 21
31.15390185338611
 31
0.0
  0
LINE
  5
348
330
1F
100
AcDbEntity
  8
0
  6
CONTINUOUS
 62
    41
100
AcDbLine
 10
-149.6361022998311
 20
119.9039014176704
 30
0.0
 11
-159.6678564632792
 21
119.9039014176704
 31
0.0
  0
LINE
  5
349
330
1F
100
AcDbEntity
  8
0
  6
CONTINUOUS
 62
    41
100
AcDbLine
 10
-145.1361022998311
 20
109.6539014176704
 30
0.0
 11
-162.2573963214375
 21
109.6539014176704
 31
0.0
  0
LINE
  5
34A
330
1F
100
AcDbEntity
  8
0
  6
CONTINUOUS
 62
    41
100
AcDbLine
 10
-158.1361022998311
 20
109.6539014176704
 30
0.0
 11
-158.1361022998311
 21
107.6539014176704
 31
0.0
  0
LINE
  5
34B
330
1F
100
AcDbEntity
  8
0
  6
CONTINUOUS
 62
    41
100
AcDbLine
 10
-162.1361022998311
 20
118.6539014176704
 30
0.0
 11
-163.9611250982169
 21
118.6539014176704
 31
0.0
  0
LINE
  5
34C
330
1F
100
AcDbEntity
  8
0
  6
CONTINUOUS
 62
    41
100
AcDbLine
 10
-162.1361022998311
 20
115.1539014176704
 30
0.0
 11
-163.6549147767701
 21
115.1539014176704
 31
0.0
  0
LINE
  5
34D
330
1F
100
AcDbEntity
  8
0
  6
CONTINUOUS
 62
    41
100
AcDbLine
 10
-148.6361022998311
 20
109.6539014176704
 30
0.0
 11
-148.6361022998311
 21
107.6539014176703
 31
0.0
  0
LINE
  5
34E
330
1F
100
AcDbEntity
  8
0
  6
CONTINUOUS
 62
    41
100
AcDbLine
 10
-146.6361022998311
 20
109.6539014176704
 30
0.0
 11
-148.6361022998311
 21
107.6539014176703
 31
0.0
  0
LINE
  5
34F
330
1F
100
AcDbEntity
  8
0
  6
CONTINUOUS
 62
    41
100
AcDbLine
 10
-146.6361022998311
 20
109.1539014176704
 30
0.0
 11
-146.6361022998311
 21
109.6539014176704
 31
0.0
  0
LINE
  5
350
330
1F
100
AcDbEntity
  8
0
  6
CONTINUOUS
 62
    41
100
AcDbLine
 10
-160.1361022998311
 20
109.1539014176704
 30
0.0
 11
-160.1361022998311
 21
109.6539014176704
 31
0.0
  0
LINE
  5
351
330
1F
100
AcDbEntity
  8
0
  6
CONTINUOUS
 62
    41
100
AcDbLine
 10
-158.1361022998311
 20
107.6539014176704
 30
0.0
 11
-160.1361022998311
 21
109.6539014176704
 31
0.0
  0
LINE
  5
352
330
1F
100
AcDbEntity
  8
0
  6
CONTINUOUS
 62
    41
100
AcDbLine
 10
-162.1361022998311
 20
115.1539014176704
 30
0.0
 11
-162.1361022998311
 21
118.6539014176704
 31
0.0
  0
LINE
  5
353
330
1F
100
AcDbEntity
  8
0
  6
CONTINUOUS
 62
    41
100
AcDbLine
 10
-163.173726658962
 20
110.2534802750923
 30
0.0
 11
-163.173726658962
 21
109.1539014176704
 31
0.0
  0
ARC
  5
354
330
1F
100
AcDbEntity
  8
0
  6
CONTINUOUS
 62
    41
100
AcDbCircle
 10
-148.6361022998311
 20
-24.84403864580618
 30
0.0
 40
1.0
100
AcDbArc
 50
359.9999949910437
 51
449.9999974955219
  0
ARC
  5
355
330
1F
100
AcDbEntity
  8
0
  6
CONTINUOUS
 62
    41
100
AcDbCircle
 10
-149.6361022998311
 20
29.75390179914012
 30
0.0
 40
2.0
100
AcDbArc
 50
269.9999993167547
 51
360.000008651422
  0
ARC
  5
356
330
1F
100
AcDbEntity
  8
0
  6
CONTINUOUS
 62
    41
100
AcDbCircle
 10
-149.6361022998311
 20
117.9039014176704
 30
0.0
 40
2.0
100
AcDbArc
 50
359.9999949910437
 51
449.9999974955219
  0
ARC
  5
357
330
1F
100
AcDbEntity
  8
0
  6
CONTINUOUS
 62
    41
100
AcDbCircle
 10
-149.6361022998311
 20
-30.59766260820852
 30
0.0
 40
2.0
100
AcDbArc
 50
269.9999993167547
 51
360.000008651422
  0
ARC
  5
358
330
1F
100
AcDbEntity
  8
0
  6
CONTINUOUS
 62
    41
100
AcDbCircle
 10
-162.2573963214375
 20
110.6539014176704
 30
0.0
 40
1.0
100
AcDbArc
 50
184.9999998545465
 51
270.0000025044782
  0
LINE
  5
359
330
1F
100
AcDbEntity
  8
0
  6
CONTINUOUS
 62
    41
100
AcDbLine
 10
-158.9979895649791
 20
-50.09609981259713
 30
0.0
 11
-159.6361018976091
 21
-57.38975717088989
 31
0.0
  0
LINE
  5
35A
330
1F
100
AcDbEntity
  8
0
  6
CONTINUOUS
 62
    41
100
AcDbLine
 10
-149.6361022998311
 20
-57.59609858232962
 30
0.0
 11
-159.6361022998311
 21
-57.59609858232962
 31
0.0
  0
LINE
  5
35B
330
1F
100
AcDbEntity
  8
0
  6
CONTINUOUS
 62
    41
100
AcDbLine
 10
-150.7874294330098
 20
-50.09609858232962
 30
0.0
 11
-158.9979892779805
 21
-50.09609858232962
 31
0.0
  0
LINE
  5
35C
330
1F
100
AcDbEntity
  8
0
  6
CONTINUOUS
 62
    41
100
AcDbLine
 10
-147.6361022998311
 20
-49.58657709795462
 30
0.0
 11
-147.6361022998311
 21
-55.59609858232962
 31
0.0
  0
LINE
  5
35D
330
1F
100
AcDbEntity
  8
0
  6
CONTINUOUS
 62
    41
100
AcDbLine
 10
-160.6361022998311
 20
-58.34609858232962
 30
0.0
 11
-164.1361022998311
 21
-58.34609858232962
 31
0.0
  0
ARC
  5
35E
330
1F
100
AcDbEntity
  8
0
  6
CONTINUOUS
 62
    41
100
AcDbCircle
 10
-149.6361022998311
 20
-55.59609858232962
 30
0.0
 40
2.0
100
AcDbArc
 50
269.9999993167547
 51
360.000008651422
  0
ARC
  5
35F
330
1F
100
AcDbEntity
  8
0
  6
CONTINUOUS
 62
    41
100
AcDbCircle
 10
-150.7874294330098
 20
-40.09609858232962
 30
0.0
 40
10.0
100
AcDbArc
 50
270.0000025044782
 51
304.4115132411888
  0
ARC
  5
360
330
1F
100
AcDbEntity
  8
0
  6
CONTINUOUS
 62
    41
100
AcDbCircle
 10
-160.6361022998311
 20
-57.34609858232962
 30
0.0
 40
1.0
100
AcDbArc
 50
269.9999993167547
 51
360.000008651422
  0
LINE
  5
361
330
1F
100
AcDbEntity
  8
0
  6
CONTINUOUS
 62
    41
100
AcDbLine
 10
-159.6361022998311
 20
31.15390141767039
 30
0.0
 11
-159.6361022998311
 21
-57.38976160723196
 31
0.0
  0
LINE
  5
362
330
1F
100
AcDbEntity
  8
0
  6
CONTINUOUS
 62
    41
100
AcDbLine
 10
-164.1361022998311
 20
31.15390141767039
 30
0.0
 11
-164.1361022998311
 21
-58.34609858232962
 31
0.0
  0
LINE
  5
363
330
1F
100
AcDbEntity
  8
0
  6
CONTINUOUS
 62
    41
100
AcDbLine
 10
-145.1361022998311
 20
31.15390141767039
 30
0.0
 11
-145.1361022998311
 21
-48.34609858232962
 31
0.0
  0
LINE
  5
364
330
1F
100
AcDbEntity
  8
0
  6
CONTINUOUS
 62
    41
100
AcDbLine
 10
-158.9979892779805
 20
27.75390132230296
 30
0.0
 11
-158.9979892779805
 21
-50.09609858232962
 31
0.0
  0
ARC
  5
365
330
1F
100
AcDbEntity
  8
0
  6
CONTINUOUS
 62
    41
100
AcDbCircle
 10
-160.6361022998311
 20
119.6539014176704
 30
0.0
 40
1.0
100
AcDbArc
 50
14.47751218592986
 51
89.99999749552188
  0
ARC
  5
366
330
1F
100
AcDbEntity
  8
0
  6
CONTINUOUS
 62
    41
100
AcDbCircle
 10
-150.7874294330098
 20
102.4039014176704
 30
0.0
 40
10.0
100
AcDbArc
 50
55.58848675881131
 51
71.63117853631476
  0
LINE
  5
367
330
1F
100
AcDbEntity
  8
0
  6
DASHED2
 62
    51
100
AcDbLine
 10
-159.1976484951343
 20
114.6860130621086
 30
0.0
 11
-159.6361022835382
 21
119.69756281054
 31
0.0
  0
LINE
  5
368
330
1F
100
AcDbEntity
  8
0
  6
DASHED2
 62
    51
100
AcDbLine
 10
-150.7874294330098
 20
112.4039014176704
 30
0.0
 11
-156.7071624804952
 21
112.4039014176704
 31
0.0
  0
ARC
  5
369
330
1F
100
AcDbEntity
  8
0
  6
DASHED2
 62
    51
100
AcDbCircle
 10
-156.7071624804952
 20
114.9039014176704
 30
0.0
 40
2.5
100
AcDbArc
 50
184.9999998545465
 51
270.0000025044782
  0
LINE
  5
36A
330
1F
100
AcDbEntity
  8
0
  6
DASHED2
 62
    51
100
AcDbLine
 10
-81.03610229983119
 20
86.15390141767038
 30
0.0
 11
-81.03610229983119
 21
77.15390141767038
 31
0.0
  0
LINE
  5
36B
330
1F
100
AcDbEntity
  8
0
  6
DASHED2
 62
    51
100
AcDbLine
 10
-83.03610229983119
 20
77.15390141767038
 30
0.0
 11
-58.0361018818314
 21
77.15390141767038
 31
0.0
  0
ARC
  5
36C
330
1F
100
AcDbEntity
  8
0
  6
DASHED2
 62
    51
100
AcDbCircle
 10
-160.6361022998311
 20
119.6539014176704
 30
0.0
 40
1.0
100
AcDbArc
 50
359.9999949910437
 51
374.4775121859299
  0
ARC
  5
36D
330
1F
100
AcDbEntity
  8
0
  6
DASHED2
 62
    51
100
AcDbCircle
 10
-150.7874294330098
 20
102.4039014176704
 30
0.0
 40
10.0
100
AcDbArc
 50
71.63117853631476
 51
89.99999749552188
  0
LINE
  5
36E
330
1F
100
AcDbEntity
  8
0
  6
CONTINUOUS
 62
    51
100
AcDbLine
 10
-26.03610611452845
 20
76.15390141767038
 30
0.0
 11
-26.03610611452845
 21
54.57901979228016
 31
0.0
  0
LINE
  5
36F
330
1F
100
AcDbEntity
  8
0
  6
CONTINUOUS
 62
    51
100
AcDbLine
 10
-89.03610229983119
 20
69.15390141767038
 30
0.0
 11
-89.03610229983119
 21
31.15390141767039
 31
0.0
  0
LINE
  5
370
330
1F
100
AcDbEntity
  8
0
  6
CONTINUOUS
 62
    51
100
AcDbLine
 10
-91.03610420717982
 20
69.15390141767038
 30
0.0
 11
-91.03610420717982
 21
31.15390141767039
 31
0.0
  0
LINE
  5
371
330
1F
100
AcDbEntity
  8
0
  6
CONTINUOUS
 62
    51
100
AcDbLine
 10
-83.03610229983119
 20
75.15390141767038
 30
0.0
 11
-27.03610611452845
 21
75.15390141767038
 31
0.0
  0
LINE
  5
372
330
1F
100
AcDbEntity
  8
0
  6
CONTINUOUS
 62
    51
100
AcDbLine
 10
-101.0361042071798
 20
43.90390141767038
 30
0.0
 11
-101.0361042071798
 21
31.15390141767039
 31
0.0
  0
LINE
  5
373
330
1F
100
AcDbEntity
  8
0
  6
CONTINUOUS
 62
    51
100
AcDbLine
 10
-83.53610229983119
 20
91.01087201710332
 30
0.0
 11
-83.53610229983119
 21
88.2440615507853
 31
0.0
  0
LINE
  5
374
330
1F
100
AcDbEntity
  8
0
  6
CONTINUOUS
 62
    51
100
AcDbLine
 10
-83.03610229983119
 20
91.65390141767038
 30
0.0
 11
-83.03610229983119
 21
77.15390141767038
 31
0.0
  0
LINE
  5
375
330
1F
100
AcDbEntity
  8
0
  6
CONTINUOUS
 62
    51
100
AcDbLine
 10
-81.03610229983119
 20
86.15390141767038
 30
0.0
 11
-71.03610229983119
 21
86.15390141767038
 31
0.0
  0
LINE
  5
376
330
1F
100
AcDbEntity
  8
0
  6
CONTINUOUS
 62
    51
100
AcDbLine
 10
-71.03610154564601
 20
86.15390370057956
 30
0.0
 11
-58.0361018818314
 21
77.15390371583901
 31
0.0
  0
LINE
  5
377
330
1F
100
AcDbEntity
  8
0
  6
CONTINUOUS
 62
    51
100
AcDbLine
 10
-83.03610229983119
 20
91.65390141767038
 30
0.0
 11
-81.53610229983119
 21
91.65390141767038
 31
0.0
  0
LINE
  5
378
330
1F
100
AcDbEntity
  8
0
  6
CONTINUOUS
 62
    51
100
AcDbLine
 10
-98.03610420717982
 20
46.90390141767038
 30
0.0
 11
-91.03610420717982
 21
46.90390141767038
 31
0.0
  0
LINE
  5
379
330
1F
100
AcDbEntity
  8
0
  6
CONTINUOUS
 62
    51
100
AcDbLine
 10
-81.53610229983119
 20
91.65390141767038
 30
0.0
 11
-81.53610229983119
 21
87.15390141767038
 31
0.0
  0
LINE
  5
37A
330
1F
100
AcDbEntity
  8
0
  6
CONTINUOUS
 62
    51
100
AcDbLine
 10
-83.35050084958343
 20
91.39965672862586
 30
0.0
 11
-83.03610229983119
 21
91.65390141767038
 31
0.0
  0
LINE
  5
37B
330
1F
100
AcDbEntity
  8
0
  6
CONTINUOUS
 62
    51
100
AcDbLine
 10
-83.03610229983119
 20
88.65390141767038
 30
0.0
 11
-83.43033569879614
 21
87.93652289119846
 31
0.0
  0
LINE
  5
37C
330
1F
100
AcDbEntity
  8
0
  6
CONTINUOUS
 62
    51
100
AcDbLine
 10
-81.53610229983119
 20
87.15390141767038
 30
0.0
 11
-81.03610229983119
 21
87.15390141767038
 31
0.0
  0
ARC
  5
37D
330
1F
100
AcDbEntity
  8
0
  6
CONTINUOUS
 62
    51
100
AcDbCircle
 10
-83.03610229983119
 20
69.15390141767038
 30
0.0
 40
8.0
100
AcDbArc
 50
90.00000250447816
 51
180.0000050089563
  0
ARC
  5
37E
330
1F
100
AcDbEntity
  8
0
  6
CONTINUOUS
 62
    51
100
AcDbCircle
 10
-83.03610229983119
 20
69.15390141767038
 30
0.0
 40
6.0
100
AcDbArc
 50
90.00000250447816
 51
180.0000050089563
  0
ARC
  5
37F
330
1F
100
AcDbEntity
  8
0
  6
CONTINUOUS
 62
    51
100
AcDbCircle
 10
-98.03610420717982
 20
43.90390141767038
 30
0.0
 40
3.0
100
AcDbArc
 50
90.00000000000003
 51
180.0
  0
ARC
  5
380
330
1F
100
AcDbEntity
  8
0
  6
CONTINUOUS
 62
    51
100
AcDbCircle
 10
-83.03610229983119
 20
88.2440615507853
 30
0.0
 40
0.5
100
AcDbArc
 50
180.0
 51
270.0
  0
ARC
  5
381
330
1F
100
AcDbEntity
  8
0
  6
CONTINUOUS
 62
    51
100
AcDbCircle
 10
-83.03610229983119
 20
91.01087201710332
 30
0.0
 40
0.5
100
AcDbArc
 50
128.9614303734662
 51
180.0
  0
ARC
  5
382
330
1F
100
AcDbEntity
  8
0
  6
CONTINUOUS
 62
    51
100
AcDbCircle
 10
-27.03610611452845
 20
76.15390141767038
 30
0.0
 40
1.0
100
AcDbArc
 50
0.0
 51
90.00000250447816
  0
ARC
  5
383
330
1F
100
AcDbEntity
  8
0
  6
CONTINUOUS
 62
    51
100
AcDbCircle
 10
-27.03610611452845
 20
76.15390141767038
 30
0.0
 40
1.0
100
AcDbArc
 50
269.9999974955218
 51
360.0
  0
LINE
  5
384
330
1F
100
AcDbEntity
  8
0
  6
CONTINUOUS
 62
    51
100
AcDbLine
 10
-81.03610229983119
 20
87.15390141767038
 30
0.0
 11
-81.03610229983119
 21
86.15390141767038
 31
0.0
  0
LINE
  5
385
330
1F
100
AcDbEntity
  8
0
  6
CONTINUOUS
 62
    51
100
AcDbLine
 10
-58.03609856225458
 20
77.15390141767038
 30
0.0
 11
-27.03610611452845
 21
77.15390141767038
 31
0.0
  0
LINE
  5
386
330
1F
100
AcDbEntity
  8
0
  6
CONTINUOUS
 62
    31
100
AcDbLine
 10
-166.7394862075288
 20
120.1506593742716
 30
0.0
 11
-164.2443983944966
 21
120.3073016586618
 31
0.0
  0
LINE
  5
387
330
1F
100
AcDbEntity
  8
0
  6
CONTINUOUS
 62
    31
100
AcDbLine
 10
-163.4311804412962
 20
107.3539014176704
 30
0.0
 11
-164.2443983944966
 21
120.3073016586617
 31
0.0
  0
LINE
  5
388
330
1F
100
AcDbEntity
  8
0
  6
CONTINUOUS
 62
    31
100
AcDbLine
 10
-164.9394426340415
 20
107.438467446744
 30
0.0
 11
-164.440425071435
 21
107.469795903622
 31
0.0
  0
LINE
  5
389
330
1F
100
AcDbEntity
  8
0
  6
CONTINUOUS
 62
    31
100
AcDbLine
 10
-165.994948950317
 20
108.2912445039562
 30
0.0
 11
-166.7394862075288
 21
120.1506593742715
 31
0.0
  0
ARC
  5
38A
330
1F
100
AcDbEntity
  8
0
  6
CONTINUOUS
 62
    31
100
AcDbCircle
 10
-165.0020995477975
 20
108.4365025719567
 30
0.0
 40
1.0
100
AcDbArc
 50
183.5923323544782
 51
273.5923348589563
  0
ARC
  5
38B
330
1F
100
AcDbEntity
  8
0
  6
CONTINUOUS
 62
    31
100
AcDbCircle
 10
-164.5030819851912
 20
108.4678310288348
 30
0.0
 40
1.0
100
AcDbArc
 50
273.5923248410437
 51
363.5923273455218
  0
LINE
  5
38C
330
1F
100
AcDbEntity
  8
0
  6
CONTINUOUS
 62
    31
100
AcDbLine
 10
-166.6361022998311
 20
-57.84609858232962
 30
0.0
 11
-164.1361022998311
 21
-57.84609858232962
 31
0.0
  0
LINE
  5
38D
330
1F
100
AcDbEntity
  8
0
  6
CONTINUOUS
 62
    31
100
AcDbLine
 10
-164.1361022998311
 20
-57.84609858232962
 30
0.0
 11
-164.1361022998311
 21
31.15390141767039
 31
0.0
  0
LINE
  5
38E
330
1F
100
AcDbEntity
  8
0
  6
CONTINUOUS
 62
    31
100
AcDbLine
 10
-166.6361022998311
 20
-57.84609858232962
 30
0.0
 11
-166.6361022998311
 21
31.15390141767039
 31
0.0
  0
LINE
  5
38F
330
1F
100
AcDbEntity
  8
0
  6
CONTINUOUS
 62
   131
100
AcDbLine
 10
-156.7535320819314
 20
79.69282235038905
 30
0.0
 11
-161.7916291985241
 21
93.00779402870982
 31
0.0
  0
LINE
  5
390
330
1F
100
AcDbEntity
  8
0
  6
CONTINUOUS
 62
   131
100
AcDbLine
 10
-165.3977957638302
 20
96.52291222287197
 30
0.0
 11
-165.8866676977133
 21
100.2229119884471
 31
0.0
  0
LINE
  5
391
330
1F
100
AcDbEntity
  8
0
  6
CONTINUOUS
 62
   131
100
AcDbLine
 10
-164.4064116527059
 20
95.65390141767038
 30
0.0
 11
-162.7269153644064
 21
95.65390141767038
 31
0.0
  0
LINE
  5
392
330
1F
100
AcDbEntity
  8
0
  6
CONTINUOUS
 62
   131
100
AcDbLine
 10
-153.6593105878177
 20
77.16667726038916
 30
0.0
 11
-159.9210565593197
 21
93.71557823190851
 31
0.0
  0
LINE
  5
393
330
1F
100
AcDbEntity
  8
0
  6
CONTINUOUS
 62
   131
100
AcDbLine
 10
-146.0361027766683
 20
31.15390141767039
 30
0.0
 11
-146.0361027766683
 21
70.15390141767038
 31
0.0
  0
LINE
  5
394
330
1F
100
AcDbEntity
  8
0
  6
CONTINUOUS
 62
   131
100
AcDbLine
 10
-166.1595387507894
 20
93.65390141767038
 30
0.0
 11
-162.7269153644064
 21
93.65390141767038
 31
0.0
  0
LINE
  5
395
330
1F
100
AcDbEntity
  8
0
  6
CONTINUOUS
 62
   131
100
AcDbLine
 10
-167.1509231447297
 20
94.52291115798487
 30
0.0
 11
-168.0188707321396
 21
101.091923709882
 31
0.0
  0
LINE
  5
396
330
1F
100
AcDbEntity
  8
0
  6
CONTINUOUS
 62
   131
100
AcDbLine
 10
-152.7041538918522
 20
75.86723049617352
 30
0.0
 11
-146.4192017740218
 21
70.94094224143088
 31
0.0
  0
LINE
  5
397
330
1F
100
AcDbEntity
  8
0
  6
CONTINUOUS
 62
   131
100
AcDbLine
 10
-150.5361022998312
 20
74.16786249440683
 30
0.0
 11
-150.5361022998312
 21
102.3539002732612
 31
0.0
  0
LINE
  5
398
330
1F
100
AcDbEntity
  8
0
  6
CONTINUOUS
 62
   131
100
AcDbLine
 10
-164.8952841807821
 20
101.3539002732612
 30
0.0
 11
-151.5361022998312
 21
101.3539002732612
 31
0.0
  0
LINE
  5
399
330
1F
100
AcDbEntity
  8
0
  6
CONTINUOUS
 62
   131
100
AcDbLine
 10
-167.0361027766683
 20
65.48046716016306
 30
0.0
 11
-167.0361027766683
 21
94.17261441510691
 31
0.0
  0
LINE
  5
39A
330
1F
100
AcDbEntity
  8
0
  6
CONTINUOUS
 62
   131
100
AcDbLine
 10
-166.1063942958334
 20
66.15390141767038
 30
0.0
 11
-166.0909285594442
 21
66.15390141767038
 31
0.0
  0
LINE
  5
39B
330
1F
100
AcDbEntity
  8
0
  6
CONTINUOUS
 62
   131
100
AcDbLine
 10
-166.0361027766683
 20
103.3539002732612
 30
0.0
 11
-151.5361022998312
 21
103.3539002732612
 31
0.0
  0
LINE
  5
39C
330
1F
100
AcDbEntity
  8
0
  6
CONTINUOUS
 62
   131
100
AcDbLine
 10
-168.0361027766683
 20
31.15390141767039
 30
0.0
 11
-168.0361027766683
 21
101.3539002732612
 31
0.0
  0
LINE
  5
39D
330
1F
100
AcDbEntity
  8
0
  6
CONTINUOUS
 62
   131
100
AcDbLine
 10
-146.7618513947653
 20
69.19224322499615
 30
0.0
 11
-160.699617215204
 21
65.21738990769261
 31
0.0
  0
LINE
  5
39E
330
1F
100
AcDbEntity
  8
0
  6
CONTINUOUS
 62
   131
100
AcDbLine
 10
-162.0361022998312
 20
67.01974995893015
 30
0.0
 11
-162.0361022998312
 21
93.37693532269968
 31
0.0
  0
LINE
  5
39F
330
1F
100
AcDbEntity
  8
0
  6
CONTINUOUS
 62
   131
100
AcDbLine
 10
-155.0361027766683
 20
31.15390141767039
 30
0.0
 11
-155.0361027766683
 21
66.83254397496766
 31
0.0
  0
ARC
  5
3A0
330
1F
100
AcDbEntity
  8
0
  6
CONTINUOUS
 62
   131
100
AcDbCircle
 10
-166.0909285594442
 20
65.15390141767038
 30
0.0
 40
1.0
100
AcDbArc
 50
90.0
 51
176.8152628794196
  0
ARC
  5
3A1
330
1F
100
AcDbEntity
  8
0
  6
CONTINUOUS
 62
   131
100
AcDbCircle
 10
-162.7269153644064
 20
92.65390141767038
 30
0.0
 40
1.0
100
AcDbArc
 50
20.72555766395437
 51
90.0
  0
ARC
  5
3A2
330
1F
100
AcDbEntity
  8
0
  6
CONTINUOUS
 62
   131
100
AcDbCircle
 10
-166.1063942958334
 20
76.1539011792518
 30
0.0
 40
10.0
100
AcDbArc
 50
269.9999949910437
 51
380.7255576639544
  0
ARC
  5
3A3
330
1F
100
AcDbEntity
  8
0
  6
CONTINUOUS
 62
   131
100
AcDbCircle
 10
444.9638695667766
 20
31.15390141767039
 30
0.0
 40
611.0
100
AcDbArc
 50
177.1247045997671
 51
180.0000025044782
  0
ARC
  5
3A4
330
1F
100
AcDbEntity
  8
0
  6
CONTINUOUS
 62
   131
100
AcDbCircle
 10
-162.2706770946005
 20
61.65261586469187
 30
0.0
 40
3.0
100
AcDbArc
 50
104.8159268192812
 51
177.1247045997671
  0
ARC
  5
3A5
330
1F
100
AcDbEntity
  8
0
  6
CONTINUOUS
 62
   131
100
AcDbCircle
 10
-164.4064116527059
 20
96.65390141767038
 30
0.0
 40
1.0
100
AcDbArc
 50
187.5267548566163
 51
270.0000050089564
  0
ARC
  5
3A6
330
1F
100
AcDbEntity
  8
0
  6
CONTINUOUS
 62
   131
100
AcDbCircle
 10
-162.7269153644064
 20
92.65390141767038
 30
0.0
 40
3.0
100
AcDbArc
 50
20.72555766395437
 51
90.0
  0
ARC
  5
3A7
330
1F
100
AcDbEntity
  8
0
  6
CONTINUOUS
 62
   131
100
AcDbCircle
 10
-166.1063942958334
 20
76.1539011792518
 30
0.0
 40
12.0
100
AcDbArc
 50
284.8159320556086
 51
380.7255576639544
  0
ARC
  5
3A8
330
1F
100
AcDbEntity
  8
0
  6
CONTINUOUS
 62
   131
100
AcDbCircle
 10
-164.8952841807821
 20
100.3539002732612
 30
0.0
 40
1.0
100
AcDbArc
 50
90.0
 51
187.5267548566163
  0
ARC
  5
3A9
330
1F
100
AcDbEntity
  8
0
  6
CONTINUOUS
 62
   131
100
AcDbCircle
 10
-166.1595387507894
 20
94.65390141767038
 30
0.0
 40
1.0
100
AcDbArc
 50
187.5267548566163
 51
270.0000050089564
  0
ARC
  5
3AA
330
1F
100
AcDbEntity
  8
0
  6
CONTINUOUS
 62
   131
100
AcDbCircle
 10
-151.5361022998312
 20
102.3539002732612
 30
0.0
 40
1.0
100
AcDbArc
 50
359.9999974955218
 51
450.0
  0
ARC
  5
3AB
330
1F
100
AcDbEntity
  8
0
  6
CONTINUOUS
 62
   131
100
AcDbCircle
 10
-151.5361022998312
 20
102.3539002732612
 30
0.0
 40
1.0
100
AcDbArc
 50
269.9999949910437
 51
359.9999974955218
  0
ARC
  5
3AC
330
1F
100
AcDbEntity
  8
0
  6
CONTINUOUS
 62
   131
100
AcDbCircle
 10
-166.0361027766683
 20
101.3539002732612
 30
0.0
 40
2.0
100
AcDbArc
 50
90.0
 51
187.5267548566163
  0
ARC
  5
3AD
330
1F
100
AcDbEntity
  8
0
  6
CONTINUOUS
 62
   131
100
AcDbCircle
 10
444.9638695667766
 20
31.15390141767039
 30
0.0
 40
613.0
100
AcDbArc
 50
176.8152628794196
 51
180.0000025044782
  0
ARC
  5
3AE
330
1F
100
AcDbEntity
  8
0
  6
CONTINUOUS
 62
   131
100
AcDbCircle
 10
-159.328360800884
 20
60.40909989636911
 30
0.0
 40
5.0
100
AcDbArc
 50
105.9173989833306
 51
177.2283390600437
  0
ARC
  5
3AF
330
1F
100
AcDbEntity
  8
0
  6
CONTINUOUS
 62
   131
100
AcDbCircle
 10
444.9638695667766
 20
31.15390141767039
 30
0.0
 40
610.0
100
AcDbArc
 50
177.2283390600437
 51
180.0000025044782
  0
ARC
  5
3B0
330
1F
100
AcDbEntity
  8
0
  6
CONTINUOUS
 62
   131
100
AcDbCircle
 10
-150.8534517337301
 20
78.22835357945932
 30
0.0
 40
3.0
100
AcDbArc
 50
200.7255558427216
 51
231.9098431777361
  0
ARC
  5
3B1
330
1F
100
AcDbEntity
  8
0
  6
CONTINUOUS
 62
   131
100
AcDbCircle
 10
-147.0361027766683
 20
70.15390141767038
 30
0.0
 40
1.0
100
AcDbArc
 50
269.9999949910437
 51
411.9098449989689
  0
LINE
  5
3B2
330
1F
100
AcDbEntity
  8
0
  6
CONTINUOUS
 62
   254
100
AcDbLine
 10
-127.553267190798
 20
-9.846036315790919
 30
0.0
 11
-98.33610226589539
 21
-11.09603631579092
 31
0.0
  0
LINE
  5
3B3
330
1F
100
AcDbEntity
  8
0
  6
CONTINUOUS
 62
   254
100
AcDbLine
 10
-127.5532671907982
 20
27.15390141766999
 30
0.0
 11
-98.33610226589573
 21
28.40390141766999
 31
0.0
  0
LINE
  5
3B4
330
1F
100
AcDbEntity
  8
0
  6
CONTINUOUS
 62
   254
100
AcDbLine
 10
-127.553267190798
 20
-17.84609858233012
 30
0.0
 11
-98.33610226589562
 21
-16.59609858233012
 31
0.0
  0
ARC
  5
3B5
330
1F
100
AcDbEntity
  8
0
  6
CONTINUOUS
 62
   254
100
AcDbCircle
 10
-127.4860987464172
 20
23.15504670960677
 30
0.0
 40
4.0
100
AcDbArc
 50
91.37112199922321
 51
180.0000050089563
  0
ARC
  5
3B6
330
1F
100
AcDbEntity
  8
0
  6
CONTINUOUS
 62
   254
100
AcDbCircle
 10
-127.4860987464172
 20
-21.84495329039311
 30
0.0
 40
4.0
100
AcDbArc
 50
91.37112199922321
 51
180.0000050089563
  0
ARC
  5
3B7
330
1F
100
AcDbEntity
  8
0
  6
CONTINUOUS
 62
   254
100
AcDbCircle
 10
-127.4860987464172
 20
-5.847181607726789
 30
0.0
 40
4.0
100
AcDbArc
 50
179.9999949910437
 51
268.6288780007768
  0
LINE
  5
3B8
330
1F
100
AcDbEntity
  8
0
  6
CONTINUOUS
 62
     3
100
AcDbLine
 10
-150.1782608249692
 20
96.48414756653061
 30
0.0
 11
-150.1782608249692
 21
73.88737812580779
 31
0.0
  0
LINE
  5
3B9
330
1F
100
AcDbEntity
  8
0
  6
CONTINUOUS
 62
     3
100
AcDbLine
 10
-150.1502898334423
 20
96.08414375183337
 30
0.0
 11
-150.5324483752209
 21
101.5492655149613
 31
0.0
  0
ARC
  5
3BA
330
1F
100
AcDbEntity
  8
0
  6
CONTINUOUS
 62
     3
100
AcDbCircle
 10
-149.1527257831825
 20
96.15390022557749
 30
0.0
 40
1.0
100
AcDbArc
 50
183.9999999999997
 51
270.0
  0
INSERT
  5
3BB
330
1F
100
AcDbEntity
  8
LAYER0016
  6
CONTINUOUS
100
AcDbBlockReference
  2
DC_GROUP_19
 10
0.0
 20
0.0
 30
0.0
  0
INSERT
  5
3BC
330
1F
100
AcDbEntity
  8
LAYER0016
  6
CONTINUOUS
100
AcDbBlockReference
  2
DC_GROUP_20
 10
0.0
 20
0.0
 30
0.0
  0
INSERT
  5
3BD
330
1F
100
AcDbEntity
  8
LAYER0016
  6
CONTINUOUS
100
AcDbBlockReference
  2
DC_GROUP_21
 10
0.0
 20
0.0
 30
0.0
  0
INSERT
  5
3BE
330
1F
100
AcDbEntity
  8
LAYER0016
  6
CONTINUOUS
100
AcDbBlockReference
  2
DC_GROUP_22
 10
0.0
 20
0.0
 30
0.0
  0
INSERT
  5
3BF
330
1F
100
AcDbEntity
  8
LAYER0016
  6
CONTINUOUS
100
AcDbBlockReference
  2
DC_GROUP_23
 10
0.0
 20
0.0
 30
0.0
  0
INSERT
  5
3C0
330
1F
100
AcDbEntity
  8
LAYER0016
  6
CONTINUOUS
100
AcDbBlockReference
  2
DC_GROUP_24
 10
0.0
 20
0.0
 30
0.0
  0
INSERT
  5
3C1
330
1F
100
AcDbEntity
  8
LAYER0016
  6
CONTINUOUS
100
AcDbBlockReference
  2
DC_GROUP_25
 10
0.0
 20
0.0
 30
0.0
  0
INSERT
  5
3C2
330
1F
100
AcDbEntity
  8
LAYER0016
  6
CONTINUOUS
100
AcDbBlockReference
  2
DC_GROUP_26
 10
0.0
 20
0.0
 30
0.0
  0
INSERT
  5
3C3
330
1F
100
AcDbEntity
  8
LAYER0016
  6
CONTINUOUS
100
AcDbBlockReference
  2
DC_GROUP_27
 10
0.0
 20
0.0
 30
0.0
  0
INSERT
  5
3C4
330
1F
100
AcDbEntity
  8
LAYER0016
  6
CONTINUOUS
100
AcDbBlockReference
  2
DC_GROUP_29
 10
0.0
 20
0.0
 30
0.0
  0
TEXT
  5
3C5
330
1F
100
AcDbEntity
  8
0
 62
     7
100
AcDbText
 10
101.0867202635112
 20
-57.40000009536743
 30
0.0
 40
4.800000190734863
  1
３
 41
0.5952383672434078
  7
FDASTYLE0
 72
     5
 11
104.5152933950725
 21
-57.40000009536743
 31
0.0
100
AcDbText
  0
TEXT
  5
3C6
330
1F
100
AcDbEntity
  8
0
 62
     7
100
AcDbText
 10
101.0867202635112
 20
-43.40000009536743
 30
0.0
 40
4.800000190734863
  1
５
 41
0.5952383672434078
  7
FDASTYLE0
 72
     5
 11
104.5152933950725
 21
-43.40000009536743
 31
0.0
100
AcDbText
  0
TEXT
  5
3C7
330
1F
100
AcDbEntity
  8
0
 62
     7
100
AcDbText
 10
101.0867202635112
 20
-50.40000009536743
 30
0.0
 40
4.800000190734863
  1
４
 41
0.5952383672434078
  7
FDASTYLE0
 72
     5
 11
104.5152933950725
 21
-50.40000009536743
 31
0.0
100
AcDbText
  0
TEXT
  5
3C8
330
1F
100
AcDbEntity
  8
0
 62
     7
100
AcDbText
 10
101.0867202635112
 20
-71.40000009536743
 30
0.0
 40
4.800000190734863
  1
１
 41
0.5952383672434078
  7
FDASTYLE0
 72
     5
 11
104.5152933950725
 21
-71.40000009536743
 31
0.0
100
AcDbText
  0
TEXT
  5
3C9
330
1F
100
AcDbEntity
  8
0
 62
     7
100
AcDbText
 10
101.0867202635112
 20
-64.40000009536743
 30
0.0
 40
4.800000190734863
  1
２
 41
0.5952383672434078
  7
FDASTYLE0
 72
     5
 11
104.5152933950725
 21
-64.40000009536743
 31
0.0
100
AcDbText
  0
TEXT
  5
3CA
330
1F
100
AcDbEntity
  8
0
 62
     7
100
AcDbText
 10
101.0867202635112
 20
-36.40000009536743
 30
0.0
 40
4.800000190734863
  1
６
 41
0.5952383672434078
  7
FDASTYLE0
 72
     5
 11
104.5152933950725
 21
-36.40000009536743
 31
0.0
100
AcDbText
  0
TEXT
  5
3CB
330
1F
100
AcDbEntity
  8
0
 62
     7
100
AcDbText
 10
97.17142677307129
 20
-78.40000009536743
 30
0.0
 40
4.800000190734863
  1
図　番
 41
0.650685111584705
  7
FDASTYLE0
 72
     5
 11
110.2000002861023
 21
-78.40000009536743
 31
0.0
100
AcDbText
  0
TEXT
  5
3CC
330
1F
100
AcDbEntity
  8
0
 62
     7
100
AcDbText
 10
148.3714265823364
 20
-78.40000009536743
 30
0.0
 40
4.800000190734863
  1
材　　　質
 41
0.6600001663367191
  7
FDASTYLE0
 72
     5
 11
171.0000004768372
 21
-78.40000009536743
 31
0.0
100
AcDbText
  0
TEXT
  5
3CD
330
1F
100
AcDbEntity
  8
0
 62
     7
100
AcDbText
 10
114.471426486969
 20
-78.40000009536743
 30
0.0
 40
4.800000190734863
  1
品　　　　名
 41
0.6622518187178339
  7
FDASTYLE0
 72
     5
 11
141.9000005722046
 21
-78.40000009536743
 31
0.0
100
AcDbText
  0
TEXT
  5
3CE
330
1F
100
AcDbEntity
  8
0
 62
     7
100
AcDbText
 10
174.7714266777039
 20
-78.40000009536743
 30
0.0
 40
4.800000190734863
  1
備　　考
 41
0.6565658279115488
  7
FDASTYLE0
 72
     5
 11
192.6000003814697
 21
-78.40000009536743
 31
0.0
100
AcDbText
  0
TEXT
  5
3CF
330
1F
100
AcDbEntity
  8
0
 62
     7
100
AcDbText
 10
101.0867202635112
 20
-22.40000009536743
 30
0.0
 40
4.800000190734863
  1
８
 41
0.5952383672434078
  7
FDASTYLE0
 72
     5
 11
104.5152933950725
 21
-22.40000009536743
 31
0.0
100
AcDbText
  0
TEXT
  5
3D0
330
1F
100
AcDbEntity
  8
0
 62
     7
100
AcDbText
 10
101.0867202635112
 20
-15.40000009536743
 30
0.0
 40
4.800000190734863
  1
９
 41
0.5952383672434078
  7
FDASTYLE0
 72
     5
 11
104.5152933950725
 21
-15.40000009536743
 31
0.0
100
AcDbText
  0
TEXT
  5
3D1
330
1F
100
AcDbEntity
  8
0
 62
     7
100
AcDbText
 10
101.0867202635112
 20
-29.40000009536743
 30
0.0
 40
4.800000190734863
  1
７
 41
0.5952383672434078
  7
FDASTYLE0
 72
     5
 11
104.5152933950725
 21
-29.40000009536743
 31
0.0
100
AcDbText
  0
TEXT
  5
3D2
330
1F
100
AcDbEntity
  8
0
 62
     7
100
AcDbText
 10
152.4319830293735
 20
-7.322447964651248
 30
0.0
 40
3.0
  1
ＥＰＤＭ
 41
0.8333333333333334
  7
FDASTYLE0
 72
     5
 11
164.4319830293735
 21
-7.322447964651248
 31
0.0
100
AcDbText
  0
TEXT
  5
3D3
330
1F
100
AcDbEntity
  8
0
 62
     7
100
AcDbText
 10
111.4124743908401
 20
-7.504001242989622
 30
0.0
 40
3.0
  1
Ｙ防臭キャップ
 41
0.8333333333333339
  7
FDASTYLE0
 72
     5
 11
132.4124743908401
 21
-7.504001242989622
 31
0.0
100
AcDbText
  0
TEXT
  5
3D4
330
1F
100
AcDbEntity
  8
0
 62
     7
100
AcDbText
 10
96.28672007277635
 20
-8.400000095367432
 30
0.0
 40
4.800000190734863
  1
１０
 41
0.6382980714498162
  7
FDASTYLE0
 72
     5
 11
104.5152933950725
 21
-8.400000095367432
 31
0.0
100
AcDbText
  0
TEXT
  5
3D5
330
1F
100
AcDbEntity
  8
0
 62
     7
100
AcDbText
 10
175.9569999575615
 20
-7.5
 30
0.0
 40
3.0
  1
９５６１９
 41
0.8333333333333334
  7
FDASTYLE0
 72
     5
 11
190.9569999575615
 21
-7.5
 31
0.0
100
AcDbText
  0
TEXT
  5
3D6
330
1F
100
AcDbEntity
  8
0
 62
     7
100
AcDbText
 10
111.3656676862684
 20
-63.42950289614985
 30
0.0
 40
3.0
  1
ＢＫ平ＰＫ
 41
0.8333333333333334
  7
FDASTYLE0
 72
     5
 11
126.3656676862684
 21
-63.42950289614985
 31
0.0
100
AcDbText
  0
TEXT
  5
3D7
330
1F
100
AcDbEntity
  8
0
 62
     7
100
AcDbText
 10
155.7249008051284
 20
-42.5
 30
0.0
 40
3.0
  1
ＰＰ
 41
0.8333333333333334
  7
FDASTYLE0
 72
     5
 11
161.7249008051284
 21
-42.5
 31
0.0
100
AcDbText
  0
TEXT
  5
3D8
330
1F
100
AcDbEntity
  8
0
 62
     7
100
AcDbText
 10
153.8749830181679
 20
-55.97872655934076
 30
0.0
 40
3.0
  1
ＡＢＳ
 41
0.8333333333333334
  7
FDASTYLE0
 72
     5
 11
162.8749830181679
 21
-55.97872655934076
 31
0.0
100
AcDbText
  0
TEXT
  5
3D9
330
1F
100
AcDbEntity
  8
0
 62
     7
100
AcDbText
 10
145.3591250937369
 20
-49.32177302026634
 30
0.0
 40
3.0
  1
ＰＰ・ＳＵＳ３０４
 41
0.8333333333333334
  7
FDASTYLE0
 72
     5
 11
172.3591250937369
 21
-49.32177302026634
 31
0.0
100
AcDbText
  0
TEXT
  5
3DA
330
1F
100
AcDbEntity
  8
0
 62
     7
100
AcDbText
 10
111.3785754870433
 20
-42.43031316333805
 30
0.0
 40
3.0
  1
ＢＫ防臭器
 41
0.8333333333333334
  7
FDASTYLE0
 72
     5
 11
126.3785754870433
 21
-42.43031316333805
 31
0.0
100
AcDbText
  0
TEXT
  5
3DB
330
1F
100
AcDbEntity
  8
0
 62
     7
100
AcDbText
 10
155.7249008051284
 20
-70.5
 30
0.0
 40
3.0
  1
ＰＰ
 41
0.8333333333333334
  7
FDASTYLE0
 72
     5
 11
161.7249008051284
 21
-70.5
 31
0.0
100
AcDbText
  0
TEXT
  5
3DC
330
1F
100
AcDbEntity
  8
0
 62
     7
100
AcDbText
 10
155.7249008051284
 20
-63.5
 30
0.0
 40
3.0
  1
ＣＲ
 41
0.8333333333333334
  7
FDASTYLE0
 72
     5
 11
161.7249008051284
 21
-63.5
 31
0.0
100
AcDbText
  0
TEXT
  5
3DD
330
1F
100
AcDbEntity
  8
0
 62
     7
100
AcDbText
 10
111.4124745100494
 20
-35.41781778751761
 30
0.0
 40
3.0
  1
ＳＢＫ本体
 41
0.8333333333333334
  7
FDASTYLE0
 72
     5
 11
126.4124745100494
 21
-35.41781778751761
 31
0.0
100
AcDbText
  0
TEXT
  5
3DE
330
1F
100
AcDbEntity
  8
0
 62
     7
100
AcDbText
 10
111.5210129473654
 20
-56.30637349134196
 30
0.0
 40
3.0
  1
ＢＫ用ロックナット
 41
0.8333333333333334
  7
FDASTYLE0
 72
     5
 11
138.5210129473654
 21
-56.30637349134196
 31
0.0
100
AcDbText
  0
TEXT
  5
3DF
330
1F
100
AcDbEntity
  8
0
 62
     7
100
AcDbText
 10
111.4466579664202
 20
-49.51089101853539
 30
0.0
 40
3.0
  1
ＥＣインサ－トカゴ
 41
0.8333333333333334
  7
FDASTYLE0
 72
     5
 11
138.4466579664202
 21
-49.51089101853539
 31
0.0
100
AcDbText
  0
TEXT
  5
3E0
330
1F
100
AcDbEntity
  8
0
 62
     7
100
AcDbText
 10
145.5298528180351
 20
-35.5
 30
0.0
 40
3.0
  1
ＰＰ・ＳＵＳ３０４
 41
0.8333333333333334
  7
FDASTYLE0
 72
     5
 11
172.5298528180351
 21
-35.5
 31
0.0
100
AcDbText
  0
TEXT
  5
3E1
330
1F
100
AcDbEntity
  8
0
 62
     7
100
AcDbText
 10
111.3656676862684
 20
-70.66752148490626
 30
0.0
 40
3.0
  1
排水プレ－トＣ
 41
0.8333333333333334
  7
FDASTYLE0
 72
     5
 11
132.3656676862684
 21
-70.66752148490626
 31
0.0
100
AcDbText
  0
TEXT
  5
3E2
330
1F
100
AcDbEntity
  8
0
 62
     7
100
AcDbText
 10
175.9571423530579
 20
-35.5
 30
0.0
 40
3.0
  1
１５４４８
 41
0.8333333333333334
  7
FDASTYLE0
 72
     5
 11
190.9571423530579
 21
-35.5
 31
0.0
100
AcDbText
  0
TEXT
  5
3E3
330
1F
100
AcDbEntity
  8
0
 62
     7
100
AcDbText
 10
175.9571423530579
 20
-42.5
 30
0.0
 40
3.0
  1
１５１２８
 41
0.8333333333333334
  7
FDASTYLE0
 72
     5
 11
190.9571423530579
 21
-42.5
 31
0.0
100
AcDbText
  0
TEXT
  5
3E4
330
1F
100
AcDbEntity
  8
0
 62
     7
100
AcDbText
 10
175.9571423530579
 20
-56.5
 30
0.0
 40
3.0
  1
１５１２７
 41
0.8333333333333334
  7
FDASTYLE0
 72
     5
 11
190.9571423530579
 21
-56.5
 31
0.0
100
AcDbText
  0
TEXT
  5
3E5
330
1F
100
AcDbEntity
  8
0
 62
     7
100
AcDbText
 10
175.9569999575615
 20
-63.5
 30
0.0
 40
3.0
  1
１５１５４
 41
0.8333333333333334
  7
FDASTYLE0
 72
     5
 11
190.9569999575615
 21
-63.5
 31
0.0
100
AcDbText
  0
TEXT
  5
3E6
330
1F
100
AcDbEntity
  8
0
 62
     7
100
AcDbText
 10
175.9569999575615
 20
-70.5
 30
0.0
 40
3.0
  1
１５３６４
 41
0.8333333333333334
  7
FDASTYLE0
 72
     5
 11
190.9569999575615
 21
-70.5
 31
0.0
100
AcDbText
  0
TEXT
  5
3E7
330
1F
100
AcDbEntity
  8
0
 62
     7
100
AcDbText
 10
175.9571423530579
 20
-49.5
 30
0.0
 40
3.0
  1
１５６１９
 41
0.8333333333333334
  7
FDASTYLE0
 72
     5
 11
190.9571423530579
 21
-49.5
 31
0.0
100
AcDbText
  0
TEXT
  5
3E8
330
1F
100
AcDbEntity
  8
0
 62
     7
100
AcDbText
 10
111.414
 20
-28.5
 30
0.0
 40
3.0
  1
２＂手締めナット
 41
0.8333333333333334
  7
FDASTYLE0
 72
     5
 11
135.414
 21
-28.5
 31
0.0
100
AcDbText
  0
TEXT
  5
3E9
330
1F
100
AcDbEntity
  8
0
 62
     7
100
AcDbText
 10
111.414
 20
-21.5
 30
0.0
 40
3.0
  1
３０φ２＂インナ－三角ＰＫ付
 41
0.625
  7
FDASTYLE0
 72
     5
 11
142.914
 21
-21.5
 31
0.0
100
AcDbText
  0
TEXT
  5
3EA
330
1F
100
AcDbEntity
  8
0
 62
     7
100
AcDbText
 10
111.0569998874664
 20
-14.5
 30
0.0
 40
3.0
  1
ＰＨＴＢφ３０ホース
 41
0.8333333333333334
  7
FDASTYLE0
 72
     5
 11
141.0569998874664
 21
-14.5
 31
0.0
100
AcDbText
  0
TEXT
  5
3EB
330
1F
100
AcDbEntity
  8
0
 62
     7
100
AcDbText
 10
148.9899128677773
 20
-14.10043702261795
 30
0.0
 40
3.0
  1
ＰＶＣ・鉄線
 41
0.8333333333333334
  7
FDASTYLE0
 72
     5
 11
166.9899128677773
 21
-14.10043702261795
 31
0.0
100
AcDbText
  0
TEXT
  5
3EC
330
1F
100
AcDbEntity
  8
0
 62
     7
100
AcDbText
 10
149.2539474992756
 20
-21.12049711836917
 30
0.0
 40
3.0
  1
ＡＢＳ・ＣＲ
 41
0.8333333333333334
  7
FDASTYLE0
 72
     5
 11
167.2539474992756
 21
-21.12049711836917
 31
0.0
100
AcDbText
  0
TEXT
  5
3ED
330
1F
100
AcDbEntity
  8
0
 62
     7
100
AcDbText
 10
155.6319833154758
 20
-28.38262825190492
 30
0.0
 40
3.0
  1
ＰＰ
 41
0.8333333333333334
  7
FDASTYLE0
 72
     5
 11
161.6319833154758
 21
-28.38262825190492
 31
0.0
100
AcDbText
  0
TEXT
  5
3EE
330
1F
100
AcDbEntity
  8
0
 62
     7
100
AcDbText
 10
175.891007875241
 20
-28.30193790597675
 30
0.0
 40
3.0
  1
５５３８０
 41
0.8333333333333334
  7
FDASTYLE0
 72
     5
 11
190.891007875241
 21
-28.30193790597675
 31
0.0
100
AcDbText
  0
TEXT
  5
3EF
330
1F
100
AcDbEntity
  8
0
 62
     7
100
AcDbText
 10
175.9569999277592
 20
-21.5
 30
0.0
 40
3.0
  1
５５３７１
 41
0.8333333333333334
  7
FDASTYLE0
 72
     5
 11
190.9569999277592
 21
-21.5
 31
0.0
100
AcDbText
  0
TEXT
  5
3F0
330
1F
100
AcDbEntity
  8
0
 62
     7
100
AcDbText
 10
175.9569999575615
 20
-14.5
 30
0.0
 40
3.0
  1
５５４０６
 41
0.8333333333333334
  7
FDASTYLE0
 72
     5
 11
190.9569999575615
 21
-14.5
 31
0.0
100
AcDbText
  0
LINE
  5
3F1
330
1F
100
AcDbEntity
  8
0
  6
CONTINUOUS
 62
     7
100
AcDbLine
 10
95.5
 20
-2.5
 30
0.0
 11
95.5
 21
-79.5
 31
0.0
  0
LINE
  5
3F2
330
1F
100
AcDbEntity
  8
0
  6
CONTINUOUS
 62
     7
100
AcDbLine
 10
95.5
 20
-51.5
 30
0.0
 11
192.5
 21
-51.5
 31
0.0
  0
LINE
  5
3F3
330
1F
100
AcDbEntity
  8
0
  6
CONTINUOUS
 62
     7
100
AcDbLine
 10
95.5
 20
-65.5
 30
0.0
 11
192.5
 21
-65.5
 31
0.0
  0
LINE
  5
3F4
330
1F
100
AcDbEntity
  8
0
  6
CONTINUOUS
 62
     7
100
AcDbLine
 10
95.5
 20
-44.5
 30
0.0
 11
192.5
 21
-44.5
 31
0.0
  0
LINE
  5
3F5
330
1F
100
AcDbEntity
  8
0
  6
CONTINUOUS
 62
     7
100
AcDbLine
 10
95.5
 20
-58.5
 30
0.0
 11
192.5
 21
-58.5
 31
0.0
  0
LINE
  5
3F6
330
1F
100
AcDbEntity
  8
0
  6
CONTINUOUS
 62
     7
100
AcDbLine
 10
95.5
 20
-37.5
 30
0.0
 11
192.5
 21
-37.5
 31
0.0
  0
LINE
  5
3F7
330
1F
100
AcDbEntity
  8
0
  6
CONTINUOUS
 62
     7
100
AcDbLine
 10
95.5
 20
-72.5
 30
0.0
 11
192.5
 21
-72.5
 31
0.0
  0
LINE
  5
3F8
330
1F
100
AcDbEntity
  8
0
  6
CONTINUOUS
 62
     7
100
AcDbLine
 10
95.5
 20
-30.5
 30
0.0
 11
192.5
 21
-30.5
 31
0.0
  0
LINE
  5
3F9
330
1F
100
AcDbEntity
  8
0
  6
CONTINUOUS
 62
     7
100
AcDbLine
 10
110.5
 20
-2.5
 30
0.0
 11
110.5
 21
-79.5
 31
0.0
  0
LINE
  5
3FA
330
1F
100
AcDbEntity
  8
0
  6
CONTINUOUS
 62
     7
100
AcDbLine
 10
144.5
 20
-2.5
 30
0.0
 11
144.5
 21
-79.5
 31
0.0
  0
LINE
  5
3FB
330
1F
100
AcDbEntity
  8
0
  6
CONTINUOUS
 62
     7
100
AcDbLine
 10
173.5
 20
-2.5
 30
0.0
 11
173.5
 21
-79.5
 31
0.0
  0
LINE
  5
3FC
330
1F
100
AcDbEntity
  8
0
  6
CONTINUOUS
 62
     7
100
AcDbLine
 10
95.5
 20
-23.5
 30
0.0
 11
192.5
 21
-23.5
 31
0.0
  0
LINE
  5
3FD
330
1F
100
AcDbEntity
  8
0
  6
CONTINUOUS
 62
     7
100
AcDbLine
 10
95.5
 20
-16.5
 30
0.0
 11
192.5
 21
-16.5
 31
0.0
  0
LINE
  5
3FE
330
1F
100
AcDbEntity
  8
0
  6
CONTINUOUS
 62
     7
100
AcDbLine
 10
95.5
 20
-9.5
 30
0.0
 11
192.5
 21
-9.5
 31
0.0
  0
LINE
  5
3FF
330
1F
100
AcDbEntity
  8
0
  6
CONTINUOUS
 62
     7
100
AcDbLine
 10
95.5
 20
-2.5
 30
0.0
 11
192.5
 21
-2.5
 31
0.0
  0
LINE
  5
400
330
1F
100
AcDbEntity
  8
0
  6
CONTINUOUS
 62
   120
100
AcDbLine
 10
10.85886720841739
 20
53.55390049975885
 30
0.0
 11
10.85886720841739
 21
31.15390141767039
 31
0.0
  0
LINE
  5
401
330
1F
100
AcDbEntity
  8
0
  6
CONTINUOUS
 62
   120
100
AcDbLine
 10
12.35886720841739
 20
55.05390049975885
 30
0.0
 11
12.85886759584758
 21
55.05390049975885
 31
0.0
  0
LINE
  5
402
330
1F
100
AcDbEntity
  8
0
  6
CONTINUOUS
 62
   120
100
AcDbLine
 10
20.85886720841739
 20
58.90390088122858
 30
0.0
 11
20.85886720841739
 21
55.05390049975885
 31
0.0
  0
LINE
  5
403
330
1F
100
AcDbEntity
  8
0
  6
CONTINUOUS
 62
   120
100
AcDbLine
 10
25.35886720841739
 20
52.15390088122858
 30
0.0
 11
32.10886625474308
 21
52.15390088122858
 31
0.0
  0
LINE
  5
404
330
1F
100
AcDbEntity
  8
0
  6
CONTINUOUS
 62
   120
100
AcDbLine
 10
27.35886720841739
 20
10.15390088122859
 30
0.0
 11
32.10886625474308
 21
10.15390088122859
 31
0.0
  0
LINE
  5
405
330
1F
100
AcDbEntity
  8
0
  6
CONTINUOUS
 62
   120
100
AcDbLine
 10
24.84724182068583
 20
46.64254339921159
 30
0.0
 11
45.85886678941523
 21
46.15390096445127
 31
0.0
  0
LINE
  5
406
330
1F
100
AcDbEntity
  8
0
  6
CONTINUOUS
 62
   120
100
AcDbLine
 10
24.85886720841739
 20
50.65390088122858
 30
0.0
 11
32.10886625474308
 21
50.65390088122858
 31
0.0
  0
LINE
  5
407
330
1F
100
AcDbEntity
  8
0
  6
CONTINUOUS
 62
   120
100
AcDbLine
 10
20.85886720841739
 20
50.55390049975885
 30
0.0
 11
20.85886720841739
 21
31.15390141767039
 31
0.0
  0
LINE
  5
408
330
1F
100
AcDbEntity
  8
0
  6
CONTINUOUS
 62
   120
100
AcDbLine
 10
10.85886720841739
 20
52.55390049975885
 30
0.0
 11
18.85886720841739
 21
52.55390049975885
 31
0.0
  0
LINE
  5
409
330
1F
100
AcDbEntity
  8
0
  6
CONTINUOUS
 62
   120
100
AcDbLine
 10
22.85886720841739
 20
44.1539018349029
 30
0.0
 11
49.35886673158024
 21
44.1539018349029
 31
0.0
  0
LINE
  5
40A
330
1F
100
AcDbEntity
  8
0
  6
CONTINUOUS
 62
   120
100
AcDbLine
 10
20.85886720841739
 20
58.90390088122858
 30
0.0
 11
24.35886720841739
 21
58.90390088122858
 31
0.0
  0
ARC
  5
40B
330
1F
100
AcDbEntity
  8
0
  6
CONTINUOUS
 62
   120
100
AcDbCircle
 10
18.85886720841739
 20
50.55390049975885
 30
0.0
 40
2.0
100
AcDbArc
 50
0.0000000000001018
 51
90.00000250447828
  0
ARC
  5
40C
330
1F
100
AcDbEntity
  8
0
  6
CONTINUOUS
 62
   120
100
AcDbCircle
 10
12.35886720841739
 20
53.55390049975885
 30
0.0
 40
1.5
100
AcDbArc
 50
90.00000250447828
 51
180.0000050089564
  0
ARC
  5
40D
330
1F
100
AcDbEntity
  8
0
  6
CONTINUOUS
 62
   120
100
AcDbCircle
 10
25.35886720841739
 20
53.15390088122858
 30
0.0
 40
1.0
100
AcDbArc
 50
179.9999949910438
 51
269.9999974955219
  0
ARC
  5
40E
330
1F
100
AcDbEntity
  8
0
  6
CONTINUOUS
 62
   120
100
AcDbCircle
 10
24.85886720841739
 20
47.14240910571589
 30
0.0
 40
0.5
100
AcDbArc
 50
179.9999949910438
 51
268.6677827582893
  0
ARC
  5
40F
330
1F
100
AcDbEntity
  8
0
  6
CONTINUOUS
 62
   120
100
AcDbCircle
 10
24.85886720841739
 20
50.15390088122858
 30
0.0
 40
0.5
100
AcDbArc
 50
90.00000250447828
 51
180.0000050089564
  0
ARC
  5
410
330
1F
100
AcDbEntity
  8
0
  6
CONTINUOUS
 62
   120
100
AcDbCircle
 10
22.85886720841739
 20
46.1539018349029
 30
0.0
 40
2.0
100
AcDbArc
 50
179.9999949910438
 51
269.9999974955219
  0
ARC
  5
411
330
1F
100
AcDbEntity
  8
0
  6
CONTINUOUS
 62
   120
100
AcDbCircle
 10
32.10886625474308
 20
51.40390088122858
 30
0.0
 40
0.75
100
AcDbArc
 50
269.9999974955219
 51
450.0000025044783
  0
LINE
  5
412
330
1F
100
AcDbEntity
  8
0
  6
CONTINUOUS
 62
   120
100
AcDbLine
 10
32.85886625474308
 20
51.40390088122858
 30
0.0
 11
32.85886625474308
 21
47.54968067155066
 31
0.0
  0
LINE
  5
413
330
1F
100
AcDbEntity
  8
0
  6
CONTINUOUS
 62
   120
100
AcDbLine
 10
45.85886681962819
 20
46.15390109974725
 30
0.0
 11
48.18577962898092
 21
45.63427845587857
 31
0.0
  0
ARC
  5
414
330
1F
100
AcDbEntity
  8
0
  6
CONTINUOUS
 62
   120
100
AcDbCircle
 10
47.85886673158024
 20
44.17033650439753
 30
0.0
 40
1.5
100
AcDbArc
 50
0.0000000000001018
 51
77.4118204301722
  0
LINE
  5
415
330
1F
100
AcDbEntity
  8
0
  6
CONTINUOUS
 62
   120
100
AcDbLine
 10
49.35886673158024
 20
31.15390141767039
 30
0.0
 11
49.35886673158024
 21
44.17033650439753
 31
0.0
  0
LINE
  5
416
330
1F
100
AcDbEntity
  8
0
  6
CONTINUOUS
 62
   120
100
AcDbLine
 10
32.85886625474308
 20
31.15390141767039
 30
0.0
 11
32.85886625474308
 21
10.90390088122859
 31
0.0
  0
ARC
  5
417
330
1F
100
AcDbEntity
  8
0
  6
CONTINUOUS
 62
   120
100
AcDbCircle
 10
32.10886625474308
 20
10.90390088122859
 30
0.0
 40
0.75
100
AcDbArc
 50
269.9999974955219
 51
360.0000000000001
  0
LINE
  5
418
330
1F
100
AcDbEntity
  8
0
  6
CENTER
 62
     7
100
AcDbLine
 10
-171.5884545261103
 20
31.15390141767039
 30
0.0
 11
183.9056376192554
 21
31.15390141767039
 31
0.0
  0
LINE
  5
419
330
1F
100
AcDbEntity
  8
0
  6
CENTER
 62
     7
100
AcDbLine
 10
84.94282355227482
 20
9.491885776354529
 30
0.0
 11
73.32420160287887
 21
52.85317320543497
 31
0.0
  0
LINE
  5
41A
330
1F
100
AcDbEntity
  8
0
  6
CENTER
 62
     7
100
AcDbLine
 10
88.06504445024909
 20
9.430708668130073
 30
0.0
 11
76.44140283413024
 21
52.81072974845743
 31
0.0
  0
LINE
  5
41B
330
1F
100
AcDbEntity
  8
0
  6
CONTINUOUS
 62
   140
100
AcDbLine
 10
8.35886720841739
 20
61.25390141767041
 30
0.0
 11
8.35886720841739
 21
60.95390141767039
 31
0.0
  0
LINE
  5
41C
330
1F
100
AcDbEntity
  8
0
  6
CONTINUOUS
 62
   140
100
AcDbLine
 10
22.65886720841735
 20
61.25390141767041
 30
0.0
 11
7.858867208417389
 21
61.25390141767041
 31
0.0
  0
LINE
  5
41D
330
1F
100
AcDbEntity
  8
0
  6
CONTINUOUS
 62
   140
100
AcDbLine
 10
24.35886720841739
 20
59.55390141767036
 30
0.0
 11
22.65886720841735
 21
61.25390141767041
 31
0.0
  0
LINE
  5
41E
330
1F
100
AcDbEntity
  8
0
  6
CONTINUOUS
 62
   140
100
AcDbLine
 10
10.05886720841721
 20
59.55390141767036
 30
0.0
 11
8.358867208417276
 21
61.25390141767035
 31
0.0
  0
LINE
  5
41F
330
1F
100
AcDbEntity
  8
0
  6
CONTINUOUS
 62
   140
100
AcDbLine
 10
22.65886720841735
 20
61.25390141767041
 30
0.0
 11
22.65886720841735
 21
58.90390088122858
 31
0.0
  0
LINE
  5
420
330
1F
100
AcDbEntity
  8
0
  6
CONTINUOUS
 62
   140
100
AcDbLine
 10
10.05886720841732
 20
61.25390141767041
 30
0.0
 11
10.05886720841732
 21
59.55390141767036
 31
0.0
  0
LINE
  5
421
330
1F
100
AcDbEntity
  8
0
  6
CONTINUOUS
 62
   140
100
AcDbLine
 10
24.35886720841739
 20
59.55390141767036
 30
0.0
 11
10.05886720841732
 21
59.55390141767036
 31
0.0
  0
LINE
  5
422
330
1F
100
AcDbEntity
  8
0
  6
CONTINUOUS
 62
   140
100
AcDbLine
 10
27.35886720841739
 20
55.35390141767037
 30
0.0
 11
24.35886720841739
 21
55.35390141767037
 31
0.0
  0
LINE
  5
423
330
1F
100
AcDbEntity
  8
0
  6
CONTINUOUS
 62
   140
100
AcDbLine
 10
27.35886720841739
 20
61.45390141767039
 30
0.0
 11
27.35886720841739
 21
52.15390088122858
 31
0.0
  0
LINE
  5
424
330
1F
100
AcDbEntity
  8
0
  6
CONTINUOUS
 62
   140
100
AcDbLine
 10
27.35886720841739
 20
0.8539014176704356
 30
0.0
 11
27.35886720841739
 21
31.15390141767039
 31
0.0
  0
LINE
  5
425
330
1F
100
AcDbEntity
  8
0
  6
CONTINUOUS
 62
   140
100
AcDbLine
 10
23.35886720841739
 20
65.45390141767039
 30
0.0
 11
8.35886720841739
 21
65.45390141767039
 31
0.0
  0
LINE
  5
426
330
1F
100
AcDbEntity
  8
0
  6
CONTINUOUS
 62
   140
100
AcDbLine
 10
23.85886720841739
 20
-0.4419748524688387
 30
0.0
 11
8.158867208417345
 21
-0.4419748524688387
 31
0.0
  0
LINE
  5
427
330
1F
100
AcDbEntity
  8
0
  6
CONTINUOUS
 62
   140
100
AcDbLine
 10
23.85886720841739
 20
0.1952261644701636
 30
0.0
 11
8.158867208417345
 21
0.1952261644701636
 31
0.0
  0
LINE
  5
428
330
1F
100
AcDbEntity
  8
0
  6
CONTINUOUS
 62
   140
100
AcDbLine
 10
23.35886720841739
 20
1.097811448820089
 30
0.0
 11
8.35886720841739
 21
1.097811448820089
 31
0.0
  0
LINE
  5
429
330
1F
100
AcDbEntity
  8
0
  6
CONTINUOUS
 62
   140
100
AcDbLine
 10
23.85886720841739
 20
3.004623652079879
 30
0.0
 11
8.158867208417345
 21
3.004623652079879
 31
0.0
  0
LINE
  5
42A
330
1F
100
AcDbEntity
  8
0
  6
CONTINUOUS
 62
   140
100
AcDbLine
 10
23.85886720841739
 20
3.941881845681046
 30
0.0
 11
8.158867208417345
 21
3.941881845681046
 31
0.0
  0
LINE
  5
42B
330
1F
100
AcDbEntity
  8
0
  6
CONTINUOUS
 62
   140
100
AcDbLine
 10
25.35886720841739
 20
26.71361709921774
 30
0.0
 11
8.158867208417345
 21
26.71361709921774
 31
0.0
  0
LINE
  5
42C
330
1F
100
AcDbEntity
  8
0
  6
CONTINUOUS
 62
   140
100
AcDbLine
 10
23.35886720841739
 20
4.735235185972265
 30
0.0
 11
8.35886720841739
 21
4.735235185972265
 31
0.0
  0
LINE
  5
42D
330
1F
100
AcDbEntity
  8
0
  6
CONTINUOUS
 62
   140
100
AcDbLine
 10
24.35886720841739
 20
21.69619043902974
 30
0.0
 11
8.35886720841739
 21
21.69619043902974
 31
0.0
  0
LINE
  5
42E
330
1F
100
AcDbEntity
  8
0
  6
CONTINUOUS
 62
   140
100
AcDbLine
 10
24.35886720841739
 20
7.668369230646299
 30
0.0
 11
8.158867208417345
 21
7.668369230646299
 31
0.0
  0
LINE
  5
42F
330
1F
100
AcDbEntity
  8
0
  6
CONTINUOUS
 62
   140
100
AcDbLine
 10
24.35886720841739
 20
8.877833359945093
 30
0.0
 11
8.158867208417345
 21
8.877833359945093
 31
0.0
  0
LINE
  5
430
330
1F
100
AcDbEntity
  8
0
  6
CONTINUOUS
 62
   140
100
AcDbLine
 10
23.85886720841739
 20
9.527281408275307
 30
0.0
 11
8.35886720841739
 21
9.527281408275307
 31
0.0
  0
LINE
  5
431
330
1F
100
AcDbEntity
  8
0
  6
CONTINUOUS
 62
   140
100
AcDbLine
 10
24.85886720841739
 20
13.34543382231282
 30
0.0
 11
8.158867208417345
 21
13.34543382231282
 31
0.0
  0
LINE
  5
432
330
1F
100
AcDbEntity
  8
0
  6
CONTINUOUS
 62
   140
100
AcDbLine
 10
24.85886720841739
 20
14.78735594076584
 30
0.0
 11
8.158867208417345
 21
14.78735594076584
 31
0.0
  0
LINE
  5
433
330
1F
100
AcDbEntity
  8
0
  6
CONTINUOUS
 62
   140
100
AcDbLine
 10
24.35886720841739
 20
15.26451470102546
 30
0.0
 11
8.35886720841739
 21
15.26451470102546
 31
0.0
  0
LINE
  5
434
330
1F
100
AcDbEntity
  8
0
  6
CONTINUOUS
 62
   140
100
AcDbLine
 10
24.85886720841739
 20
19.78770246284534
 30
0.0
 11
8.158867208417345
 21
19.78770246284534
 31
0.0
  0
LINE
  5
435
330
1F
100
AcDbEntity
  8
0
  6
CONTINUOUS
 62
   140
100
AcDbLine
 10
24.85886720841739
 20
21.41217509432584
 30
0.0
 11
8.158867208417345
 21
21.41217509432584
 31
0.0
  0
LINE
  5
436
330
1F
100
AcDbEntity
  8
0
  6
CONTINUOUS
 62
   140
100
AcDbLine
 10
24.85886720841739
 20
28.54121352993314
 30
0.0
 11
8.35886720841739
 21
28.54121352993314
 31
0.0
  0
LINE
  5
437
330
1F
100
AcDbEntity
  8
0
  6
CONTINUOUS
 62
   140
100
AcDbLine
 10
25.35886720841739
 20
28.46275443420529
 30
0.0
 11
8.158867208417345
 21
28.46275443420529
 31
0.0
  0
LINE
  5
438
330
1F
100
AcDbEntity
  8
0
  6
CONTINUOUS
 62
   140
100
AcDbLine
 10
23.35886720841739
 20
-3.146098582329564
 30
0.0
 11
8.35886720841739
 21
-3.146098582329564
 31
0.0
  0
LINE
  5
439
330
1F
100
AcDbEntity
  8
0
  6
CONTINUOUS
 62
   140
100
AcDbLine
 10
23.85886720841739
 20
-2.520793389736646
 30
0.0
 11
8.35886720841739
 21
-2.520793389736646
 31
0.0
  0
LINE
  5
43A
330
1F
100
AcDbEntity
  8
0
  6
CONTINUOUS
 62
   140
100
AcDbLine
 10
23.35886720841739
 20
-1.226016931572254
 30
0.0
 11
8.35886720841739
 21
-1.226016931572254
 31
0.0
  0
LINE
  5
43B
330
1F
100
AcDbEntity
  8
0
  6
CONTINUOUS
 62
   140
100
AcDbLine
 10
23.85886720841739
 20
-2.198386851969936
 30
0.0
 11
8.35886720841739
 21
-2.198386851969936
 31
0.0
  0
ARC
  5
43C
330
1F
100
AcDbEntity
  8
0
  6
CONTINUOUS
 62
   140
100
AcDbCircle
 10
7.858867208417389
 20
61.75390141767041
 30
0.0
 40
0.5
100
AcDbArc
 50
180.0000000000001
 51
270.0000000000001
  0
ARC
  5
43D
330
1F
100
AcDbEntity
  8
0
  6
CONTINUOUS
 62
   140
100
AcDbCircle
 10
8.158867208417345
 20
8.46836923064631
 30
0.0
 40
0.8
100
AcDbArc
 50
180.0000000000001
 51
270.0000000000001
  0
ARC
  5
43E
330
1F
100
AcDbEntity
  8
0
  6
CONTINUOUS
 62
   140
100
AcDbCircle
 10
23.35886720841739
 20
61.45390141767039
 30
0.0
 40
4.0
100
AcDbArc
 50
0.0000000000000509
 51
90.00000000000003
  0
ARC
  5
43F
330
1F
100
AcDbEntity
  8
0
  6
CONTINUOUS
 62
   140
100
AcDbCircle
 10
23.35886720841739
 20
0.8539014176704356
 30
0.0
 40
4.0
100
AcDbArc
 50
270.0000000000001
 51
360.0000000000001
  0
ARC
  5
440
330
1F
100
AcDbEntity
  8
0
  6
CONTINUOUS
 62
   140
100
AcDbCircle
 10
25.35886720841739
 20
28.71361709921774
 30
0.0
 40
2.0
100
AcDbArc
 50
270.0000000000001
 51
360.0000000000001
  0
ARC
  5
441
330
1F
100
AcDbEntity
  8
0
  6
CONTINUOUS
 62
   140
100
AcDbCircle
 10
8.35886720841739
 20
64.45390141767039
 30
0.0
 40
1.0
100
AcDbArc
 50
90.00000000000003
 51
180.0
  0
ARC
  5
442
330
1F
100
AcDbEntity
  8
0
  6
CONTINUOUS
 62
   140
100
AcDbCircle
 10
24.85886720841739
 20
23.91217509432584
 30
0.0
 40
2.5
100
AcDbArc
 50
270.0000000000001
 51
360.0000000000001
  0
ARC
  5
443
330
1F
100
AcDbEntity
  8
0
  6
CONTINUOUS
 62
   140
100
AcDbCircle
 10
10.11984197243845
 20
-2.814828781327897
 30
0.0
 40
0.1
100
AcDbArc
 50
264.9262557802314
 51
270.5706432815982
  0
ARC
  5
444
330
1F
100
AcDbEntity
  8
0
  6
CONTINUOUS
 62
   140
100
AcDbCircle
 10
8.158867208417345
 20
4.741881845681
 30
0.0
 40
0.8
100
AcDbArc
 50
180.0000000000001
 51
270.0000000000001
  0
ARC
  5
445
330
1F
100
AcDbEntity
  8
0
  6
CONTINUOUS
 62
   140
100
AcDbCircle
 10
8.158867208417345
 20
9.677833359945105
 30
0.0
 40
0.8
100
AcDbArc
 50
180.0000000000001
 51
270.0000000000001
  0
ARC
  5
446
330
1F
100
AcDbEntity
  8
0
  6
CONTINUOUS
 62
   140
100
AcDbCircle
 10
8.158867208417345
 20
14.14543382231283
 30
0.0
 40
0.8
100
AcDbArc
 50
180.0000000000001
 51
270.0000000000001
  0
ARC
  5
447
330
1F
100
AcDbEntity
  8
0
  6
CONTINUOUS
 62
   140
100
AcDbCircle
 10
8.35886720841739
 20
16.26451470102546
 30
0.0
 40
1.0
100
AcDbArc
 50
180.0000000000001
 51
270.0000000000001
  0
ARC
  5
448
330
1F
100
AcDbEntity
  8
0
  6
CONTINUOUS
 62
   140
100
AcDbCircle
 10
8.35886720841739
 20
22.69619043902974
 30
0.0
 40
1.0
100
AcDbArc
 50
180.0000000000001
 51
270.0000000000001
  0
ARC
  5
449
330
1F
100
AcDbEntity
  8
0
  6
CONTINUOUS
 62
   140
100
AcDbCircle
 10
8.158867208417345
 20
27.5136170992178
 30
0.0
 40
0.8
100
AcDbArc
 50
180.0000000000001
 51
270.0000000000001
  0
ARC
  5
44A
330
1F
100
AcDbEntity
  8
0
  6
CONTINUOUS
 62
   140
100
AcDbCircle
 10
8.35886720841739
 20
29.54121352993314
 30
0.0
 40
1.0
100
AcDbArc
 50
180.0000000000001
 51
270.0000000000001
  0
ARC
  5
44B
330
1F
100
AcDbEntity
  8
0
  6
CONTINUOUS
 62
   140
100
AcDbCircle
 10
8.158867208417345
 20
20.58770246284535
 30
0.0
 40
0.8
100
AcDbArc
 50
180.0000000000001
 51
270.0000000000001
  0
ARC
  5
44C
330
1F
100
AcDbEntity
  8
0
  6
CONTINUOUS
 62
   140
100
AcDbCircle
 10
8.158867208417345
 20
15.5873559407658
 30
0.0
 40
0.8
100
AcDbArc
 50
180.0000000000001
 51
270.0000000000001
  0
ARC
  5
44D
330
1F
100
AcDbEntity
  8
0
  6
CONTINUOUS
 62
   140
100
AcDbCircle
 10
8.158867208417345
 20
29.2627544342053
 30
0.0
 40
0.8
100
AcDbArc
 50
180.0000000000001
 51
270.0000000000001
  0
ARC
  5
44E
330
1F
100
AcDbEntity
  8
0
  6
CONTINUOUS
 62
   140
100
AcDbCircle
 10
8.158867208417345
 20
22.21217509432585
 30
0.0
 40
0.8
100
AcDbArc
 50
180.0000000000001
 51
270.0000000000001
  0
ARC
  5
44F
330
1F
100
AcDbEntity
  8
0
  6
CONTINUOUS
 62
   140
100
AcDbCircle
 10
24.35886720841739
 20
24.69619043902974
 30
0.0
 40
3.0
100
AcDbArc
 50
270.0000000000001
 51
360.0000000000001
  0
ARC
  5
450
330
1F
100
AcDbEntity
  8
0
  6
CONTINUOUS
 62
   140
100
AcDbCircle
 10
24.85886720841739
 20
22.28770246284534
 30
0.0
 40
2.5
100
AcDbArc
 50
270.0000000000001
 51
360.0000000000001
  0
ARC
  5
451
330
1F
100
AcDbEntity
  8
0
  6
CONTINUOUS
 62
   140
100
AcDbCircle
 10
24.35886720841739
 20
18.26451470102546
 30
0.0
 40
3.0
100
AcDbArc
 50
270.0000000000001
 51
360.0000000000001
  0
ARC
  5
452
330
1F
100
AcDbEntity
  8
0
  6
CONTINUOUS
 62
   140
100
AcDbCircle
 10
24.85886720841739
 20
17.28735594076584
 30
0.0
 40
2.5
100
AcDbArc
 50
270.0000000000001
 51
360.0000000000001
  0
ARC
  5
453
330
1F
100
AcDbEntity
  8
0
  6
CONTINUOUS
 62
   140
100
AcDbCircle
 10
23.85886720841739
 20
13.02728140827531
 30
0.0
 40
3.5
100
AcDbArc
 50
270.0000000000001
 51
360.0000000000001
  0
ARC
  5
454
330
1F
100
AcDbEntity
  8
0
  6
CONTINUOUS
 62
   140
100
AcDbCircle
 10
24.85886720841739
 20
15.84543382231282
 30
0.0
 40
2.5
100
AcDbArc
 50
270.0000000000001
 51
360.0000000000001
  0
ARC
  5
455
330
1F
100
AcDbEntity
  8
0
  6
CONTINUOUS
 62
   140
100
AcDbCircle
 10
23.85886720841739
 20
1.301613148030064
 30
0.0
 40
3.5
100
AcDbArc
 50
270.0000000000001
 51
360.0000000000001
  0
ARC
  5
456
330
1F
100
AcDbEntity
  8
0
  6
CONTINUOUS
 62
   140
100
AcDbCircle
 10
23.35886720841739
 20
5.097811448820089
 30
0.0
 40
4.0
100
AcDbArc
 50
270.0000000000001
 51
360.0000000000001
  0
ARC
  5
457
330
1F
100
AcDbEntity
  8
0
  6
CONTINUOUS
 62
   140
100
AcDbCircle
 10
8.35886720841739
 20
-2.146098582329564
 30
0.0
 40
1.0
100
AcDbArc
 50
180.0000000000001
 51
270.0000000000001
  0
ARC
  5
458
330
1F
100
AcDbEntity
  8
0
  6
CONTINUOUS
 62
   140
100
AcDbCircle
 10
23.35886720841739
 20
8.735235185972265
 30
0.0
 40
4.0
100
AcDbArc
 50
270.0000000000001
 51
360.0000000000001
  0
ARC
  5
459
330
1F
100
AcDbEntity
  8
0
  6
CONTINUOUS
 62
   140
100
AcDbCircle
 10
23.35886720841739
 20
2.773983068427746
 30
0.0
 40
4.0
100
AcDbArc
 50
270.0000000000001
 51
360.0000000000001
  0
ARC
  5
45A
330
1F
100
AcDbEntity
  8
0
  6
CONTINUOUS
 62
   140
100
AcDbCircle
 10
23.85886720841739
 20
0.9792066102633541
 30
0.0
 40
3.5
100
AcDbArc
 50
270.0000000000001
 51
360.0000000000001
  0
ARC
  5
45B
330
1F
100
AcDbEntity
  8
0
  6
CONTINUOUS
 62
   140
100
AcDbCircle
 10
23.85886720841739
 20
6.504623652079879
 30
0.0
 40
3.5
100
AcDbArc
 50
270.0000000000001
 51
360.0000000000001
  0
ARC
  5
45C
330
1F
100
AcDbEntity
  8
0
  6
CONTINUOUS
 62
   140
100
AcDbCircle
 10
23.85886720841739
 20
3.695226164470164
 30
0.0
 40
3.5
100
AcDbArc
 50
270.0000000000001
 51
360.0000000000001
  0
ARC
  5
45D
330
1F
100
AcDbEntity
  8
0
  6
CONTINUOUS
 62
   140
100
AcDbCircle
 10
23.85886720841739
 20
7.441881845681046
 30
0.0
 40
3.5
100
AcDbArc
 50
270.0000000000001
 51
360.0000000000001
  0
ARC
  5
45E
330
1F
100
AcDbEntity
  8
0
  6
CONTINUOUS
 62
   140
100
AcDbCircle
 10
24.35886720841739
 20
10.6683692306463
 30
0.0
 40
3.0
100
AcDbArc
 50
270.0000000000001
 51
360.0000000000001
  0
ARC
  5
45F
330
1F
100
AcDbEntity
  8
0
  6
CONTINUOUS
 62
   140
100
AcDbCircle
 10
24.35886720841739
 20
11.87783335994509
 30
0.0
 40
3.0
100
AcDbArc
 50
270.0000000000001
 51
360.0000000000001
  0
ARC
  5
460
330
1F
100
AcDbEntity
  8
0
  6
CONTINUOUS
 62
   140
100
AcDbCircle
 10
8.35886720841739
 20
10.52728140827531
 30
0.0
 40
1.0
100
AcDbArc
 50
180.0000000000001
 51
270.0000000000001
  0
ARC
  5
461
330
1F
100
AcDbEntity
  8
0
  6
CONTINUOUS
 62
   140
100
AcDbCircle
 10
23.85886720841739
 20
3.058025147531161
 30
0.0
 40
3.5
100
AcDbArc
 50
270.0000000000001
 51
360.0000000000001
  0
ARC
  5
462
330
1F
100
AcDbEntity
  8
0
  6
CONTINUOUS
 62
   140
100
AcDbCircle
 10
25.35886720841739
 20
30.46275443420529
 30
0.0
 40
2.0
100
AcDbArc
 50
270.0000000000001
 51
360.0000000000001
  0
ARC
  5
463
330
1F
100
AcDbEntity
  8
0
  6
CONTINUOUS
 62
   140
100
AcDbCircle
 10
8.35886720841739
 20
5.735235185972265
 30
0.0
 40
1.0
100
AcDbArc
 50
180.0000000000001
 51
270.0000000000001
  0
ARC
  5
464
330
1F
100
AcDbEntity
  8
0
  6
CONTINUOUS
 62
   140
100
AcDbCircle
 10
8.158867208417345
 20
3.80462365207989
 30
0.0
 40
0.8
100
AcDbArc
 50
180.0000000000001
 51
270.0000000000001
  0
ARC
  5
465
330
1F
100
AcDbEntity
  8
0
  6
CONTINUOUS
 62
   140
100
AcDbCircle
 10
24.85886720841739
 20
31.04121352993314
 30
0.0
 40
2.5
100
AcDbArc
 50
270.0000000000001
 51
360.0000000000001
  0
ARC
  5
466
330
1F
100
AcDbEntity
  8
0
  6
CONTINUOUS
 62
   140
100
AcDbCircle
 10
8.35886720841739
 20
2.097811448820089
 30
0.0
 40
1.0
100
AcDbArc
 50
180.0000000000001
 51
270.0000000000001
  0
ARC
  5
467
330
1F
100
AcDbEntity
  8
0
  6
CONTINUOUS
 62
   140
100
AcDbCircle
 10
8.158867208417345
 20
0.995226164470175
 30
0.0
 40
0.8
100
AcDbArc
 50
180.0000000000001
 51
270.0000000000001
  0
ARC
  5
468
330
1F
100
AcDbEntity
  8
0
  6
CONTINUOUS
 62
   140
100
AcDbCircle
 10
8.158867208417345
 20
0.3580251475311158
 30
0.0
 40
0.8
100
AcDbArc
 50
180.0000000000001
 51
270.0000000000001
  0
ARC
  5
469
330
1F
100
AcDbEntity
  8
0
  6
CONTINUOUS
 62
   140
100
AcDbCircle
 10
8.35886720841739
 20
-0.2260169315722536
 30
0.0
 40
1.0
100
AcDbArc
 50
180.0000000000001
 51
270.0000000000001
  0
ARC
  5
46A
330
1F
100
AcDbEntity
  8
0
  6
CONTINUOUS
 62
   140
100
AcDbCircle
 10
8.35886720841739
 20
-1.198386851969936
 30
0.0
 40
1.0
100
AcDbArc
 50
180.0000000000001
 51
270.0000000000001
  0
ARC
  5
46B
330
1F
100
AcDbEntity
  8
0
  6
CONTINUOUS
 62
   140
100
AcDbCircle
 10
8.35886720841739
 20
-1.520793389736646
 30
0.0
 40
1.0
100
AcDbArc
 50
180.0000000000001
 51
270.0000000000001
  0
LINE
  5
46C
330
1F
100
AcDbEntity
  8
0
  6
CONTINUOUS
 62
   140
100
AcDbLine
 10
7.358867208417389
 20
64.45390141767039
 30
0.0
 11
7.358867208417389
 21
60.95390141767039
 31
0.0
  0
LINE
  5
46D
330
1F
100
AcDbEntity
  8
0
  6
CONTINUOUS
 62
   140
100
AcDbLine
 10
7.358867208417389
 20
31.15390141767039
 30
0.0
 11
7.358867208417389
 21
-2.146098582329564
 31
0.0
  0
LINE
  5
46E
330
1F
100
AcDbEntity
  8
0
  6
CONTINUOUS
 62
   140
100
AcDbLine
 10
24.35886720841739
 20
59.55390141767036
 30
0.0
 11
24.35886720841739
 21
53.15390088122858
 31
0.0
  0
LINE
  5
46F
330
1F
100
AcDbEntity
  8
0
  6
CONTINUOUS
 62
   140
100
AcDbLine
 10
24.35886720841739
 20
50.15390088122858
 30
0.0
 11
24.35886720841739
 21
46.79298986783134
 31
0.0
  0
LINE
  5
470
330
1F
100
AcDbEntity
  8
0
  6
DASHED2
 62
   140
100
AcDbLine
 10
22.35886720841739
 20
64.45390141767039
 30
0.0
 11
8.35886720841739
 21
64.45390141767039
 31
0.0
  0
ARC
  5
471
330
1F
100
AcDbEntity
  8
0
  6
DASHED2
 62
   140
100
AcDbCircle
 10
8.35886720841739
 20
63.45390141767039
 30
0.0
 40
1.0
100
AcDbArc
 50
90.00000000000003
 51
180.0
  0
ARC
  5
472
330
1F
100
AcDbEntity
  8
0
  6
DASHED2
 62
   140
100
AcDbCircle
 10
22.35886720841739
 20
59.45390141767039
 30
0.0
 40
5.0
100
AcDbArc
 50
0.0000000000000509
 51
90.00000000000003
  0
LINE
  5
473
330
1F
100
AcDbEntity
  8
0
  6
CONTINUOUS
 62
     6
100
AcDbLine
 10
24.35886720841739
 20
46.45390141767039
 30
0.0
 11
24.81769494908991
 21
46.45390141767039
 31
0.0
  0
LINE
  5
474
330
1F
100
AcDbEntity
  8
0
  6
CONTINUOUS
 62
     6
100
AcDbLine
 10
79.09640072211111
 20
47.15390141767038
 30
0.0
 11
81.3176949490899
 21
47.15390141767038
 31
0.0
  0
LINE
  5
475
330
1F
100
AcDbEntity
  8
0
  6
CONTINUOUS
 62
     6
100
AcDbLine
 10
85.87510649513227
 20
47.15390141767038
 30
0.0
 11
88.09640072211111
 21
47.15390141767038
 31
0.0
  0
LINE
  5
476
330
1F
100
AcDbEntity
  8
0
  6
CONTINUOUS
 62
     6
100
AcDbLine
 10
79.09640072211111
 20
47.15390141767038
 30
0.0
 11
77.9571454170861
 21
47.15390141767038
 31
0.0
  0
LINE
  5
477
330
1F
100
AcDbEntity
  8
0
  6
CONTINUOUS
 62
     6
100
AcDbLine
 10
62.81769494908991
 20
47.15390141767038
 30
0.0
 11
60.59640072211113
 21
47.15390141767038
 31
0.0
  0
LINE
  5
478
330
1F
100
AcDbEntity
  8
0
  6
CONTINUOUS
 62
     6
100
AcDbLine
 10
72.31769494908991
 20
47.15390141767038
 30
0.0
 11
67.37510649513229
 21
47.15390141767038
 31
0.0
  0
LINE
  5
479
330
1F
100
AcDbEntity
  8
0
  6
CONTINUOUS
 62
     6
100
AcDbLine
 10
107.0964007221111
 20
47.15390141767038
 30
0.0
 11
104.8751064951323
 21
47.15390141767038
 31
0.0
  0
LINE
  5
47A
330
1F
100
AcDbEntity
  8
0
  6
CONTINUOUS
 62
     6
100
AcDbLine
 10
90.8176949490899
 20
47.15390141767038
 30
0.0
 11
88.09640072211111
 21
47.15390141767038
 31
0.0
  0
LINE
  5
47B
330
1F
100
AcDbEntity
  8
0
  6
CONTINUOUS
 62
     6
100
AcDbLine
 10
100.3176949490899
 20
47.15390141767038
 30
0.0
 11
95.37510649513227
 21
47.15390141767038
 31
0.0
  0
LINE
  5
47C
330
1F
100
AcDbEntity
  8
0
  6
CONTINUOUS
 62
     6
100
AcDbLine
 10
41.59640072211113
 20
47.15390141767038
 30
0.0
 11
38.87510649513223
 21
47.15390141767038
 31
0.0
  0
LINE
  5
47D
330
1F
100
AcDbEntity
  8
0
  6
CONTINUOUS
 62
     6
100
AcDbLine
 10
24.81769494908991
 20
47.15390141767038
 30
0.0
 11
24.35886720841739
 21
47.15390141767038
 31
0.0
  0
LINE
  5
47E
330
1F
100
AcDbEntity
  8
0
  6
CONTINUOUS
 62
     6
100
AcDbLine
 10
34.31769494908991
 20
47.15390141767038
 30
0.0
 11
29.37510649513223
 21
47.15390141767038
 31
0.0
  0
LINE
  5
47F
330
1F
100
AcDbEntity
  8
0
  6
CONTINUOUS
 62
     6
100
AcDbLine
 10
41.59640072211113
 20
47.15390141767038
 30
0.0
 11
43.81769494908991
 21
47.15390141767038
 31
0.0
  0
LINE
  5
480
330
1F
100
AcDbEntity
  8
0
  6
CONTINUOUS
 62
     6
100
AcDbLine
 10
57.87510649513229
 20
47.15390141767038
 30
0.0
 11
60.59640072211113
 21
47.15390141767038
 31
0.0
  0
LINE
  5
481
330
1F
100
AcDbEntity
  8
0
  6
CONTINUOUS
 62
     6
100
AcDbLine
 10
48.37510649513223
 20
47.15390141767038
 30
0.0
 11
53.31769494908991
 21
47.15390141767038
 31
0.0
  0
LINE
  5
482
330
1F
100
AcDbEntity
  8
0
  6
CONTINUOUS
 62
     6
100
AcDbLine
 10
104.8751064951323
 20
46.45390141767039
 30
0.0
 11
106.644709851788
 21
46.45390141767039
 31
0.0
  0
LINE
  5
483
330
1F
100
AcDbEntity
  8
0
  6
CONTINUOUS
 62
     6
100
AcDbLine
 10
95.37510649513227
 20
46.45390141767039
 30
0.0
 11
100.3176949490899
 21
46.45390141767039
 31
0.0
  0
LINE
  5
484
330
1F
100
AcDbEntity
  8
0
  6
CONTINUOUS
 62
     6
100
AcDbLine
 10
85.87510649513227
 20
46.45390141767039
 30
0.0
 11
90.8176949490899
 21
46.45390141767039
 31
0.0
  0
LINE
  5
485
330
1F
100
AcDbEntity
  8
0
  6
CONTINUOUS
 62
     6
100
AcDbLine
 10
78.14470985178791
 20
46.45390141767039
 30
0.0
 11
81.3176949490899
 21
46.45390141767039
 31
0.0
  0
LINE
  5
486
330
1F
100
AcDbEntity
  8
0
  6
CONTINUOUS
 62
     6
100
AcDbLine
 10
67.37510649513229
 20
46.45390141767039
 30
0.0
 11
72.31769494908991
 21
46.45390141767039
 31
0.0
  0
LINE
  5
487
330
1F
100
AcDbEntity
  8
0
  6
CONTINUOUS
 62
     6
100
AcDbLine
 10
57.87510649513229
 20
46.45390141767039
 30
0.0
 11
62.81769494908991
 21
46.45390141767039
 31
0.0
  0
LINE
  5
488
330
1F
100
AcDbEntity
  8
0
  6
CONTINUOUS
 62
     6
100
AcDbLine
 10
48.37510649513223
 20
46.45390141767039
 30
0.0
 11
53.31769494908991
 21
46.45390141767034
 31
0.0
  0
LINE
  5
489
330
1F
100
AcDbEntity
  8
0
  6
CONTINUOUS
 62
     6
100
AcDbLine
 10
38.87510649513223
 20
46.45390141767039
 30
0.0
 11
43.81769494908991
 21
46.45390141767039
 31
0.0
  0
LINE
  5
48A
330
1F
100
AcDbEntity
  8
0
  6
CONTINUOUS
 62
     6
100
AcDbLine
 10
29.37510649513223
 20
46.45390141767039
 30
0.0
 11
34.31769494908991
 21
46.45390141767039
 31
0.0
  0
LINE
  5
48B
330
1F
100
AcDbEntity
  8
0
  6
CONTINUOUS
 62
     6
100
AcDbLine
 10
46.83918234929814
 20
47.35770630345739
 30
0.0
 11
47.0444144523762
 21
45.88915658809871
 31
0.0
  0
LINE
  5
48C
330
1F
100
AcDbEntity
  8
0
  6
CONTINUOUS
 62
     6
100
AcDbLine
 10
60.12510649513229
 20
31.15390141767039
 30
0.0
 11
57.87510649513229
 21
46.45390141767039
 31
0.0
  0
LINE
  5
48D
330
1F
100
AcDbEntity
  8
0
  6
CONTINUOUS
 62
     6
100
AcDbLine
 10
57.08911220094745
 20
31.15390141767039
 30
0.0
 11
54.85361909492389
 21
47.15009653188336
 31
0.0
  0
LINE
  5
48E
330
1F
100
AcDbEntity
  8
0
  6
CONTINUOUS
 62
     6
100
AcDbLine
 10
56.33918234929814
 20
47.35770630345739
 30
0.0
 11
58.60368924327463
 21
31.15390141767039
 31
0.0
  0
LINE
  5
48F
330
1F
100
AcDbEntity
  8
0
  6
CONTINUOUS
 62
     6
100
AcDbLine
 10
53.31769494908991
 20
46.45390141767034
 30
0.0
 11
55.56769494908991
 21
31.15390141767039
 31
0.0
  0
LINE
  5
490
330
1F
100
AcDbEntity
  8
0
  6
CONTINUOUS
 62
     6
100
AcDbLine
 10
66.58911220094745
 20
31.15390141767039
 30
0.0
 11
64.35361909492394
 21
47.15009653188331
 31
0.0
  0
LINE
  5
491
330
1F
100
AcDbEntity
  8
0
  6
CONTINUOUS
 62
     6
100
AcDbLine
 10
62.81769494908991
 20
46.45390141767034
 30
0.0
 11
65.06769494908991
 21
31.15390141767039
 31
0.0
  0
LINE
  5
492
330
1F
100
AcDbEntity
  8
0
  6
CONTINUOUS
 62
     6
100
AcDbLine
 10
65.83918234929814
 20
47.35770630345739
 30
0.0
 11
68.10368924327457
 21
31.15390141767039
 31
0.0
  0
LINE
  5
493
330
1F
100
AcDbEntity
  8
0
  6
CONTINUOUS
 62
     6
100
AcDbLine
 10
69.62510649513229
 20
31.15390141767039
 30
0.0
 11
67.37510649513229
 21
46.45390141767039
 31
0.0
  0
LINE
  5
494
330
1F
100
AcDbEntity
  8
0
  6
CONTINUOUS
 62
     6
100
AcDbLine
 10
72.31769494908991
 20
46.45390141767034
 30
0.0
 11
74.56769494908991
 21
31.15390141767039
 31
0.0
  0
LINE
  5
495
330
1F
100
AcDbEntity
  8
0
  6
CONTINUOUS
 62
     6
100
AcDbLine
 10
75.93054814808163
 20
43.12615547660668
 30
0.0
 11
77.60368924327456
 21
31.15390141767039
 31
0.0
  0
LINE
  5
496
330
1F
100
AcDbEntity
  8
0
  6
CONTINUOUS
 62
     6
100
AcDbLine
 10
76.08911220094744
 20
31.15390141767039
 30
0.0
 11
73.85361909492389
 21
47.15009653188336
 31
0.0
  0
LINE
  5
497
330
1F
100
AcDbEntity
  8
0
  6
CONTINUOUS
 62
     6
100
AcDbLine
 10
81.3176949490899
 20
46.45390141767034
 30
0.0
 11
83.5676949490899
 21
31.15390141767039
 31
0.0
  0
LINE
  5
498
330
1F
100
AcDbEntity
  8
0
  6
CONTINUOUS
 62
     6
100
AcDbLine
 10
85.08911220094744
 20
31.15390141767039
 30
0.0
 11
82.85361909492387
 21
47.15009653188331
 31
0.0
  0
LINE
  5
499
330
1F
100
AcDbEntity
  8
0
  6
CONTINUOUS
 62
     6
100
AcDbLine
 10
88.12510649513227
 20
31.15390141767039
 30
0.0
 11
85.87510649513227
 21
46.45390141767039
 31
0.0
  0
LINE
  5
49A
330
1F
100
AcDbEntity
  8
0
  6
CONTINUOUS
 62
     6
100
AcDbLine
 10
84.33918234929813
 20
47.35770630345739
 30
0.0
 11
86.60368924327456
 21
31.15390141767039
 31
0.0
  0
LINE
  5
49B
330
1F
100
AcDbEntity
  8
0
  6
CONTINUOUS
 62
     6
100
AcDbLine
 10
90.8176949490899
 20
46.45390141767039
 30
0.0
 11
93.0676949490899
 21
31.15390141767039
 31
0.0
  0
LINE
  5
49C
330
1F
100
AcDbEntity
  8
0
  6
CONTINUOUS
 62
     6
100
AcDbLine
 10
94.58911220094733
 20
31.15390141767039
 30
0.0
 11
92.35361909492382
 21
47.15009653188331
 31
0.0
  0
LINE
  5
49D
330
1F
100
AcDbEntity
  8
0
  6
CONTINUOUS
 62
     6
100
AcDbLine
 10
97.62510649513227
 20
31.15390141767039
 30
0.0
 11
95.37510649513227
 21
46.45390141767039
 31
0.0
  0
LINE
  5
49E
330
1F
100
AcDbEntity
  8
0
  6
CONTINUOUS
 62
     6
100
AcDbLine
 10
93.83918234929807
 20
47.35770630345739
 30
0.0
 11
96.1036892432745
 21
31.15390141767039
 31
0.0
  0
LINE
  5
49F
330
1F
100
AcDbEntity
  8
0
  6
CONTINUOUS
 62
     6
100
AcDbLine
 10
100.3176949490899
 20
46.45390141767039
 30
0.0
 11
102.5964007221111
 21
30.95870216112626
 31
0.0
  0
LINE
  5
4A0
330
1F
100
AcDbEntity
  8
0
  6
CONTINUOUS
 62
     6
100
AcDbLine
 10
107.1251064951322
 20
31.15390141767039
 30
0.0
 11
104.8751064951322
 21
46.45390141767045
 31
0.0
  0
LINE
  5
4A1
330
1F
100
AcDbEntity
  8
0
  6
CONTINUOUS
 62
     6
100
AcDbLine
 10
104.0891122009473
 20
31.15390141767039
 30
0.0
 11
101.8536190949238
 21
47.15009653188331
 31
0.0
  0
LINE
  5
4A2
330
1F
100
AcDbEntity
  8
0
  6
CONTINUOUS
 62
     6
100
AcDbLine
 10
103.339182349298
 20
47.35770630345739
 30
0.0
 11
105.6036892432745
 21
31.15390141767039
 31
0.0
  0
CIRCLE
  5
4A3
330
1F
100
AcDbEntity
  8
0
  6
CONTINUOUS
 62
     6
100
AcDbCircle
 10
83.59640072211111
 20
47.25390141767041
 30
0.0
 40
0.75
  0
CIRCLE
  5
4A4
330
1F
100
AcDbEntity
  8
0
  6
CONTINUOUS
 62
     6
100
AcDbCircle
 10
83.59640072211111
 20
47.25390141767041
 30
0.0
 40
0.5
  0
ARC
  5
4A5
330
1F
100
AcDbEntity
  8
0
  6
CONTINUOUS
 62
     6
100
AcDbCircle
 10
83.59640072211111
 20
47.25390141767041
 30
0.0
 40
1.450000000000003
100
AcDbArc
 50
21.55208888721319
 51
158.4479111127868
  0
ARC
  5
4A6
330
1F
100
AcDbEntity
  8
0
  6
CONTINUOUS
 62
     6
100
AcDbCircle
 10
81.3176949490899
 20
48.15390141767038
 30
0.0
 40
1.0
100
AcDbArc
 50
270.0
 51
338.4479111127867
  0
ARC
  5
4A7
330
1F
100
AcDbEntity
  8
0
  6
CONTINUOUS
 62
     6
100
AcDbCircle
 10
85.87510649513227
 20
48.15390141767038
 30
0.0
 40
1.0
100
AcDbArc
 50
201.5520888872133
 51
270.0
  0
CIRCLE
  5
4A8
330
1F
100
AcDbEntity
  8
0
  6
CONTINUOUS
 62
     6
100
AcDbCircle
 10
65.09640072211113
 20
47.25390141767041
 30
0.0
 40
0.75
  0
CIRCLE
  5
4A9
330
1F
100
AcDbEntity
  8
0
  6
CONTINUOUS
 62
     6
100
AcDbCircle
 10
65.09640072211113
 20
47.25390141767041
 30
0.0
 40
0.5
  0
ARC
  5
4AA
330
1F
100
AcDbEntity
  8
0
  6
CONTINUOUS
 62
     6
100
AcDbCircle
 10
65.09640072211113
 20
47.25390141767041
 30
0.0
 40
1.450000000000003
100
AcDbArc
 50
21.55208888721323
 51
158.4479111127869
  0
ARC
  5
4AB
330
1F
100
AcDbEntity
  8
0
  6
CONTINUOUS
 62
     6
100
AcDbCircle
 10
74.59640072211113
 20
47.25390141767041
 30
0.0
 40
1.450000000000003
100
AcDbArc
 50
96.25922390859485
 51
158.4479111127869
  0
ARC
  5
4AC
330
1F
100
AcDbEntity
  8
0
  6
CONTINUOUS
 62
     6
100
AcDbCircle
 10
62.81769494908991
 20
48.15390141767038
 30
0.0
 40
1.0
100
AcDbArc
 50
270.0000000000001
 51
338.4479111127868
  0
ARC
  5
4AD
330
1F
100
AcDbEntity
  8
0
  6
CONTINUOUS
 62
     6
100
AcDbCircle
 10
67.37510649513229
 20
48.15390141767038
 30
0.0
 40
1.0
100
AcDbArc
 50
201.5520888872133
 51
270.0000000000001
  0
ARC
  5
4AE
330
1F
100
AcDbEntity
  8
0
  6
CONTINUOUS
 62
     6
100
AcDbCircle
 10
74.59640072211113
 20
47.25390141767041
 30
0.0
 40
0.75
100
AcDbArc
 50
87.91455043567224
 51
302.0854495643287
  0
ARC
  5
4AF
330
1F
100
AcDbEntity
  8
0
  6
CONTINUOUS
 62
     6
100
AcDbCircle
 10
74.59640072211113
 20
47.25390141767041
 30
0.0
 40
0.5
100
AcDbArc
 50
78.85167839231021
 51
311.1483216076899
  0
ARC
  5
4B0
330
1F
100
AcDbEntity
  8
0
  6
CONTINUOUS
 62
     6
100
AcDbCircle
 10
72.31769494908991
 20
48.15390141767038
 30
0.0
 40
1.0
100
AcDbArc
 50
270.0000000000001
 51
338.4479111127868
  0
CIRCLE
  5
4B1
330
1F
100
AcDbEntity
  8
0
  6
CONTINUOUS
 62
     6
100
AcDbCircle
 10
93.09640072211111
 20
47.25390141767041
 30
0.0
 40
0.75
  0
CIRCLE
  5
4B2
330
1F
100
AcDbEntity
  8
0
  6
CONTINUOUS
 62
     6
100
AcDbCircle
 10
93.09640072211111
 20
47.25390141767041
 30
0.0
 40
0.5
  0
ARC
  5
4B3
330
1F
100
AcDbEntity
  8
0
  6
CONTINUOUS
 62
     6
100
AcDbCircle
 10
93.09640072211111
 20
47.25390141767041
 30
0.0
 40
1.450000000000003
100
AcDbArc
 50
21.55208888721323
 51
158.4479111127869
  0
ARC
  5
4B4
330
1F
100
AcDbEntity
  8
0
  6
CONTINUOUS
 62
     6
100
AcDbCircle
 10
102.5964007221111
 20
47.25390141767041
 30
0.0
 40
1.450000000000003
100
AcDbArc
 50
21.55208888721323
 51
158.4479111127869
  0
ARC
  5
4B5
330
1F
100
AcDbEntity
  8
0
  6
CONTINUOUS
 62
     6
100
AcDbCircle
 10
90.8176949490899
 20
48.15390141767038
 30
0.0
 40
1.0
100
AcDbArc
 50
270.0000000000001
 51
338.4479111127868
  0
ARC
  5
4B6
330
1F
100
AcDbEntity
  8
0
  6
CONTINUOUS
 62
     6
100
AcDbCircle
 10
95.37510649513227
 20
48.15390141767038
 30
0.0
 40
1.0
100
AcDbArc
 50
201.5520888872133
 51
270.0000000000001
  0
CIRCLE
  5
4B7
330
1F
100
AcDbEntity
  8
0
  6
CONTINUOUS
 62
     6
100
AcDbCircle
 10
102.5964007221111
 20
47.25390141767041
 30
0.0
 40
0.75
  0
CIRCLE
  5
4B8
330
1F
100
AcDbEntity
  8
0
  6
CONTINUOUS
 62
     6
100
AcDbCircle
 10
102.5964007221111
 20
47.25390141767041
 30
0.0
 40
0.5
  0
ARC
  5
4B9
330
1F
100
AcDbEntity
  8
0
  6
CONTINUOUS
 62
     6
100
AcDbCircle
 10
100.3176949490899
 20
48.15390141767038
 30
0.0
 40
1.0
100
AcDbArc
 50
270.0000000000001
 51
338.4479111127868
  0
ARC
  5
4BA
330
1F
100
AcDbEntity
  8
0
  6
CONTINUOUS
 62
     6
100
AcDbCircle
 10
104.8751064951322
 20
48.15390141767038
 30
0.0
 40
1.0
100
AcDbArc
 50
201.5520888872133
 51
270.0000000000001
  0
CIRCLE
  5
4BB
330
1F
100
AcDbEntity
  8
0
  6
CONTINUOUS
 62
     6
100
AcDbCircle
 10
55.59640072211113
 20
47.25390141767041
 30
0.0
 40
0.5
  0
CIRCLE
  5
4BC
330
1F
100
AcDbEntity
  8
0
  6
CONTINUOUS
 62
     6
100
AcDbCircle
 10
55.59640072211113
 20
47.25390141767041
 30
0.0
 40
0.75
  0
CIRCLE
  5
4BD
330
1F
100
AcDbEntity
  8
0
  6
CONTINUOUS
 62
     6
100
AcDbCircle
 10
27.09640072211112
 20
47.25390141767041
 30
0.0
 40
0.75
  0
CIRCLE
  5
4BE
330
1F
100
AcDbEntity
  8
0
  6
CONTINUOUS
 62
     6
100
AcDbCircle
 10
27.09640072211112
 20
47.25390141767041
 30
0.0
 40
0.5
  0
ARC
  5
4BF
330
1F
100
AcDbEntity
  8
0
  6
CONTINUOUS
 62
     6
100
AcDbCircle
 10
27.09640072211112
 20
47.25390141767041
 30
0.0
 40
1.450000000000003
100
AcDbArc
 50
21.55208888721323
 51
158.4479111127869
  0
ARC
  5
4C0
330
1F
100
AcDbEntity
  8
0
  6
CONTINUOUS
 62
     6
100
AcDbCircle
 10
36.59640072211113
 20
47.25390141767041
 30
0.0
 40
1.450000000000003
100
AcDbArc
 50
21.55208888721323
 51
158.4479111127869
  0
ARC
  5
4C1
330
1F
100
AcDbEntity
  8
0
  6
CONTINUOUS
 62
     6
100
AcDbCircle
 10
24.81769494908991
 20
48.15390141767038
 30
0.0
 40
1.0
100
AcDbArc
 50
270.0000000000001
 51
338.4479111127868
  0
ARC
  5
4C2
330
1F
100
AcDbEntity
  8
0
  6
CONTINUOUS
 62
     6
100
AcDbCircle
 10
29.37510649513223
 20
48.15390141767038
 30
0.0
 40
1.0
100
AcDbArc
 50
201.5520888872133
 51
270.0000000000001
  0
CIRCLE
  5
4C3
330
1F
100
AcDbEntity
  8
0
  6
CONTINUOUS
 62
     6
100
AcDbCircle
 10
36.59640072211113
 20
47.25390141767041
 30
0.0
 40
0.75
  0
CIRCLE
  5
4C4
330
1F
100
AcDbEntity
  8
0
  6
CONTINUOUS
 62
     6
100
AcDbCircle
 10
36.59640072211113
 20
47.25390141767041
 30
0.0
 40
0.5
  0
ARC
  5
4C5
330
1F
100
AcDbEntity
  8
0
  6
CONTINUOUS
 62
     6
100
AcDbCircle
 10
34.31769494908991
 20
48.15390141767038
 30
0.0
 40
1.0
100
AcDbArc
 50
270.0000000000001
 51
338.4479111127868
  0
ARC
  5
4C6
330
1F
100
AcDbEntity
  8
0
  6
CONTINUOUS
 62
     6
100
AcDbCircle
 10
38.87510649513223
 20
48.15390141767038
 30
0.0
 40
1.0
100
AcDbArc
 50
201.5520888872133
 51
270.0000000000001
  0
ARC
  5
4C7
330
1F
100
AcDbEntity
  8
0
  6
CONTINUOUS
 62
     6
100
AcDbCircle
 10
55.59640072211113
 20
47.25390141767041
 30
0.0
 40
1.450000000000003
100
AcDbArc
 50
21.55208888721318
 51
158.4479111127868
  0
ARC
  5
4C8
330
1F
100
AcDbEntity
  8
0
  6
CONTINUOUS
 62
     6
100
AcDbCircle
 10
46.09640072211113
 20
47.25390141767041
 30
0.0
 40
1.450000000000003
100
AcDbArc
 50
21.55208888721318
 51
158.4479111127868
  0
ARC
  5
4C9
330
1F
100
AcDbEntity
  8
0
  6
CONTINUOUS
 62
     6
100
AcDbCircle
 10
57.87510649513229
 20
48.15390141767038
 30
0.0
 40
1.0
100
AcDbArc
 50
201.5520888872132
 51
269.9999999999999
  0
ARC
  5
4CA
330
1F
100
AcDbEntity
  8
0
  6
CONTINUOUS
 62
     6
100
AcDbCircle
 10
53.31769494908991
 20
48.15390141767038
 30
0.0
 40
1.0
100
AcDbArc
 50
270.0
 51
338.4479111127867
  0
CIRCLE
  5
4CB
330
1F
100
AcDbEntity
  8
0
  6
CONTINUOUS
 62
     6
100
AcDbCircle
 10
46.09640072211113
 20
47.25390141767041
 30
0.0
 40
0.75
  0
CIRCLE
  5
4CC
330
1F
100
AcDbEntity
  8
0
  6
CONTINUOUS
 62
     6
100
AcDbCircle
 10
46.09640072211113
 20
47.25390141767041
 30
0.0
 40
0.5
  0
ARC
  5
4CD
330
1F
100
AcDbEntity
  8
0
  6
CONTINUOUS
 62
     6
100
AcDbCircle
 10
48.37510649513223
 20
48.15390141767038
 30
0.0
 40
1.0
100
AcDbArc
 50
201.5520888872132
 51
269.9999999999999
  0
ARC
  5
4CE
330
1F
100
AcDbEntity
  8
0
  6
CONTINUOUS
 62
     6
100
AcDbCircle
 10
43.81769494908991
 20
48.15390141767038
 30
0.0
 40
1.0
100
AcDbArc
 50
270.0
 51
338.4479111127867
  0
ARC
  5
4CF
330
1F
100
AcDbEntity
  8
0
  6
CONTINUOUS
 62
     6
100
AcDbCircle
 10
24.81769494908991
 20
48.15390141767038
 30
0.0
 40
1.700000000000003
100
AcDbArc
 50
270.0000000000001
 51
338.4479111127868
  0
ARC
  5
4D0
330
1F
100
AcDbEntity
  8
0
  6
CONTINUOUS
 62
     6
100
AcDbCircle
 10
29.37510649513223
 20
48.15390141767038
 30
0.0
 40
1.700000000000003
100
AcDbArc
 50
201.5520888872133
 51
270.0000000000001
  0
ARC
  5
4D1
330
1F
100
AcDbEntity
  8
0
  6
CONTINUOUS
 62
     6
100
AcDbCircle
 10
34.31769494908991
 20
48.15390141767038
 30
0.0
 40
1.700000000000003
100
AcDbArc
 50
270.0000000000001
 51
338.4479111127868
  0
ARC
  5
4D2
330
1F
100
AcDbEntity
  8
0
  6
CONTINUOUS
 62
     6
100
AcDbCircle
 10
38.87510649513223
 20
48.15390141767038
 30
0.0
 40
1.700000000000003
100
AcDbArc
 50
201.5520888872133
 51
270.0000000000001
  0
ARC
  5
4D3
330
1F
100
AcDbEntity
  8
0
  6
CONTINUOUS
 62
     6
100
AcDbCircle
 10
53.31769494908991
 20
48.15390141767038
 30
0.0
 40
1.700000000000003
100
AcDbArc
 50
270.0
 51
338.4479111127867
  0
ARC
  5
4D4
330
1F
100
AcDbEntity
  8
0
  6
CONTINUOUS
 62
     6
100
AcDbCircle
 10
57.87510649513229
 20
48.15390141767038
 30
0.0
 40
1.700000000000003
100
AcDbArc
 50
201.5520888872132
 51
269.9999999999999
  0
ARC
  5
4D5
330
1F
100
AcDbEntity
  8
0
  6
CONTINUOUS
 62
     6
100
AcDbCircle
 10
62.81769494908991
 20
48.15390141767038
 30
0.0
 40
1.700000000000003
100
AcDbArc
 50
270.0000000000001
 51
338.4479111127868
  0
ARC
  5
4D6
330
1F
100
AcDbEntity
  8
0
  6
CONTINUOUS
 62
     6
100
AcDbCircle
 10
67.37510649513229
 20
48.15390141767038
 30
0.0
 40
1.700000000000003
100
AcDbArc
 50
201.5520888872133
 51
270.0000000000001
  0
ARC
  5
4D7
330
1F
100
AcDbEntity
  8
0
  6
CONTINUOUS
 62
     6
100
AcDbCircle
 10
72.31769494908991
 20
48.15390141767038
 30
0.0
 40
1.700000000000003
100
AcDbArc
 50
270.0000000000001
 51
338.4479111127868
  0
ARC
  5
4D8
330
1F
100
AcDbEntity
  8
0
  6
CONTINUOUS
 62
     6
100
AcDbCircle
 10
81.3176949490899
 20
48.15390141767038
 30
0.0
 40
1.700000000000003
100
AcDbArc
 50
270.0
 51
338.4479111127867
  0
ARC
  5
4D9
330
1F
100
AcDbEntity
  8
0
  6
CONTINUOUS
 62
     6
100
AcDbCircle
 10
85.87510649513227
 20
48.15390141767038
 30
0.0
 40
1.700000000000003
100
AcDbArc
 50
201.5520888872133
 51
270.0
  0
ARC
  5
4DA
330
1F
100
AcDbEntity
  8
0
  6
CONTINUOUS
 62
     6
100
AcDbCircle
 10
90.8176949490899
 20
48.15390141767038
 30
0.0
 40
1.700000000000003
100
AcDbArc
 50
270.0000000000001
 51
338.4479111127868
  0
ARC
  5
4DB
330
1F
100
AcDbEntity
  8
0
  6
CONTINUOUS
 62
     6
100
AcDbCircle
 10
95.37510649513227
 20
48.15390141767038
 30
0.0
 40
1.700000000000003
100
AcDbArc
 50
201.5520888872133
 51
270.0000000000001
  0
ARC
  5
4DC
330
1F
100
AcDbEntity
  8
0
  6
CONTINUOUS
 62
     6
100
AcDbCircle
 10
100.3176949490899
 20
48.15390141767038
 30
0.0
 40
1.700000000000003
100
AcDbArc
 50
270.0000000000001
 51
338.4479111127868
  0
ARC
  5
4DD
330
1F
100
AcDbEntity
  8
0
  6
CONTINUOUS
 62
     6
100
AcDbCircle
 10
104.8751064951322
 20
48.15390141767038
 30
0.0
 40
1.700000000000003
100
AcDbArc
 50
201.5520888872133
 51
270.0000000000001
  0
ARC
  5
4DE
330
1F
100
AcDbEntity
  8
0
  6
CONTINUOUS
 62
     6
100
AcDbCircle
 10
43.81769494908991
 20
48.15390141767038
 30
0.0
 40
1.700000000000003
100
AcDbArc
 50
270.0
 51
338.4479111127867
  0
ARC
  5
4DF
330
1F
100
AcDbEntity
  8
0
  6
CONTINUOUS
 62
     6
100
AcDbCircle
 10
48.37510649513223
 20
48.15390141767038
 30
0.0
 40
1.700000000000003
100
AcDbArc
 50
201.5520888872132
 51
269.9999999999999
  0
LINE
  5
4E0
330
1F
100
AcDbEntity
  8
0
  6
CONTINUOUS
 62
     6
100
AcDbLine
 10
24.35886720841739
 20
46.45390141767039
 30
0.0
 11
24.35886720841739
 21
47.15390141767038
 31
0.0
  0
ARC
  5
4E1
330
1F
100
AcDbEntity
  8
0
  6
CONTINUOUS
 62
     6
100
AcDbCircle
 10
41.09640072211113
 20
15.05390141767037
 30
0.0
 40
1.450000000000003
100
AcDbArc
 50
201.5520888872132
 51
338.4479111127868
  0
LINE
  5
4E2
330
1F
100
AcDbEntity
  8
0
  6
CONTINUOUS
 62
     6
100
AcDbLine
 10
104.9325569870319
 20
15.15390141767039
 30
0.0
 11
104.9325569870319
 21
31.10390141767038
 31
0.0
  0
LINE
  5
4E3
330
1F
100
AcDbEntity
  8
0
  6
CONTINUOUS
 62
     6
100
AcDbLine
 10
50.62510649513223
 20
31.15390141767039
 30
0.0
 11
49.35886673158024
 21
39.76433180982455
 31
0.0
  0
LINE
  5
4E4
330
1F
100
AcDbEntity
  8
0
  6
CONTINUOUS
 62
     6
100
AcDbLine
 10
48.51237198579617
 20
45.52049608115583
 30
0.0
 11
48.37510649513223
 21
46.45390141767039
 31
0.0
  0
LINE
  5
4E5
330
1F
100
AcDbEntity
  8
0
  6
CONTINUOUS
 62
     6
100
AcDbLine
 10
107.0964007221111
 20
47.15390141767038
 30
0.0
 11
109.81769494909
 21
47.15390141767038
 31
0.0
  0
LINE
  5
4E6
330
1F
100
AcDbEntity
  8
0
  6
CONTINUOUS
 62
     6
100
AcDbLine
 10
123.8751064951324
 20
47.15390141767038
 30
0.0
 11
126.0964007221112
 21
47.15390141767038
 31
0.0
  0
LINE
  5
4E7
330
1F
100
AcDbEntity
  8
0
  6
CONTINUOUS
 62
     6
100
AcDbLine
 10
114.3751064951324
 20
47.15390141767038
 30
0.0
 11
119.31769494909
 21
47.15390141767038
 31
0.0
  0
LINE
  5
4E8
330
1F
100
AcDbEntity
  8
0
  6
CONTINUOUS
 62
     6
100
AcDbLine
 10
145.0964007221112
 20
47.15390141767038
 30
0.0
 11
142.8751064951324
 21
47.15390141767038
 31
0.0
  0
LINE
  5
4E9
330
1F
100
AcDbEntity
  8
0
  6
CONTINUOUS
 62
     6
100
AcDbLine
 10
128.81769494909
 20
47.15390141767038
 30
0.0
 11
126.0964007221112
 21
47.15390141767038
 31
0.0
  0
LINE
  5
4EA
330
1F
100
AcDbEntity
  8
0
  6
CONTINUOUS
 62
     6
100
AcDbLine
 10
138.31769494909
 20
47.15390141767038
 30
0.0
 11
133.3751064951324
 21
47.15390141767038
 31
0.0
  0
LINE
  5
4EB
330
1F
100
AcDbEntity
  8
0
  6
CONTINUOUS
 62
     6
100
AcDbLine
 10
142.8751064951324
 20
46.45390141767039
 30
0.0
 11
145.0964007221112
 21
46.45390141767039
 31
0.0
  0
LINE
  5
4EC
330
1F
100
AcDbEntity
  8
0
  6
CONTINUOUS
 62
     6
100
AcDbLine
 10
133.3751064951324
 20
46.45390141767039
 30
0.0
 11
138.31769494909
 21
46.45390141767039
 31
0.0
  0
LINE
  5
4ED
330
1F
100
AcDbEntity
  8
0
  6
CONTINUOUS
 62
     6
100
AcDbLine
 10
123.8751064951324
 20
46.45390141767039
 30
0.0
 11
128.81769494909
 21
46.45390141767039
 31
0.0
  0
LINE
  5
4EE
330
1F
100
AcDbEntity
  8
0
  6
CONTINUOUS
 62
     6
100
AcDbLine
 10
114.3751064951324
 20
46.45390141767039
 30
0.0
 11
119.31769494909
 21
46.45390141767039
 31
0.0
  0
LINE
  5
4EF
330
1F
100
AcDbEntity
  8
0
  6
CONTINUOUS
 62
     6
100
AcDbLine
 10
106.644709851788
 20
46.45390141767039
 30
0.0
 11
109.81769494909
 21
46.45390141767039
 31
0.0
  0
LINE
  5
4F0
330
1F
100
AcDbEntity
  8
0
  6
CONTINUOUS
 62
     6
100
AcDbLine
 10
109.81769494909
 20
46.45390141767034
 30
0.0
 11
112.06769494909
 21
31.15390141767039
 31
0.0
  0
LINE
  5
4F1
330
1F
100
AcDbEntity
  8
0
  6
CONTINUOUS
 62
     6
100
AcDbLine
 10
113.5891122009476
 20
31.15390141767039
 30
0.0
 11
111.353619094924
 21
47.15009653188331
 31
0.0
  0
LINE
  5
4F2
330
1F
100
AcDbEntity
  8
0
  6
CONTINUOUS
 62
     6
100
AcDbLine
 10
116.6251064951324
 20
31.15390141767039
 30
0.0
 11
114.3751064951324
 21
46.45390141767039
 31
0.0
  0
LINE
  5
4F3
330
1F
100
AcDbEntity
  8
0
  6
CONTINUOUS
 62
     6
100
AcDbLine
 10
112.8391823492982
 20
47.35770630345739
 30
0.0
 11
115.1036892432747
 21
31.15390141767039
 31
0.0
  0
LINE
  5
4F4
330
1F
100
AcDbEntity
  8
0
  6
CONTINUOUS
 62
     6
100
AcDbLine
 10
122.3391823492982
 20
47.35770630345739
 30
0.0
 11
124.6036892432747
 21
31.15390141767039
 31
0.0
  0
LINE
  5
4F5
330
1F
100
AcDbEntity
  8
0
  6
CONTINUOUS
 62
     6
100
AcDbLine
 10
126.1251064951324
 20
31.15390141767039
 30
0.0
 11
123.8751064951324
 21
46.45390141767039
 31
0.0
  0
LINE
  5
4F6
330
1F
100
AcDbEntity
  8
0
  6
CONTINUOUS
 62
     6
100
AcDbLine
 10
123.0891122009475
 20
31.15390141767039
 30
0.0
 11
120.853619094924
 21
47.15009653188331
 31
0.0
  0
LINE
  5
4F7
330
1F
100
AcDbEntity
  8
0
  6
CONTINUOUS
 62
     6
100
AcDbLine
 10
119.31769494909
 20
46.45390141767034
 30
0.0
 11
121.56769494909
 21
31.15390141767039
 31
0.0
  0
LINE
  5
4F8
330
1F
100
AcDbEntity
  8
0
  6
CONTINUOUS
 62
     6
100
AcDbLine
 10
128.81769494909
 20
46.45390141767039
 30
0.0
 11
131.06769494909
 21
31.15390141767039
 31
0.0
  0
LINE
  5
4F9
330
1F
100
AcDbEntity
  8
0
  6
CONTINUOUS
 62
     6
100
AcDbLine
 10
132.5891122009475
 20
31.15390141767039
 30
0.0
 11
130.3536190949239
 21
47.15009653188331
 31
0.0
  0
LINE
  5
4FA
330
1F
100
AcDbEntity
  8
0
  6
CONTINUOUS
 62
     6
100
AcDbLine
 10
135.6251064951325
 20
31.15390141767039
 30
0.0
 11
133.3751064951324
 21
46.45390141767039
 31
0.0
  0
LINE
  5
4FB
330
1F
100
AcDbEntity
  8
0
  6
CONTINUOUS
 62
     6
100
AcDbLine
 10
131.8391823492982
 20
47.35770630345739
 30
0.0
 11
134.1036892432747
 21
31.15390141767039
 31
0.0
  0
LINE
  5
4FC
330
1F
100
AcDbEntity
  8
0
  6
CONTINUOUS
 62
     6
100
AcDbLine
 10
138.31769494909
 20
46.45390141767039
 30
0.0
 11
140.5964007221112
 21
30.95870216112626
 31
0.0
  0
LINE
  5
4FD
330
1F
100
AcDbEntity
  8
0
  6
CONTINUOUS
 62
     6
100
AcDbLine
 10
145.1251064951323
 20
31.15390141767039
 30
0.0
 11
142.8751064951324
 21
46.45390141767045
 31
0.0
  0
LINE
  5
4FE
330
1F
100
AcDbEntity
  8
0
  6
CONTINUOUS
 62
     6
100
AcDbLine
 10
142.0891122009475
 20
31.15390141767039
 30
0.0
 11
139.8536190949239
 21
47.15009653188331
 31
0.0
  0
LINE
  5
4FF
330
1F
100
AcDbEntity
  8
0
  6
CONTINUOUS
 62
     6
100
AcDbLine
 10
141.3391823492981
 20
47.35770630345739
 30
0.0
 11
143.6036892432746
 21
31.15390141767039
 31
0.0
  0
CIRCLE
  5
500
330
1F
100
AcDbEntity
  8
0
  6
CONTINUOUS
 62
     6
100
AcDbCircle
 10
121.5964007221112
 20
47.25390141767041
 30
0.0
 40
0.75
  0
CIRCLE
  5
501
330
1F
100
AcDbEntity
  8
0
  6
CONTINUOUS
 62
     6
100
AcDbCircle
 10
121.5964007221112
 20
47.25390141767041
 30
0.0
 40
0.5
  0
ARC
  5
502
330
1F
100
AcDbEntity
  8
0
  6
CONTINUOUS
 62
     6
100
AcDbCircle
 10
121.5964007221112
 20
47.25390141767041
 30
0.0
 40
1.450000000000003
100
AcDbArc
 50
21.55208888721319
 51
158.4479111127868
  0
ARC
  5
503
330
1F
100
AcDbEntity
  8
0
  6
CONTINUOUS
 62
     6
100
AcDbCircle
 10
119.31769494909
 20
48.15390141767038
 30
0.0
 40
1.0
100
AcDbArc
 50
270.0
 51
338.4479111127867
  0
ARC
  5
504
330
1F
100
AcDbEntity
  8
0
  6
CONTINUOUS
 62
     6
100
AcDbCircle
 10
123.8751064951324
 20
48.15390141767038
 30
0.0
 40
1.0
100
AcDbArc
 50
201.5520888872133
 51
270.0
  0
CIRCLE
  5
505
330
1F
100
AcDbEntity
  8
0
  6
CONTINUOUS
 62
     6
100
AcDbCircle
 10
112.0964007221112
 20
47.25390141767041
 30
0.0
 40
0.75
  0
CIRCLE
  5
506
330
1F
100
AcDbEntity
  8
0
  6
CONTINUOUS
 62
     6
100
AcDbCircle
 10
112.0964007221112
 20
47.25390141767041
 30
0.0
 40
0.5
  0
ARC
  5
507
330
1F
100
AcDbEntity
  8
0
  6
CONTINUOUS
 62
     6
100
AcDbCircle
 10
112.0964007221112
 20
47.25390141767041
 30
0.0
 40
1.450000000000003
100
AcDbArc
 50
21.55208888721319
 51
158.4479111127868
  0
ARC
  5
508
330
1F
100
AcDbEntity
  8
0
  6
CONTINUOUS
 62
     6
100
AcDbCircle
 10
114.3751064951324
 20
48.15390141767038
 30
0.0
 40
1.0
100
AcDbArc
 50
201.5520888872133
 51
270.0
  0
ARC
  5
509
330
1F
100
AcDbEntity
  8
0
  6
CONTINUOUS
 62
     6
100
AcDbCircle
 10
109.81769494909
 20
48.15390141767038
 30
0.0
 40
1.0
100
AcDbArc
 50
270.0
 51
338.4479111127867
  0
CIRCLE
  5
50A
330
1F
100
AcDbEntity
  8
0
  6
CONTINUOUS
 62
     6
100
AcDbCircle
 10
131.0964007221112
 20
47.25390141767041
 30
0.0
 40
0.75
  0
CIRCLE
  5
50B
330
1F
100
AcDbEntity
  8
0
  6
CONTINUOUS
 62
     6
100
AcDbCircle
 10
131.0964007221112
 20
47.25390141767041
 30
0.0
 40
0.5
  0
ARC
  5
50C
330
1F
100
AcDbEntity
  8
0
  6
CONTINUOUS
 62
     6
100
AcDbCircle
 10
131.0964007221112
 20
47.25390141767041
 30
0.0
 40
1.450000000000003
100
AcDbArc
 50
21.55208888721323
 51
158.4479111127869
  0
ARC
  5
50D
330
1F
100
AcDbEntity
  8
0
  6
CONTINUOUS
 62
     6
100
AcDbCircle
 10
140.5964007221112
 20
47.25390141767041
 30
0.0
 40
1.450000000000003
100
AcDbArc
 50
21.55208888721323
 51
158.4479111127869
  0
ARC
  5
50E
330
1F
100
AcDbEntity
  8
0
  6
CONTINUOUS
 62
     6
100
AcDbCircle
 10
128.81769494909
 20
48.15390141767038
 30
0.0
 40
1.0
100
AcDbArc
 50
270.0000000000001
 51
338.4479111127868
  0
ARC
  5
50F
330
1F
100
AcDbEntity
  8
0
  6
CONTINUOUS
 62
     6
100
AcDbCircle
 10
133.3751064951324
 20
48.15390141767038
 30
0.0
 40
1.0
100
AcDbArc
 50
201.5520888872133
 51
270.0000000000001
  0
CIRCLE
  5
510
330
1F
100
AcDbEntity
  8
0
  6
CONTINUOUS
 62
     6
100
AcDbCircle
 10
140.5964007221112
 20
47.25390141767041
 30
0.0
 40
0.75
  0
CIRCLE
  5
511
330
1F
100
AcDbEntity
  8
0
  6
CONTINUOUS
 62
     6
100
AcDbCircle
 10
140.5964007221112
 20
47.25390141767041
 30
0.0
 40
0.5
  0
ARC
  5
512
330
1F
100
AcDbEntity
  8
0
  6
CONTINUOUS
 62
     6
100
AcDbCircle
 10
138.31769494909
 20
48.15390141767038
 30
0.0
 40
1.0
100
AcDbArc
 50
270.0000000000001
 51
338.4479111127868
  0
ARC
  5
513
330
1F
100
AcDbEntity
  8
0
  6
CONTINUOUS
 62
     6
100
AcDbCircle
 10
142.8751064951324
 20
48.15390141767038
 30
0.0
 40
1.0
100
AcDbArc
 50
201.5520888872133
 51
270.0000000000001
  0
ARC
  5
514
330
1F
100
AcDbEntity
  8
0
  6
CONTINUOUS
 62
     6
100
AcDbCircle
 10
109.81769494909
 20
48.15390141767038
 30
0.0
 40
1.700000000000003
100
AcDbArc
 50
270.0
 51
338.4479111127867
  0
ARC
  5
515
330
1F
100
AcDbEntity
  8
0
  6
CONTINUOUS
 62
     6
100
AcDbCircle
 10
114.3751064951324
 20
48.15390141767038
 30
0.0
 40
1.700000000000003
100
AcDbArc
 50
201.5520888872133
 51
270.0
  0
ARC
  5
516
330
1F
100
AcDbEntity
  8
0
  6
CONTINUOUS
 62
     6
100
AcDbCircle
 10
119.31769494909
 20
48.15390141767038
 30
0.0
 40
1.700000000000003
100
AcDbArc
 50
270.0
 51
338.4479111127867
  0
ARC
  5
517
330
1F
100
AcDbEntity
  8
0
  6
CONTINUOUS
 62
     6
100
AcDbCircle
 10
123.8751064951324
 20
48.15390141767038
 30
0.0
 40
1.700000000000003
100
AcDbArc
 50
201.5520888872133
 51
270.0
  0
ARC
  5
518
330
1F
100
AcDbEntity
  8
0
  6
CONTINUOUS
 62
     6
100
AcDbCircle
 10
128.81769494909
 20
48.15390141767038
 30
0.0
 40
1.700000000000003
100
AcDbArc
 50
270.0000000000001
 51
338.4479111127868
  0
ARC
  5
519
330
1F
100
AcDbEntity
  8
0
  6
CONTINUOUS
 62
     6
100
AcDbCircle
 10
133.3751064951324
 20
48.15390141767038
 30
0.0
 40
1.700000000000003
100
AcDbArc
 50
201.5520888872133
 51
270.0000000000001
  0
ARC
  5
51A
330
1F
100
AcDbEntity
  8
0
  6
CONTINUOUS
 62
     6
100
AcDbCircle
 10
138.31769494909
 20
48.15390141767038
 30
0.0
 40
1.700000000000003
100
AcDbArc
 50
270.0000000000001
 51
338.4479111127868
  0
ARC
  5
51B
330
1F
100
AcDbEntity
  8
0
  6
CONTINUOUS
 62
     6
100
AcDbCircle
 10
142.8751064951324
 20
48.15390141767038
 30
0.0
 40
1.700000000000003
100
AcDbArc
 50
201.5520888872133
 51
270.0000000000001
  0
LINE
  5
51C
330
1F
100
AcDbEntity
  8
0
  6
CONTINUOUS
 62
     6
100
AcDbLine
 10
145.0964007221112
 20
47.15390141767038
 30
0.0
 11
147.8176949490902
 21
47.15390141767038
 31
0.0
  0
LINE
  5
51D
330
1F
100
AcDbEntity
  8
0
  6
CONTINUOUS
 62
     6
100
AcDbLine
 10
161.8751064951325
 20
47.15390141767038
 30
0.0
 11
164.0964007221114
 21
47.15390141767038
 31
0.0
  0
LINE
  5
51E
330
1F
100
AcDbEntity
  8
0
  6
CONTINUOUS
 62
     6
100
AcDbLine
 10
152.3751064951325
 20
47.15390141767038
 30
0.0
 11
157.3176949490902
 21
47.15390141767038
 31
0.0
  0
LINE
  5
51F
330
1F
100
AcDbEntity
  8
0
  6
CONTINUOUS
 62
     6
100
AcDbLine
 10
183.0964007221114
 20
47.15390141767038
 30
0.0
 11
180.8751064951325
 21
47.15390141767038
 31
0.0
  0
LINE
  5
520
330
1F
100
AcDbEntity
  8
0
  6
CONTINUOUS
 62
     6
100
AcDbLine
 10
166.8176949490902
 20
47.15390141767038
 30
0.0
 11
164.0964007221114
 21
47.15390141767038
 31
0.0
  0
LINE
  5
521
330
1F
100
AcDbEntity
  8
0
  6
CONTINUOUS
 62
     6
100
AcDbLine
 10
176.3176949490902
 20
47.15390141767038
 30
0.0
 11
171.3751064951325
 21
47.15390141767038
 31
0.0
  0
LINE
  5
522
330
1F
100
AcDbEntity
  8
0
  6
CONTINUOUS
 62
     6
100
AcDbLine
 10
183.0964007221114
 20
47.15390141767038
 30
0.0
 11
183.0964007221114
 21
35.65390141767039
 31
0.0
  0
LINE
  5
523
330
1F
100
AcDbEntity
  8
0
  6
CONTINUOUS
 62
     6
100
AcDbLine
 10
178.5964007221114
 20
31.15390141767039
 30
0.0
 11
183.0964007221114
 21
35.65390141767039
 31
0.0
  0
LINE
  5
524
330
1F
100
AcDbEntity
  8
0
  6
CONTINUOUS
 62
     6
100
AcDbLine
 10
180.8751064951325
 20
46.45390141767039
 30
0.0
 11
183.0964007221114
 21
46.45390141767039
 31
0.0
  0
LINE
  5
525
330
1F
100
AcDbEntity
  8
0
  6
CONTINUOUS
 62
     6
100
AcDbLine
 10
171.3751064951326
 20
46.45390141767039
 30
0.0
 11
176.3176949490902
 21
46.45390141767039
 31
0.0
  0
LINE
  5
526
330
1F
100
AcDbEntity
  8
0
  6
CONTINUOUS
 62
     6
100
AcDbLine
 10
161.8751064951326
 20
46.45390141767039
 30
0.0
 11
166.8176949490902
 21
46.45390141767039
 31
0.0
  0
LINE
  5
527
330
1F
100
AcDbEntity
  8
0
  6
CONTINUOUS
 62
     6
100
AcDbLine
 10
152.3751064951326
 20
46.45390141767039
 30
0.0
 11
157.3176949490902
 21
46.45390141767039
 31
0.0
  0
LINE
  5
528
330
1F
100
AcDbEntity
  8
0
  6
CONTINUOUS
 62
     6
100
AcDbLine
 10
145.0964007221112
 20
46.45390141767039
 30
0.0
 11
147.8176949490902
 21
46.45390141767039
 31
0.0
  0
LINE
  5
529
330
1F
100
AcDbEntity
  8
0
  6
CONTINUOUS
 62
     6
100
AcDbLine
 10
147.8176949490901
 20
46.45390141767034
 30
0.0
 11
150.0676949490901
 21
31.15390141767039
 31
0.0
  0
LINE
  5
52A
330
1F
100
AcDbEntity
  8
0
  6
CONTINUOUS
 62
     6
100
AcDbLine
 10
151.5891122009477
 20
31.15390141767039
 30
0.0
 11
149.3536190949241
 21
47.15009653188331
 31
0.0
  0
LINE
  5
52B
330
1F
100
AcDbEntity
  8
0
  6
CONTINUOUS
 62
     6
100
AcDbLine
 10
154.6251064951325
 20
31.15390141767039
 30
0.0
 11
152.3751064951325
 21
46.45390141767039
 31
0.0
  0
LINE
  5
52C
330
1F
100
AcDbEntity
  8
0
  6
CONTINUOUS
 62
     6
100
AcDbLine
 10
150.8391823492984
 20
47.35770630345739
 30
0.0
 11
153.1036892432748
 21
31.15390141767039
 31
0.0
  0
LINE
  5
52D
330
1F
100
AcDbEntity
  8
0
  6
CONTINUOUS
 62
     6
100
AcDbLine
 10
160.3391823492984
 20
47.35770630345739
 30
0.0
 11
162.6036892432748
 21
31.15390141767039
 31
0.0
  0
LINE
  5
52E
330
1F
100
AcDbEntity
  8
0
  6
CONTINUOUS
 62
     6
100
AcDbLine
 10
164.1251064951326
 20
31.15390141767039
 30
0.0
 11
161.8751064951326
 21
46.45390141767039
 31
0.0
  0
LINE
  5
52F
330
1F
100
AcDbEntity
  8
0
  6
CONTINUOUS
 62
     6
100
AcDbLine
 10
161.0891122009477
 20
31.15390141767039
 30
0.0
 11
158.8536190949241
 21
47.15009653188331
 31
0.0
  0
LINE
  5
530
330
1F
100
AcDbEntity
  8
0
  6
CONTINUOUS
 62
     6
100
AcDbLine
 10
157.3176949490901
 20
46.45390141767034
 30
0.0
 11
159.5676949490901
 21
31.15390141767039
 31
0.0
  0
LINE
  5
531
330
1F
100
AcDbEntity
  8
0
  6
CONTINUOUS
 62
     6
100
AcDbLine
 10
166.8176949490901
 20
46.45390141767039
 30
0.0
 11
169.0676949490901
 21
31.15390141767039
 31
0.0
  0
LINE
  5
532
330
1F
100
AcDbEntity
  8
0
  6
CONTINUOUS
 62
     6
100
AcDbLine
 10
170.5891122009476
 20
31.15390141767039
 30
0.0
 11
168.3536190949241
 21
47.15009653188331
 31
0.0
  0
LINE
  5
533
330
1F
100
AcDbEntity
  8
0
  6
CONTINUOUS
 62
     6
100
AcDbLine
 10
173.6251064951326
 20
31.15390141767039
 30
0.0
 11
171.3751064951326
 21
46.45390141767039
 31
0.0
  0
LINE
  5
534
330
1F
100
AcDbEntity
  8
0
  6
CONTINUOUS
 62
     6
100
AcDbLine
 10
169.8391823492984
 20
47.35770630345739
 30
0.0
 11
172.1036892432748
 21
31.15390141767039
 31
0.0
  0
LINE
  5
535
330
1F
100
AcDbEntity
  8
0
  6
CONTINUOUS
 62
     6
100
AcDbLine
 10
176.3176949490901
 20
46.45390141767039
 30
0.0
 11
178.5964007221114
 21
30.95870216112626
 31
0.0
  0
LINE
  5
536
330
1F
100
AcDbEntity
  8
0
  6
CONTINUOUS
 62
     6
100
AcDbLine
 10
182.544503190899
 20
35.10200388645807
 30
0.0
 11
180.8751064951325
 21
46.45390141767045
 31
0.0
  0
LINE
  5
537
330
1F
100
AcDbEntity
  8
0
  6
CONTINUOUS
 62
     6
100
AcDbLine
 10
179.9060821831067
 20
32.4635828786657
 30
0.0
 11
177.8536190949241
 21
47.15009653188331
 31
0.0
  0
LINE
  5
538
330
1F
100
AcDbEntity
  8
0
  6
CONTINUOUS
 62
     6
100
AcDbLine
 10
179.3391823492983
 20
47.35770630345739
 30
0.0
 11
181.2349481439495
 21
33.7924488395086
 31
0.0
  0
CIRCLE
  5
539
330
1F
100
AcDbEntity
  8
0
  6
CONTINUOUS
 62
     6
100
AcDbCircle
 10
159.5964007221114
 20
47.25390141767041
 30
0.0
 40
0.75
  0
CIRCLE
  5
53A
330
1F
100
AcDbEntity
  8
0
  6
CONTINUOUS
 62
     6
100
AcDbCircle
 10
159.5964007221114
 20
47.25390141767041
 30
0.0
 40
0.5
  0
ARC
  5
53B
330
1F
100
AcDbEntity
  8
0
  6
CONTINUOUS
 62
     6
100
AcDbCircle
 10
159.5964007221114
 20
47.25390141767041
 30
0.0
 40
1.450000000000003
100
AcDbArc
 50
21.55208888721319
 51
158.4479111127868
  0
ARC
  5
53C
330
1F
100
AcDbEntity
  8
0
  6
CONTINUOUS
 62
     6
100
AcDbCircle
 10
157.3176949490902
 20
48.15390141767038
 30
0.0
 40
1.0
100
AcDbArc
 50
270.0
 51
338.4479111127867
  0
ARC
  5
53D
330
1F
100
AcDbEntity
  8
0
  6
CONTINUOUS
 62
     6
100
AcDbCircle
 10
161.8751064951325
 20
48.15390141767038
 30
0.0
 40
1.0
100
AcDbArc
 50
201.5520888872133
 51
270.0
  0
CIRCLE
  5
53E
330
1F
100
AcDbEntity
  8
0
  6
CONTINUOUS
 62
     6
100
AcDbCircle
 10
150.0964007221114
 20
47.25390141767041
 30
0.0
 40
0.75
  0
CIRCLE
  5
53F
330
1F
100
AcDbEntity
  8
0
  6
CONTINUOUS
 62
     6
100
AcDbCircle
 10
150.0964007221114
 20
47.25390141767041
 30
0.0
 40
0.5
  0
ARC
  5
540
330
1F
100
AcDbEntity
  8
0
  6
CONTINUOUS
 62
     6
100
AcDbCircle
 10
150.0964007221114
 20
47.25390141767041
 30
0.0
 40
1.450000000000003
100
AcDbArc
 50
21.55208888721319
 51
158.4479111127868
  0
ARC
  5
541
330
1F
100
AcDbEntity
  8
0
  6
CONTINUOUS
 62
     6
100
AcDbCircle
 10
152.3751064951325
 20
48.15390141767038
 30
0.0
 40
1.0
100
AcDbArc
 50
201.5520888872133
 51
270.0
  0
ARC
  5
542
330
1F
100
AcDbEntity
  8
0
  6
CONTINUOUS
 62
     6
100
AcDbCircle
 10
147.8176949490902
 20
48.15390141767038
 30
0.0
 40
1.0
100
AcDbArc
 50
270.0
 51
338.4479111127867
  0
CIRCLE
  5
543
330
1F
100
AcDbEntity
  8
0
  6
CONTINUOUS
 62
     6
100
AcDbCircle
 10
169.0964007221114
 20
47.25390141767041
 30
0.0
 40
0.75
  0
CIRCLE
  5
544
330
1F
100
AcDbEntity
  8
0
  6
CONTINUOUS
 62
     6
100
AcDbCircle
 10
169.0964007221114
 20
47.25390141767041
 30
0.0
 40
0.5
  0
ARC
  5
545
330
1F
100
AcDbEntity
  8
0
  6
CONTINUOUS
 62
     6
100
AcDbCircle
 10
169.0964007221114
 20
47.25390141767041
 30
0.0
 40
1.450000000000003
100
AcDbArc
 50
21.55208888721323
 51
158.4479111127869
  0
ARC
  5
546
330
1F
100
AcDbEntity
  8
0
  6
CONTINUOUS
 62
     6
100
AcDbCircle
 10
178.5964007221114
 20
47.25390141767041
 30
0.0
 40
1.450000000000003
100
AcDbArc
 50
21.55208888721323
 51
158.4479111127869
  0
ARC
  5
547
330
1F
100
AcDbEntity
  8
0
  6
CONTINUOUS
 62
     6
100
AcDbCircle
 10
166.8176949490902
 20
48.15390141767038
 30
0.0
 40
1.0
100
AcDbArc
 50
270.0000000000001
 51
338.4479111127868
  0
ARC
  5
548
330
1F
100
AcDbEntity
  8
0
  6
CONTINUOUS
 62
     6
100
AcDbCircle
 10
171.3751064951325
 20
48.15390141767038
 30
0.0
 40
1.0
100
AcDbArc
 50
201.5520888872133
 51
270.0000000000001
  0
CIRCLE
  5
549
330
1F
100
AcDbEntity
  8
0
  6
CONTINUOUS
 62
     6
100
AcDbCircle
 10
178.5964007221114
 20
47.25390141767041
 30
0.0
 40
0.75
  0
CIRCLE
  5
54A
330
1F
100
AcDbEntity
  8
0
  6
CONTINUOUS
 62
     6
100
AcDbCircle
 10
178.5964007221114
 20
47.25390141767041
 30
0.0
 40
0.5
  0
ARC
  5
54B
330
1F
100
AcDbEntity
  8
0
  6
CONTINUOUS
 62
     6
100
AcDbCircle
 10
176.3176949490902
 20
48.15390141767038
 30
0.0
 40
1.0
100
AcDbArc
 50
270.0000000000001
 51
338.4479111127868
  0
ARC
  5
54C
330
1F
100
AcDbEntity
  8
0
  6
CONTINUOUS
 62
     6
100
AcDbCircle
 10
180.8751064951325
 20
48.15390141767038
 30
0.0
 40
1.0
100
AcDbArc
 50
201.5520888872133
 51
270.0000000000001
  0
ARC
  5
54D
330
1F
100
AcDbEntity
  8
0
  6
CONTINUOUS
 62
     6
100
AcDbCircle
 10
147.8176949490902
 20
48.15390141767038
 30
0.0
 40
1.700000000000003
100
AcDbArc
 50
270.0
 51
338.4479111127867
  0
ARC
  5
54E
330
1F
100
AcDbEntity
  8
0
  6
CONTINUOUS
 62
     6
100
AcDbCircle
 10
152.3751064951325
 20
48.15390141767038
 30
0.0
 40
1.700000000000003
100
AcDbArc
 50
201.5520888872133
 51
270.0
  0
ARC
  5
54F
330
1F
100
AcDbEntity
  8
0
  6
CONTINUOUS
 62
     6
100
AcDbCircle
 10
157.3176949490902
 20
48.15390141767038
 30
0.0
 40
1.700000000000003
100
AcDbArc
 50
270.0
 51
338.4479111127867
  0
ARC
  5
550
330
1F
100
AcDbEntity
  8
0
  6
CONTINUOUS
 62
     6
100
AcDbCircle
 10
161.8751064951325
 20
48.15390141767038
 30
0.0
 40
1.700000000000003
100
AcDbArc
 50
201.5520888872133
 51
270.0
  0
ARC
  5
551
330
1F
100
AcDbEntity
  8
0
  6
CONTINUOUS
 62
     6
100
AcDbCircle
 10
166.8176949490902
 20
48.15390141767038
 30
0.0
 40
1.700000000000003
100
AcDbArc
 50
270.0000000000001
 51
338.4479111127868
  0
ARC
  5
552
330
1F
100
AcDbEntity
  8
0
  6
CONTINUOUS
 62
     6
100
AcDbCircle
 10
171.3751064951325
 20
48.15390141767038
 30
0.0
 40
1.700000000000003
100
AcDbArc
 50
201.5520888872133
 51
270.0000000000001
  0
ARC
  5
553
330
1F
100
AcDbEntity
  8
0
  6
CONTINUOUS
 62
     6
100
AcDbCircle
 10
176.3176949490902
 20
48.15390141767038
 30
0.0
 40
1.700000000000003
100
AcDbArc
 50
270.0000000000001
 51
338.4479111127868
  0
ARC
  5
554
330
1F
100
AcDbEntity
  8
0
  6
CONTINUOUS
 62
     6
100
AcDbCircle
 10
180.8751064951325
 20
48.15390141767038
 30
0.0
 40
1.700000000000003
100
AcDbArc
 50
201.5520888872133
 51
270.0000000000001
  0
LINE
  5
555
330
1F
100
AcDbEntity
  8
0
  6
CONTINUOUS
 62
     6
100
AcDbLine
 10
178.5964007221114
 20
15.15390141767039
 30
0.0
 11
178.5964007221114
 21
31.10390141767038
 31
0.0
  0
LINE
  5
556
330
1F
100
AcDbEntity
  8
0
  6
CONTINUOUS
 62
     6
100
AcDbLine
 10
100.3751064951322
 20
15.15390141767039
 30
0.0
 11
105.3176949490898
 21
15.15390141767039
 31
0.0
  0
LINE
  5
557
330
1F
100
AcDbEntity
  8
0
  6
CONTINUOUS
 62
     6
100
AcDbLine
 10
64.59640072211113
 20
15.15390141767039
 30
0.0
 11
62.37510649513229
 21
15.15390141767039
 31
0.0
  0
LINE
  5
558
330
1F
100
AcDbEntity
  8
0
  6
CONTINUOUS
 62
     6
100
AcDbLine
 10
48.31769494908991
 20
15.15390141767039
 30
0.0
 11
45.59640072211113
 21
15.15390141767039
 31
0.0
  0
LINE
  5
559
330
1F
100
AcDbEntity
  8
0
  6
CONTINUOUS
 62
     6
100
AcDbLine
 10
57.81769498856284
 20
15.15390131772931
 30
0.0
 11
52.87510653460521
 21
15.15390131772931
 31
0.0
  0
LINE
  5
55A
330
1F
100
AcDbEntity
  8
0
  6
CONTINUOUS
 62
     6
100
AcDbLine
 10
64.59640072211113
 20
15.15390141767039
 30
0.0
 11
67.31769494908986
 21
15.15390141767039
 31
0.0
  0
LINE
  5
55B
330
1F
100
AcDbEntity
  8
0
  6
CONTINUOUS
 62
     6
100
AcDbLine
 10
81.37510649513216
 20
15.15390141767039
 30
0.0
 11
83.42569103365183
 21
15.15390141767039
 31
0.0
  0
LINE
  5
55C
330
1F
100
AcDbEntity
  8
0
  6
CONTINUOUS
 62
     6
100
AcDbLine
 10
71.87510649513217
 20
15.15390141767039
 30
0.0
 11
76.8176949490899
 21
15.15390141767039
 31
0.0
  0
LINE
  5
55D
330
1F
100
AcDbEntity
  8
0
  6
CONTINUOUS
 62
     6
100
AcDbLine
 10
43.37510649513223
 20
15.15390141767039
 30
0.0
 11
45.59640072211113
 21
15.15390141767039
 31
0.0
  0
LINE
  5
55E
330
1F
100
AcDbEntity
  8
0
  6
CONTINUOUS
 62
     6
100
AcDbLine
 10
32.85886625474308
 20
15.15390141767039
 30
0.0
 11
38.81769494908991
 21
15.15390141767039
 31
0.0
  0
LINE
  5
55F
330
1F
100
AcDbEntity
  8
0
  6
CONTINUOUS
 62
     6
100
AcDbLine
 10
95.81769494908978
 20
15.15390141767039
 30
0.0
 11
90.87510649513222
 21
15.15390141767039
 31
0.0
  0
LINE
  5
560
330
1F
100
AcDbEntity
  8
0
  6
CONTINUOUS
 62
     6
100
AcDbLine
 10
41.06769494908991
 20
31.15390141767039
 30
0.0
 11
38.81769494908991
 21
15.15390141767039
 31
0.0
  0
LINE
  5
561
330
1F
100
AcDbEntity
  8
0
  6
CONTINUOUS
 62
     6
100
AcDbLine
 10
39.74777897755104
 20
14.5212482565048
 30
0.0
 11
41.99777897755104
 21
31.15390141767039
 31
0.0
  0
LINE
  5
562
330
1F
100
AcDbEntity
  8
0
  6
CONTINUOUS
 62
     6
100
AcDbLine
 10
44.69502251966361
 20
31.15390141767039
 30
0.0
 11
42.44502246667122
 21
14.52124825650486
 31
0.0
  0
LINE
  5
563
330
1F
100
AcDbEntity
  8
0
  6
CONTINUOUS
 62
     6
100
AcDbLine
 10
43.37510649513223
 20
15.15390141767039
 30
0.0
 11
45.62510649513223
 21
31.15390141767039
 31
0.0
  0
LINE
  5
564
330
1F
100
AcDbEntity
  8
0
  6
CONTINUOUS
 62
     6
100
AcDbLine
 10
52.87510649513223
 20
15.15390141767039
 30
0.0
 11
55.12510649513223
 21
31.15390141767039
 31
0.0
  0
LINE
  5
565
330
1F
100
AcDbEntity
  8
0
  6
CONTINUOUS
 62
     6
100
AcDbLine
 10
54.19502251966372
 20
31.15390141767039
 30
0.0
 11
51.94502246667122
 21
14.52124825650486
 31
0.0
  0
LINE
  5
566
330
1F
100
AcDbEntity
  8
0
  6
CONTINUOUS
 62
     6
100
AcDbLine
 10
50.56769494908991
 20
31.15390141767039
 30
0.0
 11
48.31769494908991
 21
15.15390141767039
 31
0.0
  0
LINE
  5
567
330
1F
100
AcDbEntity
  8
0
  6
CONTINUOUS
 62
     6
100
AcDbLine
 10
49.24777897755092
 20
14.5212482565048
 30
0.0
 11
51.49777897755104
 21
31.15390141767039
 31
0.0
  0
LINE
  5
568
330
1F
100
AcDbEntity
  8
0
  6
CONTINUOUS
 62
     6
100
AcDbLine
 10
62.37510649513229
 20
15.15390141767039
 30
0.0
 11
64.62510649513229
 21
31.15390141767039
 31
0.0
  0
LINE
  5
569
330
1F
100
AcDbEntity
  8
0
  6
CONTINUOUS
 62
     6
100
AcDbLine
 10
60.06769494908997
 20
31.15390141767039
 30
0.0
 11
57.81769494908997
 21
15.15390141767039
 31
0.0
  0
LINE
  5
56A
330
1F
100
AcDbEntity
  8
0
  6
CONTINUOUS
 62
     6
100
AcDbLine
 10
63.69502251966367
 20
31.15390141767039
 30
0.0
 11
61.44502246667122
 21
14.52124825650486
 31
0.0
  0
LINE
  5
56B
330
1F
100
AcDbEntity
  8
0
  6
CONTINUOUS
 62
     6
100
AcDbLine
 10
58.74777897755104
 20
14.5212482565048
 30
0.0
 11
60.99777897755104
 21
31.15390141767039
 31
0.0
  0
LINE
  5
56C
330
1F
100
AcDbEntity
  8
0
  6
CONTINUOUS
 62
     6
100
AcDbLine
 10
73.19502251966355
 20
31.15390141767039
 30
0.0
 11
70.94502246667111
 21
14.52124825650486
 31
0.0
  0
LINE
  5
56D
330
1F
100
AcDbEntity
  8
0
  6
CONTINUOUS
 62
     6
100
AcDbLine
 10
68.24777897755092
 20
14.5212482565048
 30
0.0
 11
70.49777897755092
 21
31.15390141767039
 31
0.0
  0
LINE
  5
56E
330
1F
100
AcDbEntity
  8
0
  6
CONTINUOUS
 62
     6
100
AcDbLine
 10
69.56769494908986
 20
31.15390141767039
 30
0.0
 11
67.31769494908986
 21
15.15390141767039
 31
0.0
  0
LINE
  5
56F
330
1F
100
AcDbEntity
  8
0
  6
CONTINUOUS
 62
     6
100
AcDbLine
 10
71.87510649513217
 20
15.15390141767039
 30
0.0
 11
74.12510649513217
 21
31.15390141767039
 31
0.0
  0
LINE
  5
570
330
1F
100
AcDbEntity
  8
0
  6
CONTINUOUS
 62
     6
100
AcDbLine
 10
77.74777897755091
 20
14.5212482565048
 30
0.0
 11
79.70950500127525
 21
29.0228965008776
 31
0.0
  0
LINE
  5
571
330
1F
100
AcDbEntity
  8
0
  6
CONTINUOUS
 62
     6
100
AcDbLine
 10
79.0676949490899
 20
31.15390141767039
 30
0.0
 11
76.8176949490899
 21
15.15390141767039
 31
0.0
  0
LINE
  5
572
330
1F
100
AcDbEntity
  8
0
  6
CONTINUOUS
 62
     6
100
AcDbLine
 10
88.5676949490899
 20
31.15390141767039
 30
0.0
 11
86.39129012117626
 21
15.67724486361816
 31
0.0
  0
LINE
  5
573
330
1F
100
AcDbEntity
  8
0
  6
CONTINUOUS
 62
     6
100
AcDbLine
 10
92.19502251966354
 20
31.15390141767039
 30
0.0
 11
89.94502246667109
 21
14.52124825650486
 31
0.0
  0
LINE
  5
574
330
1F
100
AcDbEntity
  8
0
  6
CONTINUOUS
 62
     6
100
AcDbLine
 10
87.24777897755091
 20
14.5212482565048
 30
0.0
 11
89.49777897755097
 21
31.15390141767039
 31
0.0
  0
LINE
  5
575
330
1F
100
AcDbEntity
  8
0
  6
CONTINUOUS
 62
     6
100
AcDbLine
 10
90.87510649513222
 20
15.15390141767039
 30
0.0
 11
93.12510649513222
 21
31.15390141767039
 31
0.0
  0
LINE
  5
576
330
1F
100
AcDbEntity
  8
0
  6
CONTINUOUS
 62
     6
100
AcDbLine
 10
101.6950225196635
 20
31.15390141767039
 30
0.0
 11
99.44502246667109
 21
14.52124825650486
 31
0.0
  0
LINE
  5
577
330
1F
100
AcDbEntity
  8
0
  6
CONTINUOUS
 62
     6
100
AcDbLine
 10
98.06769494908984
 20
31.15390141767039
 30
0.0
 11
95.81769494908984
 21
15.15390141767039
 31
0.0
  0
LINE
  5
578
330
1F
100
AcDbEntity
  8
0
  6
CONTINUOUS
 62
     6
100
AcDbLine
 10
96.74777897755091
 20
14.5212482565048
 30
0.0
 11
98.99777897755091
 21
31.15390141767039
 31
0.0
  0
LINE
  5
579
330
1F
100
AcDbEntity
  8
0
  6
CONTINUOUS
 62
     6
100
AcDbLine
 10
100.3751064951322
 20
15.15390141767039
 30
0.0
 11
102.6251064951322
 21
31.15390141767039
 31
0.0
  0
LINE
  5
57A
330
1F
100
AcDbEntity
  8
0
  6
CONTINUOUS
 62
     6
100
AcDbLine
 10
109.8751064951322
 20
15.15390141767039
 30
0.0
 11
112.1251064951322
 21
31.15390141767039
 31
0.0
  0
LINE
  5
57B
330
1F
100
AcDbEntity
  8
0
  6
CONTINUOUS
 62
     6
100
AcDbLine
 10
106.2477789775509
 20
14.5212482565048
 30
0.0
 11
108.4977789775509
 21
31.15390141767039
 31
0.0
  0
LINE
  5
57C
330
1F
100
AcDbEntity
  8
0
  6
CONTINUOUS
 62
     6
100
AcDbLine
 10
107.5676949490898
 20
31.15390141767039
 30
0.0
 11
105.3176949490898
 21
15.15390141767039
 31
0.0
  0
LINE
  5
57D
330
1F
100
AcDbEntity
  8
0
  6
CONTINUOUS
 62
     6
100
AcDbLine
 10
111.1950225196635
 20
31.15390141767039
 30
0.0
 11
108.9450224666711
 21
14.52124825650486
 31
0.0
  0
LINE
  5
57E
330
1F
100
AcDbEntity
  8
0
  6
CONTINUOUS
 62
     6
100
AcDbLine
 10
33.87510649513246
 20
15.15390141767039
 30
0.0
 11
36.12510649513246
 21
31.15390141767039
 31
0.0
  0
LINE
  5
57F
330
1F
100
AcDbEntity
  8
0
  6
CONTINUOUS
 62
     6
100
AcDbLine
 10
35.19502251966384
 20
31.15390141767039
 30
0.0
 11
33.03060530377837
 21
15.15390141767039
 31
0.0
  0
ARC
  5
580
330
1F
100
AcDbEntity
  8
0
  6
CONTINUOUS
 62
     6
100
AcDbCircle
 10
107.596400722111
 20
15.05390141767037
 30
0.0
 40
1.450000000000003
100
AcDbArc
 50
201.5520888872132
 51
338.4479111127868
  0
ARC
  5
581
330
1F
100
AcDbEntity
  8
0
  6
CONTINUOUS
 62
     6
100
AcDbCircle
 10
98.096400722111
 20
15.05390141767037
 30
0.0
 40
1.450000000000003
100
AcDbArc
 50
201.5520888872132
 51
338.4479111127868
  0
ARC
  5
582
330
1F
100
AcDbEntity
  8
0
  6
CONTINUOUS
 62
     6
100
AcDbCircle
 10
109.8751064951322
 20
14.15390141767039
 30
0.0
 40
1.0
100
AcDbArc
 50
90.00000000000006
 51
158.4479111127868
  0
ARC
  5
583
330
1F
100
AcDbEntity
  8
0
  6
CONTINUOUS
 62
     6
100
AcDbCircle
 10
105.3176949490898
 20
14.15390141767039
 30
0.0
 40
1.0
100
AcDbArc
 50
21.55208888721328
 51
90.00000000000003
  0
ARC
  5
584
330
1F
100
AcDbEntity
  8
0
  6
CONTINUOUS
 62
     6
100
AcDbCircle
 10
100.3751064951322
 20
14.15390141767039
 30
0.0
 40
1.0
100
AcDbArc
 50
90.00000000000006
 51
158.4479111127868
  0
ARC
  5
585
330
1F
100
AcDbEntity
  8
0
  6
CONTINUOUS
 62
     6
100
AcDbCircle
 10
95.81769494908978
 20
14.15390141767039
 30
0.0
 40
1.0
100
AcDbArc
 50
21.55208888721328
 51
90.00000000000003
  0
ARC
  5
586
330
1F
100
AcDbEntity
  8
0
  6
CONTINUOUS
 62
     6
100
AcDbCircle
 10
50.59640072211113
 20
15.05390141767037
 30
0.0
 40
1.450000000000003
100
AcDbArc
 50
201.5520888872131
 51
338.4479111127867
  0
ARC
  5
587
330
1F
100
AcDbEntity
  8
0
  6
CONTINUOUS
 62
     6
100
AcDbCircle
 10
60.09640072211113
 20
15.05390141767037
 30
0.0
 40
1.450000000000003
100
AcDbArc
 50
201.5520888872131
 51
338.4479111127867
  0
ARC
  5
588
330
1F
100
AcDbEntity
  8
0
  6
CONTINUOUS
 62
     6
100
AcDbCircle
 10
48.31769494908991
 20
14.15390141767039
 30
0.0
 40
1.0
100
AcDbArc
 50
21.55208888721318
 51
89.99999999999987
  0
ARC
  5
589
330
1F
100
AcDbEntity
  8
0
  6
CONTINUOUS
 62
     6
100
AcDbCircle
 10
52.87510649513223
 20
14.15390141767039
 30
0.0
 40
1.0
100
AcDbArc
 50
89.9999999999999
 51
158.4479111127866
  0
ARC
  5
58A
330
1F
100
AcDbEntity
  8
0
  6
CONTINUOUS
 62
     6
100
AcDbCircle
 10
57.81769498856284
 20
14.15390131772931
 30
0.0
 40
1.0
100
AcDbArc
 50
21.55208888721318
 51
89.99999999999987
  0
ARC
  5
58B
330
1F
100
AcDbEntity
  8
0
  6
CONTINUOUS
 62
     6
100
AcDbCircle
 10
62.37510649513229
 20
14.15390141767039
 30
0.0
 40
1.0
100
AcDbArc
 50
89.9999999999999
 51
158.4479111127866
  0
ARC
  5
58C
330
1F
100
AcDbEntity
  8
0
  6
CONTINUOUS
 62
     6
100
AcDbCircle
 10
79.096400722111
 20
15.05390141767037
 30
0.0
 40
1.450000000000003
100
AcDbArc
 50
201.5520888872132
 51
338.4479111127868
  0
ARC
  5
58D
330
1F
100
AcDbEntity
  8
0
  6
CONTINUOUS
 62
     6
100
AcDbCircle
 10
69.59640072211101
 20
15.05390141767037
 30
0.0
 40
1.450000000000003
100
AcDbArc
 50
201.5520888872132
 51
338.4479111127868
  0
ARC
  5
58E
330
1F
100
AcDbEntity
  8
0
  6
CONTINUOUS
 62
     6
100
AcDbCircle
 10
81.37510649513216
 20
14.15390141767039
 30
0.0
 40
1.0
100
AcDbArc
 50
90.00000000000006
 51
158.4479111127868
  0
ARC
  5
58F
330
1F
100
AcDbEntity
  8
0
  6
CONTINUOUS
 62
     6
100
AcDbCircle
 10
76.81769494908978
 20
14.15390141767039
 30
0.0
 40
1.0
100
AcDbArc
 50
21.55208888721328
 51
90.00000000000003
  0
ARC
  5
590
330
1F
100
AcDbEntity
  8
0
  6
CONTINUOUS
 62
     6
100
AcDbCircle
 10
71.87510649513212
 20
14.15390141767039
 30
0.0
 40
1.0
100
AcDbArc
 50
90.00000000000006
 51
158.4479111127868
  0
ARC
  5
591
330
1F
100
AcDbEntity
  8
0
  6
CONTINUOUS
 62
     6
100
AcDbCircle
 10
67.3176949490898
 20
14.15390141767039
 30
0.0
 40
1.0
100
AcDbArc
 50
21.55208888721328
 51
90.00000000000003
  0
ARC
  5
592
330
1F
100
AcDbEntity
  8
0
  6
CONTINUOUS
 62
     6
100
AcDbCircle
 10
41.09640072211113
 20
15.05390141767037
 30
0.0
 40
1.450000000000003
100
AcDbArc
 50
201.5520888872132
 51
338.4479111127868
  0
ARC
  5
593
330
1F
100
AcDbEntity
  8
0
  6
CONTINUOUS
 62
     6
100
AcDbCircle
 10
43.37510649513223
 20
14.15390141767039
 30
0.0
 40
1.0
100
AcDbArc
 50
90.00000000000006
 51
158.4479111127868
  0
ARC
  5
594
330
1F
100
AcDbEntity
  8
0
  6
CONTINUOUS
 62
     6
100
AcDbCircle
 10
38.81769494908991
 20
14.15390141767039
 30
0.0
 40
1.0
100
AcDbArc
 50
21.55208888721328
 51
90.00000000000003
  0
ARC
  5
595
330
1F
100
AcDbEntity
  8
0
  6
CONTINUOUS
 62
     6
100
AcDbCircle
 10
88.596400722111
 20
15.05390141767037
 30
0.0
 40
1.450000000000003
100
AcDbArc
 50
201.5520888872131
 51
338.4479111127867
  0
ARC
  5
596
330
1F
100
AcDbEntity
  8
0
  6
CONTINUOUS
 62
     6
100
AcDbCircle
 10
86.31769494908978
 20
14.15390141767039
 30
0.0
 40
1.0
100
AcDbArc
 50
21.55208888721318
 51
77.26662101177152
  0
ARC
  5
597
330
1F
100
AcDbEntity
  8
0
  6
CONTINUOUS
 62
     6
100
AcDbCircle
 10
90.87510649513216
 20
14.15390141767039
 30
0.0
 40
1.0
100
AcDbArc
 50
89.9999999999999
 51
158.4479111127866
  0
LINE
  5
598
330
1F
100
AcDbEntity
  8
0
  6
CONTINUOUS
 62
     6
100
AcDbLine
 10
171.432556987032
 20
15.15390141767039
 30
0.0
 11
171.432556987032
 21
31.10390141767038
 31
0.0
  0
LINE
  5
599
330
1F
100
AcDbEntity
  8
0
  6
CONTINUOUS
 62
     6
100
AcDbLine
 10
176.3751064951323
 20
15.15390141767039
 30
0.0
 11
178.5964007221111
 21
15.15390141767039
 31
0.0
  0
LINE
  5
59A
330
1F
100
AcDbEntity
  8
0
  6
CONTINUOUS
 62
     6
100
AcDbLine
 10
167.1381277345072
 20
15.15390141767039
 30
0.0
 11
171.81769494909
 21
15.15390141767039
 31
0.0
  0
LINE
  5
59B
330
1F
100
AcDbEntity
  8
0
  6
CONTINUOUS
 62
     6
100
AcDbLine
 10
121.5964007221112
 20
15.15390141767039
 30
0.0
 11
119.3751064951324
 21
15.15390141767039
 31
0.0
  0
LINE
  5
59C
330
1F
100
AcDbEntity
  8
0
  6
CONTINUOUS
 62
     6
100
AcDbLine
 10
114.8176949885629
 20
15.15390131772931
 30
0.0
 11
109.8751065346053
 21
15.15390131772931
 31
0.0
  0
LINE
  5
59D
330
1F
100
AcDbEntity
  8
0
  6
CONTINUOUS
 62
     6
100
AcDbLine
 10
121.5964007221112
 20
15.15390141767039
 30
0.0
 11
124.3176949490899
 21
15.15390141767039
 31
0.0
  0
LINE
  5
59E
330
1F
100
AcDbEntity
  8
0
  6
CONTINUOUS
 62
     6
100
AcDbLine
 10
128.8751064951323
 20
15.15390141767039
 30
0.0
 11
133.81769494909
 21
15.15390141767039
 31
0.0
  0
LINE
  5
59F
330
1F
100
AcDbEntity
  8
0
  6
CONTINUOUS
 62
     6
100
AcDbLine
 10
119.3751064951324
 20
15.15390141767039
 30
0.0
 11
121.6251064951324
 21
31.15390141767039
 31
0.0
  0
LINE
  5
5A0
330
1F
100
AcDbEntity
  8
0
  6
CONTINUOUS
 62
     6
100
AcDbLine
 10
117.0676949490901
 20
31.15390141767039
 30
0.0
 11
114.8176949490901
 21
15.15390141767039
 31
0.0
  0
LINE
  5
5A1
330
1F
100
AcDbEntity
  8
0
  6
CONTINUOUS
 62
     6
100
AcDbLine
 10
120.6950225196638
 20
31.15390141767039
 30
0.0
 11
118.4450224666713
 21
14.52124825650486
 31
0.0
  0
LINE
  5
5A2
330
1F
100
AcDbEntity
  8
0
  6
CONTINUOUS
 62
     6
100
AcDbLine
 10
115.7477789775511
 20
14.52124825650486
 30
0.0
 11
117.9977789775511
 21
31.15390141767039
 31
0.0
  0
LINE
  5
5A3
330
1F
100
AcDbEntity
  8
0
  6
CONTINUOUS
 62
     6
100
AcDbLine
 10
130.1950225196637
 20
31.15390141767039
 30
0.0
 11
127.9450224666712
 21
14.52124825650486
 31
0.0
  0
LINE
  5
5A4
330
1F
100
AcDbEntity
  8
0
  6
CONTINUOUS
 62
     6
100
AcDbLine
 10
125.247778977551
 20
14.52124825650486
 30
0.0
 11
127.497778977551
 21
31.15390141767039
 31
0.0
  0
LINE
  5
5A5
330
1F
100
AcDbEntity
  8
0
  6
CONTINUOUS
 62
     6
100
AcDbLine
 10
126.5676949490899
 20
31.15390141767039
 30
0.0
 11
124.3176949490899
 21
15.15390141767039
 31
0.0
  0
LINE
  5
5A6
330
1F
100
AcDbEntity
  8
0
  6
CONTINUOUS
 62
     6
100
AcDbLine
 10
128.8751064951323
 20
15.15390141767039
 30
0.0
 11
131.1251064951323
 21
31.15390141767039
 31
0.0
  0
LINE
  5
5A7
330
1F
100
AcDbEntity
  8
0
  6
CONTINUOUS
 62
     6
100
AcDbLine
 10
134.1381274960887
 20
17.43253286299426
 30
0.0
 11
133.81769494909
 21
15.15390141767039
 31
0.0
  0
LINE
  5
5A8
330
1F
100
AcDbEntity
  8
0
  6
CONTINUOUS
 62
     6
100
AcDbLine
 10
168.1950225196637
 20
31.15390141767039
 30
0.0
 11
167.1381277345072
 21
23.3410285397461
 31
0.0
  0
LINE
  5
5A9
330
1F
100
AcDbEntity
  8
0
  6
CONTINUOUS
 62
     6
100
AcDbLine
 10
167.1381277345072
 20
17.02427467544685
 30
0.0
 11
169.1251064951323
 21
31.15390141767039
 31
0.0
  0
LINE
  5
5AA
330
1F
100
AcDbEntity
  8
0
  6
CONTINUOUS
 62
     6
100
AcDbLine
 10
176.3751064951323
 20
15.15390141767039
 30
0.0
 11
178.6251064951323
 21
31.15390141767045
 31
0.0
  0
LINE
  5
5AB
330
1F
100
AcDbEntity
  8
0
  6
CONTINUOUS
 62
     6
100
AcDbLine
 10
172.747778977551
 20
14.5212482565048
 30
0.0
 11
174.9977789775511
 21
31.15390141767045
 31
0.0
  0
LINE
  5
5AC
330
1F
100
AcDbEntity
  8
0
  6
CONTINUOUS
 62
     6
100
AcDbLine
 10
174.06769494909
 20
31.15390141767045
 30
0.0
 11
171.81769494909
 21
15.15390141767039
 31
0.0
  0
LINE
  5
5AD
330
1F
100
AcDbEntity
  8
0
  6
CONTINUOUS
 62
     6
100
AcDbLine
 10
177.6950225196637
 20
31.15390141767039
 30
0.0
 11
175.4450224666712
 21
14.52124825650486
 31
0.0
  0
ARC
  5
5AE
330
1F
100
AcDbEntity
  8
0
  6
CONTINUOUS
 62
     6
100
AcDbCircle
 10
174.0964007221111
 20
15.05390141767037
 30
0.0
 40
1.450000000000003
100
AcDbArc
 50
201.5520888872132
 51
338.4479111127868
  0
ARC
  5
5AF
330
1F
100
AcDbEntity
  8
0
  6
CONTINUOUS
 62
     6
100
AcDbCircle
 10
176.3751064951323
 20
14.15390141767039
 30
0.0
 40
1.0
100
AcDbArc
 50
90.00000000000006
 51
158.4479111127868
  0
ARC
  5
5B0
330
1F
100
AcDbEntity
  8
0
  6
CONTINUOUS
 62
     6
100
AcDbCircle
 10
171.8176949490899
 20
14.15390141767039
 30
0.0
 40
1.0
100
AcDbArc
 50
21.55208888721328
 51
90.00000000000003
  0
ARC
  5
5B1
330
1F
100
AcDbEntity
  8
0
  6
CONTINUOUS
 62
     6
100
AcDbCircle
 10
117.0964007221112
 20
15.05390141767037
 30
0.0
 40
1.450000000000003
100
AcDbArc
 50
201.5520888872131
 51
338.4479111127867
  0
ARC
  5
5B2
330
1F
100
AcDbEntity
  8
0
  6
CONTINUOUS
 62
     6
100
AcDbCircle
 10
114.8176949885629
 20
14.15390131772931
 30
0.0
 40
1.0
100
AcDbArc
 50
21.55208888721318
 51
89.99999999999987
  0
ARC
  5
5B3
330
1F
100
AcDbEntity
  8
0
  6
CONTINUOUS
 62
     6
100
AcDbCircle
 10
119.3751064951324
 20
14.15390141767039
 30
0.0
 40
1.0
100
AcDbArc
 50
89.9999999999999
 51
158.4479111127866
  0
ARC
  5
5B4
330
1F
100
AcDbEntity
  8
0
  6
CONTINUOUS
 62
     6
100
AcDbCircle
 10
126.5964007221111
 20
15.05390141767037
 30
0.0
 40
1.450000000000003
100
AcDbArc
 50
201.5520888872132
 51
338.4479111127868
  0
ARC
  5
5B5
330
1F
100
AcDbEntity
  8
0
  6
CONTINUOUS
 62
     6
100
AcDbCircle
 10
133.8176949490899
 20
14.15390141767039
 30
0.0
 40
1.0
100
AcDbArc
 50
71.31091449594111
 51
90.00000000000003
  0
ARC
  5
5B6
330
1F
100
AcDbEntity
  8
0
  6
CONTINUOUS
 62
     6
100
AcDbCircle
 10
128.8751064951323
 20
14.15390141767039
 30
0.0
 40
1.0
100
AcDbArc
 50
90.00000000000006
 51
158.4479111127868
  0
ARC
  5
5B7
330
1F
100
AcDbEntity
  8
0
  6
CONTINUOUS
 62
     6
100
AcDbCircle
 10
124.3176949490899
 20
14.15390141767039
 30
0.0
 40
1.0
100
AcDbArc
 50
21.55208888721328
 51
90.00000000000003
  0
LINE
  5
5B8
330
1F
100
AcDbEntity
  8
0
  6
CONTINUOUS
 62
     6
100
AcDbLine
 10
82.69502251966354
 20
31.15390141767039
 30
0.0
 11
82.54382272474304
 21
30.0361886675717
 31
0.0
  0
LINE
  5
5B9
330
1F
100
AcDbEntity
  8
0
  6
CONTINUOUS
 62
     6
100
AcDbLine
 10
81.50186347599264
 20
22.33372360785562
 30
0.0
 11
80.44502246667109
 21
14.52124825650486
 31
0.0
  0
LINE
  5
5BA
330
1F
100
AcDbEntity
  8
0
  6
CONTINUOUS
 62
     6
100
AcDbLine
 10
81.37510649513222
 20
15.15390141767039
 30
0.0
 11
82.0808863903661
 21
20.17278067266721
 31
0.0
  0
LINE
  5
5BB
330
1F
100
AcDbEntity
  8
0
  6
CONTINUOUS
 62
     6
100
AcDbLine
 10
83.14986516264655
 20
27.77440749777275
 30
0.0
 11
83.62510649513222
 21
31.15390141767039
 31
0.0
  0
LINE
  5
5BC
330
1F
100
AcDbEntity
  8
0
  6
CONTINUOUS
 62
     2
100
AcDbLine
 10
12.8588676776871
 20
55.15390000228847
 30
0.0
 11
18.85886712603604
 21
58.153899726463
 31
0.0
  0
LINE
  5
5BD
330
1F
100
AcDbEntity
  8
0
  6
CONTINUOUS
 62
     2
100
AcDbLine
 10
12.85886759584758
 20
54.65389951032175
 30
0.0
 11
12.85886759584758
 21
55.15389951032175
 31
0.0
  0
LINE
  5
5BE
330
1F
100
AcDbEntity
  8
0
  6
CONTINUOUS
 62
     2
100
AcDbLine
 10
12.85886759584758
 20
54.65389951032175
 30
0.0
 11
20.85886720841739
 21
54.65389951032175
 31
0.0
  0
LINE
  5
5BF
330
1F
100
AcDbEntity
  8
0
  6
CONTINUOUS
 62
     2
100
AcDbLine
 10
20.85886720841739
 20
54.65389951032175
 30
0.0
 11
20.85886720841739
 21
58.15389951032175
 31
0.0
  0
LINE
  5
5C0
330
1F
100
AcDbEntity
  8
0
  6
CONTINUOUS
 62
     2
100
AcDbLine
 10
18.85886711901042
 20
58.15389951032175
 30
0.0
 11
20.85886720841739
 21
58.15389951032175
 31
0.0
  0
LINE
  5
5C1
330
1F
100
AcDbEntity
  8
0
  6
CONTINUOUS
 62
    60
100
AcDbLine
 10
134.1381274960887
 20
47.15390141767038
 30
0.0
 11
134.1381274960887
 21
54.21975202343334
 31
0.0
  0
LINE
  5
5C2
330
1F
100
AcDbEntity
  8
0
  6
CONTINUOUS
 62
    60
100
AcDbLine
 10
149.1381274960887
 20
60.21975202343334
 30
0.0
 11
149.1381274960887
 21
61.21975202343334
 31
0.0
  0
LINE
  5
5C3
330
1F
100
AcDbEntity
  8
0
  6
CONTINUOUS
 62
    60
100
AcDbLine
 10
167.1381277345072
 20
47.20663016294451
 30
0.0
 11
167.1381277345072
 21
64.21975393078198
 31
0.0
  0
LINE
  5
5C4
330
1F
100
AcDbEntity
  8
0
  6
CONTINUOUS
 62
    60
100
AcDbLine
 10
137.1381274960887
 20
57.21975202343334
 30
0.0
 11
146.1381274960887
 21
57.21975202343334
 31
0.0
  0
LINE
  5
5C5
330
1F
100
AcDbEntity
  8
0
  6
CONTINUOUS
 62
    60
100
AcDbLine
 10
136.1381274960887
 20
49.21975202343334
 30
0.0
 11
151.1381274960886
 21
49.21975202343334
 31
0.0
  0
LINE
  5
5C6
330
1F
100
AcDbEntity
  8
0
  6
CONTINUOUS
 62
    60
100
AcDbLine
 10
152.1381274960886
 20
64.21975393078198
 30
0.0
 11
167.1381277345072
 21
64.21975393078198
 31
0.0
  0
LINE
  5
5C7
330
1F
100
AcDbEntity
  8
0
  6
CONTINUOUS
 62
    60
100
AcDbLine
 10
136.1381274960887
 20
47.15390141767038
 30
0.0
 11
136.1381274960887
 21
49.21975202343334
 31
0.0
  0
LINE
  5
5C8
330
1F
100
AcDbEntity
  8
0
  6
CONTINUOUS
 62
    60
100
AcDbLine
 10
153.1381274960886
 20
49.21975202343334
 30
0.0
 11
165.138127719606
 21
49.21975202343334
 31
0.0
  0
LINE
  5
5C9
330
1F
100
AcDbEntity
  8
0
  6
CONTINUOUS
 62
    60
100
AcDbLine
 10
151.1381274960886
 20
48.26251696800613
 30
0.0
 11
151.1381274960886
 21
49.21975202343334
 31
0.0
  0
LINE
  5
5CA
330
1F
100
AcDbEntity
  8
0
  6
CONTINUOUS
 62
    60
100
AcDbLine
 10
165.138127719606
 20
47.15390141767038
 30
0.0
 11
165.138127719606
 21
49.21975202343334
 31
0.0
  0
LINE
  5
5CB
330
1F
100
AcDbEntity
  8
0
  6
CONTINUOUS
 62
    60
100
AcDbLine
 10
153.1381274960886
 20
47.15390141767038
 30
0.0
 11
153.1381274960886
 21
49.21975202343334
 31
0.0
  0
LINE
  5
5CC
330
1F
100
AcDbEntity
  8
0
  6
CONTINUOUS
 62
    60
100
AcDbLine
 10
167.1381278471032
 20
49.21975339009056
 30
0.0
 11
166.5478844538535
 21
47.15390141767038
 31
0.0
  0
LINE
  5
5CD
330
1F
100
AcDbEntity
  8
0
  6
CONTINUOUS
 62
    60
100
AcDbLine
 10
165.7283707226281
 20
47.15390141767038
 30
0.0
 11
165.1381269605895
 21
49.21975468085203
 31
0.0
  0
LINE
  5
5CE
330
1F
100
AcDbEntity
  8
0
  6
CONTINUOUS
 62
    60
100
AcDbLine
 10
153.138128089667
 20
49.2197528906636
 30
0.0
 11
152.5478848391107
 21
47.15390141767038
 31
0.0
  0
LINE
  5
5CF
330
1F
100
AcDbEntity
  8
0
  6
CONTINUOUS
 62
    60
100
AcDbLine
 10
151.6347016368786
 20
47.48174024215222
 30
0.0
 11
151.1381260569274
 21
49.21975485278587
 31
0.0
  0
LINE
  5
5D0
330
1F
100
AcDbEntity
  8
0
  6
CONTINUOUS
 62
    60
100
AcDbLine
 10
136.1381282040875
 20
49.21975431935222
 30
0.0
 11
135.5478845453345
 21
47.15390141767038
 31
0.0
  0
LINE
  5
5D1
330
1F
100
AcDbEntity
  8
0
  6
CONTINUOUS
 62
    60
100
AcDbLine
 10
134.7283698222728
 20
47.15390141767038
 30
0.0
 11
134.138126400593
 21
49.21975348959587
 31
0.0
  0
LINE
  5
5D2
330
1F
100
AcDbEntity
  8
0
  6
CONTINUOUS
 62
    60
100
AcDbLine
 10
165.1381289328603
 20
50.71975446897007
 30
0.0
 11
167.1381278959843
 21
49.71975498740802
 31
0.0
  0
LINE
  5
5D3
330
1F
100
AcDbEntity
  8
0
  6
CONTINUOUS
 62
    60
100
AcDbLine
 10
137.1381274960887
 20
55.71975202343334
 30
0.0
 11
141.1381274960887
 21
55.71975202343334
 31
0.0
  0
LINE
  5
5D4
330
1F
100
AcDbEntity
  8
0
  6
CONTINUOUS
 62
    60
100
AcDbLine
 10
152.1381274960886
 20
50.71975202343334
 30
0.0
 11
152.1381274960886
 21
61.71975202343334
 31
0.0
  0
LINE
  5
5D5
330
1F
100
AcDbEntity
  8
0
  6
CONTINUOUS
 62
    60
100
AcDbLine
 10
137.1381274960887
 20
50.71975202343334
 30
0.0
 11
137.1381274960887
 21
55.71975202343334
 31
0.0
  0
LINE
  5
5D6
330
1F
100
AcDbEntity
  8
0
  6
CONTINUOUS
 62
    60
100
AcDbLine
 10
137.1381274960887
 20
50.71975202343334
 30
0.0
 11
165.138127719606
 21
50.71975202343334
 31
0.0
  0
LINE
  5
5D7
330
1F
100
AcDbEntity
  8
0
  6
CONTINUOUS
 62
    60
100
AcDbLine
 10
152.1381274960886
 20
61.71975202343334
 30
0.0
 11
156.1381274960886
 21
61.71975202343334
 31
0.0
  0
LINE
  5
5D8
330
1F
100
AcDbEntity
  8
0
  6
CONTINUOUS
 62
    60
100
AcDbLine
 10
146.1381274960887
 20
50.71975202343334
 30
0.0
 11
146.1381274960887
 21
55.71975202343334
 31
0.0
  0
LINE
  5
5D9
330
1F
100
AcDbEntity
  8
0
  6
CONTINUOUS
 62
    60
100
AcDbLine
 10
143.1381274960887
 20
50.71975202343334
 30
0.0
 11
143.1381274960887
 21
55.71975202343334
 31
0.0
  0
LINE
  5
5DA
330
1F
100
AcDbEntity
  8
0
  6
CONTINUOUS
 62
    60
100
AcDbLine
 10
141.1381274960887
 20
50.71975202343334
 30
0.0
 11
141.1381274960887
 21
55.71975202343334
 31
0.0
  0
LINE
  5
5DB
330
1F
100
AcDbEntity
  8
0
  6
CONTINUOUS
 62
    60
100
AcDbLine
 10
148.1381274960887
 20
50.71975202343334
 30
0.0
 11
148.1381274960887
 21
55.71975202343334
 31
0.0
  0
LINE
  5
5DC
330
1F
100
AcDbEntity
  8
0
  6
CONTINUOUS
 62
    60
100
AcDbLine
 10
156.1381274960886
 20
50.71975202343334
 30
0.0
 11
156.1381274960886
 21
61.71975202343334
 31
0.0
  0
LINE
  5
5DD
330
1F
100
AcDbEntity
  8
0
  6
CONTINUOUS
 62
    60
100
AcDbLine
 10
158.1381274960886
 20
50.71975202343334
 30
0.0
 11
158.1381274960886
 21
61.71975202343334
 31
0.0
  0
LINE
  5
5DE
330
1F
100
AcDbEntity
  8
0
  6
CONTINUOUS
 62
    60
100
AcDbLine
 10
161.1381274960886
 20
50.71975202343334
 30
0.0
 11
161.1381274960886
 21
61.71975202343334
 31
0.0
  0
LINE
  5
5DF
330
1F
100
AcDbEntity
  8
0
  6
CONTINUOUS
 62
    60
100
AcDbLine
 10
163.1381277345072
 20
50.71975202343334
 30
0.0
 11
163.1381277345072
 21
61.71975202343334
 31
0.0
  0
LINE
  5
5E0
330
1F
100
AcDbEntity
  8
0
  6
CONTINUOUS
 62
    60
100
AcDbLine
 10
163.1381277345072
 20
61.71975202343334
 30
0.0
 11
167.1381277345072
 21
61.71975202343334
 31
0.0
  0
LINE
  5
5E1
330
1F
100
AcDbEntity
  8
0
  6
CONTINUOUS
 62
    60
100
AcDbLine
 10
158.1381274960886
 20
61.71975202343334
 30
0.0
 11
161.1381274960886
 21
61.71975202343334
 31
0.0
  0
LINE
  5
5E2
330
1F
100
AcDbEntity
  8
0
  6
CONTINUOUS
 62
    60
100
AcDbLine
 10
148.1381274960887
 20
55.71975202343334
 30
0.0
 11
150.1381274960887
 21
55.71975202343334
 31
0.0
  0
LINE
  5
5E3
330
1F
100
AcDbEntity
  8
0
  6
CONTINUOUS
 62
    60
100
AcDbLine
 10
143.1381274960887
 20
55.71975202343334
 30
0.0
 11
146.1381274960887
 21
55.71975202343334
 31
0.0
  0
LINE
  5
5E4
330
1F
100
AcDbEntity
  8
0
  6
CONTINUOUS
 62
    60
100
AcDbLine
 10
134.1381274960887
 20
31.21975583813065
 30
0.0
 11
134.1381274960887
 21
8.219755838130645
 31
0.0
  0
LINE
  5
5E5
330
1F
100
AcDbEntity
  8
0
  6
CONTINUOUS
 62
    60
100
AcDbLine
 10
137.1381274960887
 20
5.219755838130645
 30
0.0
 11
146.1381274960887
 21
5.219755838130645
 31
0.0
  0
LINE
  5
5E6
330
1F
100
AcDbEntity
  8
0
  6
CONTINUOUS
 62
    60
100
AcDbLine
 10
149.1381274960887
 20
31.21975583813062
 30
0.0
 11
149.1381274960887
 21
1.219755838130645
 31
0.0
  0
LINE
  5
5E7
330
1F
100
AcDbEntity
  8
0
  6
CONTINUOUS
 62
    60
100
AcDbLine
 10
152.1381274960886
 20
-1.780244161869355
 30
0.0
 11
167.1381277345072
 21
-1.780244161869355
 31
0.0
  0
LINE
  5
5E8
330
1F
100
AcDbEntity
  8
0
  6
CONTINUOUS
 62
    60
100
AcDbLine
 10
167.1381277345072
 20
31.21975583813062
 30
0.0
 11
167.1381277345072
 21
-1.780244161869355
 31
0.0
  0
ARC
  5
5E9
330
1F
100
AcDbEntity
  8
0
  6
CONTINUOUS
 62
    60
100
AcDbCircle
 10
152.1381274960886
 20
61.21975202343334
 30
0.0
 40
3.0
100
AcDbArc
 50
89.99999999999999
 51
180.0000025044782
  0
ARC
  5
5EA
330
1F
100
AcDbEntity
  8
0
  6
CONTINUOUS
 62
    60
100
AcDbCircle
 10
137.1381274960887
 20
54.21975202343334
 30
0.0
 40
3.0
100
AcDbArc
 50
89.99999999999999
 51
180.0000025044782
  0
ARC
  5
5EB
330
1F
100
AcDbEntity
  8
0
  6
CONTINUOUS
 62
    60
100
AcDbCircle
 10
146.1381274960887
 20
60.21975202343334
 30
0.0
 40
3.0
100
AcDbArc
 50
269.9999949910437
 51
359.9999974955218
  0
ARC
  5
5EC
330
1F
100
AcDbEntity
  8
0
  6
CONTINUOUS
 62
    60
100
AcDbCircle
 10
150.1381274960887
 20
57.71975202343334
 30
0.0
 40
2.0
100
AcDbArc
 50
269.9999949910437
 51
359.9999974955218
  0
ARC
  5
5ED
330
1F
100
AcDbEntity
  8
0
  6
CONTINUOUS
 62
    60
100
AcDbCircle
 10
162.1381277345072
 20
61.71975202343334
 30
0.0
 40
1.0
100
AcDbArc
 50
180.0000025044782
 51
270.0000050089564
  0
ARC
  5
5EE
330
1F
100
AcDbEntity
  8
0
  6
CONTINUOUS
 62
    60
100
AcDbCircle
 10
147.1381274960887
 20
55.71975202343334
 30
0.0
 40
1.0
100
AcDbArc
 50
180.0000025044782
 51
270.0000050089564
  0
ARC
  5
5EF
330
1F
100
AcDbEntity
  8
0
  6
CONTINUOUS
 62
    60
100
AcDbCircle
 10
142.1381274960887
 20
55.71975202343334
 30
0.0
 40
1.0
100
AcDbArc
 50
180.0000025044782
 51
270.0000050089564
  0
ARC
  5
5F0
330
1F
100
AcDbEntity
  8
0
  6
CONTINUOUS
 62
    60
100
AcDbCircle
 10
147.1381274960887
 20
55.71975202343334
 30
0.0
 40
1.0
100
AcDbArc
 50
269.9999949910437
 51
359.9999974955218
  0
ARC
  5
5F1
330
1F
100
AcDbEntity
  8
0
  6
CONTINUOUS
 62
    60
100
AcDbCircle
 10
162.1381277345072
 20
61.71975202343334
 30
0.0
 40
1.0
100
AcDbArc
 50
269.9999949910437
 51
359.9999974955218
  0
ARC
  5
5F2
330
1F
100
AcDbEntity
  8
0
  6
CONTINUOUS
 62
    60
100
AcDbCircle
 10
142.1381274960887
 20
55.71975202343334
 30
0.0
 40
1.0
100
AcDbArc
 50
269.9999949910437
 51
359.9999974955218
  0
ARC
  5
5F3
330
1F
100
AcDbEntity
  8
0
  6
CONTINUOUS
 62
    60
100
AcDbCircle
 10
157.1381274960886
 20
61.71975202343334
 30
0.0
 40
1.0
100
AcDbArc
 50
180.0000025044782
 51
270.0000050089564
  0
ARC
  5
5F4
330
1F
100
AcDbEntity
  8
0
  6
CONTINUOUS
 62
    60
100
AcDbCircle
 10
157.1381274960886
 20
61.71975202343334
 30
0.0
 40
1.0
100
AcDbArc
 50
269.9999949910437
 51
359.9999974955218
  0
ARC
  5
5F5
330
1F
100
AcDbEntity
  8
0
  6
CONTINUOUS
 62
    60
100
AcDbCircle
 10
137.1381274960887
 20
8.219755838130645
 30
0.0
 40
3.0
100
AcDbArc
 50
180.0000025044782
 51
270.0000050089564
  0
ARC
  5
5F6
330
1F
100
AcDbEntity
  8
0
  6
CONTINUOUS
 62
    60
100
AcDbCircle
 10
146.1381274960887
 20
2.219755838130645
 30
0.0
 40
3.0
100
AcDbArc
 50
359.9999974955218
 51
450.0
  0
ARC
  5
5F7
330
1F
100
AcDbEntity
  8
0
  6
CONTINUOUS
 62
    60
100
AcDbCircle
 10
152.1381274960886
 20
1.219755838130645
 30
0.0
 40
3.0
100
AcDbArc
 50
180.0000025044782
 51
270.0000050089564
  0
INSERT
  5
5F8
330
1F
100
AcDbEntity
  8
LAYER0014
  6
CONTINUOUS
100
AcDbBlockReference
  2
DA_IMAGEDIMGROUP_1
 10
0.0
 20
0.0
 30
0.0
  0
INSERT
  5
5F9
330
1F
100
AcDbEntity
  8
LAYER0014
  6
CONTINUOUS
100
AcDbBlockReference
  2
DA_IMAGEDIMGROUP_2
 10
0.0
 20
0.0
 30
0.0
  0
INSERT
  5
5FA
330
1F
100
AcDbEntity
  8
LAYER0014
  6
CONTINUOUS
100
AcDbBlockReference
  2
DA_IMAGEDIMGROUP_3
 10
0.0
 20
0.0
 30
0.0
  0
INSERT
  5
5FB
330
1F
100
AcDbEntity
  8
LAYER0014
  6
CONTINUOUS
100
AcDbBlockReference
  2
DA_IMAGEDIMGROUP_4
 10
0.0
 20
0.0
 30
0.0
  0
INSERT
  5
5FC
330
1F
100
AcDbEntity
  8
LAYER0014
  6
CONTINUOUS
100
AcDbBlockReference
  2
DA_IMAGEDIMGROUP_5
 10
0.0
 20
0.0
 30
0.0
  0
INSERT
  5
5FD
330
1F
100
AcDbEntity
  8
LAYER0014
  6
CONTINUOUS
100
AcDbBlockReference
  2
DA_IMAGEDIMGROUP_6
 10
0.0
 20
0.0
 30
0.0
  0
INSERT
  5
5FE
330
1F
100
AcDbEntity
  8
LAYER0015
  6
CONTINUOUS
100
AcDbBlockReference
  2
DC_GROUP_28
 10
0.0
 20
0.0
 30
0.0
  0
INSERT
  5
5FF
330
1F
100
AcDbEntity
  8
LAYER0015
  6
CONTINUOUS
100
AcDbBlockReference
  2
DC_GROUP_30
 10
0.0
 20
0.0
 30
0.0
  0
VIEWPORT
  5
4A
330
1B
100
AcDbEntity
 67
     1
  8
0
100
AcDbViewport
 10
0.0
 20
0.0
 30
0.0
 40
1260.0
 41
891.0
 68
     1
 69
     1
1001
ACAD
1000
MVIEW
1002
{
1070
    16
1010
0.0
1020
0.0
1030
0.0
1010
0.0
1020
0.0
1030
1.0
1040
0.0
1040
891.0
1040
0.0
1040
0.0
1040
50.0
1040
0.0
1040
0.0
1070
     0
1070
   100
1070
     0
1070
     1
1070
     0
1070
     0
1070
     0
1070
     0
1040
0.0
1040
0.0
1040
0.0
1040
0.5
1040
0.5
1040
0.0
1040
0.0
1070
     0
1002
{
1002
}
1002
}
  0
ENDSEC
  0
SECTION
  2
OBJECTS
  0
DICTIONARY
  5
C
330
0
100
AcDbDictionary
  3
ACAD_GROUP
350
D
  3
ACAD_LAYOUT
350
1A
  3
ACAD_MLINESTYLE
350
17
  3
ACAD_PLOTSETTINGS
350
19
  3
ACDBHEADERROUNDTRIPXREC
350
600
  0
DICTIONARY
  5
D
102
{ACAD_REACTORS
330
C
102
}
330
C
100
AcDbDictionary
  0
DICTIONARY
  5
1A
102
{ACAD_REACTORS
330
C
102
}
330
C
100
AcDbDictionary
  0
DICTIONARY
  5
17
102
{ACAD_REACTORS
330
C
102
}
330
C
100
AcDbDictionary
  3
STANDARD
350
18
  0
DICTIONARY
  5
19
102
{ACAD_REACTORS
330
C
102
}
330
C
100
AcDbDictionary
  0
DICTIONARY
  5
600
102
{ACAD_REACTORS
330
C
102
}
330
C
100
AcDbDictionary
  3
CEPSNTYPE
350
609
  3
DIMSTYLEDATA
350
61F
  3
FINGERPRINTGUID
350
60A
  3
HYPERLINKBASE
350
603
  3
INSUNITS
350
608
  3
LAYOUTDICT
350
605
  3
LWETCUNION
350
607
  3
PLOTSETDICT
350
606
  3
PSVPSCALE
350
60C
  3
PUCSBASE
350
60F
  3
PUCSORGBACK
350
615
  3
PUCSORGBOTTOM
350
611
  3
PUCSORGFRONT
350
614
  3
PUCSORGLEFT
350
612
  3
PUCSORGRIGHT
350
613
  3
PUCSORGTOP
350
610
  3
PUCSORTHOREF
350
60D
  3
PUCSORTHOVIEW
350
60E
  3
STYLESHEET
350
604
  3
TSTACKALIGN
350
601
  3
TSTACKSIZE
350
602
  3
UCSBASE
350
618
  3
UCSORGBACK
350
61E
  3
UCSORGBOTTOM
350
61A
  3
UCSORGFRONT
350
61D
  3
UCSORGLEFT
350
61B
  3
UCSORGRIGHT
350
61C
  3
UCSORGTOP
350
619
  3
UCSORTHOREF
350
616
  3
UCSORTHOVIEW
350
617
  3
VERSIONGUID
350
60B
  0
MLINESTYLE
  5
18
102
{ACAD_REACTORS
330
17
102
}
330
17
100
AcDbMlineStyle
  2
Standard
 70
     0
  3

 62
   256
 51
90.0
 52
90.0
 71
     2
 49
0.5
 62
   256
  6
BYLAYER
 49
-0.5
 62
   256
  6
BYLAYER
  0
XRECORD
  5
609
102
{ACAD_REACTORS
330
600
102
}
330
600
100
AcDbXrecord
 90
        0
  0
XRECORD
  5
61F
102
{ACAD_REACTORS
330
600
102
}
330
600
100
AcDbXrecord
1000
DSTYLE
1002
{
1070
   171
 70
     2
1070
   143
 40
25.4
1070
   274
 70
     2
1070
   141
 40
0.09
1070
   271
 70
     4
1070
    43
 40
0.38
1070
    44
 40
0.18
1070
   278
 70
    46
1070
    42
 40
0.0625
1070
   147
 40
0.09
1070
    77
 70
     3
1070
   272
 70
     4
1070
    73
 70
     1
1070
   172
 70
     0
1070
    74
 70
     1
1070
   283
 70
     1
1070
   340
340
11
1070
   140
 40
0.18
1070
   284
 70
     0
1070
    78
 70
     0
1002
}
  0
XRECORD
  5
60A
102
{ACAD_REACTORS
330
600
102
}
330
600
100
AcDbXrecord
  1
{55710CA8-0A0F-4015-9429-177C731A35D9}
  0
XRECORD
  5
603
102
{ACAD_REACTORS
330
600
102
}
330
600
100
AcDbXrecord
  1

  0
XRECORD
  5
608
102
{ACAD_REACTORS
330
600
102
}
330
600
100
AcDbXrecord
 90
        4
  0
XRECORD
  5
605
102
{ACAD_REACTORS
330
600
102
}
330
600
100
AcDbXrecord
340
1A
  0
XRECORD
  5
607
102
{ACAD_REACTORS
330
600
102
}
330
600
100
AcDbXrecord
 90
    10781
  0
XRECORD
  5
606
102
{ACAD_REACTORS
330
600
102
}
330
600
100
AcDbXrecord
340
19
  0
XRECORD
  5
60C
102
{ACAD_REACTORS
330
600
102
}
330
600
100
AcDbXrecord
 40
0.0
  0
XRECORD
  5
60F
102
{ACAD_REACTORS
330
600
102
}
330
600
100
AcDbXrecord
340
0
  0
XRECORD
  5
615
102
{ACAD_REACTORS
330
600
102
}
330
600
100
AcDbXrecord
 10
0.0
 20
0.0
 30
0.0
  0
XRECORD
  5
611
102
{ACAD_REACTORS
330
600
102
}
330
600
100
AcDbXrecord
 10
0.0
 20
0.0
 30
0.0
  0
XRECORD
  5
614
102
{ACAD_REACTORS
330
600
102
}
330
600
100
AcDbXrecord
 10
0.0
 20
0.0
 30
0.0
  0
XRECORD
  5
612
102
{ACAD_REACTORS
330
600
102
}
330
600
100
AcDbXrecord
 10
0.0
 20
0.0
 30
0.0
  0
XRECORD
  5
613
102
{ACAD_REACTORS
330
600
102
}
330
600
100
AcDbXrecord
 10
0.0
 20
0.0
 30
0.0
  0
XRECORD
  5
610
102
{ACAD_REACTORS
330
600
102
}
330
600
100
AcDbXrecord
 10
0.0
 20
0.0
 30
0.0
  0
XRECORD
  5
60D
102
{ACAD_REACTORS
330
600
102
}
330
600
100
AcDbXrecord
340
0
  0
XRECORD
  5
60E
102
{ACAD_REACTORS
330
600
102
}
330
600
100
AcDbXrecord
 70
     0
  0
XRECORD
  5
604
102
{ACAD_REACTORS
330
600
102
}
330
600
100
AcDbXrecord
  1

  0
XRECORD
  5
601
102
{ACAD_REACTORS
330
600
102
}
330
600
100
AcDbXrecord
 90
        1
  0
XRECORD
  5
602
102
{ACAD_REACTORS
330
600
102
}
330
600
100
AcDbXrecord
 90
       70
  0
XRECORD
  5
618
102
{ACAD_REACTORS
330
600
102
}
330
600
100
AcDbXrecord
340
0
  0
XRECORD
  5
61E
102
{ACAD_REACTORS
330
600
102
}
330
600
100
AcDbXrecord
 10
0.0
 20
0.0
 30
0.0
  0
XRECORD
  5
61A
102
{ACAD_REACTORS
330
600
102
}
330
600
100
AcDbXrecord
 10
0.0
 20
0.0
 30
0.0
  0
XRECORD
  5
61D
102
{ACAD_REACTORS
330
600
102
}
330
600
100
AcDbXrecord
 10
0.0
 20
0.0
 30
0.0
  0
XRECORD
  5
61B
102
{ACAD_REACTORS
330
600
102
}
330
600
100
AcDbXrecord
 10
0.0
 20
0.0
 30
0.0
  0
XRECORD
  5
61C
102
{ACAD_REACTORS
330
600
102
}
330
600
100
AcDbXrecord
 10
0.0
 20
0.0
 30
0.0
  0
XRECORD
  5
619
102
{ACAD_REACTORS
330
600
102
}
330
600
100
AcDbXrecord
 10
0.0
 20
0.0
 30
0.0
  0
XRECORD
  5
616
102
{ACAD_REACTORS
330
600
102
}
330
600
100
AcDbXrecord
340
0
  0
XRECORD
  5
617
102
{ACAD_REACTORS
330
600
102
}
330
600
100
AcDbXrecord
 70
     0
  0
XRECORD
  5
60B
102
{ACAD_REACTORS
330
600
102
}
330
600
100
AcDbXrecord
  1
{FAEB1C32-E019-11D5-929B-00C0DF256EC4}
  0
ENDSEC
  0
EOF
