  0
SECTION
  2
HEADER
  9
$ACADVER
  1
AC1009
  9
$LUNITS
 70
2
  9
$LUPREC
 70
4
  9
$LTSCALE
 40
1.0
  9
$EXTMIN
 10
3.1173
 20
129.9817
 30
0
  9
$EXTMAX
 10
417.095
 20
406.0228
 30
0
  0
ENDSEC
  0
SECTION
  2
TABLES
  0
TABLE
  2
LTYPE
 70
256
  0
ENDTAB
  0
TABLE
  2
LAYER
 70
1
  0
LAYER
  2
LAYER_1
 70
64
 62
7
  6
CONTINUOUS
  0
ENDTAB
  0
TABLE
  2
STYLE
 70
6
  0
STYLE
  2
STANDARD
 70
0
 40
0
 50
0
 71
0
 41
0
 42
0
  3
TXT
  4
BIGFONT
  0
ENDTAB
  0
ENDSEC
  0
SECTION
  2
BLOCKS
  0
BLOCK
  8
LAYER_1
  2
AIGNBL01040005
 70
64
 10
0
 20
0
 30
0
  3
AIGNBL01040005
  0
POLYLINE
  8
LAYER_1
 40
0.05
 41
0.05
 62
39
 66
1
 10
0
 20
0
 30
0
 70
1
  0
VERTEX
  8
LAYER_1
 10
320.4766
 20
138.975
  0
VERTEX
  8
LAYER_1
 10
319.9877
 20
137.7899
  0
VERTEX
  8
LAYER_1
 10
319.3597
 20
137.7899
  0
VERTEX
  8
LAYER_1
 10
320.9592
 20
141.5557
  0
VERTEX
  8
LAYER_1
 10
321.6924
 20
141.5557
  0
VERTEX
  8
LAYER_1
 10
323.2988
 20
137.7899
  0
VERTEX
  8
LAYER_1
 10
322.6487
 20
137.7899
  0
VERTEX
  8
LAYER_1
 10
322.1461
 20
138.975
  0
SEQEND
  0
POLYLINE
  8
LAYER_1
 40
0.05
 41
0.05
 62
39
 66
1
 10
0
 20
0
 30
0
 70
1
  0
VERTEX
  8
LAYER_1
 10
322.0203
 20
139.3539
  0
VERTEX
  8
LAYER_1
 10
321.5594
 20
140.4388
  0
VERTEX
  8
LAYER_1
 10
321.3147
 20
141.1257
  0
VERTEX
  8
LAYER_1
 10
321.301
 20
141.1257
  0
VERTEX
  8
LAYER_1
 10
321.0633
 20
140.4433
  0
VERTEX
  8
LAYER_1
 10
320.6027
 20
139.3539
  0
SEQEND
  0
ENDBLK
  0
BLOCK
  8
LAYER_1
  2
AIGNBL01040006
 70
64
 10
0
 20
0
 30
0
  3
AIGNBL01040006
  0
POLYLINE
  8
LAYER_1
 40
0.05
 41
0.05
 62
39
 66
1
 10
0
 20
0
 30
0
 70
1
  0
VERTEX
  8
LAYER_1
 10
327.6641
 20
137.2366
 42
-0.0155848755
  0
VERTEX
  8
LAYER_1
 10
325.8619
 20
137.6727
  0
VERTEX
  8
LAYER_1
 10
325.5753
 20
137.7282
 42
-0.08356944747
  0
VERTEX
  8
LAYER_1
 10
324.7113
 20
137.8944
 42
-0.0975043791
  0
VERTEX
  8
LAYER_1
 10
324.0501
 20
138.3003
 42
-0.2129077902
  0
VERTEX
  8
LAYER_1
 10
323.5014
 20
139.633
 42
-0.09685143224
  0
VERTEX
  8
LAYER_1
 10
323.646
 20
140.4064
 42
-0.2046325641
  0
VERTEX
  8
LAYER_1
 10
324.6935
 20
141.4306
 42
-0.09825434011
  0
VERTEX
  8
LAYER_1
 10
325.6945
 20
141.617
 42
-0.08554836282
  0
VERTEX
  8
LAYER_1
 10
326.5631
 20
141.4757
 42
-0.1004347897
  0
VERTEX
  8
LAYER_1
 10
327.2282
 20
141.0814
 42
-0.2140895568
  0
VERTEX
  8
LAYER_1
 10
327.8036
 20
139.7115
 42
-0.09541176406
  0
VERTEX
  8
LAYER_1
 10
327.6647
 20
138.9438
 42
-0.2143037781
  0
VERTEX
  8
LAYER_1
 10
326.6419
 20
137.9653
 42
-0.02338881748
  0
VERTEX
  8
LAYER_1
 10
326.4628
 20
137.907
  0
VERTEX
  8
LAYER_1
 10
326.4628
 20
137.8846
 42
0.01711831943
  0
VERTEX
  8
LAYER_1
 10
327.8391
 20
137.6445
  0
SEQEND
  0
POLYLINE
  8
LAYER_1
 40
0.05
 41
0.05
 62
39
 66
1
 10
0
 20
0
 30
0
 70
1
  0
VERTEX
  8
LAYER_1
 10
327.1614
 20
139.6902
 42
0.1071543648
  0
VERTEX
  8
LAYER_1
 10
327.0101
 20
140.395
 42
0.2976507644
  0
VERTEX
  8
LAYER_1
 10
325.6731
 20
141.2205
 42
0.1072363269
  0
VERTEX
  8
LAYER_1
 10
324.9833
 20
141.081
 42
0.2386054241
  0
VERTEX
  8
LAYER_1
 10
324.1964
 20
140.0754
 42
0.05752774583
  0
VERTEX
  8
LAYER_1
 10
324.1508
 20
139.6454
 42
0.218096749
  0
VERTEX
  8
LAYER_1
 10
324.6814
 20
138.45
 42
0.1772796408
  0
VERTEX
  8
LAYER_1
 10
325.6452
 20
138.1244
 42
0.1075185771
  0
VERTEX
  8
LAYER_1
 10
326.3266
 20
138.2634
 42
0.2370926009
  0
VERTEX
  8
LAYER_1
 10
327.1137
 20
139.263
 42
0.05601310134
  0
SEQEND
  0
ENDBLK
  0
BLOCK
  8
LAYER_1
  2
AIGNBL01040007
 70
64
 10
0
 20
0
 30
0
  3
AIGNBL01040007
  0
POLYLINE
  8
LAYER_1
 40
0.05
 41
0.05
 62
39
 66
1
 10
0
 20
0
 30
0
 70
1
  0
VERTEX
  8
LAYER_1
 10
329.131
 20
141.5557
  0
VERTEX
  8
LAYER_1
 10
329.131
 20
139.3264
 42
0.1145199457
  0
VERTEX
  8
LAYER_1
 10
329.2649
 20
138.6606
 42
0.1464896694
  0
VERTEX
  8
LAYER_1
 10
329.6152
 20
138.2754
 42
0.1362580474
  0
VERTEX
  8
LAYER_1
 10
330.2276
 20
138.1244
 42
0.1219300979
  0
VERTEX
  8
LAYER_1
 10
330.8507
 20
138.2591
 42
0.1503016186
  0
VERTEX
  8
LAYER_1
 10
331.2225
 20
138.6281
 42
0.1256239276
  0
VERTEX
  8
LAYER_1
 10
331.3731
 20
139.3264
  0
VERTEX
  8
LAYER_1
 10
331.3731
 20
141.5557
  0
VERTEX
  8
LAYER_1
 10
331.9877
 20
141.5557
  0
VERTEX
  8
LAYER_1
 10
331.9877
 20
139.3598
 42
-0.09997665689
  0
VERTEX
  8
LAYER_1
 10
331.8528
 20
138.6171
 42
-0.1215019174
  0
VERTEX
  8
LAYER_1
 10
331.4795
 20
138.1104
 42
-0.1106228669
  0
VERTEX
  8
LAYER_1
 10
330.854
 20
137.8038
 42
-0.06128517916
  0
VERTEX
  8
LAYER_1
 10
330.2065
 20
137.7282
 42
-0.09418763513
  0
VERTEX
  8
LAYER_1
 10
329.3874
 20
137.8663
 42
-0.2431628294
  0
VERTEX
  8
LAYER_1
 10
328.5839
 20
138.777
 42
-0.06320488118
  0
VERTEX
  8
LAYER_1
 10
328.5164
 20
139.3377
  0
VERTEX
  8
LAYER_1
 10
328.5164
 20
141.5557
  0
SEQEND
  0
ENDBLK
  0
BLOCK
  8
LAYER_1
  2
AIGNBL01040008
 70
64
 10
0
 20
0
 30
0
  3
AIGNBL01040008
  0
POLYLINE
  8
LAYER_1
 40
0.05
 41
0.05
 62
39
 66
1
 10
0
 20
0
 30
0
 70
1
  0
VERTEX
  8
LAYER_1
 10
333.734
 20
138.975
  0
VERTEX
  8
LAYER_1
 10
333.2448
 20
137.7899
  0
VERTEX
  8
LAYER_1
 10
332.6167
 20
137.7899
  0
VERTEX
  8
LAYER_1
 10
334.216
 20
141.5557
  0
VERTEX
  8
LAYER_1
 10
334.9491
 20
141.5557
  0
VERTEX
  8
LAYER_1
 10
336.5555
 20
137.7899
  0
VERTEX
  8
LAYER_1
 10
335.9061
 20
137.7899
  0
VERTEX
  8
LAYER_1
 10
335.4035
 20
138.975
  0
SEQEND
  0
POLYLINE
  8
LAYER_1
 40
0.05
 41
0.05
 62
39
 66
1
 10
0
 20
0
 30
0
 70
1
  0
VERTEX
  8
LAYER_1
 10
335.2774
 20
139.3539
  0
VERTEX
  8
LAYER_1
 10
334.8161
 20
140.4388
  0
VERTEX
  8
LAYER_1
 10
334.5715
 20
141.1257
  0
VERTEX
  8
LAYER_1
 10
334.5577
 20
141.1257
  0
VERTEX
  8
LAYER_1
 10
334.3203
 20
140.4433
  0
VERTEX
  8
LAYER_1
 10
333.8594
 20
139.3539
  0
SEQEND
  0
ENDBLK
  0
BLOCK
  8
LAYER_1
  2
AIGNBL01040009
 70
64
 10
0
 20
0
 30
0
  3
AIGNBL01040009
  0
POLYLINE
  8
LAYER_1
 40
0.05
 41
0.05
 62
39
 66
1
 10
0
 20
0
 30
0
 70
1
  0
VERTEX
  8
LAYER_1
 10
337.5963
 20
141.5109
 42
-0.03243277402
  0
VERTEX
  8
LAYER_1
 10
338.7631
 20
141.5839
 42
-0.08081726569
  0
VERTEX
  8
LAYER_1
 10
339.7196
 20
141.4521
 42
-0.07822939654
  0
VERTEX
  8
LAYER_1
 10
340.0829
 20
141.2711
 42
-0.2484404511
  0
VERTEX
  8
LAYER_1
 10
340.4946
 20
140.4829
 42
-0.226147
  0
VERTEX
  8
LAYER_1
 10
340.1315
 20
139.6788
 42
-0.1096987633
  0
VERTEX
  8
LAYER_1
 10
339.5032
 20
139.3655
 42
-0.06568274206
  0
VERTEX
  8
LAYER_1
 10
338.6929
 20
139.265
 42
-0.0623016643
  0
VERTEX
  8
LAYER_1
 10
338.2043
 20
139.2985
  0
VERTEX
  8
LAYER_1
 10
338.2043
 20
137.7899
  0
VERTEX
  8
LAYER_1
 10
337.5963
 20
137.7899
  0
SEQEND
  0
POLYLINE
  8
LAYER_1
 40
0.05
 41
0.05
 62
39
 66
1
 10
0
 20
0
 30
0
 70
1
  0
VERTEX
  8
LAYER_1
 10
338.2043
 20
139.6953
 42
0.04191336602
  0
VERTEX
  8
LAYER_1
 10
338.7066
 20
139.6561
 42
0.1032111168
  0
VERTEX
  8
LAYER_1
 10
339.4258
 20
139.7834
 42
0.1555938032
  0
VERTEX
  8
LAYER_1
 10
339.7906
 20
140.0878
 42
0.1352673748
  0
VERTEX
  8
LAYER_1
 10
339.8876
 20
140.4605
 42
0.1737047371
  0
VERTEX
  8
LAYER_1
 10
339.7528
 20
140.8678
 42
0.1517050813
  0
VERTEX
  8
LAYER_1
 10
339.3317
 20
141.1273
 42
0.06879756253
  0
VERTEX
  8
LAYER_1
 10
338.7772
 20
141.1981
 42
0.06317907604
  0
VERTEX
  8
LAYER_1
 10
338.2043
 20
141.1588
  0
SEQEND
  0
ENDBLK
  0
BLOCK
  8
LAYER_1
  2
AIGNBL0104000A
 70
64
 10
0
 20
0
 30
0
  3
AIGNBL0104000A
  0
POLYLINE
  8
LAYER_1
 40
0.05
 41
0.05
 62
39
 66
1
 10
0
 20
0
 30
0
 70
1
  0
VERTEX
  8
LAYER_1
 10
342.0466
 20
141.2539
 42
-0.2767132075
  0
VERTEX
  8
LAYER_1
 10
341.9071
 20
141.0138
 42
-0.1265607389
  0
VERTEX
  8
LAYER_1
 10
341.655
 20
140.9521
 42
-0.2237364275
  0
VERTEX
  8
LAYER_1
 10
341.3446
 20
141.0845
 42
-0.1708503054
  0
VERTEX
  8
LAYER_1
 10
341.2846
 20
141.2539
 42
-0.2643879937
  0
VERTEX
  8
LAYER_1
 10
341.434
 20
141.501
 42
-0.1290073663
  0
VERTEX
  8
LAYER_1
 10
341.6687
 20
141.5609
 42
-0.225342086
  0
VERTEX
  8
LAYER_1
 10
341.9855
 20
141.4302
 42
-0.1691136206
  0
SEQEND
  0
POLYLINE
  8
LAYER_1
 40
0.05
 41
0.05
 62
39
 66
1
 10
0
 20
0
 30
0
 70
1
  0
VERTEX
  8
LAYER_1
 10
341.3611
 20
137.7899
  0
VERTEX
  8
LAYER_1
 10
341.3611
 20
140.4939
  0
VERTEX
  8
LAYER_1
 10
341.9757
 20
140.4939
  0
VERTEX
  8
LAYER_1
 10
341.9757
 20
137.7899
  0
SEQEND
  0
ENDBLK
  0
BLOCK
  8
LAYER_1
  2
AIGNBL0104000B
 70
64
 10
0
 20
0
 30
0
  3
AIGNBL0104000B
  0
POLYLINE
  8
LAYER_1
 40
0.05
 41
0.05
 62
39
 66
1
 10
0
 20
0
 30
0
 70
1
  0
VERTEX
  8
LAYER_1
 10
343.8474
 20
138.975
  0
VERTEX
  8
LAYER_1
 10
343.3592
 20
137.7899
  0
VERTEX
  8
LAYER_1
 10
342.7301
 20
137.7899
  0
VERTEX
  8
LAYER_1
 10
344.3297
 20
141.5557
  0
VERTEX
  8
LAYER_1
 10
345.0635
 20
141.5557
  0
VERTEX
  8
LAYER_1
 10
346.67
 20
137.7899
  0
VERTEX
  8
LAYER_1
 10
346.0202
 20
137.7899
  0
VERTEX
  8
LAYER_1
 10
345.5176
 20
138.975
  0
SEQEND
  0
POLYLINE
  8
LAYER_1
 40
0.05
 41
0.05
 62
39
 66
1
 10
0
 20
0
 30
0
 70
1
  0
VERTEX
  8
LAYER_1
 10
345.3915
 20
139.3539
  0
VERTEX
  8
LAYER_1
 10
344.9305
 20
140.4388
  0
VERTEX
  8
LAYER_1
 10
344.6866
 20
141.1257
  0
VERTEX
  8
LAYER_1
 10
344.6718
 20
141.1257
  0
VERTEX
  8
LAYER_1
 10
344.4348
 20
140.4433
  0
VERTEX
  8
LAYER_1
 10
343.9738
 20
139.3539
  0
SEQEND
  0
ENDBLK
  0
BLOCK
  8
LAYER_1
  2
AIGNBL01030004
 70
64
 10
0
 20
0
 30
0
  3
AIGNBL01030004
  0
INSERT
  8
LAYER_1
  2
AIGNBL01040005
 10
0
 20
0
 30
0
  0
INSERT
  8
LAYER_1
  2
AIGNBL01040006
 10
0
 20
0
 30
0
  0
INSERT
  8
LAYER_1
  2
AIGNBL01040007
 10
0
 20
0
 30
0
  0
INSERT
  8
LAYER_1
  2
AIGNBL01040008
 10
0
 20
0
 30
0
  0
INSERT
  8
LAYER_1
  2
AIGNBL01040009
 10
0
 20
0
 30
0
  0
INSERT
  8
LAYER_1
  2
AIGNBL0104000A
 10
0
 20
0
 30
0
  0
INSERT
  8
LAYER_1
  2
AIGNBL0104000B
 10
0
 20
0
 30
0
  0
ENDBLK
  0
BLOCK
  8
LAYER_1
  2
AIGNBL0103000D
 70
64
 10
0
 20
0
 30
0
  3
AIGNBL0103000D
  0
POLYLINE
  8
LAYER_1
 40
0.05
 41
0.05
 62
39
 66
1
 10
0
 20
0
 30
0
 70
1
  0
VERTEX
  8
LAYER_1
 10
319.4696
 20
135.8906
  0
VERTEX
  8
LAYER_1
 10
320.0228
 20
135.8906
  0
VERTEX
  8
LAYER_1
 10
320.0228
 20
135.7969
  0
VERTEX
  8
LAYER_1
 10
319.3645
 20
135.7969
  0
VERTEX
  8
LAYER_1
 10
319.3645
 20
136.83
  0
VERTEX
  8
LAYER_1
 10
320.0053
 20
136.83
  0
VERTEX
  8
LAYER_1
 10
320.0053
 20
136.7367
  0
VERTEX
  8
LAYER_1
 10
319.4696
 20
136.7367
  0
VERTEX
  8
LAYER_1
 10
319.4696
 20
136.3822
  0
VERTEX
  8
LAYER_1
 10
319.9701
 20
136.3822
  0
VERTEX
  8
LAYER_1
 10
319.9701
 20
136.2888
  0
VERTEX
  8
LAYER_1
 10
319.4696
 20
136.2888
  0
SEQEND
  0
ENDBLK
  0
BLOCK
  8
LAYER_1
  2
AIGNBL0103000E
 70
64
 10
0
 20
0
 30
0
  3
AIGNBL0103000E
  0
POLYLINE
  8
LAYER_1
 40
0.05
 41
0.05
 62
39
 66
1
 10
0
 20
0
 30
0
 70
1
  0
VERTEX
  8
LAYER_1
 10
321.1625
 20
135.9502
  0
VERTEX
  8
LAYER_1
 10
321.1652
 20
135.9502
  0
VERTEX
  8
LAYER_1
 10
321.1652
 20
136.83
  0
VERTEX
  8
LAYER_1
 10
321.2703
 20
136.83
  0
VERTEX
  8
LAYER_1
 10
321.2703
 20
135.7969
  0
VERTEX
  8
LAYER_1
 10
321.1394
 20
135.7969
  0
VERTEX
  8
LAYER_1
 10
320.5382
 20
136.6857
  0
VERTEX
  8
LAYER_1
 10
320.5348
 20
136.6857
  0
VERTEX
  8
LAYER_1
 10
320.5348
 20
135.7969
  0
VERTEX
  8
LAYER_1
 10
320.43
 20
135.7969
  0
VERTEX
  8
LAYER_1
 10
320.43
 20
136.83
  0
VERTEX
  8
LAYER_1
 10
320.5613
 20
136.83
  0
SEQEND
  0
ENDBLK
  0
BLOCK
  8
LAYER_1
  2
AIGNBL0103000F
 70
64
 10
0
 20
0
 30
0
  3
AIGNBL0103000F
  0
POLYLINE
  8
LAYER_1
 40
0.05
 41
0.05
 62
39
 66
1
 10
0
 20
0
 30
0
 70
1
  0
VERTEX
  8
LAYER_1
 10
321.7433
 20
136.0087
  0
VERTEX
  8
LAYER_1
 10
321.7978
 20
135.9057
 42
0.1804993832
  0
VERTEX
  8
LAYER_1
 10
321.9111
 20
135.8641
  0
VERTEX
  8
LAYER_1
 10
322.0003
 20
135.8837
  0
VERTEX
  8
LAYER_1
 10
322.0565
 20
135.9371
  0
VERTEX
  8
LAYER_1
 10
322.0854
 20
136.0136
  0
VERTEX
  8
LAYER_1
 10
322.0937
 20
136.1031
  0
VERTEX
  8
LAYER_1
 10
322.0937
 20
136.83
  0
VERTEX
  8
LAYER_1
 10
322.1988
 20
136.83
  0
VERTEX
  8
LAYER_1
 10
322.1988
 20
136.0945
  0
VERTEX
  8
LAYER_1
 10
322.1874
 20
135.9867
  0
VERTEX
  8
LAYER_1
 10
322.1461
 20
135.8816
  0
VERTEX
  8
LAYER_1
 10
322.0613
 20
135.802
  0
VERTEX
  8
LAYER_1
 10
321.9225
 20
135.7707
 42
-0.1842921564
  0
VERTEX
  8
LAYER_1
 10
321.7378
 20
135.8306
 42
-0.176191571
  0
VERTEX
  8
LAYER_1
 10
321.6455
 20
135.9822
  0
SEQEND
  0
ENDBLK
  0
BLOCK
  8
LAYER_1
  2
AIGNBL01030010
 70
64
 10
0
 20
0
 30
0
  3
AIGNBL01030010
  0
POLYLINE
  8
LAYER_1
 40
0.05
 41
0.05
 62
39
 66
1
 10
0
 20
0
 30
0
 70
1
  0
VERTEX
  8
LAYER_1
 10
323.6871
 20
136.3136
 42
-0.1039155253
  0
VERTEX
  8
LAYER_1
 10
323.646
 20
136.0963
 42
-0.1007605982
  0
VERTEX
  8
LAYER_1
 10
323.5334
 20
135.9247
  0
VERTEX
  8
LAYER_1
 10
323.3625
 20
135.8117
 42
-0.09506675375
  0
VERTEX
  8
LAYER_1
 10
323.1486
 20
135.7707
 42
-0.1010866674
  0
VERTEX
  8
LAYER_1
 10
322.935
 20
135.8117
 42
-0.1005668876
  0
VERTEX
  8
LAYER_1
 10
322.7641
 20
135.9247
 42
-0.09506500803
  0
VERTEX
  8
LAYER_1
 10
322.6508
 20
136.0963
 42
-0.09321126599
  0
VERTEX
  8
LAYER_1
 10
322.6101
 20
136.3136
 42
-0.102956405
  0
VERTEX
  8
LAYER_1
 10
322.6508
 20
136.531
 42
-0.1008913794
  0
VERTEX
  8
LAYER_1
 10
322.7641
 20
136.7026
 42
-0.09625543395
  0
VERTEX
  8
LAYER_1
 10
322.935
 20
136.8156
 42
-0.09521573462
  0
VERTEX
  8
LAYER_1
 10
323.1486
 20
136.8566
 42
-0.101175466
  0
VERTEX
  8
LAYER_1
 10
323.3625
 20
136.8156
 42
-0.09853409661
  0
VERTEX
  8
LAYER_1
 10
323.5334
 20
136.7026
 42
-0.09556553869
  0
VERTEX
  8
LAYER_1
 10
323.646
 20
136.531
 42
-0.0941730705
  0
SEQEND
  0
POLYLINE
  8
LAYER_1
 40
0.05
 41
0.05
 62
39
 66
1
 10
0
 20
0
 30
0
 70
1
  0
VERTEX
  8
LAYER_1
 10
323.5761
 20
136.3129
  0
VERTEX
  8
LAYER_1
 10
323.5472
 20
136.4848
  0
VERTEX
  8
LAYER_1
 10
323.4624
 20
136.6282
  0
VERTEX
  8
LAYER_1
 10
323.3274
 20
136.7264
  0
VERTEX
  8
LAYER_1
 10
323.1486
 20
136.7632
  0
VERTEX
  8
LAYER_1
 10
322.9698
 20
136.7264
  0
VERTEX
  8
LAYER_1
 10
322.8351
 20
136.6282
  0
VERTEX
  8
LAYER_1
 10
322.7503
 20
136.4848
  0
VERTEX
  8
LAYER_1
 10
322.7211
 20
136.3129
  0
VERTEX
  8
LAYER_1
 10
322.7503
 20
136.141
  0
VERTEX
  8
LAYER_1
 10
322.8351
 20
135.998
  0
VERTEX
  8
LAYER_1
 10
322.9698
 20
135.9006
 42
0.1008280473
  0
VERTEX
  8
LAYER_1
 10
323.1486
 20
135.8641
  0
VERTEX
  8
LAYER_1
 10
323.3274
 20
135.9006
  0
VERTEX
  8
LAYER_1
 10
323.4624
 20
135.998
  0
VERTEX
  8
LAYER_1
 10
323.5472
 20
136.141
  0
SEQEND
  0
ENDBLK
  0
BLOCK
  8
LAYER_1
  2
AIGNBL01030011
 70
64
 10
0
 20
0
 30
0
  3
AIGNBL01030011
  0
POLYLINE
  8
LAYER_1
 40
0.05
 41
0.05
 62
39
 66
1
 10
0
 20
0
 30
0
 70
1
  0
VERTEX
  8
LAYER_1
 10
324.4618
 20
135.7969
  0
VERTEX
  8
LAYER_1
 10
324.3571
 20
135.7969
  0
VERTEX
  8
LAYER_1
 10
324.3571
 20
136.2423
  0
VERTEX
  8
LAYER_1
 10
323.9702
 20
136.83
  0
VERTEX
  8
LAYER_1
 10
324.1015
 20
136.83
  0
VERTEX
  8
LAYER_1
 10
324.4126
 20
136.3298
  0
VERTEX
  8
LAYER_1
 10
324.7261
 20
136.83
  0
VERTEX
  8
LAYER_1
 10
324.8484
 20
136.83
  0
VERTEX
  8
LAYER_1
 10
324.4618
 20
136.2423
  0
SEQEND
  0
ENDBLK
  0
BLOCK
  8
LAYER_1
  2
AIGNBL01030012
 70
64
 10
0
 20
0
 30
0
  3
AIGNBL01030012
  0
POLYLINE
  8
LAYER_1
 40
0.05
 41
0.05
 62
39
 66
1
 10
0
 20
0
 30
0
 70
1
  0
VERTEX
  8
LAYER_1
 10
325.7534
 20
136.83
  0
VERTEX
  8
LAYER_1
 10
326.061
 20
136.83
  0
VERTEX
  8
LAYER_1
 10
326.1796
 20
136.8177
  0
VERTEX
  8
LAYER_1
 10
326.2864
 20
136.7753
  0
VERTEX
  8
LAYER_1
 10
326.3642
 20
136.6943
  0
VERTEX
  8
LAYER_1
 10
326.3939
 20
136.5662
 42
-0.1787887146
  0
VERTEX
  8
LAYER_1
 10
326.3439
 20
136.4239
 42
-0.1642259289
  0
VERTEX
  8
LAYER_1
 10
326.2106
 20
136.3443
  0
VERTEX
  8
LAYER_1
 10
326.2106
 20
136.3415
 42
-0.1735745096
  0
VERTEX
  8
LAYER_1
 10
326.3773
 20
136.2633
 42
-0.1923594805
  0
VERTEX
  8
LAYER_1
 10
326.4435
 20
136.0828
  0
VERTEX
  8
LAYER_1
 10
326.4163
 20
135.9657
  0
VERTEX
  8
LAYER_1
 10
326.3401
 20
135.8751
  0
VERTEX
  8
LAYER_1
 10
326.2192
 20
135.8175
  0
VERTEX
  8
LAYER_1
 10
326.0594
 20
135.7969
  0
VERTEX
  8
LAYER_1
 10
325.7534
 20
135.7969
  0
SEQEND
  0
POLYLINE
  8
LAYER_1
 40
0.05
 41
0.05
 62
39
 66
1
 10
0
 20
0
 30
0
 70
1
  0
VERTEX
  8
LAYER_1
 10
325.8585
 20
136.3777
  0
VERTEX
  8
LAYER_1
 10
326.07
 20
136.3777
  0
VERTEX
  8
LAYER_1
 10
326.1468
 20
136.3867
  0
VERTEX
  8
LAYER_1
 10
326.2171
 20
136.4163
  0
VERTEX
  8
LAYER_1
 10
326.2692
 20
136.4728
  0
VERTEX
  8
LAYER_1
 10
326.2888
 20
136.5589
  0
VERTEX
  8
LAYER_1
 10
326.2692
 20
136.6426
  0
VERTEX
  8
LAYER_1
 10
326.2161
 20
136.6988
  0
VERTEX
  8
LAYER_1
 10
326.1372
 20
136.7301
  0
VERTEX
  8
LAYER_1
 10
326.0407
 20
136.7398
  0
VERTEX
  8
LAYER_1
 10
325.8585
 20
136.7398
  0
SEQEND
  0
POLYLINE
  8
LAYER_1
 40
0.05
 41
0.05
 62
39
 66
1
 10
0
 20
0
 30
0
 70
1
  0
VERTEX
  8
LAYER_1
 10
325.8585
 20
135.8875
  0
VERTEX
  8
LAYER_1
 10
326.0542
 20
135.8875
  0
VERTEX
  8
LAYER_1
 10
326.1627
 20
135.8985
  0
VERTEX
  8
LAYER_1
 10
326.2533
 20
135.9333
  0
VERTEX
  8
LAYER_1
 10
326.315
 20
135.9964
  0
VERTEX
  8
LAYER_1
 10
326.3384
 20
136.089
 42
0.2554961852
  0
VERTEX
  8
LAYER_1
 10
326.2692
 20
136.2413
 42
0.1380642909
  0
VERTEX
  8
LAYER_1
 10
326.0731
 20
136.2916
  0
VERTEX
  8
LAYER_1
 10
325.8585
 20
136.2916
  0
SEQEND
  0
ENDBLK
  0
BLOCK
  8
LAYER_1
  2
AIGNBL01030013
 70
64
 10
0
 20
0
 30
0
  3
AIGNBL01030013
  0
POLYLINE
  8
LAYER_1
 40
0.05
 41
0.05
 62
39
 66
1
 10
0
 20
0
 30
0
 70
1
  0
VERTEX
  8
LAYER_1
 10
326.8755
 20
135.7969
  0
VERTEX
  8
LAYER_1
 10
326.7601
 20
135.7969
  0
VERTEX
  8
LAYER_1
 10
327.2069
 20
136.83
  0
VERTEX
  8
LAYER_1
 10
327.3092
 20
136.83
  0
VERTEX
  8
LAYER_1
 10
327.7526
 20
135.7969
  0
VERTEX
  8
LAYER_1
 10
327.6358
 20
135.7969
  0
VERTEX
  8
LAYER_1
 10
327.5218
 20
136.0684
  0
VERTEX
  8
LAYER_1
 10
326.9878
 20
136.0684
  0
SEQEND
  0
POLYLINE
  8
LAYER_1
 40
0.05
 41
0.05
 62
39
 66
1
 10
0
 20
0
 30
0
 70
1
  0
VERTEX
  8
LAYER_1
 10
327.0271
 20
136.1648
  0
VERTEX
  8
LAYER_1
 10
327.4825
 20
136.1648
  0
VERTEX
  8
LAYER_1
 10
327.2548
 20
136.7136
  0
SEQEND
  0
ENDBLK
  0
BLOCK
  8
LAYER_1
  2
AIGNBL01030014
 70
64
 10
0
 20
0
 30
0
  3
AIGNBL01030014
  0
POLYLINE
  8
LAYER_1
 40
0.05
 41
0.05
 62
39
 66
1
 10
0
 20
0
 30
0
 70
1
  0
VERTEX
  8
LAYER_1
 10
328.4371
 20
135.7969
  0
VERTEX
  8
LAYER_1
 10
328.3321
 20
135.7969
  0
VERTEX
  8
LAYER_1
 10
328.3321
 20
136.7367
  0
VERTEX
  8
LAYER_1
 10
327.9858
 20
136.7367
  0
VERTEX
  8
LAYER_1
 10
327.9858
 20
136.83
  0
VERTEX
  8
LAYER_1
 10
328.7827
 20
136.83
  0
VERTEX
  8
LAYER_1
 10
328.7827
 20
136.7367
  0
VERTEX
  8
LAYER_1
 10
328.4371
 20
136.7367
  0
SEQEND
  0
ENDBLK
  0
BLOCK
  8
LAYER_1
  2
AIGNBL01030015
 70
64
 10
0
 20
0
 30
0
  3
AIGNBL01030015
  0
POLYLINE
  8
LAYER_1
 40
0.05
 41
0.05
 62
39
 66
1
 10
0
 20
0
 30
0
 70
1
  0
VERTEX
  8
LAYER_1
 10
329.1389
 20
136.83
  0
VERTEX
  8
LAYER_1
 10
329.2436
 20
136.83
  0
VERTEX
  8
LAYER_1
 10
329.2436
 20
136.3822
  0
VERTEX
  8
LAYER_1
 10
329.8073
 20
136.3822
  0
VERTEX
  8
LAYER_1
 10
329.8073
 20
136.83
  0
VERTEX
  8
LAYER_1
 10
329.9123
 20
136.83
  0
VERTEX
  8
LAYER_1
 10
329.9123
 20
135.7969
  0
VERTEX
  8
LAYER_1
 10
329.8073
 20
135.7969
  0
VERTEX
  8
LAYER_1
 10
329.8073
 20
136.2861
  0
VERTEX
  8
LAYER_1
 10
329.2436
 20
136.2861
  0
VERTEX
  8
LAYER_1
 10
329.2436
 20
135.7969
  0
VERTEX
  8
LAYER_1
 10
329.1389
 20
135.7969
  0
SEQEND
  0
ENDBLK
  0
BLOCK
  8
LAYER_1
  2
AIGNBL01030016
 70
64
 10
0
 20
0
 30
0
  3
AIGNBL01030016
  0
POLYLINE
  8
LAYER_1
 40
0.05
 41
0.05
 62
39
 66
1
 10
0
 20
0
 30
0
 70
1
  0
VERTEX
  8
LAYER_1
 10
330.4928
 20
135.7969
  0
VERTEX
  8
LAYER_1
 10
330.3878
 20
135.7969
  0
VERTEX
  8
LAYER_1
 10
330.3878
 20
136.83
  0
VERTEX
  8
LAYER_1
 10
330.6916
 20
136.83
  0
VERTEX
  8
LAYER_1
 10
330.8322
 20
136.8156
  0
VERTEX
  8
LAYER_1
 10
330.9448
 20
136.7681
  0
VERTEX
  8
LAYER_1
 10
331.0182
 20
136.6826
  0
VERTEX
  8
LAYER_1
 10
331.0444
 20
136.5544
  0
VERTEX
  8
LAYER_1
 10
331.0244
 20
136.4508
  0
VERTEX
  8
LAYER_1
 10
330.969
 20
136.3698
  0
VERTEX
  8
LAYER_1
 10
330.8856
 20
136.315
  0
VERTEX
  8
LAYER_1
 10
330.7805
 20
136.2888
  0
VERTEX
  8
LAYER_1
 10
331.0826
 20
135.7969
  0
VERTEX
  8
LAYER_1
 10
330.9541
 20
135.7969
  0
VERTEX
  8
LAYER_1
 10
330.6682
 20
136.2799
  0
VERTEX
  8
LAYER_1
 10
330.4928
 20
136.2799
  0
SEQEND
  0
POLYLINE
  8
LAYER_1
 40
0.05
 41
0.05
 62
39
 66
1
 10
0
 20
0
 30
0
 70
1
  0
VERTEX
  8
LAYER_1
 10
330.4928
 20
136.3705
  0
VERTEX
  8
LAYER_1
 10
330.6754
 20
136.3705
 42
0.1657798624
  0
VERTEX
  8
LAYER_1
 10
330.8711
 20
136.4163
 42
0.2505825341
  0
VERTEX
  8
LAYER_1
 10
330.9397
 20
136.5544
  0
VERTEX
  8
LAYER_1
 10
330.9204
 20
136.6402
  0
VERTEX
  8
LAYER_1
 10
330.868
 20
136.6974
  0
VERTEX
  8
LAYER_1
 10
330.7864
 20
136.7295
  0
VERTEX
  8
LAYER_1
 10
330.6799
 20
136.7398
  0
VERTEX
  8
LAYER_1
 10
330.4928
 20
136.7398
  0
SEQEND
  0
ENDBLK
  0
BLOCK
  8
LAYER_1
  2
AIGNBL01030017
 70
64
 10
0
 20
0
 30
0
  3
AIGNBL01030017
  0
POLYLINE
  8
LAYER_1
 40
0.05
 41
0.05
 62
39
 66
1
 10
0
 20
0
 30
0
 70
1
  0
VERTEX
  8
LAYER_1
 10
332.4848
 20
136.3136
 42
-0.1004848711
  0
VERTEX
  8
LAYER_1
 10
332.4441
 20
136.0963
 42
-0.1008913794
  0
VERTEX
  8
LAYER_1
 10
332.3308
 20
135.9247
 42
-0.09572075095
  0
VERTEX
  8
LAYER_1
 10
332.1603
 20
135.8117
 42
-0.09502028874
  0
VERTEX
  8
LAYER_1
 10
331.9463
 20
135.7707
 42
-0.101175466
  0
VERTEX
  8
LAYER_1
 10
331.7324
 20
135.8117
 42
-0.1001839173
  0
VERTEX
  8
LAYER_1
 10
331.5618
 20
135.9247
 42
-0.09574558136
  0
VERTEX
  8
LAYER_1
 10
331.4488
 20
136.0963
 42
-0.09297835669
  0
VERTEX
  8
LAYER_1
 10
331.4082
 20
136.3136
 42
-0.102539173
  0
VERTEX
  8
LAYER_1
 10
331.4488
 20
136.531
 42
-0.1015030268
  0
VERTEX
  8
LAYER_1
 10
331.5618
 20
136.7026
 42
-0.09577113234
  0
VERTEX
  8
LAYER_1
 10
331.7324
 20
136.8156
 42
-0.09506675375
  0
VERTEX
  8
LAYER_1
 10
331.9463
 20
136.8566
 42
-0.1012083438
  0
VERTEX
  8
LAYER_1
 10
332.1603
 20
136.8156
 42
-0.1015678172
  0
VERTEX
  8
LAYER_1
 10
332.3308
 20
136.7026
 42
-0.09506500802
  0
VERTEX
  8
LAYER_1
 10
332.4441
 20
136.531
 42
-0.09296181536
  0
SEQEND
  0
POLYLINE
  8
LAYER_1
 40
0.05
 41
0.05
 62
39
 66
1
 10
0
 20
0
 30
0
 70
1
  0
VERTEX
  8
LAYER_1
 10
332.3739
 20
136.3129
  0
VERTEX
  8
LAYER_1
 10
332.3446
 20
136.4848
  0
VERTEX
  8
LAYER_1
 10
332.2598
 20
136.6282
  0
VERTEX
  8
LAYER_1
 10
332.1251
 20
136.7264
  0
VERTEX
  8
LAYER_1
 10
331.9463
 20
136.7632
  0
VERTEX
  8
LAYER_1
 10
331.7675
 20
136.7264
  0
VERTEX
  8
LAYER_1
 10
331.6325
 20
136.6282
  0
VERTEX
  8
LAYER_1
 10
331.5477
 20
136.4848
  0
VERTEX
  8
LAYER_1
 10
331.5188
 20
136.3129
  0
VERTEX
  8
LAYER_1
 10
331.5477
 20
136.141
  0
VERTEX
  8
LAYER_1
 10
331.6325
 20
135.998
  0
VERTEX
  8
LAYER_1
 10
331.7675
 20
135.9006
  0
VERTEX
  8
LAYER_1
 10
331.9463
 20
135.8641
 42
0.1157330551
  0
VERTEX
  8
LAYER_1
 10
332.1251
 20
135.9006
  0
VERTEX
  8
LAYER_1
 10
332.2598
 20
135.998
  0
VERTEX
  8
LAYER_1
 10
332.3446
 20
136.141
  0
SEQEND
  0
ENDBLK
  0
BLOCK
  8
LAYER_1
  2
AIGNBL01030018
 70
64
 10
0
 20
0
 30
0
  3
AIGNBL01030018
  0
POLYLINE
  8
LAYER_1
 40
0.05
 41
0.05
 62
39
 66
1
 10
0
 20
0
 30
0
 70
1
  0
VERTEX
  8
LAYER_1
 10
333.9265
 20
136.3136
 42
-0.1037596834
  0
VERTEX
  8
LAYER_1
 10
333.8856
 20
136.0963
 42
-0.1005616574
  0
VERTEX
  8
LAYER_1
 10
333.7729
 20
135.9247
 42
-0.09536773851
  0
VERTEX
  8
LAYER_1
 10
333.602
 20
135.8117
 42
-0.09506675375
  0
VERTEX
  8
LAYER_1
 10
333.3881
 20
135.7707
 42
-0.101822328
  0
VERTEX
  8
LAYER_1
 10
333.1745
 20
135.8117
 42
-0.102625893
  0
VERTEX
  8
LAYER_1
 10
333.0036
 20
135.9247
 42
-0.09506500802
  0
VERTEX
  8
LAYER_1
 10
332.8903
 20
136.0963
 42
-0.09318137732
  0
VERTEX
  8
LAYER_1
 10
332.8496
 20
136.3136
 42
-0.1023371638
  0
VERTEX
  8
LAYER_1
 10
332.8903
 20
136.531
 42
-0.1008913794
  0
VERTEX
  8
LAYER_1
 10
333.0036
 20
136.7026
 42
-0.09625543395
  0
VERTEX
  8
LAYER_1
 10
333.1745
 20
136.8156
 42
-0.09528409444
  0
VERTEX
  8
LAYER_1
 10
333.3881
 20
136.8566
 42
-0.101175466
  0
VERTEX
  8
LAYER_1
 10
333.602
 20
136.8156
 42
-0.09853409662
  0
VERTEX
  8
LAYER_1
 10
333.7729
 20
136.7026
 42
-0.09576191851
  0
VERTEX
  8
LAYER_1
 10
333.8856
 20
136.531
 42
-0.09373913756
  0
SEQEND
  0
POLYLINE
  8
LAYER_1
 40
0.05
 41
0.05
 62
39
 66
1
 10
0
 20
0
 30
0
 70
1
  0
VERTEX
  8
LAYER_1
 10
333.8156
 20
136.3129
  0
VERTEX
  8
LAYER_1
 10
333.7867
 20
136.4848
  0
VERTEX
  8
LAYER_1
 10
333.7019
 20
136.6282
  0
VERTEX
  8
LAYER_1
 10
333.5669
 20
136.7264
  0
VERTEX
  8
LAYER_1
 10
333.3881
 20
136.7632
  0
VERTEX
  8
LAYER_1
 10
333.2093
 20
136.7264
  0
VERTEX
  8
LAYER_1
 10
333.0746
 20
136.6282
  0
VERTEX
  8
LAYER_1
 10
332.9898
 20
136.4848
  0
VERTEX
  8
LAYER_1
 10
332.9606
 20
136.3129
  0
VERTEX
  8
LAYER_1
 10
332.9898
 20
136.141
  0
VERTEX
  8
LAYER_1
 10
333.0746
 20
135.998
  0
VERTEX
  8
LAYER_1
 10
333.2093
 20
135.9006
 42
0.1008257054
  0
VERTEX
  8
LAYER_1
 10
333.3881
 20
135.8641
  0
VERTEX
  8
LAYER_1
 10
333.5669
 20
135.9006
  0
VERTEX
  8
LAYER_1
 10
333.7019
 20
135.998
  0
VERTEX
  8
LAYER_1
 10
333.7867
 20
136.141
  0
SEQEND
  0
ENDBLK
  0
BLOCK
  8
LAYER_1
  2
AIGNBL01030019
 70
64
 10
0
 20
0
 30
0
  3
AIGNBL01030019
  0
POLYLINE
  8
LAYER_1
 40
0.05
 41
0.05
 62
39
 66
1
 10
0
 20
0
 30
0
 70
1
  0
VERTEX
  8
LAYER_1
 10
334.8574
 20
135.975
  0
VERTEX
  8
LAYER_1
 10
334.8591
 20
135.975
  0
VERTEX
  8
LAYER_1
 10
335.2047
 20
136.83
  0
VERTEX
  8
LAYER_1
 10
335.3656
 20
136.83
  0
VERTEX
  8
LAYER_1
 10
335.3656
 20
135.7969
  0
VERTEX
  8
LAYER_1
 10
335.2601
 20
135.7969
  0
VERTEX
  8
LAYER_1
 10
335.2601
 20
136.6943
  0
VERTEX
  8
LAYER_1
 10
335.2574
 20
136.6943
  0
VERTEX
  8
LAYER_1
 10
334.8839
 20
135.7969
  0
VERTEX
  8
LAYER_1
 10
334.8285
 20
135.7969
  0
VERTEX
  8
LAYER_1
 10
334.4547
 20
136.6943
  0
VERTEX
  8
LAYER_1
 10
334.4519
 20
136.6943
  0
VERTEX
  8
LAYER_1
 10
334.4519
 20
135.7969
  0
VERTEX
  8
LAYER_1
 10
334.3469
 20
135.7969
  0
VERTEX
  8
LAYER_1
 10
334.3469
 20
136.83
  0
VERTEX
  8
LAYER_1
 10
334.5074
 20
136.83
  0
SEQEND
  0
ENDBLK
  0
BLOCK
  8
LAYER_1
  2
AIGNBL0103001A
 70
64
 10
0
 20
0
 30
0
  3
AIGNBL0103001A
  0
POLYLINE
  8
LAYER_1
 40
0.05
 41
0.05
 62
39
 66
1
 10
0
 20
0
 30
0
 70
1
  0
VERTEX
  8
LAYER_1
 10
336.5121
 20
135.8906
  0
VERTEX
  8
LAYER_1
 10
337.0654
 20
135.8906
  0
VERTEX
  8
LAYER_1
 10
337.0654
 20
135.7969
  0
VERTEX
  8
LAYER_1
 10
336.407
 20
135.7969
  0
VERTEX
  8
LAYER_1
 10
336.407
 20
136.83
  0
VERTEX
  8
LAYER_1
 10
337.0478
 20
136.83
  0
VERTEX
  8
LAYER_1
 10
337.0478
 20
136.7367
  0
VERTEX
  8
LAYER_1
 10
336.5121
 20
136.7367
  0
VERTEX
  8
LAYER_1
 10
336.5121
 20
136.3822
  0
VERTEX
  8
LAYER_1
 10
337.0127
 20
136.3822
  0
VERTEX
  8
LAYER_1
 10
337.0127
 20
136.2888
  0
VERTEX
  8
LAYER_1
 10
336.5121
 20
136.2888
  0
SEQEND
  0
ENDBLK
  0
BLOCK
  8
LAYER_1
  2
AIGNBL0103001B
 70
64
 10
0
 20
0
 30
0
  3
AIGNBL0103001B
  0
POLYLINE
  8
LAYER_1
 40
0.05
 41
0.05
 62
39
 66
1
 10
0
 20
0
 30
0
 70
1
  0
VERTEX
  8
LAYER_1
 10
337.8106
 20
136.4128
  0
VERTEX
  8
LAYER_1
 10
338.0927
 20
136.83
  0
VERTEX
  8
LAYER_1
 10
338.2178
 20
136.83
  0
VERTEX
  8
LAYER_1
 10
337.8753
 20
136.3384
  0
VERTEX
  8
LAYER_1
 10
338.2546
 20
135.7969
  0
VERTEX
  8
LAYER_1
 10
338.1234
 20
135.7969
  0
VERTEX
  8
LAYER_1
 10
337.8078
 20
136.2626
  0
VERTEX
  8
LAYER_1
 10
337.4943
 20
135.7969
  0
VERTEX
  8
LAYER_1
 10
337.3627
 20
135.7969
  0
VERTEX
  8
LAYER_1
 10
337.7424
 20
136.3398
  0
VERTEX
  8
LAYER_1
 10
337.3965
 20
136.83
  0
VERTEX
  8
LAYER_1
 10
337.5281
 20
136.83
  0
SEQEND
  0
ENDBLK
  0
BLOCK
  8
LAYER_1
  2
AIGNBL0103001C
 70
64
 10
0
 20
0
 30
0
  3
AIGNBL0103001C
  0
POLYLINE
  8
LAYER_1
 40
0.05
 41
0.05
 62
39
 66
1
 10
0
 20
0
 30
0
 70
1
  0
VERTEX
  8
LAYER_1
 10
338.6209
 20
136.83
  0
VERTEX
  8
LAYER_1
 10
338.913
 20
136.83
  0
VERTEX
  8
LAYER_1
 10
339.056
 20
136.8135
  0
VERTEX
  8
LAYER_1
 10
339.1659
 20
136.7622
  0
VERTEX
  8
LAYER_1
 10
339.2368
 20
136.676
  0
VERTEX
  8
LAYER_1
 10
339.2613
 20
136.5544
  0
VERTEX
  8
LAYER_1
 10
339.2361
 20
136.4325
  0
VERTEX
  8
LAYER_1
 10
339.1645
 20
136.3464
  0
VERTEX
  8
LAYER_1
 10
339.0536
 20
136.2947
  0
VERTEX
  8
LAYER_1
 10
338.9099
 20
136.2771
  0
VERTEX
  8
LAYER_1
 10
338.7259
 20
136.2771
  0
VERTEX
  8
LAYER_1
 10
338.7259
 20
135.7969
  0
VERTEX
  8
LAYER_1
 10
338.6209
 20
135.7969
  0
SEQEND
  0
POLYLINE
  8
LAYER_1
 40
0.05
 41
0.05
 62
39
 66
1
 10
0
 20
0
 30
0
 70
1
  0
VERTEX
  8
LAYER_1
 10
338.7259
 20
136.366
  0
VERTEX
  8
LAYER_1
 10
338.9037
 20
136.366
 42
0.1829203509
  0
VERTEX
  8
LAYER_1
 10
339.0921
 20
136.4142
 42
0.2347735668
  0
VERTEX
  8
LAYER_1
 10
339.1565
 20
136.5544
 42
0.2656295013
  0
VERTEX
  8
LAYER_1
 10
339.0901
 20
136.6953
 42
0.1267085896
  0
VERTEX
  8
LAYER_1
 10
338.9037
 20
136.7398
  0
VERTEX
  8
LAYER_1
 10
338.7259
 20
136.7398
  0
SEQEND
  0
ENDBLK
  0
BLOCK
  8
LAYER_1
  2
AIGNBL0103001D
 70
64
 10
0
 20
0
 30
0
  3
AIGNBL0103001D
  0
POLYLINE
  8
LAYER_1
 40
0.05
 41
0.05
 62
39
 66
1
 10
0
 20
0
 30
0
 70
1
  0
VERTEX
  8
LAYER_1
 10
339.7736
 20
135.8906
  0
VERTEX
  8
LAYER_1
 10
340.3268
 20
135.8906
  0
VERTEX
  8
LAYER_1
 10
340.3268
 20
135.7969
  0
VERTEX
  8
LAYER_1
 10
339.6685
 20
135.7969
  0
VERTEX
  8
LAYER_1
 10
339.6685
 20
136.83
  0
VERTEX
  8
LAYER_1
 10
340.3093
 20
136.83
  0
VERTEX
  8
LAYER_1
 10
340.3093
 20
136.7367
  0
VERTEX
  8
LAYER_1
 10
339.7736
 20
136.7367
  0
VERTEX
  8
LAYER_1
 10
339.7736
 20
136.3822
  0
VERTEX
  8
LAYER_1
 10
340.2741
 20
136.3822
  0
VERTEX
  8
LAYER_1
 10
340.2741
 20
136.2888
  0
VERTEX
  8
LAYER_1
 10
339.7736
 20
136.2888
  0
SEQEND
  0
ENDBLK
  0
BLOCK
  8
LAYER_1
  2
AIGNBL0103001E
 70
64
 10
0
 20
0
 30
0
  3
AIGNBL0103001E
  0
POLYLINE
  8
LAYER_1
 40
0.05
 41
0.05
 62
39
 66
1
 10
0
 20
0
 30
0
 70
1
  0
VERTEX
  8
LAYER_1
 10
340.8388
 20
135.7969
  0
VERTEX
  8
LAYER_1
 10
340.7337
 20
135.7969
  0
VERTEX
  8
LAYER_1
 10
340.7337
 20
136.83
  0
VERTEX
  8
LAYER_1
 10
341.0376
 20
136.83
  0
VERTEX
  8
LAYER_1
 10
341.1781
 20
136.8156
  0
VERTEX
  8
LAYER_1
 10
341.2908
 20
136.7681
  0
VERTEX
  8
LAYER_1
 10
341.3645
 20
136.6826
  0
VERTEX
  8
LAYER_1
 10
341.3904
 20
136.5544
  0
VERTEX
  8
LAYER_1
 10
341.3704
 20
136.4508
  0
VERTEX
  8
LAYER_1
 10
341.3149
 20
136.3698
  0
VERTEX
  8
LAYER_1
 10
341.2315
 20
136.315
  0
VERTEX
  8
LAYER_1
 10
341.1265
 20
136.2888
  0
VERTEX
  8
LAYER_1
 10
341.4286
 20
135.7969
  0
VERTEX
  8
LAYER_1
 10
341.3001
 20
135.7969
  0
VERTEX
  8
LAYER_1
 10
341.0142
 20
136.2799
  0
VERTEX
  8
LAYER_1
 10
340.8388
 20
136.2799
  0
SEQEND
  0
POLYLINE
  8
LAYER_1
 40
0.05
 41
0.05
 62
39
 66
1
 10
0
 20
0
 30
0
 70
1
  0
VERTEX
  8
LAYER_1
 10
340.8388
 20
136.3705
  0
VERTEX
  8
LAYER_1
 10
341.0214
 20
136.3705
 42
0.1667119028
  0
VERTEX
  8
LAYER_1
 10
341.2171
 20
136.4163
 42
0.2504967168
  0
VERTEX
  8
LAYER_1
 10
341.2856
 20
136.5544
  0
VERTEX
  8
LAYER_1
 10
341.2667
 20
136.6402
  0
VERTEX
  8
LAYER_1
 10
341.214
 20
136.6974
  0
VERTEX
  8
LAYER_1
 10
341.1323
 20
136.7295
  0
VERTEX
  8
LAYER_1
 10
341.0259
 20
136.7398
  0
VERTEX
  8
LAYER_1
 10
340.8388
 20
136.7398
  0
SEQEND
  0
ENDBLK
  0
BLOCK
  8
LAYER_1
  2
AIGNBL0103001F
 70
64
 10
0
 20
0
 30
0
  3
AIGNBL0103001F
  0
POLYLINE
  8
LAYER_1
 40
0.05
 41
0.05
 62
39
 66
1
 10
0
 20
0
 30
0
 70
1
  0
VERTEX
  8
LAYER_1
 10
341.9143
 20
135.7969
  0
VERTEX
  8
LAYER_1
 10
341.8096
 20
135.7969
  0
VERTEX
  8
LAYER_1
 10
341.8096
 20
136.83
  0
VERTEX
  8
LAYER_1
 10
341.9143
 20
136.83
  0
SEQEND
  0
ENDBLK
  0
BLOCK
  8
LAYER_1
  2
AIGNBL01030020
 70
64
 10
0
 20
0
 30
0
  3
AIGNBL01030020
  0
POLYLINE
  8
LAYER_1
 40
0.05
 41
0.05
 62
39
 66
1
 10
0
 20
0
 30
0
 70
1
  0
VERTEX
  8
LAYER_1
 10
342.4952
 20
135.8906
  0
VERTEX
  8
LAYER_1
 10
343.0481
 20
135.8906
  0
VERTEX
  8
LAYER_1
 10
343.0481
 20
135.7969
  0
VERTEX
  8
LAYER_1
 10
342.3901
 20
135.7969
  0
VERTEX
  8
LAYER_1
 10
342.3901
 20
136.83
  0
VERTEX
  8
LAYER_1
 10
343.0309
 20
136.83
  0
VERTEX
  8
LAYER_1
 10
343.0309
 20
136.7367
  0
VERTEX
  8
LAYER_1
 10
342.4952
 20
136.7367
  0
VERTEX
  8
LAYER_1
 10
342.4952
 20
136.3822
  0
VERTEX
  8
LAYER_1
 10
342.9958
 20
136.3822
  0
VERTEX
  8
LAYER_1
 10
342.9958
 20
136.2888
  0
VERTEX
  8
LAYER_1
 10
342.4952
 20
136.2888
  0
SEQEND
  0
ENDBLK
  0
BLOCK
  8
LAYER_1
  2
AIGNBL01030021
 70
64
 10
0
 20
0
 30
0
  3
AIGNBL01030021
  0
POLYLINE
  8
LAYER_1
 40
0.05
 41
0.05
 62
39
 66
1
 10
0
 20
0
 30
0
 70
1
  0
VERTEX
  8
LAYER_1
 10
344.1881
 20
135.9502
  0
VERTEX
  8
LAYER_1
 10
344.1909
 20
135.9502
  0
VERTEX
  8
LAYER_1
 10
344.1909
 20
136.83
  0
VERTEX
  8
LAYER_1
 10
344.296
 20
136.83
  0
VERTEX
  8
LAYER_1
 10
344.296
 20
135.7969
  0
VERTEX
  8
LAYER_1
 10
344.1647
 20
135.7969
  0
VERTEX
  8
LAYER_1
 10
343.5635
 20
136.6857
  0
VERTEX
  8
LAYER_1
 10
343.5604
 20
136.6857
  0
VERTEX
  8
LAYER_1
 10
343.5604
 20
135.7969
  0
VERTEX
  8
LAYER_1
 10
343.4554
 20
135.7969
  0
VERTEX
  8
LAYER_1
 10
343.4554
 20
136.83
  0
VERTEX
  8
LAYER_1
 10
343.5869
 20
136.83
  0
SEQEND
  0
ENDBLK
  0
BLOCK
  8
LAYER_1
  2
AIGNBL01030022
 70
64
 10
0
 20
0
 30
0
  3
AIGNBL01030022
  0
POLYLINE
  8
LAYER_1
 40
0.05
 41
0.05
 62
39
 66
1
 10
0
 20
0
 30
0
 70
1
  0
VERTEX
  8
LAYER_1
 10
345.6416
 20
135.9646
  0
VERTEX
  8
LAYER_1
 10
345.5779
 20
135.8902
  0
VERTEX
  8
LAYER_1
 10
345.4918
 20
135.8286
  0
VERTEX
  8
LAYER_1
 10
345.3836
 20
135.7862
  0
VERTEX
  8
LAYER_1
 10
345.2547
 20
135.7707
 42
-0.1009408553
  0
VERTEX
  8
LAYER_1
 10
345.0387
 20
135.8117
 42
-0.1041666466
  0
VERTEX
  8
LAYER_1
 10
344.8682
 20
135.9247
 42
-0.09812642999
  0
VERTEX
  8
LAYER_1
 10
344.7566
 20
136.0963
 42
-0.09239893161
  0
VERTEX
  8
LAYER_1
 10
344.7163
 20
136.3136
 42
-0.1037891115
  0
VERTEX
  8
LAYER_1
 10
344.7572
 20
136.531
 42
-0.1005534539
  0
VERTEX
  8
LAYER_1
 10
344.8699
 20
136.7026
 42
-0.09536265516
  0
VERTEX
  8
LAYER_1
 10
345.0408
 20
136.8156
 42
-0.09506675375
  0
VERTEX
  8
LAYER_1
 10
345.2547
 20
136.8566
  0
VERTEX
  8
LAYER_1
 10
345.3663
 20
136.8445
  0
VERTEX
  8
LAYER_1
 10
345.4694
 20
136.8111
  0
VERTEX
  8
LAYER_1
 10
345.5568
 20
136.7594
  0
VERTEX
  8
LAYER_1
 10
345.6226
 20
136.6916
  0
VERTEX
  8
LAYER_1
 10
345.5352
 20
136.6272
  0
VERTEX
  8
LAYER_1
 10
345.4918
 20
136.6771
  0
VERTEX
  8
LAYER_1
 10
345.4284
 20
136.7209
  0
VERTEX
  8
LAYER_1
 10
345.3488
 20
136.7515
  0
VERTEX
  8
LAYER_1
 10
345.2561
 20
136.7632
  0
VERTEX
  8
LAYER_1
 10
345.0759
 20
136.7267
  0
VERTEX
  8
LAYER_1
 10
344.9409
 20
136.6285
  0
VERTEX
  8
LAYER_1
 10
344.8561
 20
136.4852
  0
VERTEX
  8
LAYER_1
 10
344.8272
 20
136.3136
  0
VERTEX
  8
LAYER_1
 10
344.8572
 20
136.1421
  0
VERTEX
  8
LAYER_1
 10
344.9426
 20
135.9988
  0
VERTEX
  8
LAYER_1
 10
345.0776
 20
135.9006
 42
0.1009931409
  0
VERTEX
  8
LAYER_1
 10
345.2561
 20
135.8641
  0
VERTEX
  8
LAYER_1
 10
345.4253
 20
135.9006
 42
0.1316725198
  0
VERTEX
  8
LAYER_1
 10
345.5596
 20
136.0173
  0
SEQEND
  0
ENDBLK
  0
BLOCK
  8
LAYER_1
  2
AIGNBL01030023
 70
64
 10
0
 20
0
 30
0
  3
AIGNBL01030023
  0
POLYLINE
  8
LAYER_1
 40
0.05
 41
0.05
 62
39
 66
1
 10
0
 20
0
 30
0
 70
1
  0
VERTEX
  8
LAYER_1
 10
346.1287
 20
135.8906
  0
VERTEX
  8
LAYER_1
 10
346.682
 20
135.8906
  0
VERTEX
  8
LAYER_1
 10
346.682
 20
135.7969
  0
VERTEX
  8
LAYER_1
 10
346.0237
 20
135.7969
  0
VERTEX
  8
LAYER_1
 10
346.0237
 20
136.83
  0
VERTEX
  8
LAYER_1
 10
346.6645
 20
136.83
  0
VERTEX
  8
LAYER_1
 10
346.6645
 20
136.7367
  0
VERTEX
  8
LAYER_1
 10
346.1287
 20
136.7367
  0
VERTEX
  8
LAYER_1
 10
346.1287
 20
136.3822
  0
VERTEX
  8
LAYER_1
 10
346.6293
 20
136.3822
  0
VERTEX
  8
LAYER_1
 10
346.6293
 20
136.2888
  0
VERTEX
  8
LAYER_1
 10
346.1287
 20
136.2888
  0
SEQEND
  0
ENDBLK
  0
BLOCK
  8
LAYER_1
  2
AIGNBL01020003
 70
64
 10
0
 20
0
 30
0
  3
AIGNBL01020003
  0
INSERT
  8
LAYER_1
  2
AIGNBL01030004
 10
0
 20
0
 30
0
  0
ENDBLK
  0
BLOCK
  8
LAYER_1
  2
AIGNBL0102000C
 70
64
 10
0
 20
0
 30
0
  3
AIGNBL0102000C
  0
INSERT
  8
LAYER_1
  2
AIGNBL0103000D
 10
0
 20
0
 30
0
  0
INSERT
  8
LAYER_1
  2
AIGNBL0103000E
 10
0
 20
0
 30
0
  0
INSERT
  8
LAYER_1
  2
AIGNBL0103000F
 10
0
 20
0
 30
0
  0
INSERT
  8
LAYER_1
  2
AIGNBL01030010
 10
0
 20
0
 30
0
  0
INSERT
  8
LAYER_1
  2
AIGNBL01030011
 10
0
 20
0
 30
0
  0
INSERT
  8
LAYER_1
  2
AIGNBL01030012
 10
0
 20
0
 30
0
  0
INSERT
  8
LAYER_1
  2
AIGNBL01030013
 10
0
 20
0
 30
0
  0
INSERT
  8
LAYER_1
  2
AIGNBL01030014
 10
0
 20
0
 30
0
  0
INSERT
  8
LAYER_1
  2
AIGNBL01030015
 10
0
 20
0
 30
0
  0
INSERT
  8
LAYER_1
  2
AIGNBL01030016
 10
0
 20
0
 30
0
  0
INSERT
  8
LAYER_1
  2
AIGNBL01030017
 10
0
 20
0
 30
0
  0
INSERT
  8
LAYER_1
  2
AIGNBL01030018
 10
0
 20
0
 30
0
  0
INSERT
  8
LAYER_1
  2
AIGNBL01030019
 10
0
 20
0
 30
0
  0
INSERT
  8
LAYER_1
  2
AIGNBL0103001A
 10
0
 20
0
 30
0
  0
INSERT
  8
LAYER_1
  2
AIGNBL0103001B
 10
0
 20
0
 30
0
  0
INSERT
  8
LAYER_1
  2
AIGNBL0103001C
 10
0
 20
0
 30
0
  0
INSERT
  8
LAYER_1
  2
AIGNBL0103001D
 10
0
 20
0
 30
0
  0
INSERT
  8
LAYER_1
  2
AIGNBL0103001E
 10
0
 20
0
 30
0
  0
INSERT
  8
LAYER_1
  2
AIGNBL0103001F
 10
0
 20
0
 30
0
  0
INSERT
  8
LAYER_1
  2
AIGNBL01030020
 10
0
 20
0
 30
0
  0
INSERT
  8
LAYER_1
  2
AIGNBL01030021
 10
0
 20
0
 30
0
  0
INSERT
  8
LAYER_1
  2
AIGNBL01030022
 10
0
 20
0
 30
0
  0
INSERT
  8
LAYER_1
  2
AIGNBL01030023
 10
0
 20
0
 30
0
  0
ENDBLK
  0
BLOCK
  8
LAYER_1
  2
AIGNBL01010002
 70
64
 10
0
 20
0
 30
0
  3
AIGNBL01010002
  0
INSERT
  8
LAYER_1
  2
AIGNBL01020003
 10
0
 20
0
 30
0
  0
INSERT
  8
LAYER_1
  2
AIGNBL0102000C
 10
0
 20
0
 30
0
  0
ENDBLK
  0
ENDSEC
  0
SECTION
  2
ENTITIES
  0
POLYLINE
  8
LAYER_1
 40
0.05
 41
0.05
 66
1
 10
0
 20
0
 30
0
 70
1
  0
VERTEX
  8
LAYER_1
 10
55.2434
 20
225.8528
  0
VERTEX
  8
LAYER_1
 10
55.2434
 20
225.2602
  0
VERTEX
  8
LAYER_1
 10
56.2383
 20
225.2602
  0
VERTEX
  8
LAYER_1
 10
56.2383
 20
225.8528
  0
SEQEND
  0
POLYLINE
  8
LAYER_1
 40
0.0847
 41
0.0847
 66
1
 10
0
 20
0
 30
0
 70
1
  0
VERTEX
  8
LAYER_1
 10
55.2434
 20
225.8528
  0
VERTEX
  8
LAYER_1
 10
55.2434
 20
225.2602
  0
VERTEX
  8
LAYER_1
 10
56.2383
 20
225.2602
  0
VERTEX
  8
LAYER_1
 10
56.2383
 20
225.8528
  0
SEQEND
  0
POLYLINE
  8
LAYER_1
 40
0.05
 41
0.05
 66
1
 10
0
 20
0
 30
0
 70
1
  0
VERTEX
  8
LAYER_1
 10
188.8475
 20
225.8528
  0
VERTEX
  8
LAYER_1
 10
188.8475
 20
225.2602
  0
VERTEX
  8
LAYER_1
 10
187.8526
 20
225.2602
  0
VERTEX
  8
LAYER_1
 10
187.8526
 20
225.8528
  0
SEQEND
  0
POLYLINE
  8
LAYER_1
 40
0.0847
 41
0.0847
 66
1
 10
0
 20
0
 30
0
 70
1
  0
VERTEX
  8
LAYER_1
 10
188.8475
 20
225.8528
  0
VERTEX
  8
LAYER_1
 10
188.8475
 20
225.2602
  0
VERTEX
  8
LAYER_1
 10
187.8526
 20
225.2602
  0
VERTEX
  8
LAYER_1
 10
187.8526
 20
225.8528
  0
SEQEND
  0
POLYLINE
  8
LAYER_1
 40
0.05
 41
0.05
 66
1
 10
0
 20
0
 30
0
 70
1
  0
VERTEX
  8
LAYER_1
 10
273.493
 20
225.8528
  0
VERTEX
  8
LAYER_1
 10
273.493
 20
225.2602
  0
VERTEX
  8
LAYER_1
 10
274.4877
 20
225.2602
  0
VERTEX
  8
LAYER_1
 10
274.4877
 20
225.8528
  0
SEQEND
  0
POLYLINE
  8
LAYER_1
 40
0.0847
 41
0.0847
 66
1
 10
0
 20
0
 30
0
 70
1
  0
VERTEX
  8
LAYER_1
 10
273.493
 20
225.8528
  0
VERTEX
  8
LAYER_1
 10
273.493
 20
225.2602
  0
VERTEX
  8
LAYER_1
 10
274.4877
 20
225.2602
  0
VERTEX
  8
LAYER_1
 10
274.4877
 20
225.8528
  0
SEQEND
  0
POLYLINE
  8
LAYER_1
 40
0.05
 41
0.05
 66
1
 10
0
 20
0
 30
0
 70
1
  0
VERTEX
  8
LAYER_1
 10
376.7016
 20
225.8528
  0
VERTEX
  8
LAYER_1
 10
376.7016
 20
225.2602
  0
VERTEX
  8
LAYER_1
 10
375.6856
 20
225.2602
  0
VERTEX
  8
LAYER_1
 10
375.6856
 20
225.8528
  0
SEQEND
  0
POLYLINE
  8
LAYER_1
 40
0.0847
 41
0.0847
 66
1
 10
0
 20
0
 30
0
 70
1
  0
VERTEX
  8
LAYER_1
 10
376.7016
 20
225.8528
  0
VERTEX
  8
LAYER_1
 10
376.7016
 20
225.2602
  0
VERTEX
  8
LAYER_1
 10
375.6856
 20
225.2602
  0
VERTEX
  8
LAYER_1
 10
375.6856
 20
225.8528
  0
SEQEND
  0
POLYLINE
  8
LAYER_1
 40
0.1693
 41
0.1693
 66
1
 10
0
 20
0
 30
0
  0
VERTEX
  8
LAYER_1
 10
187.1541
 20
324.5107
  0
VERTEX
  8
LAYER_1
 10
187.1329
 20
325.0822
  0
VERTEX
  8
LAYER_1
 10
187.1329
 20
325.6537
  0
VERTEX
  8
LAYER_1
 10
187.0906
 20
326.2252
  0
VERTEX
  8
LAYER_1
 10
187.0694
 20
326.7967
  0
VERTEX
  8
LAYER_1
 10
187.0271
 20
327.3682
  0
VERTEX
  8
LAYER_1
 10
186.9636
 20
327.9397
  0
VERTEX
  8
LAYER_1
 10
186.9001
 20
328.5112
  0
VERTEX
  8
LAYER_1
 10
186.8154
 20
329.0827
  0
VERTEX
  8
LAYER_1
 10
186.7308
 20
329.6542
  0
VERTEX
  8
LAYER_1
 10
186.6461
 20
330.2257
  0
VERTEX
  8
LAYER_1
 10
186.5403
 20
330.7972
  0
VERTEX
  8
LAYER_1
 10
186.4133
 20
331.3687
  0
VERTEX
  8
LAYER_1
 10
186.2863
 20
331.9402
  0
VERTEX
  8
LAYER_1
 10
186.1593
 20
332.4905
  0
VERTEX
  8
LAYER_1
 10
186.0111
 20
333.062
  0
VERTEX
  8
LAYER_1
 10
185.8418
 20
333.6123
  0
VERTEX
  8
LAYER_1
 10
185.6724
 20
334.1839
  0
VERTEX
  8
LAYER_1
 10
185.5031
 20
334.7342
  0
VERTEX
  8
LAYER_1
 10
185.3126
 20
335.3057
  0
VERTEX
  8
LAYER_1
 10
185.1221
 20
335.856
  0
VERTEX
  8
LAYER_1
 10
184.9104
 20
336.4063
  0
VERTEX
  8
LAYER_1
 10
184.6988
 20
336.9778
  0
VERTEX
  8
LAYER_1
 10
184.4659
 20
337.5282
  0
VERTEX
  8
LAYER_1
 10
184.2331
 20
338.0785
  0
VERTEX
  8
LAYER_1
 10
184.0003
 20
338.6077
  0
VERTEX
  8
LAYER_1
 10
183.7463
 20
339.158
  0
VERTEX
  8
LAYER_1
 10
183.4711
 20
339.7083
  0
VERTEX
  8
LAYER_1
 10
183.1959
 20
340.2375
  0
VERTEX
  8
LAYER_1
 10
182.9208
 20
340.7878
  0
VERTEX
  8
LAYER_1
 10
182.6244
 20
341.317
  0
VERTEX
  8
LAYER_1
 10
182.3281
 20
341.8462
  0
VERTEX
  8
LAYER_1
 10
182.0106
 20
342.3753
  0
VERTEX
  8
LAYER_1
 10
181.6931
 20
342.9045
  0
VERTEX
  8
LAYER_1
 10
181.3544
 20
343.4337
  0
VERTEX
  8
LAYER_1
 10
181.0158
 20
343.9417
  0
VERTEX
  8
LAYER_1
 10
180.6559
 20
344.4709
  0
VERTEX
  8
LAYER_1
 10
180.2961
 20
344.9789
  0
VERTEX
  8
LAYER_1
 10
179.9363
 20
345.4868
  0
VERTEX
  8
LAYER_1
 10
179.5553
 20
345.9948
  0
VERTEX
  8
LAYER_1
 10
179.1743
 20
346.5028
  0
VERTEX
  8
LAYER_1
 10
178.7721
 20
347.0108
  0
VERTEX
  8
LAYER_1
 10
178.3699
 20
347.5188
  0
VERTEX
  8
LAYER_1
 10
177.9678
 20
348.0057
  0
VERTEX
  8
LAYER_1
 10
177.5444
 20
348.4925
  0
VERTEX
  8
LAYER_1
 10
177.1211
 20
348.9793
  0
VERTEX
  8
LAYER_1
 10
176.6766
 20
349.4662
  0
VERTEX
  8
LAYER_1
 10
176.2321
 20
349.953
  0
VERTEX
  8
LAYER_1
 10
175.7664
 20
350.4187
  0
VERTEX
  8
LAYER_1
 10
175.3008
 20
350.8844
  0
VERTEX
  8
LAYER_1
 10
174.8351
 20
351.35
  0
VERTEX
  8
LAYER_1
 10
174.3483
 20
351.8157
  0
VERTEX
  8
LAYER_1
 10
173.8614
 20
352.2813
  0
VERTEX
  8
LAYER_1
 10
173.3746
 20
352.747
  0
VERTEX
  8
LAYER_1
 10
172.8666
 20
353.1915
  0
VERTEX
  8
LAYER_1
 10
172.3586
 20
353.636
  0
VERTEX
  8
LAYER_1
 10
171.8294
 20
354.0805
  0
VERTEX
  8
LAYER_1
 10
171.3003
 20
354.5038
  0
VERTEX
  8
LAYER_1
 10
170.7711
 20
354.9483
  0
VERTEX
  8
LAYER_1
 10
170.2208
 20
355.3717
  0
VERTEX
  8
LAYER_1
 10
169.6704
 20
355.795
  0
VERTEX
  8
LAYER_1
 10
169.1201
 20
356.2184
  0
VERTEX
  8
LAYER_1
 10
168.5486
 20
356.6205
  0
VERTEX
  8
LAYER_1
 10
167.9771
 20
357.0227
  0
VERTEX
  8
LAYER_1
 10
167.4056
 20
357.4249
  0
VERTEX
  8
LAYER_1
 10
166.8129
 20
357.827
  0
VERTEX
  8
LAYER_1
 10
166.2203
 20
358.2292
  0
VERTEX
  8
LAYER_1
 10
165.6064
 20
358.6102
  0
VERTEX
  8
LAYER_1
 10
165.0138
 20
358.9912
  0
VERTEX
  8
LAYER_1
 10
164.3999
 20
359.3722
  0
VERTEX
  8
LAYER_1
 10
163.7649
 20
359.732
  0
VERTEX
  8
LAYER_1
 10
163.1511
 20
360.0918
  0
VERTEX
  8
LAYER_1
 10
162.5161
 20
360.4517
  0
VERTEX
  8
LAYER_1
 10
161.8599
 20
360.8115
  0
VERTEX
  8
LAYER_1
 10
161.2249
 20
361.1713
  0
VERTEX
  8
LAYER_1
 10
160.5688
 20
361.51
  0
VERTEX
  8
LAYER_1
 10
159.9126
 20
361.8487
  0
VERTEX
  8
LAYER_1
 10
159.2564
 20
362.1662
  0
VERTEX
  8
LAYER_1
 10
158.5791
 20
362.5048
  0
VERTEX
  8
LAYER_1
 10
157.9018
 20
362.8224
  0
VERTEX
  8
LAYER_1
 10
157.2244
 20
363.1187
  0
VERTEX
  8
LAYER_1
 10
156.5259
 20
363.4362
  0
VERTEX
  8
LAYER_1
 10
155.8274
 20
363.7325
  0
VERTEX
  8
LAYER_1
 10
155.1289
 20
364.0288
  0
VERTEX
  8
LAYER_1
 10
154.4304
 20
364.3252
  0
VERTEX
  8
LAYER_1
 10
153.7319
 20
364.6003
  0
VERTEX
  8
LAYER_1
 10
153.0123
 20
364.8755
  0
VERTEX
  8
LAYER_1
 10
152.2926
 20
365.1507
  0
VERTEX
  8
LAYER_1
 10
151.5729
 20
365.4047
  0
VERTEX
  8
LAYER_1
 10
150.8533
 20
365.6587
  0
VERTEX
  8
LAYER_1
 10
150.1124
 20
365.9127
  0
VERTEX
  8
LAYER_1
 10
149.3716
 20
366.1667
  0
VERTEX
  8
LAYER_1
 10
148.6308
 20
366.3995
  0
VERTEX
  8
LAYER_1
 10
147.8899
 20
366.6323
  0
VERTEX
  8
LAYER_1
 10
147.1491
 20
366.8652
  0
VERTEX
  8
LAYER_1
 10
146.3871
 20
367.0769
  0
VERTEX
  8
LAYER_1
 10
145.6251
 20
367.2885
  0
VERTEX
  8
LAYER_1
 10
144.8631
 20
367.5002
  0
VERTEX
  8
LAYER_1
 10
144.1011
 20
367.6907
  0
VERTEX
  8
LAYER_1
 10
143.3391
 20
367.8812
  0
VERTEX
  8
LAYER_1
 10
142.5771
 20
368.0717
  0
VERTEX
  8
LAYER_1
 10
141.7939
 20
368.241
  0
VERTEX
  8
LAYER_1
 10
141.0108
 20
368.4104
  0
VERTEX
  8
LAYER_1
 10
140.2488
 20
368.5797
  0
VERTEX
  8
LAYER_1
 10
139.4656
 20
368.7278
  0
VERTEX
  8
LAYER_1
 10
138.6824
 20
368.876
  0
VERTEX
  8
LAYER_1
 10
137.8781
 20
369.0242
  0
VERTEX
  8
LAYER_1
 10
137.0949
 20
369.1512
  0
VERTEX
  8
LAYER_1
 10
136.2906
 20
369.2993
  0
VERTEX
  8
LAYER_1
 10
135.5074
 20
369.4052
  0
VERTEX
  8
LAYER_1
 10
134.7031
 20
369.5322
  0
VERTEX
  8
LAYER_1
 10
133.8988
 20
369.638
  0
VERTEX
  8
LAYER_1
 10
133.1156
 20
369.7438
  0
VERTEX
  8
LAYER_1
 10
132.3113
 20
369.8285
  0
VERTEX
  8
LAYER_1
 10
131.5069
 20
369.9132
  0
VERTEX
  8
LAYER_1
 10
130.7026
 20
369.9979
  0
VERTEX
  8
LAYER_1
 10
129.8983
 20
370.0613
  0
VERTEX
  8
LAYER_1
 10
129.0728
 20
370.146
  0
VERTEX
  8
LAYER_1
 10
128.2684
 20
370.1883
  0
VERTEX
  8
LAYER_1
 10
127.4641
 20
370.2519
  0
VERTEX
  8
LAYER_1
 10
126.6386
 20
370.2942
  0
VERTEX
  8
LAYER_1
 10
125.8343
 20
370.3365
  0
VERTEX
  8
LAYER_1
 10
125.0299
 20
370.3577
  0
VERTEX
  8
LAYER_1
 10
124.2044
 20
370.3789
  0
VERTEX
  8
LAYER_1
 10
123.4001
 20
370.4
  0
VERTEX
  8
LAYER_1
 10
122.5746
 20
370.4
  0
VERTEX
  8
LAYER_1
 10
121.7703
 20
370.4
  0
VERTEX
  8
LAYER_1
 10
120.9659
 20
370.4
  0
VERTEX
  8
LAYER_1
 10
120.1404
 20
370.3789
  0
VERTEX
  8
LAYER_1
 10
119.3361
 20
370.3577
  0
VERTEX
  8
LAYER_1
 10
118.5106
 20
370.3365
  0
VERTEX
  8
LAYER_1
 10
117.7063
 20
370.2942
  0
VERTEX
  8
LAYER_1
 10
116.9019
 20
370.2519
  0
VERTEX
  8
LAYER_1
 10
116.0764
 20
370.2095
  0
VERTEX
  8
LAYER_1
 10
115.2721
 20
370.146
  0
VERTEX
  8
LAYER_1
 10
114.4678
 20
370.0825
  0
VERTEX
  8
LAYER_1
 10
113.6634
 20
370.019
  0
VERTEX
  8
LAYER_1
 10
112.8591
 20
369.9343
  0
VERTEX
  8
LAYER_1
 10
112.0336
 20
369.8497
  0
VERTEX
  8
LAYER_1
 10
111.2504
 20
369.765
  0
VERTEX
  8
LAYER_1
 10
110.4461
 20
369.6592
  0
VERTEX
  8
LAYER_1
 10
109.6418
 20
369.5533
  0
VERTEX
  8
LAYER_1
 10
108.8374
 20
369.4475
  0
VERTEX
  8
LAYER_1
 10
108.0543
 20
369.3205
  0
VERTEX
  8
LAYER_1
 10
107.2499
 20
369.2147
  0
VERTEX
  8
LAYER_1
 10
106.4668
 20
369.0665
  0
VERTEX
  8
LAYER_1
 10
105.6624
 20
368.9395
  0
VERTEX
  8
LAYER_1
 10
104.8793
 20
368.7913
  0
VERTEX
  8
LAYER_1
 10
104.0961
 20
368.622
  0
VERTEX
  8
LAYER_1
 10
103.3129
 20
368.4738
  0
VERTEX
  8
LAYER_1
 10
102.5509
 20
368.3045
  0
VERTEX
  8
LAYER_1
 10
101.7678
 20
368.114
  0
VERTEX
  8
LAYER_1
 10
101.0058
 20
367.9447
  0
VERTEX
  8
LAYER_1
 10
100.2226
 20
367.7542
  0
VERTEX
  8
LAYER_1
 10
99.4606
 20
367.5637
  0
VERTEX
  8
LAYER_1
 10
98.6986
 20
367.352
  0
VERTEX
  8
LAYER_1
 10
97.9366
 20
367.1403
  0
VERTEX
  8
LAYER_1
 10
97.1958
 20
366.9287
  0
VERTEX
  8
LAYER_1
 10
96.4338
 20
366.6959
  0
VERTEX
  8
LAYER_1
 10
95.6929
 20
366.4842
  0
VERTEX
  8
LAYER_1
 10
94.9521
 20
366.2514
  0
VERTEX
  8
LAYER_1
 10
94.2113
 20
365.9974
  0
VERTEX
  8
LAYER_1
 10
93.4704
 20
365.7434
  0
VERTEX
  8
LAYER_1
 10
92.7508
 20
365.4894
  0
VERTEX
  8
LAYER_1
 10
92.0311
 20
365.2354
  0
VERTEX
  8
LAYER_1
 10
91.3114
 20
364.9602
  0
VERTEX
  8
LAYER_1
 10
90.5918
 20
364.685
  0
VERTEX
  8
LAYER_1
 10
89.8721
 20
364.4099
  0
VERTEX
  8
LAYER_1
 10
89.1736
 20
364.1347
  0
VERTEX
  8
LAYER_1
 10
88.4751
 20
363.8384
  0
VERTEX
  8
LAYER_1
 10
87.7766
 20
363.542
  0
VERTEX
  8
LAYER_1
 10
87.0993
 20
363.2245
  0
VERTEX
  8
LAYER_1
 10
86.4008
 20
362.9282
  0
VERTEX
  8
LAYER_1
 10
85.7234
 20
362.6107
  0
VERTEX
  8
LAYER_1
 10
85.0673
 20
362.272
  0
VERTEX
  8
LAYER_1
 10
84.3899
 20
361.9545
  0
VERTEX
  8
LAYER_1
 10
83.7338
 20
361.6158
  0
VERTEX
  8
LAYER_1
 10
83.0776
 20
361.2772
  0
VERTEX
  8
LAYER_1
 10
82.4214
 20
360.9173
  0
VERTEX
  8
LAYER_1
 10
81.7864
 20
360.5787
  0
VERTEX
  8
LAYER_1
 10
81.1514
 20
360.2188
  0
VERTEX
  8
LAYER_1
 10
80.5164
 20
359.859
  0
VERTEX
  8
LAYER_1
 10
79.9026
 20
359.478
  0
VERTEX
  8
LAYER_1
 10
79.2676
 20
359.1182
  0
VERTEX
  8
LAYER_1
 10
78.6749
 20
358.7372
  0
VERTEX
  8
LAYER_1
 10
78.0611
 20
358.3562
  0
VERTEX
  8
LAYER_1
 10
77.4684
 20
357.954
  0
VERTEX
  8
LAYER_1
 10
76.8758
 20
357.5519
  0
VERTEX
  8
LAYER_1
 10
76.3043
 20
357.1709
  0
VERTEX
  8
LAYER_1
 10
75.7116
 20
356.7475
  0
VERTEX
  8
LAYER_1
 10
75.1613
 20
356.3453
  0
VERTEX
  8
LAYER_1
 10
74.5898
 20
355.922
  0
VERTEX
  8
LAYER_1
 10
74.0394
 20
355.4987
  0
VERTEX
  8
LAYER_1
 10
73.4891
 20
355.0753
  0
VERTEX
  8
LAYER_1
 10
72.9599
 20
354.652
  0
VERTEX
  8
LAYER_1
 10
72.4308
 20
354.2075
  0
VERTEX
  8
LAYER_1
 10
71.9016
 20
353.7842
  0
VERTEX
  8
LAYER_1
 10
71.3936
 20
353.3397
  0
VERTEX
  8
LAYER_1
 10
70.8856
 20
352.8952
  0
VERTEX
  8
LAYER_1
 10
70.3776
 20
352.4295
  0
VERTEX
  8
LAYER_1
 10
69.8908
 20
351.9639
  0
SEQEND
  0
POLYLINE
  8
LAYER_1
 40
0.1693
 41
0.1693
 66
1
 10
0
 20
0
 30
0
  0
VERTEX
  8
LAYER_1
 10
69.8908
 20
351.9638
  0
VERTEX
  8
LAYER_1
 10
69.4039
 20
351.5193
  0
VERTEX
  8
LAYER_1
 10
68.9383
 20
351.0537
  0
VERTEX
  8
LAYER_1
 10
68.4726
 20
350.5668
  0
VERTEX
  8
LAYER_1
 10
68.0069
 20
350.1012
  0
VERTEX
  8
LAYER_1
 10
67.5624
 20
349.6143
  0
VERTEX
  8
LAYER_1
 10
67.1179
 20
349.1487
  0
VERTEX
  8
LAYER_1
 10
66.6734
 20
348.6618
  0
VERTEX
  8
LAYER_1
 10
66.2501
 20
348.175
  0
VERTEX
  8
LAYER_1
 10
65.8479
 20
347.667
  0
VERTEX
  8
LAYER_1
 10
65.4458
 20
347.1802
  0
VERTEX
  8
LAYER_1
 10
65.0436
 20
346.6722
  0
VERTEX
  8
LAYER_1
 10
64.6414
 20
346.1642
  0
VERTEX
  8
LAYER_1
 10
64.2816
 20
345.6562
  0
VERTEX
  8
LAYER_1
 10
63.9006
 20
345.1482
  0
VERTEX
  8
LAYER_1
 10
63.5408
 20
344.6402
  0
VERTEX
  8
LAYER_1
 10
63.1809
 20
344.111
  0
VERTEX
  8
LAYER_1
 10
62.8423
 20
343.603
  0
VERTEX
  8
LAYER_1
 10
62.5036
 20
343.0738
  0
VERTEX
  8
LAYER_1
 10
62.1861
 20
342.5447
  0
VERTEX
  8
LAYER_1
 10
61.8686
 20
342.0155
  0
VERTEX
  8
LAYER_1
 10
61.5723
 20
341.4863
  0
VERTEX
  8
LAYER_1
 10
61.2759
 20
340.9572
  0
VERTEX
  8
LAYER_1
 10
60.9796
 20
340.428
  0
VERTEX
  8
LAYER_1
 10
60.7044
 20
339.8777
  0
VERTEX
  8
LAYER_1
 10
60.4293
 20
339.3485
  0
VERTEX
  8
LAYER_1
 10
60.1753
 20
338.7982
  0
VERTEX
  8
LAYER_1
 10
59.9213
 20
338.2479
  0
VERTEX
  8
LAYER_1
 10
59.6884
 20
337.6975
  0
VERTEX
  8
LAYER_1
 10
59.4556
 20
337.1472
  0
VERTEX
  8
LAYER_1
 10
59.2439
 20
336.5968
  0
VERTEX
  8
LAYER_1
 10
59.0323
 20
336.0465
  0
VERTEX
  8
LAYER_1
 10
58.8418
 20
335.475
  0
VERTEX
  8
LAYER_1
 10
58.6513
 20
334.9247
  0
VERTEX
  8
LAYER_1
 10
58.4608
 20
334.3743
  0
VERTEX
  8
LAYER_1
 10
58.2914
 20
333.8028
  0
VERTEX
  8
LAYER_1
 10
58.1433
 20
333.2525
  0
VERTEX
  8
LAYER_1
 10
57.9739
 20
332.681
  0
VERTEX
  8
LAYER_1
 10
57.8469
 20
332.1095
  0
VERTEX
  8
LAYER_1
 10
57.7199
 20
331.538
  0
VERTEX
  8
LAYER_1
 10
57.5929
 20
330.9877
  0
VERTEX
  8
LAYER_1
 10
57.4871
 20
330.4162
  0
VERTEX
  8
LAYER_1
 10
57.3813
 20
329.8447
  0
VERTEX
  8
LAYER_1
 10
57.2966
 20
329.2732
  0
VERTEX
  8
LAYER_1
 10
57.2119
 20
328.7017
  0
VERTEX
  8
LAYER_1
 10
57.1484
 20
328.1302
  0
VERTEX
  8
LAYER_1
 10
57.0849
 20
327.5587
  0
VERTEX
  8
LAYER_1
 10
57.0426
 20
326.9872
  0
VERTEX
  8
LAYER_1
 10
57.0003
 20
326.4157
  0
VERTEX
  8
LAYER_1
 10
56.9791
 20
325.8442
  0
VERTEX
  8
LAYER_1
 10
56.9579
 20
325.2727
  0
VERTEX
  8
LAYER_1
 10
56.9368
 20
324.7012
  0
VERTEX
  8
LAYER_1
 10
56.9368
 20
324.1085
  0
VERTEX
  8
LAYER_1
 10
56.9579
 20
323.537
  0
VERTEX
  8
LAYER_1
 10
56.9791
 20
322.9655
  0
VERTEX
  8
LAYER_1
 10
57.0003
 20
322.394
  0
VERTEX
  8
LAYER_1
 10
57.0426
 20
321.8225
  0
VERTEX
  8
LAYER_1
 10
57.1061
 20
321.251
  0
VERTEX
  8
LAYER_1
 10
57.1696
 20
320.6795
  0
VERTEX
  8
LAYER_1
 10
57.2331
 20
320.108
  0
VERTEX
  8
LAYER_1
 10
57.3178
 20
319.5365
  0
VERTEX
  8
LAYER_1
 10
57.4236
 20
318.965
  0
VERTEX
  8
LAYER_1
 10
57.5294
 20
318.3935
  0
VERTEX
  8
LAYER_1
 10
57.6353
 20
317.822
  0
VERTEX
  8
LAYER_1
 10
57.7623
 20
317.2717
  0
VERTEX
  8
LAYER_1
 10
57.8893
 20
316.7002
  0
VERTEX
  8
LAYER_1
 10
58.0374
 20
316.1287
  0
VERTEX
  8
LAYER_1
 10
58.1856
 20
315.5783
  0
VERTEX
  8
LAYER_1
 10
58.3549
 20
315.0068
  0
VERTEX
  8
LAYER_1
 10
58.5243
 20
314.4354
  0
VERTEX
  8
LAYER_1
 10
58.7148
 20
313.885
  0
VERTEX
  8
LAYER_1
 10
58.9053
 20
313.3347
  0
VERTEX
  8
LAYER_1
 10
59.0958
 20
312.7843
  0
VERTEX
  8
LAYER_1
 10
59.3074
 20
312.2128
  0
VERTEX
  8
LAYER_1
 10
59.5403
 20
311.6625
  0
VERTEX
  8
LAYER_1
 10
59.7731
 20
311.1122
  0
VERTEX
  8
LAYER_1
 10
60.0059
 20
310.5618
  0
VERTEX
  8
LAYER_1
 10
60.2599
 20
310.0327
  0
VERTEX
  8
LAYER_1
 10
60.5351
 20
309.4823
  0
VERTEX
  8
LAYER_1
 10
60.7891
 20
308.932
  0
VERTEX
  8
LAYER_1
 10
61.0854
 20
308.4028
  0
VERTEX
  8
LAYER_1
 10
61.3606
 20
307.8737
  0
VERTEX
  8
LAYER_1
 10
61.6781
 20
307.3233
  0
VERTEX
  8
LAYER_1
 10
61.9744
 20
306.7942
  0
VERTEX
  8
LAYER_1
 10
62.2919
 20
306.265
  0
VERTEX
  8
LAYER_1
 10
62.6306
 20
305.757
  0
VERTEX
  8
LAYER_1
 10
62.9693
 20
305.2278
  0
VERTEX
  8
LAYER_1
 10
63.3079
 20
304.6987
  0
VERTEX
  8
LAYER_1
 10
63.6678
 20
304.1907
  0
VERTEX
  8
LAYER_1
 10
64.0276
 20
303.6827
  0
VERTEX
  8
LAYER_1
 10
64.4086
 20
303.1747
  0
VERTEX
  8
LAYER_1
 10
64.7896
 20
302.6667
  0
VERTEX
  8
LAYER_1
 10
65.1706
 20
302.1587
  0
VERTEX
  8
LAYER_1
 10
65.5728
 20
301.6507
  0
VERTEX
  8
LAYER_1
 10
65.9749
 20
301.1638
  0
VERTEX
  8
LAYER_1
 10
66.3983
 20
300.677
  0
VERTEX
  8
LAYER_1
 10
66.8216
 20
300.1902
  0
VERTEX
  8
LAYER_1
 10
67.2661
 20
299.7033
  0
VERTEX
  8
LAYER_1
 10
67.7106
 20
299.2165
  0
VERTEX
  8
LAYER_1
 10
68.1551
 20
298.7509
  0
VERTEX
  8
LAYER_1
 10
68.6208
 20
298.264
  0
VERTEX
  8
LAYER_1
 10
69.0864
 20
297.7983
  0
VERTEX
  8
LAYER_1
 10
69.5733
 20
297.3327
  0
VERTEX
  8
LAYER_1
 10
70.0601
 20
296.867
  0
VERTEX
  8
LAYER_1
 10
70.5469
 20
296.4225
  0
VERTEX
  8
LAYER_1
 10
71.0549
 20
295.9568
  0
VERTEX
  8
LAYER_1
 10
71.5629
 20
295.5123
  0
VERTEX
  8
LAYER_1
 10
72.0709
 20
295.0679
  0
VERTEX
  8
LAYER_1
 10
72.6001
 20
294.6445
  0
VERTEX
  8
LAYER_1
 10
73.1293
 20
294.2
  0
VERTEX
  8
LAYER_1
 10
73.6796
 20
293.7767
  0
VERTEX
  8
LAYER_1
 10
74.2299
 20
293.3533
  0
VERTEX
  8
LAYER_1
 10
74.7803
 20
292.93
  0
VERTEX
  8
LAYER_1
 10
75.3518
 20
292.5278
  0
VERTEX
  8
LAYER_1
 10
75.9233
 20
292.1045
  0
VERTEX
  8
LAYER_1
 10
76.4948
 20
291.7023
  0
VERTEX
  8
LAYER_1
 10
77.0874
 20
291.3002
  0
VERTEX
  8
LAYER_1
 10
77.6801
 20
290.9192
  0
VERTEX
  8
LAYER_1
 10
78.2728
 20
290.517
  0
VERTEX
  8
LAYER_1
 10
78.8866
 20
290.136
  0
VERTEX
  8
LAYER_1
 10
79.4793
 20
289.755
  0
VERTEX
  8
LAYER_1
 10
80.1143
 20
289.3952
  0
VERTEX
  8
LAYER_1
 10
80.7281
 20
289.0353
  0
VERTEX
  8
LAYER_1
 10
81.3631
 20
288.6755
  0
VERTEX
  8
LAYER_1
 10
81.9981
 20
288.3157
  0
VERTEX
  8
LAYER_1
 10
82.6543
 20
287.9558
  0
VERTEX
  8
LAYER_1
 10
83.3104
 20
287.6172
  0
VERTEX
  8
LAYER_1
 10
83.9666
 20
287.2785
  0
VERTEX
  8
LAYER_1
 10
84.6228
 20
286.9398
  0
VERTEX
  8
LAYER_1
 10
85.3001
 20
286.6224
  0
VERTEX
  8
LAYER_1
 10
85.9563
 20
286.3048
  0
VERTEX
  8
LAYER_1
 10
86.6548
 20
285.9873
  0
VERTEX
  8
LAYER_1
 10
87.3321
 20
285.6698
  0
VERTEX
  8
LAYER_1
 10
88.0306
 20
285.3735
  0
VERTEX
  8
LAYER_1
 10
88.7079
 20
285.0772
  0
VERTEX
  8
LAYER_1
 10
89.4276
 20
284.802
  0
VERTEX
  8
LAYER_1
 10
90.1261
 20
284.5269
  0
VERTEX
  8
LAYER_1
 10
90.8458
 20
284.2305
  0
VERTEX
  8
LAYER_1
 10
91.5443
 20
283.9765
  0
VERTEX
  8
LAYER_1
 10
92.2851
 20
283.7013
  0
VERTEX
  8
LAYER_1
 10
93.0048
 20
283.4474
  0
VERTEX
  8
LAYER_1
 10
93.7244
 20
283.1933
  0
VERTEX
  8
LAYER_1
 10
94.4653
 20
282.9394
  0
VERTEX
  8
LAYER_1
 10
95.2061
 20
282.7065
  0
VERTEX
  8
LAYER_1
 10
95.9469
 20
282.4737
  0
VERTEX
  8
LAYER_1
 10
96.6878
 20
282.2408
  0
VERTEX
  8
LAYER_1
 10
97.4498
 20
282.0292
  0
VERTEX
  8
LAYER_1
 10
98.2118
 20
281.8175
  0
VERTEX
  8
LAYER_1
 10
98.9738
 20
281.6058
  0
VERTEX
  8
LAYER_1
 10
99.7358
 20
281.3942
  0
VERTEX
  8
LAYER_1
 10
100.4978
 20
281.2037
  0
VERTEX
  8
LAYER_1
 10
101.2598
 20
281.0343
  0
VERTEX
  8
LAYER_1
 10
102.0429
 20
280.8438
  0
VERTEX
  8
LAYER_1
 10
102.8049
 20
280.6745
  0
VERTEX
  8
LAYER_1
 10
103.5881
 20
280.5052
  0
VERTEX
  8
LAYER_1
 10
104.3713
 20
280.357
  0
VERTEX
  8
LAYER_1
 10
105.1544
 20
280.1877
  0
VERTEX
  8
LAYER_1
 10
105.9376
 20
280.0395
  0
VERTEX
  8
LAYER_1
 10
106.7419
 20
279.9125
  0
VERTEX
  8
LAYER_1
 10
107.5251
 20
279.7855
  0
VERTEX
  8
LAYER_1
 10
108.3294
 20
279.6585
  0
VERTEX
  8
LAYER_1
 10
109.1126
 20
279.5315
  0
VERTEX
  8
LAYER_1
 10
109.9169
 20
279.4257
  0
VERTEX
  8
LAYER_1
 10
110.7213
 20
279.3198
  0
VERTEX
  8
LAYER_1
 10
111.5256
 20
279.2352
  0
VERTEX
  8
LAYER_1
 10
112.3299
 20
279.1293
  0
VERTEX
  8
LAYER_1
 10
113.1343
 20
279.0658
  0
VERTEX
  8
LAYER_1
 10
113.9386
 20
278.9812
  0
VERTEX
  8
LAYER_1
 10
114.7429
 20
278.9177
  0
VERTEX
  8
LAYER_1
 10
115.5473
 20
278.8542
  0
VERTEX
  8
LAYER_1
 10
116.3516
 20
278.7907
  0
VERTEX
  8
LAYER_1
 10
117.1771
 20
278.7483
  0
VERTEX
  8
LAYER_1
 10
117.9815
 20
278.706
  0
VERTEX
  8
LAYER_1
 10
118.8069
 20
278.6849
  0
VERTEX
  8
LAYER_1
 10
119.6113
 20
278.6637
  0
VERTEX
  8
LAYER_1
 10
120.4156
 20
278.6425
  0
VERTEX
  8
LAYER_1
 10
121.2411
 20
278.6214
  0
VERTEX
  8
LAYER_1
 10
122.0454
 20
278.6214
  0
VERTEX
  8
LAYER_1
 10
122.8709
 20
278.6214
  0
VERTEX
  8
LAYER_1
 10
123.6753
 20
278.6425
  0
VERTEX
  8
LAYER_1
 10
124.5008
 20
278.6637
  0
VERTEX
  8
LAYER_1
 10
125.3051
 20
278.6849
  0
VERTEX
  8
LAYER_1
 10
126.1094
 20
278.706
  0
VERTEX
  8
LAYER_1
 10
126.9349
 20
278.7483
  0
VERTEX
  8
LAYER_1
 10
127.7393
 20
278.7907
  0
VERTEX
  8
LAYER_1
 10
128.5436
 20
278.8542
  0
VERTEX
  8
LAYER_1
 10
129.3691
 20
278.9177
  0
VERTEX
  8
LAYER_1
 10
130.1735
 20
278.9812
  0
VERTEX
  8
LAYER_1
 10
130.9778
 20
279.0658
  0
VERTEX
  8
LAYER_1
 10
131.7821
 20
279.1293
  0
VERTEX
  8
LAYER_1
 10
132.5864
 20
279.2352
  0
VERTEX
  8
LAYER_1
 10
133.3908
 20
279.3198
  0
VERTEX
  8
LAYER_1
 10
134.1951
 20
279.4257
  0
VERTEX
  8
LAYER_1
 10
134.9783
 20
279.5315
  0
VERTEX
  8
LAYER_1
 10
135.7826
 20
279.6585
  0
VERTEX
  8
LAYER_1
 10
136.5658
 20
279.7855
  0
VERTEX
  8
LAYER_1
 10
137.3701
 20
279.9125
  0
VERTEX
  8
LAYER_1
 10
138.1533
 20
280.0607
  0
VERTEX
  8
LAYER_1
 10
138.9364
 20
280.1877
  0
VERTEX
  8
LAYER_1
 10
139.7196
 20
280.357
  0
VERTEX
  8
LAYER_1
 10
140.5028
 20
280.5052
  0
SEQEND
  0
POLYLINE
  8
LAYER_1
 40
0.1693
 41
0.1693
 66
1
 10
0
 20
0
 30
0
  0
VERTEX
  8
LAYER_1
 10
140.5028
 20
280.5052
  0
VERTEX
  8
LAYER_1
 10
141.2859
 20
280.6745
  0
VERTEX
  8
LAYER_1
 10
142.0691
 20
280.8438
  0
VERTEX
  8
LAYER_1
 10
142.8311
 20
281.0344
  0
VERTEX
  8
LAYER_1
 10
143.6143
 20
281.2249
  0
VERTEX
  8
LAYER_1
 10
144.3763
 20
281.4153
  0
VERTEX
  8
LAYER_1
 10
145.1383
 20
281.6059
  0
VERTEX
  8
LAYER_1
 10
145.9003
 20
281.8175
  0
VERTEX
  8
LAYER_1
 10
146.6411
 20
282.0292
  0
VERTEX
  8
LAYER_1
 10
147.4031
 20
282.2409
  0
VERTEX
  8
LAYER_1
 10
148.1439
 20
282.4737
  0
VERTEX
  8
LAYER_1
 10
148.8848
 20
282.7065
  0
VERTEX
  8
LAYER_1
 10
149.6256
 20
282.9394
  0
VERTEX
  8
LAYER_1
 10
150.3664
 20
283.1934
  0
VERTEX
  8
LAYER_1
 10
151.1073
 20
283.4474
  0
VERTEX
  8
LAYER_1
 10
151.8269
 20
283.7014
  0
VERTEX
  8
LAYER_1
 10
152.5466
 20
283.9765
  0
VERTEX
  8
LAYER_1
 10
153.2663
 20
284.2517
  0
VERTEX
  8
LAYER_1
 10
153.9648
 20
284.5269
  0
VERTEX
  8
LAYER_1
 10
154.6844
 20
284.802
  0
VERTEX
  8
LAYER_1
 10
155.3829
 20
285.0772
  0
VERTEX
  8
LAYER_1
 10
156.0814
 20
285.3735
  0
VERTEX
  8
LAYER_1
 10
156.7588
 20
285.6699
  0
VERTEX
  8
LAYER_1
 10
157.4573
 20
285.9874
  0
VERTEX
  8
LAYER_1
 10
158.1346
 20
286.3049
  0
VERTEX
  8
LAYER_1
 10
158.8119
 20
286.6224
  0
VERTEX
  8
LAYER_1
 10
159.4681
 20
286.9398
  0
VERTEX
  8
LAYER_1
 10
160.1454
 20
287.2785
  0
VERTEX
  8
LAYER_1
 10
160.8016
 20
287.6172
  0
VERTEX
  8
LAYER_1
 10
161.4578
 20
287.9559
  0
VERTEX
  8
LAYER_1
 10
162.0928
 20
288.3157
  0
VERTEX
  8
LAYER_1
 10
162.7278
 20
288.6755
  0
VERTEX
  8
LAYER_1
 10
163.3628
 20
289.0354
  0
VERTEX
  8
LAYER_1
 10
163.9978
 20
289.3952
  0
VERTEX
  8
LAYER_1
 10
164.6116
 20
289.7762
  0
VERTEX
  8
LAYER_1
 10
165.2254
 20
290.1572
  0
VERTEX
  8
LAYER_1
 10
165.8181
 20
290.5382
  0
VERTEX
  8
LAYER_1
 10
166.4319
 20
290.9192
  0
VERTEX
  8
LAYER_1
 10
167.0246
 20
291.3214
  0
VERTEX
  8
LAYER_1
 10
167.5961
 20
291.7235
  0
VERTEX
  8
LAYER_1
 10
168.1888
 20
292.1257
  0
VERTEX
  8
LAYER_1
 10
168.7391
 20
292.5278
  0
VERTEX
  8
LAYER_1
 10
169.3106
 20
292.9512
  0
VERTEX
  8
LAYER_1
 10
169.8609
 20
293.3534
  0
VERTEX
  8
LAYER_1
 10
170.4113
 20
293.7767
  0
VERTEX
  8
LAYER_1
 10
170.9616
 20
294.2212
  0
VERTEX
  8
LAYER_1
 10
171.4908
 20
294.6445
  0
VERTEX
  8
LAYER_1
 10
172.0199
 20
295.089
  0
VERTEX
  8
LAYER_1
 10
172.5279
 20
295.5335
  0
VERTEX
  8
LAYER_1
 10
173.0359
 20
295.978
  0
VERTEX
  8
LAYER_1
 10
173.5439
 20
296.4225
  0
VERTEX
  8
LAYER_1
 10
174.0308
 20
296.8882
  0
VERTEX
  8
LAYER_1
 10
174.5176
 20
297.3327
  0
VERTEX
  8
LAYER_1
 10
175.0044
 20
297.7983
  0
VERTEX
  8
LAYER_1
 10
175.4701
 20
298.2852
  0
VERTEX
  8
LAYER_1
 10
175.9358
 20
298.7509
  0
VERTEX
  8
LAYER_1
 10
176.3803
 20
299.2165
  0
VERTEX
  8
LAYER_1
 10
176.8248
 20
299.7034
  0
VERTEX
  8
LAYER_1
 10
177.2693
 20
300.1902
  0
VERTEX
  8
LAYER_1
 10
177.6926
 20
300.677
  0
VERTEX
  8
LAYER_1
 10
178.1159
 20
301.1639
  0
VERTEX
  8
LAYER_1
 10
178.5181
 20
301.6719
  0
VERTEX
  8
LAYER_1
 10
178.9203
 20
302.1587
  0
VERTEX
  8
LAYER_1
 10
179.3013
 20
302.6667
  0
VERTEX
  8
LAYER_1
 10
179.6823
 20
303.1747
  0
VERTEX
  8
LAYER_1
 10
180.0633
 20
303.6827
  0
VERTEX
  8
LAYER_1
 10
180.4231
 20
304.1907
  0
VERTEX
  8
LAYER_1
 10
180.7829
 20
304.7198
  0
VERTEX
  8
LAYER_1
 10
181.1216
 20
305.2278
  0
VERTEX
  8
LAYER_1
 10
181.4603
 20
305.757
  0
VERTEX
  8
LAYER_1
 10
181.7989
 20
306.2862
  0
VERTEX
  8
LAYER_1
 10
182.1164
 20
306.8153
  0
VERTEX
  8
LAYER_1
 10
182.4339
 20
307.3445
  0
VERTEX
  8
LAYER_1
 10
182.7303
 20
307.8737
  0
VERTEX
  8
LAYER_1
 10
183.0054
 20
308.4028
  0
VERTEX
  8
LAYER_1
 10
183.3018
 20
308.9532
  0
VERTEX
  8
LAYER_1
 10
183.5558
 20
309.4823
  0
VERTEX
  8
LAYER_1
 10
183.8309
 20
310.0327
  0
VERTEX
  8
LAYER_1
 10
184.0849
 20
310.583
  0
VERTEX
  8
LAYER_1
 10
184.3178
 20
311.1334
  0
VERTEX
  8
LAYER_1
 10
184.5506
 20
311.6837
  0
VERTEX
  8
LAYER_1
 10
184.7834
 20
312.234
  0
VERTEX
  8
LAYER_1
 10
184.9951
 20
312.7844
  0
VERTEX
  8
LAYER_1
 10
185.1856
 20
313.3347
  0
VERTEX
  8
LAYER_1
 10
185.3761
 20
313.9062
  0
VERTEX
  8
LAYER_1
 10
185.5666
 20
314.4565
  0
VERTEX
  8
LAYER_1
 10
185.736
 20
315.0069
  0
VERTEX
  8
LAYER_1
 10
185.9053
 20
315.5784
  0
VERTEX
  8
LAYER_1
 10
186.0534
 20
316.1499
  0
VERTEX
  8
LAYER_1
 10
186.2016
 20
316.7002
  0
VERTEX
  8
LAYER_1
 10
186.3286
 20
317.2717
  0
VERTEX
  8
LAYER_1
 10
186.4556
 20
317.8432
  0
VERTEX
  8
LAYER_1
 10
186.5614
 20
318.4147
  0
VERTEX
  8
LAYER_1
 10
186.6673
 20
318.9862
  0
VERTEX
  8
LAYER_1
 10
186.7731
 20
319.5577
  0
VERTEX
  8
LAYER_1
 10
186.8366
 20
320.108
  0
VERTEX
  8
LAYER_1
 10
186.9213
 20
320.6795
  0
VERTEX
  8
LAYER_1
 10
186.9848
 20
321.2722
  0
VERTEX
  8
LAYER_1
 10
187.0271
 20
321.8437
  0
VERTEX
  8
LAYER_1
 10
187.0694
 20
322.4152
  0
VERTEX
  8
LAYER_1
 10
187.1118
 20
322.9867
  0
VERTEX
  8
LAYER_1
 10
187.1329
 20
323.5582
  0
VERTEX
  8
LAYER_1
 10
187.1329
 20
324.1297
  0
VERTEX
  8
LAYER_1
 10
187.1541
 20
324.5107
  0
SEQEND
  0
POLYLINE
  8
LAYER_1
 40
0.1693
 41
0.1693
 66
1
 10
0
 20
0
 30
0
  0
VERTEX
  8
LAYER_1
 10
183.1536
 20
324.5107
  0
VERTEX
  8
LAYER_1
 10
183.1325
 20
325.0187
  0
VERTEX
  8
LAYER_1
 10
183.1325
 20
325.5479
  0
VERTEX
  8
LAYER_1
 10
183.1113
 20
326.077
  0
VERTEX
  8
LAYER_1
 10
183.069
 20
326.6062
  0
VERTEX
  8
LAYER_1
 10
183.0266
 20
327.1142
  0
VERTEX
  8
LAYER_1
 10
182.9631
 20
327.6434
  0
VERTEX
  8
LAYER_1
 10
182.9208
 20
328.1725
  0
VERTEX
  8
LAYER_1
 10
182.8361
 20
328.6805
  0
VERTEX
  8
LAYER_1
 10
182.7514
 20
329.2097
  0
VERTEX
  8
LAYER_1
 10
182.6668
 20
329.7177
  0
VERTEX
  8
LAYER_1
 10
182.561
 20
330.2469
  0
VERTEX
  8
LAYER_1
 10
182.4551
 20
330.7549
  0
VERTEX
  8
LAYER_1
 10
182.3493
 20
331.284
  0
VERTEX
  8
LAYER_1
 10
182.2011
 20
331.792
  0
VERTEX
  8
LAYER_1
 10
182.0741
 20
332.3212
  0
VERTEX
  8
LAYER_1
 10
181.926
 20
332.8292
  0
VERTEX
  8
LAYER_1
 10
181.7778
 20
333.3372
  0
VERTEX
  8
LAYER_1
 10
181.6084
 20
333.8452
  0
VERTEX
  8
LAYER_1
 10
181.4391
 20
334.3532
  0
VERTEX
  8
LAYER_1
 10
181.2486
 20
334.8612
  0
VERTEX
  8
LAYER_1
 10
181.0581
 20
335.3692
  0
VERTEX
  8
LAYER_1
 10
180.8465
 20
335.8772
  0
VERTEX
  8
LAYER_1
 10
180.6348
 20
336.3852
  0
VERTEX
  8
LAYER_1
 10
180.4231
 20
336.8932
  0
VERTEX
  8
LAYER_1
 10
180.1903
 20
337.38
  0
VERTEX
  8
LAYER_1
 10
179.9363
 20
337.888
  0
VERTEX
  8
LAYER_1
 10
179.7034
 20
338.3748
  0
VERTEX
  8
LAYER_1
 10
179.4494
 20
338.8617
  0
VERTEX
  8
LAYER_1
 10
179.1743
 20
339.3697
  0
VERTEX
  8
LAYER_1
 10
178.8991
 20
339.8565
  0
VERTEX
  8
LAYER_1
 10
178.6239
 20
340.3434
  0
VERTEX
  8
LAYER_1
 10
178.3276
 20
340.8302
  0
VERTEX
  8
LAYER_1
 10
178.0101
 20
341.2958
  0
VERTEX
  8
LAYER_1
 10
177.7138
 20
341.7827
  0
VERTEX
  8
LAYER_1
 10
177.3963
 20
342.2483
  0
VERTEX
  8
LAYER_1
 10
177.0576
 20
342.7352
  0
VERTEX
  8
LAYER_1
 10
176.719
 20
343.2008
  0
VERTEX
  8
LAYER_1
 10
176.3803
 20
343.6665
  0
VERTEX
  8
LAYER_1
 10
176.0204
 20
344.1322
  0
VERTEX
  8
LAYER_1
 10
175.6606
 20
344.5979
  0
VERTEX
  8
LAYER_1
 10
175.3008
 20
345.0423
  0
VERTEX
  8
LAYER_1
 10
174.9198
 20
345.508
  0
VERTEX
  8
LAYER_1
 10
174.5388
 20
345.9525
  0
VERTEX
  8
LAYER_1
 10
174.1366
 20
346.397
  0
VERTEX
  8
LAYER_1
 10
173.7344
 20
346.8415
  0
VERTEX
  8
LAYER_1
 10
173.3111
 20
347.286
  0
VERTEX
  8
LAYER_1
 10
172.9089
 20
347.7305
  0
VERTEX
  8
LAYER_1
 10
172.4645
 20
348.1538
  0
VERTEX
  8
LAYER_1
 10
172.0411
 20
348.5983
  0
VERTEX
  8
LAYER_1
 10
171.5966
 20
349.0217
  0
VERTEX
  8
LAYER_1
 10
171.1521
 20
349.445
  0
VERTEX
  8
LAYER_1
 10
170.6865
 20
349.8684
  0
VERTEX
  8
LAYER_1
 10
170.2208
 20
350.2705
  0
VERTEX
  8
LAYER_1
 10
169.7551
 20
350.6938
  0
VERTEX
  8
LAYER_1
 10
169.2683
 20
351.096
  0
VERTEX
  8
LAYER_1
 10
168.7815
 20
351.4982
  0
VERTEX
  8
LAYER_1
 10
168.2735
 20
351.9003
  0
VERTEX
  8
LAYER_1
 10
167.7866
 20
352.2813
  0
VERTEX
  8
LAYER_1
 10
167.2575
 20
352.6835
  0
VERTEX
  8
LAYER_1
 10
166.7494
 20
353.0645
  0
VERTEX
  8
LAYER_1
 10
166.2203
 20
353.4455
  0
VERTEX
  8
LAYER_1
 10
165.6911
 20
353.8265
  0
VERTEX
  8
LAYER_1
 10
165.1619
 20
354.1863
  0
VERTEX
  8
LAYER_1
 10
164.6116
 20
354.5673
  0
VERTEX
  8
LAYER_1
 10
164.0613
 20
354.9272
  0
VERTEX
  8
LAYER_1
 10
163.511
 20
355.287
  0
VERTEX
  8
LAYER_1
 10
162.9395
 20
355.6257
  0
VERTEX
  8
LAYER_1
 10
162.368
 20
355.9855
  0
VERTEX
  8
LAYER_1
 10
161.7964
 20
356.3242
  0
VERTEX
  8
LAYER_1
 10
161.2038
 20
356.6628
  0
VERTEX
  8
LAYER_1
 10
160.6111
 20
357.0015
  0
VERTEX
  8
LAYER_1
 10
160.0184
 20
357.319
  0
VERTEX
  8
LAYER_1
 10
159.4258
 20
357.6577
  0
VERTEX
  8
LAYER_1
 10
158.8119
 20
357.9752
  0
VERTEX
  8
LAYER_1
 10
158.1981
 20
358.2715
  0
VERTEX
  8
LAYER_1
 10
157.5843
 20
358.589
  0
VERTEX
  8
LAYER_1
 10
156.9704
 20
358.8854
  0
VERTEX
  8
LAYER_1
 10
156.3355
 20
359.1817
  0
VERTEX
  8
LAYER_1
 10
155.7004
 20
359.478
  0
VERTEX
  8
LAYER_1
 10
155.0655
 20
359.7532
  0
VERTEX
  8
LAYER_1
 10
154.4093
 20
360.0495
  0
VERTEX
  8
LAYER_1
 10
153.7531
 20
360.3247
  0
VERTEX
  8
LAYER_1
 10
153.0969
 20
360.5787
  0
VERTEX
  8
LAYER_1
 10
152.4408
 20
360.8538
  0
VERTEX
  8
LAYER_1
 10
151.7846
 20
361.1078
  0
VERTEX
  8
LAYER_1
 10
151.1073
 20
361.3618
  0
VERTEX
  8
LAYER_1
 10
150.4299
 20
361.6158
  0
VERTEX
  8
LAYER_1
 10
149.7526
 20
361.8487
  0
VERTEX
  8
LAYER_1
 10
149.0753
 20
362.0815
  0
VERTEX
  8
LAYER_1
 10
148.398
 20
362.3144
  0
VERTEX
  8
LAYER_1
 10
147.6994
 20
362.526
  0
VERTEX
  8
LAYER_1
 10
147.0009
 20
362.7588
  0
VERTEX
  8
LAYER_1
 10
146.3025
 20
362.9705
  0
VERTEX
  8
LAYER_1
 10
145.6039
 20
363.161
  0
VERTEX
  8
LAYER_1
 10
144.8843
 20
363.3727
  0
VERTEX
  8
LAYER_1
 10
144.1858
 20
363.5632
  0
SEQEND
  0
POLYLINE
  8
LAYER_1
 40
0.1693
 41
0.1693
 66
1
 10
0
 20
0
 30
0
  0
VERTEX
  8
LAYER_1
 10
144.1858
 20
363.5632
  0
VERTEX
  8
LAYER_1
 10
143.4661
 20
363.7537
  0
VERTEX
  8
LAYER_1
 10
142.7464
 20
363.923
  0
VERTEX
  8
LAYER_1
 10
142.0268
 20
364.0923
  0
VERTEX
  8
LAYER_1
 10
141.3071
 20
364.2617
  0
VERTEX
  8
LAYER_1
 10
140.5874
 20
364.431
  0
VERTEX
  8
LAYER_1
 10
139.8466
 20
364.5792
  0
VERTEX
  8
LAYER_1
 10
139.1269
 20
364.7273
  0
VERTEX
  8
LAYER_1
 10
138.3861
 20
364.8755
  0
VERTEX
  8
LAYER_1
 10
137.6453
 20
365.0237
  0
VERTEX
  8
LAYER_1
 10
136.9044
 20
365.1507
  0
VERTEX
  8
LAYER_1
 10
136.1636
 20
365.2777
  0
VERTEX
  8
LAYER_1
 10
135.4228
 20
365.3835
  0
VERTEX
  8
LAYER_1
 10
134.6819
 20
365.4894
  0
VERTEX
  8
LAYER_1
 10
133.9199
 20
365.5952
  0
VERTEX
  8
LAYER_1
 10
133.1791
 20
365.701
  0
VERTEX
  8
LAYER_1
 10
132.4383
 20
365.7857
  0
VERTEX
  8
LAYER_1
 10
131.6763
 20
365.8703
  0
VERTEX
  8
LAYER_1
 10
130.9143
 20
365.955
  0
VERTEX
  8
LAYER_1
 10
130.1734
 20
366.0397
  0
VERTEX
  8
LAYER_1
 10
129.4114
 20
366.1032
  0
VERTEX
  8
LAYER_1
 10
128.6494
 20
366.1667
  0
VERTEX
  8
LAYER_1
 10
127.8874
 20
366.209
  0
VERTEX
  8
LAYER_1
 10
127.1254
 20
366.2513
  0
VERTEX
  8
LAYER_1
 10
126.3634
 20
366.2937
  0
VERTEX
  8
LAYER_1
 10
125.6014
 20
366.336
  0
VERTEX
  8
LAYER_1
 10
124.8394
 20
366.3572
  0
VERTEX
  8
LAYER_1
 10
124.0774
 20
366.3783
  0
VERTEX
  8
LAYER_1
 10
123.3154
 20
366.3995
  0
VERTEX
  8
LAYER_1
 10
122.5534
 20
366.3995
  0
VERTEX
  8
LAYER_1
 10
121.7914
 20
366.3995
  0
VERTEX
  8
LAYER_1
 10
121.0294
 20
366.3995
  0
VERTEX
  8
LAYER_1
 10
120.2674
 20
366.3783
  0
VERTEX
  8
LAYER_1
 10
119.5054
 20
366.3783
  0
VERTEX
  8
LAYER_1
 10
118.7223
 20
366.336
  0
VERTEX
  8
LAYER_1
 10
117.9603
 20
366.3148
  0
VERTEX
  8
LAYER_1
 10
117.1983
 20
366.2725
  0
VERTEX
  8
LAYER_1
 10
116.4574
 20
366.2302
  0
VERTEX
  8
LAYER_1
 10
115.6954
 20
366.1667
  0
VERTEX
  8
LAYER_1
 10
114.9334
 20
366.1243
  0
VERTEX
  8
LAYER_1
 10
114.1714
 20
366.0608
  0
VERTEX
  8
LAYER_1
 10
113.4094
 20
365.9762
  0
VERTEX
  8
LAYER_1
 10
112.6686
 20
365.9127
  0
VERTEX
  8
LAYER_1
 10
111.9066
 20
365.828
  0
VERTEX
  8
LAYER_1
 10
111.1446
 20
365.7433
  0
VERTEX
  8
LAYER_1
 10
110.4038
 20
365.6375
  0
VERTEX
  8
LAYER_1
 10
109.6629
 20
365.5317
  0
VERTEX
  8
LAYER_1
 10
108.9009
 20
365.4258
  0
VERTEX
  8
LAYER_1
 10
108.1601
 20
365.2988
  0
VERTEX
  8
LAYER_1
 10
107.4193
 20
365.193
  0
VERTEX
  8
LAYER_1
 10
106.6784
 20
365.066
  0
VERTEX
  8
LAYER_1
 10
105.9376
 20
364.9178
  0
VERTEX
  8
LAYER_1
 10
105.1968
 20
364.7908
  0
VERTEX
  8
LAYER_1
 10
104.4771
 20
364.6427
  0
VERTEX
  8
LAYER_1
 10
103.7363
 20
364.4733
  0
VERTEX
  8
LAYER_1
 10
103.0166
 20
364.3252
  0
VERTEX
  8
LAYER_1
 10
102.2969
 20
364.1558
  0
VERTEX
  8
LAYER_1
 10
101.5773
 20
363.9865
  0
VERTEX
  8
LAYER_1
 10
100.8576
 20
363.796
  0
VERTEX
  8
LAYER_1
 10
100.1379
 20
363.6267
  0
VERTEX
  8
LAYER_1
 10
99.4183
 20
363.4362
  0
VERTEX
  8
LAYER_1
 10
98.7198
 20
363.2245
  0
VERTEX
  8
LAYER_1
 10
98.0213
 20
363.034
  0
VERTEX
  8
LAYER_1
 10
97.3228
 20
362.8223
  0
VERTEX
  8
LAYER_1
 10
96.6243
 20
362.6107
  0
VERTEX
  8
LAYER_1
 10
95.9258
 20
362.3778
  0
VERTEX
  8
LAYER_1
 10
95.2273
 20
362.1662
  0
VERTEX
  8
LAYER_1
 10
94.5499
 20
361.9334
  0
VERTEX
  8
LAYER_1
 10
93.8726
 20
361.6793
  0
VERTEX
  8
LAYER_1
 10
93.1953
 20
361.4465
  0
VERTEX
  8
LAYER_1
 10
92.5179
 20
361.1925
  0
VERTEX
  8
LAYER_1
 10
91.8618
 20
360.9385
  0
VERTEX
  8
LAYER_1
 10
91.2056
 20
360.6633
  0
VERTEX
  8
LAYER_1
 10
90.5494
 20
360.4093
  0
VERTEX
  8
LAYER_1
 10
89.8933
 20
360.1342
  0
VERTEX
  8
LAYER_1
 10
89.2371
 20
359.859
  0
VERTEX
  8
LAYER_1
 10
88.6021
 20
359.5627
  0
VERTEX
  8
LAYER_1
 10
87.9671
 20
359.2875
  0
VERTEX
  8
LAYER_1
 10
87.3321
 20
358.9912
  0
VERTEX
  8
LAYER_1
 10
86.6971
 20
358.6948
  0
VERTEX
  8
LAYER_1
 10
86.0833
 20
358.3773
  0
VERTEX
  8
LAYER_1
 10
85.4694
 20
358.0598
  0
VERTEX
  8
LAYER_1
 10
84.8556
 20
357.7635
  0
VERTEX
  8
LAYER_1
 10
84.2629
 20
357.4249
  0
VERTEX
  8
LAYER_1
 10
83.6703
 20
357.1073
  0
VERTEX
  8
LAYER_1
 10
83.0776
 20
356.7687
  0
VERTEX
  8
LAYER_1
 10
82.4849
 20
356.43
  0
VERTEX
  8
LAYER_1
 10
81.9134
 20
356.0913
  0
VERTEX
  8
LAYER_1
 10
81.3419
 20
355.7527
  0
VERTEX
  8
LAYER_1
 10
80.7704
 20
355.3928
  0
VERTEX
  8
LAYER_1
 10
80.1989
 20
355.033
  0
VERTEX
  8
LAYER_1
 10
79.6486
 20
354.6732
  0
VERTEX
  8
LAYER_1
 10
79.0983
 20
354.3133
  0
VERTEX
  8
LAYER_1
 10
78.5691
 20
353.9535
  0
VERTEX
  8
LAYER_1
 10
78.0399
 20
353.5725
  0
VERTEX
  8
LAYER_1
 10
77.5108
 20
353.1915
  0
VERTEX
  8
LAYER_1
 10
76.9816
 20
352.8105
  0
VERTEX
  8
LAYER_1
 10
76.4736
 20
352.4084
  0
VERTEX
  8
LAYER_1
 10
75.9656
 20
352.0273
  0
VERTEX
  8
LAYER_1
 10
75.4788
 20
351.6252
  0
VERTEX
  8
LAYER_1
 10
74.9708
 20
351.223
  0
VERTEX
  8
LAYER_1
 10
74.5051
 20
350.8209
  0
VERTEX
  8
LAYER_1
 10
74.0183
 20
350.4187
  0
VERTEX
  8
LAYER_1
 10
73.5526
 20
349.9953
  0
VERTEX
  8
LAYER_1
 10
73.0869
 20
349.572
  0
VERTEX
  8
LAYER_1
 10
72.6424
 20
349.1487
  0
VERTEX
  8
LAYER_1
 10
72.1979
 20
348.7253
  0
VERTEX
  8
LAYER_1
 10
71.7534
 20
348.302
  0
VERTEX
  8
LAYER_1
 10
71.3301
 20
347.8787
  0
VERTEX
  8
LAYER_1
 10
70.9068
 20
347.4342
  0
VERTEX
  8
LAYER_1
 10
70.4834
 20
346.9897
  0
VERTEX
  8
LAYER_1
 10
70.0813
 20
346.5452
  0
VERTEX
  8
LAYER_1
 10
69.6791
 20
346.1007
  0
VERTEX
  8
LAYER_1
 10
69.2981
 20
345.6562
  0
VERTEX
  8
LAYER_1
 10
68.9171
 20
345.1905
  0
VERTEX
  8
LAYER_1
 10
68.5361
 20
344.746
  0
VERTEX
  8
LAYER_1
 10
68.1763
 20
344.2803
  0
VERTEX
  8
LAYER_1
 10
67.8164
 20
343.8147
  0
VERTEX
  8
LAYER_1
 10
67.4778
 20
343.349
  0
VERTEX
  8
LAYER_1
 10
67.1391
 20
342.8833
  0
VERTEX
  8
LAYER_1
 10
66.8004
 20
342.4177
  0
VERTEX
  8
LAYER_1
 10
66.4829
 20
341.9309
  0
VERTEX
  8
LAYER_1
 10
66.1654
 20
341.4652
  0
VERTEX
  8
LAYER_1
 10
65.8691
 20
340.9783
  0
VERTEX
  8
LAYER_1
 10
65.5728
 20
340.4915
  0
VERTEX
  8
LAYER_1
 10
65.2764
 20
340.0047
  0
VERTEX
  8
LAYER_1
 10
65.0013
 20
339.5179
  0
VERTEX
  8
LAYER_1
 10
64.7261
 20
339.031
  0
VERTEX
  8
LAYER_1
 10
64.4721
 20
338.5442
  0
VERTEX
  8
LAYER_1
 10
64.2181
 20
338.0362
  0
VERTEX
  8
LAYER_1
 10
63.9853
 20
337.5493
  0
VERTEX
  8
LAYER_1
 10
63.7524
 20
337.0413
  0
VERTEX
  8
LAYER_1
 10
63.5196
 20
336.5545
  0
VERTEX
  8
LAYER_1
 10
63.3079
 20
336.0465
  0
VERTEX
  8
LAYER_1
 10
63.0963
 20
335.5385
  0
VERTEX
  8
LAYER_1
 10
62.9058
 20
335.0305
  0
VERTEX
  8
LAYER_1
 10
62.7153
 20
334.5225
  0
VERTEX
  8
LAYER_1
 10
62.5459
 20
334.0145
  0
VERTEX
  8
LAYER_1
 10
62.3766
 20
333.5065
  0
VERTEX
  8
LAYER_1
 10
62.2073
 20
332.9985
  0
VERTEX
  8
LAYER_1
 10
62.0591
 20
332.4905
  0
VERTEX
  8
LAYER_1
 10
61.9109
 20
331.9613
  0
VERTEX
  8
LAYER_1
 10
61.7839
 20
331.4533
  0
VERTEX
  8
LAYER_1
 10
61.6569
 20
330.9242
  0
VERTEX
  8
LAYER_1
 10
61.5511
 20
330.4162
  0
VERTEX
  8
LAYER_1
 10
61.4453
 20
329.9082
  0
VERTEX
  8
LAYER_1
 10
61.3606
 20
329.379
  0
VERTEX
  8
LAYER_1
 10
61.2759
 20
328.8498
  0
VERTEX
  8
LAYER_1
 10
61.1913
 20
328.3419
  0
VERTEX
  8
LAYER_1
 10
61.1278
 20
327.8127
  0
VERTEX
  8
LAYER_1
 10
61.0854
 20
327.2835
  0
VERTEX
  8
LAYER_1
 10
61.0219
 20
326.7755
  0
VERTEX
  8
LAYER_1
 10
61.0008
 20
326.2464
  0
VERTEX
  8
LAYER_1
 10
60.9584
 20
325.7172
  0
VERTEX
  8
LAYER_1
 10
60.9584
 20
325.2092
  0
VERTEX
  8
LAYER_1
 10
60.9373
 20
324.68
  0
VERTEX
  8
LAYER_1
 10
60.9373
 20
324.1509
  0
VERTEX
  8
LAYER_1
 10
60.9584
 20
323.6217
  0
VERTEX
  8
LAYER_1
 10
60.9796
 20
323.1137
  0
VERTEX
  8
LAYER_1
 10
61.0008
 20
322.5845
  0
VERTEX
  8
LAYER_1
 10
61.0431
 20
322.0554
  0
VERTEX
  8
LAYER_1
 10
61.0854
 20
321.5262
  0
VERTEX
  8
LAYER_1
 10
61.1489
 20
321.0182
  0
VERTEX
  8
LAYER_1
 10
61.2124
 20
320.489
  0
VERTEX
  8
LAYER_1
 10
61.2971
 20
319.9599
  0
VERTEX
  8
LAYER_1
 10
61.3818
 20
319.4519
  0
VERTEX
  8
LAYER_1
 10
61.4876
 20
318.9227
  0
VERTEX
  8
LAYER_1
 10
61.5934
 20
318.4147
  0
VERTEX
  8
LAYER_1
 10
61.6993
 20
317.8855
  0
VERTEX
  8
LAYER_1
 10
61.8263
 20
317.3775
  0
VERTEX
  8
LAYER_1
 10
61.9744
 20
316.8695
  0
VERTEX
  8
LAYER_1
 10
62.1014
 20
316.3403
  0
VERTEX
  8
LAYER_1
 10
62.2708
 20
315.8323
  0
VERTEX
  8
LAYER_1
 10
62.4189
 20
315.3243
  0
VERTEX
  8
LAYER_1
 10
62.5883
 20
314.8163
  0
VERTEX
  8
LAYER_1
 10
62.7788
 20
314.3083
  0
VERTEX
  8
LAYER_1
 10
62.9693
 20
313.8003
  0
VERTEX
  8
LAYER_1
 10
63.1598
 20
313.2923
  0
VERTEX
  8
LAYER_1
 10
63.3714
 20
312.7843
  0
VERTEX
  8
LAYER_1
 10
63.6043
 20
312.2763
  0
VERTEX
  8
LAYER_1
 10
63.8159
 20
311.7895
  0
VERTEX
  8
LAYER_1
 10
64.0699
 20
311.2815
  0
VERTEX
  8
LAYER_1
 10
64.3028
 20
310.7947
  0
VERTEX
  8
LAYER_1
 10
64.5568
 20
310.2867
  0
VERTEX
  8
LAYER_1
 10
64.8319
 20
309.7999
  0
VERTEX
  8
LAYER_1
 10
65.1071
 20
309.313
  0
VERTEX
  8
LAYER_1
 10
65.3823
 20
308.8262
  0
VERTEX
  8
LAYER_1
 10
65.6574
 20
308.3394
  0
VERTEX
  8
LAYER_1
 10
65.9749
 20
307.8525
  0
VERTEX
  8
LAYER_1
 10
66.2713
 20
307.3868
  0
VERTEX
  8
LAYER_1
 10
66.5888
 20
306.9
  0
VERTEX
  8
LAYER_1
 10
66.9063
 20
306.4343
  0
VERTEX
  8
LAYER_1
 10
67.2449
 20
305.9687
  0
VERTEX
  8
LAYER_1
 10
67.5836
 20
305.503
  0
VERTEX
  8
LAYER_1
 10
67.9434
 20
305.0374
  0
VERTEX
  8
LAYER_1
 10
68.3033
 20
304.5717
  0
VERTEX
  8
LAYER_1
 10
68.6631
 20
304.106
  0
VERTEX
  8
LAYER_1
 10
69.0441
 20
303.6403
  0
VERTEX
  8
LAYER_1
 10
69.4251
 20
303.1958
  0
VERTEX
  8
LAYER_1
 10
69.8273
 20
302.7513
  0
VERTEX
  8
LAYER_1
 10
70.2294
 20
302.3068
  0
SEQEND
  0
POLYLINE
  8
LAYER_1
 40
0.1693
 41
0.1693
 66
1
 10
0
 20
0
 30
0
  0
VERTEX
  8
LAYER_1
 10
70.2294
 20
302.3068
  0
VERTEX
  8
LAYER_1
 10
70.6316
 20
301.8623
  0
VERTEX
  8
LAYER_1
 10
71.0549
 20
301.4179
  0
VERTEX
  8
LAYER_1
 10
71.4783
 20
300.9945
  0
VERTEX
  8
LAYER_1
 10
71.9016
 20
300.55
  0
VERTEX
  8
LAYER_1
 10
72.3461
 20
300.1267
  0
VERTEX
  8
LAYER_1
 10
72.7906
 20
299.7033
  0
VERTEX
  8
LAYER_1
 10
73.2563
 20
299.28
  0
VERTEX
  8
LAYER_1
 10
73.7219
 20
298.8567
  0
VERTEX
  8
LAYER_1
 10
74.1876
 20
298.4545
  0
VERTEX
  8
LAYER_1
 10
74.6533
 20
298.0523
  0
VERTEX
  8
LAYER_1
 10
75.1401
 20
297.6502
  0
VERTEX
  8
LAYER_1
 10
75.6481
 20
297.248
  0
VERTEX
  8
LAYER_1
 10
76.1349
 20
296.8458
  0
VERTEX
  8
LAYER_1
 10
76.6429
 20
296.4648
  0
VERTEX
  8
LAYER_1
 10
77.1721
 20
296.0627
  0
VERTEX
  8
LAYER_1
 10
77.6801
 20
295.6817
  0
VERTEX
  8
LAYER_1
 10
78.2093
 20
295.3007
  0
VERTEX
  8
LAYER_1
 10
78.7596
 20
294.9408
  0
VERTEX
  8
LAYER_1
 10
79.2888
 20
294.5599
  0
VERTEX
  8
LAYER_1
 10
79.8391
 20
294.2
  0
VERTEX
  8
LAYER_1
 10
80.3894
 20
293.8402
  0
VERTEX
  8
LAYER_1
 10
80.9609
 20
293.4804
  0
VERTEX
  8
LAYER_1
 10
81.5325
 20
293.1417
  0
VERTEX
  8
LAYER_1
 10
82.1039
 20
292.803
  0
VERTEX
  8
LAYER_1
 10
82.6754
 20
292.4432
  0
VERTEX
  8
LAYER_1
 10
83.2681
 20
292.1257
  0
VERTEX
  8
LAYER_1
 10
83.8608
 20
291.787
  0
VERTEX
  8
LAYER_1
 10
84.4746
 20
291.4695
  0
VERTEX
  8
LAYER_1
 10
85.0673
 20
291.152
  0
VERTEX
  8
LAYER_1
 10
85.6811
 20
290.8345
  0
VERTEX
  8
LAYER_1
 10
86.295
 20
290.517
  0
VERTEX
  8
LAYER_1
 10
86.9299
 20
290.2207
  0
VERTEX
  8
LAYER_1
 10
87.5438
 20
289.9243
  0
VERTEX
  8
LAYER_1
 10
88.1788
 20
289.628
  0
VERTEX
  8
LAYER_1
 10
88.8138
 20
289.3317
  0
VERTEX
  8
LAYER_1
 10
89.47
 20
289.0565
  0
VERTEX
  8
LAYER_1
 10
90.1049
 20
288.7813
  0
VERTEX
  8
LAYER_1
 10
90.7611
 20
288.5062
  0
VERTEX
  8
LAYER_1
 10
91.4173
 20
288.2522
  0
VERTEX
  8
LAYER_1
 10
92.0946
 20
287.977
  0
VERTEX
  8
LAYER_1
 10
92.7508
 20
287.723
  0
VERTEX
  8
LAYER_1
 10
93.4281
 20
287.4902
  0
VERTEX
  8
LAYER_1
 10
94.1054
 20
287.2362
  0
VERTEX
  8
LAYER_1
 10
94.7828
 20
287.0033
  0
VERTEX
  8
LAYER_1
 10
95.4813
 20
286.7705
  0
VERTEX
  8
LAYER_1
 10
96.1586
 20
286.5377
  0
VERTEX
  8
LAYER_1
 10
96.8571
 20
286.326
  0
VERTEX
  8
LAYER_1
 10
97.5556
 20
286.1144
  0
VERTEX
  8
LAYER_1
 10
98.2541
 20
285.9027
  0
VERTEX
  8
LAYER_1
 10
98.9526
 20
285.7122
  0
VERTEX
  8
LAYER_1
 10
99.6723
 20
285.5217
  0
VERTEX
  8
LAYER_1
 10
100.3919
 20
285.3312
  0
VERTEX
  8
LAYER_1
 10
101.0905
 20
285.1407
  0
VERTEX
  8
LAYER_1
 10
101.8101
 20
284.9714
  0
VERTEX
  8
LAYER_1
 10
102.5298
 20
284.802
  0
VERTEX
  8
LAYER_1
 10
103.2706
 20
284.6538
  0
VERTEX
  8
LAYER_1
 10
103.9903
 20
284.4845
  0
VERTEX
  8
LAYER_1
 10
104.7311
 20
284.3363
  0
VERTEX
  8
LAYER_1
 10
105.4508
 20
284.1882
  0
VERTEX
  8
LAYER_1
 10
106.1916
 20
284.0612
  0
VERTEX
  8
LAYER_1
 10
106.9325
 20
283.9342
  0
VERTEX
  8
LAYER_1
 10
107.6733
 20
283.8072
  0
VERTEX
  8
LAYER_1
 10
108.4141
 20
283.6802
  0
VERTEX
  8
LAYER_1
 10
109.1549
 20
283.5743
  0
VERTEX
  8
LAYER_1
 10
109.9169
 20
283.4685
  0
VERTEX
  8
LAYER_1
 10
110.6578
 20
283.3627
  0
VERTEX
  8
LAYER_1
 10
111.4198
 20
283.2568
  0
VERTEX
  8
LAYER_1
 10
112.1606
 20
283.1722
  0
VERTEX
  8
LAYER_1
 10
112.9226
 20
283.0875
  0
VERTEX
  8
LAYER_1
 10
113.6846
 20
283.024
  0
VERTEX
  8
LAYER_1
 10
114.4254
 20
282.9605
  0
VERTEX
  8
LAYER_1
 10
115.1874
 20
282.897
  0
VERTEX
  8
LAYER_1
 10
115.9494
 20
282.8335
  0
VERTEX
  8
LAYER_1
 10
116.7114
 20
282.7912
  0
VERTEX
  8
LAYER_1
 10
117.4735
 20
282.7488
  0
VERTEX
  8
LAYER_1
 10
118.2354
 20
282.7065
  0
VERTEX
  8
LAYER_1
 10
118.9975
 20
282.6854
  0
VERTEX
  8
LAYER_1
 10
119.7594
 20
282.643
  0
VERTEX
  8
LAYER_1
 10
120.5214
 20
282.643
  0
VERTEX
  8
LAYER_1
 10
121.2834
 20
282.6219
  0
VERTEX
  8
LAYER_1
 10
122.0454
 20
282.6219
  0
VERTEX
  8
LAYER_1
 10
122.8075
 20
282.6219
  0
VERTEX
  8
LAYER_1
 10
123.5694
 20
282.643
  0
VERTEX
  8
LAYER_1
 10
124.3315
 20
282.643
  0
VERTEX
  8
LAYER_1
 10
125.0934
 20
282.6854
  0
VERTEX
  8
LAYER_1
 10
125.8766
 20
282.7065
  0
VERTEX
  8
LAYER_1
 10
126.6386
 20
282.7488
  0
VERTEX
  8
LAYER_1
 10
127.3794
 20
282.7912
  0
VERTEX
  8
LAYER_1
 10
128.1414
 20
282.8335
  0
VERTEX
  8
LAYER_1
 10
128.9035
 20
282.897
  0
VERTEX
  8
LAYER_1
 10
129.6655
 20
282.9605
  0
VERTEX
  8
LAYER_1
 10
130.4274
 20
283.024
  0
VERTEX
  8
LAYER_1
 10
131.1895
 20
283.0875
  0
VERTEX
  8
LAYER_1
 10
131.9303
 20
283.1722
  0
VERTEX
  8
LAYER_1
 10
132.6923
 20
283.2568
  0
VERTEX
  8
LAYER_1
 10
133.4331
 20
283.3627
  0
VERTEX
  8
LAYER_1
 10
134.1951
 20
283.4685
  0
VERTEX
  8
LAYER_1
 10
134.936
 20
283.5743
  0
VERTEX
  8
LAYER_1
 10
135.6768
 20
283.6802
  0
VERTEX
  8
LAYER_1
 10
136.4176
 20
283.8072
  0
VERTEX
  8
LAYER_1
 10
137.1584
 20
283.9342
  0
VERTEX
  8
LAYER_1
 10
137.8993
 20
284.0612
  0
VERTEX
  8
LAYER_1
 10
138.6401
 20
284.2094
  0
VERTEX
  8
LAYER_1
 10
139.3809
 20
284.3363
  0
VERTEX
  8
LAYER_1
 10
140.1006
 20
284.5057
  0
VERTEX
  8
LAYER_1
 10
140.8414
 20
284.6538
  0
VERTEX
  8
LAYER_1
 10
141.5611
 20
284.802
  0
VERTEX
  8
LAYER_1
 10
142.2808
 20
284.9714
  0
VERTEX
  8
LAYER_1
 10
143.0004
 20
285.1407
  0
VERTEX
  8
LAYER_1
 10
143.7201
 20
285.3312
  0
VERTEX
  8
LAYER_1
 10
144.4186
 20
285.5217
  0
VERTEX
  8
LAYER_1
 10
145.1383
 20
285.7122
  0
VERTEX
  8
LAYER_1
 10
145.8368
 20
285.9027
  0
VERTEX
  8
LAYER_1
 10
146.5353
 20
286.1144
  0
VERTEX
  8
LAYER_1
 10
147.2338
 20
286.326
  0
VERTEX
  8
LAYER_1
 10
147.9323
 20
286.5589
  0
VERTEX
  8
LAYER_1
 10
148.6308
 20
286.7705
  0
VERTEX
  8
LAYER_1
 10
149.3081
 20
287.0033
  0
VERTEX
  8
LAYER_1
 10
149.9854
 20
287.2362
  0
VERTEX
  8
LAYER_1
 10
150.6628
 20
287.4902
  0
VERTEX
  8
LAYER_1
 10
151.3401
 20
287.7442
  0
VERTEX
  8
LAYER_1
 10
152.0174
 20
287.9982
  0
VERTEX
  8
LAYER_1
 10
152.6736
 20
288.2522
  0
VERTEX
  8
LAYER_1
 10
153.3298
 20
288.5062
  0
VERTEX
  8
LAYER_1
 10
153.986
 20
288.7813
  0
VERTEX
  8
LAYER_1
 10
154.6421
 20
289.0565
  0
VERTEX
  8
LAYER_1
 10
155.2771
 20
289.3528
  0
VERTEX
  8
LAYER_1
 10
155.9121
 20
289.628
  0
VERTEX
  8
LAYER_1
 10
156.5471
 20
289.9243
  0
VERTEX
  8
LAYER_1
 10
157.1821
 20
290.2207
  0
VERTEX
  8
LAYER_1
 10
157.7959
 20
290.517
  0
VERTEX
  8
LAYER_1
 10
158.4098
 20
290.8345
  0
VERTEX
  8
LAYER_1
 10
159.0236
 20
291.152
  0
VERTEX
  8
LAYER_1
 10
159.6374
 20
291.4695
  0
VERTEX
  8
LAYER_1
 10
160.2301
 20
291.787
  0
VERTEX
  8
LAYER_1
 10
160.8228
 20
292.1257
  0
VERTEX
  8
LAYER_1
 10
161.4155
 20
292.4644
  0
VERTEX
  8
LAYER_1
 10
161.9869
 20
292.803
  0
VERTEX
  8
LAYER_1
 10
162.5584
 20
293.1417
  0
VERTEX
  8
LAYER_1
 10
163.1299
 20
293.5015
  0
VERTEX
  8
LAYER_1
 10
163.7014
 20
293.8402
  0
VERTEX
  8
LAYER_1
 10
164.2518
 20
294.2
  0
VERTEX
  8
LAYER_1
 10
164.8021
 20
294.581
  0
VERTEX
  8
LAYER_1
 10
165.3525
 20
294.9408
  0
VERTEX
  8
LAYER_1
 10
165.8816
 20
295.3219
  0
VERTEX
  8
LAYER_1
 10
166.4108
 20
295.6817
  0
VERTEX
  8
LAYER_1
 10
166.94
 20
296.0839
  0
VERTEX
  8
LAYER_1
 10
167.4479
 20
296.4648
  0
VERTEX
  8
LAYER_1
 10
167.9559
 20
296.8458
  0
VERTEX
  8
LAYER_1
 10
168.4428
 20
297.248
  0
VERTEX
  8
LAYER_1
 10
168.9508
 20
297.6502
  0
VERTEX
  8
LAYER_1
 10
169.4376
 20
298.0523
  0
VERTEX
  8
LAYER_1
 10
169.9033
 20
298.4545
  0
VERTEX
  8
LAYER_1
 10
170.3901
 20
298.8778
  0
VERTEX
  8
LAYER_1
 10
170.8346
 20
299.28
  0
VERTEX
  8
LAYER_1
 10
171.3003
 20
299.7033
  0
VERTEX
  8
LAYER_1
 10
171.7448
 20
300.1267
  0
VERTEX
  8
LAYER_1
 10
172.1893
 20
300.5712
  0
VERTEX
  8
LAYER_1
 10
172.6126
 20
300.9945
  0
VERTEX
  8
LAYER_1
 10
173.036
 20
301.439
  0
VERTEX
  8
LAYER_1
 10
173.4593
 20
301.8623
  0
VERTEX
  8
LAYER_1
 10
173.8615
 20
302.3068
  0
VERTEX
  8
LAYER_1
 10
174.2636
 20
302.7514
  0
VERTEX
  8
LAYER_1
 10
174.6658
 20
303.1958
  0
VERTEX
  8
LAYER_1
 10
175.0468
 20
303.6615
  0
VERTEX
  8
LAYER_1
 10
175.4278
 20
304.106
  0
VERTEX
  8
LAYER_1
 10
175.7876
 20
304.5717
  0
VERTEX
  8
LAYER_1
 10
176.1474
 20
305.0373
  0
VERTEX
  8
LAYER_1
 10
176.5073
 20
305.503
  0
VERTEX
  8
LAYER_1
 10
176.8459
 20
305.9687
  0
VERTEX
  8
LAYER_1
 10
177.1846
 20
306.4344
  0
VERTEX
  8
LAYER_1
 10
177.5021
 20
306.9212
  0
VERTEX
  8
LAYER_1
 10
177.8196
 20
307.3868
  0
VERTEX
  8
LAYER_1
 10
178.116
 20
307.8737
  0
VERTEX
  8
LAYER_1
 10
178.4334
 20
308.3605
  0
VERTEX
  8
LAYER_1
 10
178.7086
 20
308.8474
  0
VERTEX
  8
LAYER_1
 10
179.0049
 20
309.3342
  0
VERTEX
  8
LAYER_1
 10
179.259
 20
309.821
  0
VERTEX
  8
LAYER_1
 10
179.5341
 20
310.3078
  0
VERTEX
  8
LAYER_1
 10
179.7881
 20
310.7947
  0
VERTEX
  8
LAYER_1
 10
180.0209
 20
311.3027
  0
VERTEX
  8
LAYER_1
 10
180.275
 20
311.7895
  0
VERTEX
  8
LAYER_1
 10
180.4866
 20
312.2975
  0
VERTEX
  8
LAYER_1
 10
180.7195
 20
312.8055
  0
VERTEX
  8
LAYER_1
 10
180.9099
 20
313.2923
  0
VERTEX
  8
LAYER_1
 10
181.1216
 20
313.8003
  0
VERTEX
  8
LAYER_1
 10
181.3121
 20
314.3083
  0
VERTEX
  8
LAYER_1
 10
181.4814
 20
314.8163
  0
VERTEX
  8
LAYER_1
 10
181.6719
 20
315.3243
  0
VERTEX
  8
LAYER_1
 10
181.8201
 20
315.8535
  0
VERTEX
  8
LAYER_1
 10
181.9683
 20
316.3615
  0
VERTEX
  8
LAYER_1
 10
182.1164
 20
316.8695
  0
VERTEX
  8
LAYER_1
 10
182.2646
 20
317.3775
  0
VERTEX
  8
LAYER_1
 10
182.3916
 20
317.9067
  0
VERTEX
  8
LAYER_1
 10
182.4974
 20
318.4147
  0
VERTEX
  8
LAYER_1
 10
182.6033
 20
318.9438
  0
VERTEX
  8
LAYER_1
 10
182.7091
 20
319.4519
  0
VERTEX
  8
LAYER_1
 10
182.7938
 20
319.981
  0
VERTEX
  8
LAYER_1
 10
182.8573
 20
320.5102
  0
VERTEX
  8
LAYER_1
 10
182.9419
 20
321.0182
  0
SEQEND
  0
POLYLINE
  8
LAYER_1
 40
0.1693
 41
0.1693
 66
1
 10
0
 20
0
 30
0
  0
VERTEX
  8
LAYER_1
 10
182.9419
 20
321.0182
  0
VERTEX
  8
LAYER_1
 10
182.9843
 20
321.5474
  0
VERTEX
  8
LAYER_1
 10
183.0478
 20
322.0765
  0
VERTEX
  8
LAYER_1
 10
183.0901
 20
322.5845
  0
VERTEX
  8
LAYER_1
 10
183.1113
 20
323.1137
  0
VERTEX
  8
LAYER_1
 10
183.1324
 20
323.6429
  0
VERTEX
  8
LAYER_1
 10
183.1324
 20
324.1509
  0
VERTEX
  8
LAYER_1
 10
183.1536
 20
324.5107
  0
SEQEND
  0
POLYLINE
  8
LAYER_1
 40
0.1693
 41
0.1693
 66
1
 10
0
 20
0
 30
0
  0
VERTEX
  8
LAYER_1
 10
122.5323
 20
368.4315
 42
0.4147248893
  0
VERTEX
  8
LAYER_1
 10
122.0243
 20
368.9184
 42
0.4239366616
  0
VERTEX
  8
LAYER_1
 10
121.5374
 20
368.4315
 42
0.414737923
  0
VERTEX
  8
LAYER_1
 10
122.0243
 20
367.9235
 42
0.4062245089
  0
VERTEX
  8
LAYER_1
 10
122.5323
 20
368.4315
  0
SEQEND
  0
POLYLINE
  8
LAYER_1
 40
0.1693
 41
0.1693
 66
1
 10
0
 20
0
 30
0
  0
VERTEX
  8
LAYER_1
 10
122.5323
 20
280.6533
 42
0.4147434099
  0
VERTEX
  8
LAYER_1
 10
122.0243
 20
281.1402
 42
0.4239559042
  0
VERTEX
  8
LAYER_1
 10
121.5374
 20
280.6533
 42
0.4147201725
  0
VERTEX
  8
LAYER_1
 10
122.0243
 20
280.1453
 42
0.4062073618
  0
VERTEX
  8
LAYER_1
 10
122.5323
 20
280.6533
  0
SEQEND
  0
POLYLINE
  8
LAYER_1
 40
0.1693
 41
0.1693
 66
1
 10
0
 20
0
 30
0
  0
VERTEX
  8
LAYER_1
 10
94.7828
 20
363.9442
 42
0.4147051102
  0
VERTEX
  8
LAYER_1
 10
94.2748
 20
364.431
 42
0.4239173604
  0
VERTEX
  8
LAYER_1
 10
93.7879
 20
363.9442
 42
0.4147581919
  0
VERTEX
  8
LAYER_1
 10
94.2748
 20
363.4362
 42
0.4062426167
  0
VERTEX
  8
LAYER_1
 10
94.7828
 20
363.9442
  0
SEQEND
  0
POLYLINE
  8
LAYER_1
 40
0.1693
 41
0.1693
 66
1
 10
0
 20
0
 30
0
  0
VERTEX
  8
LAYER_1
 10
70.7374
 20
349.5932
 42
0.4147444054
  0
VERTEX
  8
LAYER_1
 10
70.2294
 20
350.08
 42
0.4238790804
  0
VERTEX
  8
LAYER_1
 10
69.7426
 20
349.5932
 42
0.4147186259
  0
VERTEX
  8
LAYER_1
 10
70.2294
 20
349.0852
 42
0.4062776386
  0
VERTEX
  8
LAYER_1
 10
70.7374
 20
349.5932
  0
SEQEND
  0
POLYLINE
  8
LAYER_1
 40
0.1693
 41
0.1693
 66
1
 10
0
 20
0
 30
0
  0
VERTEX
  8
LAYER_1
 10
59.4344
 20
324.5318
 42
0.4147797033
  0
VERTEX
  8
LAYER_1
 10
58.9264
 20
325.0187
 42
0.423919785
  0
VERTEX
  8
LAYER_1
 10
58.4396
 20
324.5318
 42
0.4146837005
  0
VERTEX
  8
LAYER_1
 10
58.9264
 20
324.0238
 42
0.4062404527
  0
VERTEX
  8
LAYER_1
 10
59.4344
 20
324.5318
  0
SEQEND
  0
POLYLINE
  8
LAYER_1
 40
0.1693
 41
0.1693
 66
1
 10
0
 20
0
 30
0
  0
VERTEX
  8
LAYER_1
 10
122.5323
 20
280.6533
 42
0.4147434099
  0
VERTEX
  8
LAYER_1
 10
122.0243
 20
281.1402
 42
0.4239559042
  0
VERTEX
  8
LAYER_1
 10
121.5374
 20
280.6533
 42
0.4147201725
  0
VERTEX
  8
LAYER_1
 10
122.0243
 20
280.1453
 42
0.4062073618
  0
VERTEX
  8
LAYER_1
 10
122.5323
 20
280.6533
  0
SEQEND
  0
POLYLINE
  8
LAYER_1
 40
0.1693
 41
0.1693
 66
1
 10
0
 20
0
 30
0
  0
VERTEX
  8
LAYER_1
 10
94.7828
 20
285.0983
 42
0.4147439609
  0
VERTEX
  8
LAYER_1
 10
94.2748
 20
285.5852
 42
0.4239580601
  0
VERTEX
  8
LAYER_1
 10
93.7879
 20
285.0983
 42
0.4147197077
  0
VERTEX
  8
LAYER_1
 10
94.2748
 20
284.5903
 42
0.4062054407
  0
VERTEX
  8
LAYER_1
 10
94.7828
 20
285.0983
  0
SEQEND
  0
POLYLINE
  8
LAYER_1
 40
0.1693
 41
0.1693
 66
1
 10
0
 20
0
 30
0
  0
VERTEX
  8
LAYER_1
 10
70.7374
 20
299.4493
 42
0.4147801464
  0
VERTEX
  8
LAYER_1
 10
70.2294
 20
299.9362
 42
0.4239165512
  0
VERTEX
  8
LAYER_1
 10
69.7426
 20
299.4493
 42
0.4146831279
  0
VERTEX
  8
LAYER_1
 10
70.2294
 20
298.9413
 42
0.4062433346
  0
VERTEX
  8
LAYER_1
 10
70.7374
 20
299.4493
  0
SEQEND
  0
POLYLINE
  8
LAYER_1
 40
0.1693
 41
0.1693
 66
1
 10
0
 20
0
 30
0
  0
VERTEX
  8
LAYER_1
 10
150.2818
 20
363.9442
 42
0.414700387
  0
VERTEX
  8
LAYER_1
 10
149.7738
 20
364.431
 42
0.4239224807
  0
VERTEX
  8
LAYER_1
 10
149.2869
 20
363.9442
 42
0.414763121
  0
VERTEX
  8
LAYER_1
 10
149.7738
 20
363.4362
 42
0.4062380532
  0
VERTEX
  8
LAYER_1
 10
150.2818
 20
363.9442
  0
SEQEND
  0
POLYLINE
  8
LAYER_1
 40
0.1693
 41
0.1693
 66
1
 10
0
 20
0
 30
0
  0
VERTEX
  8
LAYER_1
 10
174.3271
 20
349.5932
 42
0.4147219312
  0
VERTEX
  8
LAYER_1
 10
173.8191
 20
350.08
 42
0.4239034432
  0
VERTEX
  8
LAYER_1
 10
173.3323
 20
349.5932
 42
0.4147420784
  0
VERTEX
  8
LAYER_1
 10
173.8191
 20
349.0852
 42
0.4062559244
  0
VERTEX
  8
LAYER_1
 10
174.3271
 20
349.5932
  0
SEQEND
  0
POLYLINE
  8
LAYER_1
 40
0.1693
 41
0.1693
 66
1
 10
0
 20
0
 30
0
  0
VERTEX
  8
LAYER_1
 10
185.6301
 20
324.5318
 42
0.4147687006
  0
VERTEX
  8
LAYER_1
 10
185.1221
 20
325.0187
 42
0.4239320833
  0
VERTEX
  8
LAYER_1
 10
184.6353
 20
324.5318
 42
0.4146952803
  0
VERTEX
  8
LAYER_1
 10
185.1221
 20
324.0238
 42
0.4062300526
  0
VERTEX
  8
LAYER_1
 10
185.6301
 20
324.5318
  0
SEQEND
  0
POLYLINE
  8
LAYER_1
 40
0.1693
 41
0.1693
 66
1
 10
0
 20
0
 30
0
  0
VERTEX
  8
LAYER_1
 10
150.2818
 20
285.0983
 42
0.4147392372
  0
VERTEX
  8
LAYER_1
 10
149.7738
 20
285.5852
 42
0.4239631809
  0
VERTEX
  8
LAYER_1
 10
149.2869
 20
285.0983
 42
0.4147246353
  0
VERTEX
  8
LAYER_1
 10
149.7738
 20
284.5903
 42
0.4062008785
  0
VERTEX
  8
LAYER_1
 10
150.2818
 20
285.0983
  0
SEQEND
  0
POLYLINE
  8
LAYER_1
 40
0.1693
 41
0.1693
 66
1
 10
0
 20
0
 30
0
  0
VERTEX
  8
LAYER_1
 10
174.3271
 20
299.4493
 42
0.4147576706
  0
VERTEX
  8
LAYER_1
 10
173.8191
 20
299.9362
 42
0.4239409158
  0
VERTEX
  8
LAYER_1
 10
173.3323
 20
299.4493
 42
0.4147065741
  0
VERTEX
  8
LAYER_1
 10
173.8191
 20
298.9413
 42
0.4062216262
  0
VERTEX
  8
LAYER_1
 10
174.3271
 20
299.4493
  0
SEQEND
  0
POLYLINE
  8
LAYER_1
 40
0.1693
 41
0.1693
 66
1
 10
0
 20
0
 30
0
  0
VERTEX
  8
LAYER_1
 10
131.0201
 20
324.5318
 42
0.4134276508
  0
VERTEX
  8
LAYER_1
 10
122.0243
 20
333.5065
 42
0.4139181287
  0
VERTEX
  8
LAYER_1
 10
113.0496
 20
324.5318
 42
0.4134269583
  0
VERTEX
  8
LAYER_1
 10
122.0243
 20
315.536
 42
0.08787609179
  0
VERTEX
  8
LAYER_1
 10
125.1197
 20
316.0836
 42
0.1267072091
  0
VERTEX
  8
LAYER_1
 10
128.8284
 20
318.6509
 42
0.1275425844
  0
VERTEX
  8
LAYER_1
 10
130.8376
 20
322.7232
 42
0.05054780961
  0
VERTEX
  8
LAYER_1
 10
131.0201
 20
324.5318
  0
SEQEND
  0
POLYLINE
  8
LAYER_1
 40
0.0847
 41
0.0847
 66
1
 10
0
 20
0
 30
0
  0
VERTEX
  8
LAYER_1
 10
115.6743
 20
318.1395
  0
VERTEX
  8
LAYER_1
 10
128.4166
 20
330.8607
  0
SEQEND
  0
TEXT
  8
LAYER_1
 10
128.8804
 20
332.5326
 11
128.8804
 21
332.5326
 40
3.6605
 41
0.5
 50
44.99999999
  1
%%c9
  0
TEXT
  8
LAYER_1
 10
132.6692
 20
336.1729
 11
132.6692
 21
336.1729
 40
3.6605
 41
0.5
 50
44.99999999
  1
0
  0
POLYLINE
  8
LAYER_1
 40
0.0847
 41
0.0847
 66
1
 10
0
 20
0
 30
0
  0
VERTEX
  8
LAYER_1
 10
128.4166
 20
330.8607
  0
VERTEX
  8
LAYER_1
 10
134.2374
 20
336.7027
  0
SEQEND
  0
POLYLINE
  8
LAYER_1
 40
0.1693
 41
0.1693
 66
1
 10
0
 20
0
 30
0
  0
VERTEX
  8
LAYER_1
 10
115.6743
 20
318.1395
  0
VERTEX
  8
LAYER_1
 10
117.1771
 20
320.743
  0
SEQEND
  0
POLYLINE
  8
LAYER_1
 40
0.1693
 41
0.1693
 66
1
 10
0
 20
0
 30
0
  0
VERTEX
  8
LAYER_1
 10
115.6743
 20
318.1395
  0
VERTEX
  8
LAYER_1
 10
118.2778
 20
319.6424
  0
SEQEND
  0
POLYLINE
  8
LAYER_1
 40
0.1693
 41
0.1693
 66
1
 10
0
 20
0
 30
0
  0
VERTEX
  8
LAYER_1
 10
128.4166
 20
330.8607
  0
VERTEX
  8
LAYER_1
 10
126.9138
 20
328.2783
  0
SEQEND
  0
POLYLINE
  8
LAYER_1
 40
0.1693
 41
0.1693
 66
1
 10
0
 20
0
 30
0
  0
VERTEX
  8
LAYER_1
 10
128.4166
 20
330.8607
  0
VERTEX
  8
LAYER_1
 10
125.8131
 20
329.3578
  0
SEQEND
  0
POLYLINE
  8
LAYER_1
 40
0.0847
 41
0.0847
 66
1
 10
0
 20
0
 30
0
  0
VERTEX
  8
LAYER_1
 10
116.0341
 20
382.5073
  0
VERTEX
  8
LAYER_1
 10
117.8968
 20
382.5073
  0
SEQEND
  0
POLYLINE
  8
LAYER_1
 40
0.0847
 41
0.0847
 66
1
 10
0
 20
0
 30
0
  0
VERTEX
  8
LAYER_1
 10
118.6588
 20
382.5073
  0
VERTEX
  8
LAYER_1
 10
119.3996
 20
382.5073
  0
SEQEND
  0
POLYLINE
  8
LAYER_1
 40
0.0847
 41
0.0847
 66
1
 10
0
 20
0
 30
0
  0
VERTEX
  8
LAYER_1
 10
120.1616
 20
382.5073
  0
VERTEX
  8
LAYER_1
 10
122.0454
 20
382.5073
  0
SEQEND
  0
POLYLINE
  8
LAYER_1
 40
0.0847
 41
0.0847
 66
1
 10
0
 20
0
 30
0
  0
VERTEX
  8
LAYER_1
 10
116.0341
 20
382.5073
  0
VERTEX
  8
LAYER_1
 10
117.8968
 20
381.4278
  0
SEQEND
  0
POLYLINE
  8
LAYER_1
 40
0.0847
 41
0.0847
 66
1
 10
0
 20
0
 30
0
  0
VERTEX
  8
LAYER_1
 10
118.6588
 20
381.0045
  0
VERTEX
  8
LAYER_1
 10
119.3996
 20
380.56
  0
SEQEND
  0
POLYLINE
  8
LAYER_1
 40
0.0847
 41
0.0847
 66
1
 10
0
 20
0
 30
0
  0
VERTEX
  8
LAYER_1
 10
120.1616
 20
380.1367
  0
VERTEX
  8
LAYER_1
 10
122.0454
 20
379.036
  0
SEQEND
  0
TEXT
  8
LAYER_1
 10
111.949
 20
380.4236
 11
111.949
 21
380.4236
 40
6.0838
 41
0.5
  1
B
  0
POLYLINE
  8
LAYER_1
 40
0.0847
 41
0.0847
 66
1
 10
0
 20
0
 30
0
  0
VERTEX
  8
LAYER_1
 10
70.1024
 20
299.1107
  0
VERTEX
  8
LAYER_1
 10
59.2228
 20
288.231
  0
SEQEND
  0
TEXT
  8
LAYER_1
 10
42.0352
 20
285.5217
 11
42.0352
 21
285.5217
 40
3.1022
 41
0.5
  1
ネジ取付穴
  0
POLYLINE
  8
LAYER_1
 40
0.0847
 41
0.0847
 66
1
 10
0
 20
0
 30
0
  0
VERTEX
  8
LAYER_1
 10
60.9373
 20
390.0215
  0
VERTEX
  8
LAYER_1
 10
183.1536
 20
390.0215
  0
SEQEND
  0
POLYLINE
  8
LAYER_1
 40
0.1693
 41
0.1693
 66
1
 10
0
 20
0
 30
0
  0
VERTEX
  8
LAYER_1
 10
60.9373
 20
390.0215
  0
VERTEX
  8
LAYER_1
 10
63.8371
 20
390.8047
  0
SEQEND
  0
POLYLINE
  8
LAYER_1
 40
0.1693
 41
0.1693
 66
1
 10
0
 20
0
 30
0
  0
VERTEX
  8
LAYER_1
 10
60.9373
 20
390.0215
  0
VERTEX
  8
LAYER_1
 10
63.8371
 20
389.2383
  0
SEQEND
  0
POLYLINE
  8
LAYER_1
 40
0.1693
 41
0.1693
 66
1
 10
0
 20
0
 30
0
  0
VERTEX
  8
LAYER_1
 10
183.1536
 20
390.0215
  0
VERTEX
  8
LAYER_1
 10
180.2538
 20
389.2383
  0
SEQEND
  0
POLYLINE
  8
LAYER_1
 40
0.1693
 41
0.1693
 66
1
 10
0
 20
0
 30
0
  0
VERTEX
  8
LAYER_1
 10
183.1536
 20
390.0215
  0
VERTEX
  8
LAYER_1
 10
180.2538
 20
390.8047
  0
SEQEND
  0
TEXT
  8
LAYER_1
 10
119.5478
 20
390.8114
 11
119.5478
 21
390.8114
 40
3.6606
 41
0.5
  1
611
  0
POLYLINE
  8
LAYER_1
 40
0.0847
 41
0.0847
 66
1
 10
0
 20
0
 30
0
  0
VERTEX
  8
LAYER_1
 10
56.9368
 20
402.4675
  0
VERTEX
  8
LAYER_1
 10
187.1541
 20
402.4675
  0
SEQEND
  0
POLYLINE
  8
LAYER_1
 40
0.1693
 41
0.1693
 66
1
 10
0
 20
0
 30
0
  0
VERTEX
  8
LAYER_1
 10
56.9368
 20
402.4675
  0
VERTEX
  8
LAYER_1
 10
59.8366
 20
403.2295
  0
SEQEND
  0
POLYLINE
  8
LAYER_1
 40
0.1693
 41
0.1693
 66
1
 10
0
 20
0
 30
0
  0
VERTEX
  8
LAYER_1
 10
56.9368
 20
402.4675
  0
VERTEX
  8
LAYER_1
 10
59.8366
 20
401.6843
  0
SEQEND
  0
POLYLINE
  8
LAYER_1
 40
0.1693
 41
0.1693
 66
1
 10
0
 20
0
 30
0
  0
VERTEX
  8
LAYER_1
 10
187.1541
 20
402.4675
  0
VERTEX
  8
LAYER_1
 10
184.2543
 20
401.6843
  0
SEQEND
  0
POLYLINE
  8
LAYER_1
 40
0.1693
 41
0.1693
 66
1
 10
0
 20
0
 30
0
  0
VERTEX
  8
LAYER_1
 10
187.1541
 20
402.4675
  0
VERTEX
  8
LAYER_1
 10
184.2543
 20
403.2295
  0
SEQEND
  0
TEXT
  8
LAYER_1
 10
119.5478
 20
403.2574
 11
119.5478
 21
403.2574
 40
3.6606
 41
0.5
  1
651
  0
POLYLINE
  8
LAYER_1
 40
0.0847
 41
0.0847
 66
1
 10
0
 20
0
 30
0
  0
VERTEX
  8
LAYER_1
 10
56.9368
 20
390.0215
  0
VERTEX
  8
LAYER_1
 10
60.9373
 20
390.0215
  0
SEQEND
  0
POLYLINE
  8
LAYER_1
 40
0.1693
 41
0.1693
 66
1
 10
0
 20
0
 30
0
  0
VERTEX
  8
LAYER_1
 10
56.9368
 20
390.0215
  0
VERTEX
  8
LAYER_1
 10
54.0369
 20
389.2383
  0
SEQEND
  0
POLYLINE
  8
LAYER_1
 40
0.1693
 41
0.1693
 66
1
 10
0
 20
0
 30
0
  0
VERTEX
  8
LAYER_1
 10
56.9368
 20
390.0215
  0
VERTEX
  8
LAYER_1
 10
54.0369
 20
390.8047
  0
SEQEND
  0
TEXT
  8
LAYER_1
 10
57.318
 20
390.8116
 11
57.318
 21
390.8116
 40
3.6606
 41
0.5
  1
20
  0
POLYLINE
  8
LAYER_1
 40
0.0847
 41
0.0847
 66
1
 10
0
 20
0
 30
0
  0
VERTEX
  8
LAYER_1
 10
183.1536
 20
390.0215
  0
VERTEX
  8
LAYER_1
 10
187.1541
 20
390.0215
  0
SEQEND
  0
POLYLINE
  8
LAYER_1
 40
0.1693
 41
0.1693
 66
1
 10
0
 20
0
 30
0
  0
VERTEX
  8
LAYER_1
 10
187.1541
 20
390.0215
  0
VERTEX
  8
LAYER_1
 10
190.0328
 20
390.8047
  0
SEQEND
  0
POLYLINE
  8
LAYER_1
 40
0.1693
 41
0.1693
 66
1
 10
0
 20
0
 30
0
  0
VERTEX
  8
LAYER_1
 10
187.1541
 20
390.0215
  0
VERTEX
  8
LAYER_1
 10
190.0328
 20
389.2383
  0
SEQEND
  0
TEXT
  8
LAYER_1
 10
183.5133
 20
390.8115
 11
183.5133
 21
390.8115
 40
3.6606
 41
0.5
  1
20
  0
POLYLINE
  8
LAYER_1
 40
0.0847
 41
0.0847
 66
1
 10
0
 20
0
 30
0
  0
VERTEX
  8
LAYER_1
 10
60.9373
 20
345.889
  0
VERTEX
  8
LAYER_1
 10
60.9373
 20
390.0215
  0
SEQEND
  0
POLYLINE
  8
LAYER_1
 40
0.0847
 41
0.0847
 66
1
 10
0
 20
0
 30
0
  0
VERTEX
  8
LAYER_1
 10
56.9368
 20
345.889
  0
VERTEX
  8
LAYER_1
 10
56.9368
 20
402.4675
  0
SEQEND
  0
POLYLINE
  8
LAYER_1
 40
0.0847
 41
0.0847
 66
1
 10
0
 20
0
 30
0
  0
VERTEX
  8
LAYER_1
 10
183.1536
 20
345.889
  0
VERTEX
  8
LAYER_1
 10
183.1536
 20
390.0215
  0
SEQEND
  0
POLYLINE
  8
LAYER_1
 40
0.0847
 41
0.0847
 66
1
 10
0
 20
0
 30
0
  0
VERTEX
  8
LAYER_1
 10
187.1541
 20
345.889
  0
VERTEX
  8
LAYER_1
 10
187.1541
 20
402.4675
  0
SEQEND
  0
POLYLINE
  8
LAYER_1
 40
0.0847
 41
0.0847
 66
1
 10
0
 20
0
 30
0
  0
VERTEX
  8
LAYER_1
 10
195.0493
 20
324.5107
  0
VERTEX
  8
LAYER_1
 10
195.0493
 20
326.3733
  0
SEQEND
  0
POLYLINE
  8
LAYER_1
 40
0.0847
 41
0.0847
 66
1
 10
0
 20
0
 30
0
  0
VERTEX
  8
LAYER_1
 10
195.0493
 20
327.1142
  0
VERTEX
  8
LAYER_1
 10
195.0493
 20
327.8762
  0
SEQEND
  0
POLYLINE
  8
LAYER_1
 40
0.0847
 41
0.0847
 66
1
 10
0
 20
0
 30
0
  0
VERTEX
  8
LAYER_1
 10
195.0493
 20
328.617
  0
VERTEX
  8
LAYER_1
 10
195.0493
 20
330.5009
  0
VERTEX
  8
LAYER_1
 10
193.9698
 20
328.6382
  0
SEQEND
  0
POLYLINE
  8
LAYER_1
 40
0.0847
 41
0.0847
 66
1
 10
0
 20
0
 30
0
  0
VERTEX
  8
LAYER_1
 10
193.5465
 20
327.8974
  0
VERTEX
  8
LAYER_1
 10
193.102
 20
327.1354
  0
SEQEND
  0
POLYLINE
  8
LAYER_1
 40
0.0847
 41
0.0847
 66
1
 10
0
 20
0
 30
0
  0
VERTEX
  8
LAYER_1
 10
192.6786
 20
326.3945
  0
VERTEX
  8
LAYER_1
 10
191.578
 20
324.5107
  0
SEQEND
  0
TEXT
  8
LAYER_1
 10
192.8267
 20
331.7405
 11
192.8267
 21
331.7405
 40
6.0838
 41
0.5
  1
A'
  0
POLYLINE
  8
LAYER_1
 40
0.0847
 41
0.0847
 66
1
 10
0
 20
0
 30
0
  0
VERTEX
  8
LAYER_1
 10
46.9249
 20
324.5107
  0
VERTEX
  8
LAYER_1
 10
46.9249
 20
326.3733
  0
SEQEND
  0
POLYLINE
  8
LAYER_1
 40
0.0847
 41
0.0847
 66
1
 10
0
 20
0
 30
0
  0
VERTEX
  8
LAYER_1
 10
46.9249
 20
327.1142
  0
VERTEX
  8
LAYER_1
 10
46.9249
 20
327.8762
  0
SEQEND
  0
POLYLINE
  8
LAYER_1
 40
0.0847
 41
0.0847
 66
1
 10
0
 20
0
 30
0
  0
VERTEX
  8
LAYER_1
 10
46.9249
 20
328.617
  0
VERTEX
  8
LAYER_1
 10
46.9249
 20
330.5009
  0
VERTEX
  8
LAYER_1
 10
48.0044
 20
328.6382
  0
SEQEND
  0
POLYLINE
  8
LAYER_1
 40
0.0847
 41
0.0847
 66
1
 10
0
 20
0
 30
0
  0
VERTEX
  8
LAYER_1
 10
48.4278
 20
327.8974
  0
VERTEX
  8
LAYER_1
 10
48.8723
 20
327.1354
  0
SEQEND
  0
POLYLINE
  8
LAYER_1
 40
0.0847
 41
0.0847
 66
1
 10
0
 20
0
 30
0
  0
VERTEX
  8
LAYER_1
 10
49.2956
 20
326.3945
  0
VERTEX
  8
LAYER_1
 10
50.3963
 20
324.5107
  0
SEQEND
  0
TEXT
  8
LAYER_1
 10
45.782
 20
331.8674
 11
45.782
 21
331.8674
 40
6.0838
 41
0.5
  1
A
  0
POLYLINE
  8
LAYER_1
 40
0.0847
 41
0.0847
 66
1
 10
0
 20
0
 30
0
  0
VERTEX
  8
LAYER_1
 10
46.9249
 20
324.5107
  0
VERTEX
  8
LAYER_1
 10
49.1263
 20
324.5107
  0
SEQEND
  0
POLYLINE
  8
LAYER_1
 40
0.0847
 41
0.0847
 66
1
 10
0
 20
0
 30
0
  0
VERTEX
  8
LAYER_1
 10
49.9941
 20
324.5107
  0
VERTEX
  8
LAYER_1
 10
50.8831
 20
324.5107
  0
SEQEND
  0
POLYLINE
  8
LAYER_1
 40
0.0847
 41
0.0847
 66
1
 10
0
 20
0
 30
0
  0
VERTEX
  8
LAYER_1
 10
51.7721
 20
324.5107
  0
VERTEX
  8
LAYER_1
 10
56.1748
 20
324.5107
  0
SEQEND
  0
POLYLINE
  8
LAYER_1
 40
0.0847
 41
0.0847
 66
1
 10
0
 20
0
 30
0
  0
VERTEX
  8
LAYER_1
 10
57.0638
 20
324.5107
  0
VERTEX
  8
LAYER_1
 10
57.9316
 20
324.5107
  0
SEQEND
  0
POLYLINE
  8
LAYER_1
 40
0.0847
 41
0.0847
 66
1
 10
0
 20
0
 30
0
  0
VERTEX
  8
LAYER_1
 10
58.8206
 20
324.5107
  0
VERTEX
  8
LAYER_1
 10
63.2233
 20
324.5107
  0
SEQEND
  0
POLYLINE
  8
LAYER_1
 40
0.0847
 41
0.0847
 66
1
 10
0
 20
0
 30
0
  0
VERTEX
  8
LAYER_1
 10
64.1123
 20
324.5107
  0
VERTEX
  8
LAYER_1
 10
64.9801
 20
324.5107
  0
SEQEND
  0
POLYLINE
  8
LAYER_1
 40
0.0847
 41
0.0847
 66
1
 10
0
 20
0
 30
0
  0
VERTEX
  8
LAYER_1
 10
65.8691
 20
324.5107
  0
VERTEX
  8
LAYER_1
 10
70.2718
 20
324.5107
  0
SEQEND
  0
POLYLINE
  8
LAYER_1
 40
0.0847
 41
0.0847
 66
1
 10
0
 20
0
 30
0
  0
VERTEX
  8
LAYER_1
 10
71.1608
 20
324.5107
  0
VERTEX
  8
LAYER_1
 10
72.0498
 20
324.5107
  0
SEQEND
  0
POLYLINE
  8
LAYER_1
 40
0.0847
 41
0.0847
 66
1
 10
0
 20
0
 30
0
  0
VERTEX
  8
LAYER_1
 10
72.9176
 20
324.5107
  0
VERTEX
  8
LAYER_1
 10
77.3414
 20
324.5107
  0
SEQEND
  0
POLYLINE
  8
LAYER_1
 40
0.0847
 41
0.0847
 66
1
 10
0
 20
0
 30
0
  0
VERTEX
  8
LAYER_1
 10
78.2093
 20
324.5107
  0
VERTEX
  8
LAYER_1
 10
79.0983
 20
324.5107
  0
SEQEND
  0
POLYLINE
  8
LAYER_1
 40
0.0847
 41
0.0847
 66
1
 10
0
 20
0
 30
0
  0
VERTEX
  8
LAYER_1
 10
79.9873
 20
324.5107
  0
VERTEX
  8
LAYER_1
 10
84.3899
 20
324.5107
  0
SEQEND
  0
POLYLINE
  8
LAYER_1
 40
0.0847
 41
0.0847
 66
1
 10
0
 20
0
 30
0
  0
VERTEX
  8
LAYER_1
 10
85.2578
 20
324.5107
  0
VERTEX
  8
LAYER_1
 10
86.1468
 20
324.5107
  0
SEQEND
  0
POLYLINE
  8
LAYER_1
 40
0.0847
 41
0.0847
 66
1
 10
0
 20
0
 30
0
  0
VERTEX
  8
LAYER_1
 10
87.0358
 20
324.5107
  0
VERTEX
  8
LAYER_1
 10
91.4384
 20
324.5107
  0
SEQEND
  0
POLYLINE
  8
LAYER_1
 40
0.0847
 41
0.0847
 66
1
 10
0
 20
0
 30
0
  0
VERTEX
  8
LAYER_1
 10
92.3274
 20
324.5107
  0
VERTEX
  8
LAYER_1
 10
93.1953
 20
324.5107
  0
SEQEND
  0
POLYLINE
  8
LAYER_1
 40
0.0847
 41
0.0847
 66
1
 10
0
 20
0
 30
0
  0
VERTEX
  8
LAYER_1
 10
94.0843
 20
324.5107
  0
VERTEX
  8
LAYER_1
 10
98.4869
 20
324.5107
  0
SEQEND
  0
POLYLINE
  8
LAYER_1
 40
0.0847
 41
0.0847
 66
1
 10
0
 20
0
 30
0
  0
VERTEX
  8
LAYER_1
 10
99.3759
 20
324.5107
  0
VERTEX
  8
LAYER_1
 10
100.2649
 20
324.5107
  0
SEQEND
  0
POLYLINE
  8
LAYER_1
 40
0.0847
 41
0.0847
 66
1
 10
0
 20
0
 30
0
  0
VERTEX
  8
LAYER_1
 10
101.1328
 20
324.5107
  0
VERTEX
  8
LAYER_1
 10
105.5566
 20
324.5107
  0
SEQEND
  0
POLYLINE
  8
LAYER_1
 40
0.0847
 41
0.0847
 66
1
 10
0
 20
0
 30
0
  0
VERTEX
  8
LAYER_1
 10
106.4244
 20
324.5107
  0
VERTEX
  8
LAYER_1
 10
107.3134
 20
324.5107
  0
SEQEND
  0
POLYLINE
  8
LAYER_1
 40
0.0847
 41
0.0847
 66
1
 10
0
 20
0
 30
0
  0
VERTEX
  8
LAYER_1
 10
108.2025
 20
324.5107
  0
VERTEX
  8
LAYER_1
 10
112.6051
 20
324.5107
  0
SEQEND
  0
POLYLINE
  8
LAYER_1
 40
0.0847
 41
0.0847
 66
1
 10
0
 20
0
 30
0
  0
VERTEX
  8
LAYER_1
 10
113.473
 20
324.5107
  0
VERTEX
  8
LAYER_1
 10
114.3619
 20
324.5107
  0
SEQEND
  0
POLYLINE
  8
LAYER_1
 40
0.0847
 41
0.0847
 66
1
 10
0
 20
0
 30
0
  0
VERTEX
  8
LAYER_1
 10
115.251
 20
324.5107
  0
VERTEX
  8
LAYER_1
 10
119.6536
 20
324.5107
  0
SEQEND
  0
POLYLINE
  8
LAYER_1
 40
0.0847
 41
0.0847
 66
1
 10
0
 20
0
 30
0
  0
VERTEX
  8
LAYER_1
 10
120.5426
 20
324.5107
  0
VERTEX
  8
LAYER_1
 10
121.4105
 20
324.5107
  0
SEQEND
  0
POLYLINE
  8
LAYER_1
 40
0.0847
 41
0.0847
 66
1
 10
0
 20
0
 30
0
  0
VERTEX
  8
LAYER_1
 10
122.2995
 20
324.5107
  0
VERTEX
  8
LAYER_1
 10
126.7021
 20
324.5107
  0
SEQEND
  0
POLYLINE
  8
LAYER_1
 40
0.0847
 41
0.0847
 66
1
 10
0
 20
0
 30
0
  0
VERTEX
  8
LAYER_1
 10
127.5911
 20
324.5107
  0
VERTEX
  8
LAYER_1
 10
128.4801
 20
324.5107
  0
SEQEND
  0
POLYLINE
  8
LAYER_1
 40
0.0847
 41
0.0847
 66
1
 10
0
 20
0
 30
0
  0
VERTEX
  8
LAYER_1
 10
129.348
 20
324.5107
  0
VERTEX
  8
LAYER_1
 10
133.7506
 20
324.5107
  0
SEQEND
  0
POLYLINE
  8
LAYER_1
 40
0.0847
 41
0.0847
 66
1
 10
0
 20
0
 30
0
  0
VERTEX
  8
LAYER_1
 10
134.6396
 20
324.5107
  0
VERTEX
  8
LAYER_1
 10
135.5286
 20
324.5107
  0
SEQEND
  0
POLYLINE
  8
LAYER_1
 40
0.0847
 41
0.0847
 66
1
 10
0
 20
0
 30
0
  0
VERTEX
  8
LAYER_1
 10
136.3965
 20
324.5107
  0
VERTEX
  8
LAYER_1
 10
140.8203
 20
324.5107
  0
SEQEND
  0
POLYLINE
  8
LAYER_1
 40
0.0847
 41
0.0847
 66
1
 10
0
 20
0
 30
0
  0
VERTEX
  8
LAYER_1
 10
141.6881
 20
324.5107
  0
VERTEX
  8
LAYER_1
 10
142.5771
 20
324.5107
  0
SEQEND
  0
POLYLINE
  8
LAYER_1
 40
0.0847
 41
0.0847
 66
1
 10
0
 20
0
 30
0
  0
VERTEX
  8
LAYER_1
 10
143.4661
 20
324.5107
  0
VERTEX
  8
LAYER_1
 10
147.8688
 20
324.5107
  0
SEQEND
  0
POLYLINE
  8
LAYER_1
 40
0.0847
 41
0.0847
 66
1
 10
0
 20
0
 30
0
  0
VERTEX
  8
LAYER_1
 10
148.7578
 20
324.5107
  0
VERTEX
  8
LAYER_1
 10
149.6256
 20
324.5107
  0
SEQEND
  0
POLYLINE
  8
LAYER_1
 40
0.0847
 41
0.0847
 66
1
 10
0
 20
0
 30
0
  0
VERTEX
  8
LAYER_1
 10
150.5146
 20
324.5107
  0
VERTEX
  8
LAYER_1
 10
154.9173
 20
324.5107
  0
SEQEND
  0
POLYLINE
  8
LAYER_1
 40
0.0847
 41
0.0847
 66
1
 10
0
 20
0
 30
0
  0
VERTEX
  8
LAYER_1
 10
155.8063
 20
324.5107
  0
VERTEX
  8
LAYER_1
 10
156.6953
 20
324.5107
  0
SEQEND
  0
POLYLINE
  8
LAYER_1
 40
0.0847
 41
0.0847
 66
1
 10
0
 20
0
 30
0
  0
VERTEX
  8
LAYER_1
 10
157.5631
 20
324.5107
  0
VERTEX
  8
LAYER_1
 10
161.9658
 20
324.5107
  0
SEQEND
  0
POLYLINE
  8
LAYER_1
 40
0.0847
 41
0.0847
 66
1
 10
0
 20
0
 30
0
  0
VERTEX
  8
LAYER_1
 10
162.8548
 20
324.5107
  0
VERTEX
  8
LAYER_1
 10
163.7438
 20
324.5107
  0
SEQEND
  0
POLYLINE
  8
LAYER_1
 40
0.0847
 41
0.0847
 66
1
 10
0
 20
0
 30
0
  0
VERTEX
  8
LAYER_1
 10
164.6116
 20
324.5107
  0
VERTEX
  8
LAYER_1
 10
169.0355
 20
324.5107
  0
SEQEND
  0
POLYLINE
  8
LAYER_1
 40
0.0847
 41
0.0847
 66
1
 10
0
 20
0
 30
0
  0
VERTEX
  8
LAYER_1
 10
169.9033
 20
324.5107
  0
VERTEX
  8
LAYER_1
 10
170.7923
 20
324.5107
  0
SEQEND
  0
POLYLINE
  8
LAYER_1
 40
0.0847
 41
0.0847
 66
1
 10
0
 20
0
 30
0
  0
VERTEX
  8
LAYER_1
 10
171.6813
 20
324.5107
  0
VERTEX
  8
LAYER_1
 10
176.084
 20
324.5107
  0
SEQEND
  0
POLYLINE
  8
LAYER_1
 40
0.0847
 41
0.0847
 66
1
 10
0
 20
0
 30
0
  0
VERTEX
  8
LAYER_1
 10
176.973
 20
324.5107
  0
VERTEX
  8
LAYER_1
 10
177.8408
 20
324.5107
  0
SEQEND
  0
POLYLINE
  8
LAYER_1
 40
0.0847
 41
0.0847
 66
1
 10
0
 20
0
 30
0
  0
VERTEX
  8
LAYER_1
 10
178.7298
 20
324.5107
  0
VERTEX
  8
LAYER_1
 10
183.1325
 20
324.5107
  0
SEQEND
  0
POLYLINE
  8
LAYER_1
 40
0.0847
 41
0.0847
 66
1
 10
0
 20
0
 30
0
  0
VERTEX
  8
LAYER_1
 10
184.0215
 20
324.5107
  0
VERTEX
  8
LAYER_1
 10
184.8893
 20
324.5107
  0
SEQEND
  0
POLYLINE
  8
LAYER_1
 40
0.0847
 41
0.0847
 66
1
 10
0
 20
0
 30
0
  0
VERTEX
  8
LAYER_1
 10
185.7783
 20
324.5107
  0
VERTEX
  8
LAYER_1
 10
190.181
 20
324.5107
  0
SEQEND
  0
POLYLINE
  8
LAYER_1
 40
0.0847
 41
0.0847
 66
1
 10
0
 20
0
 30
0
  0
VERTEX
  8
LAYER_1
 10
191.07
 20
324.5107
  0
VERTEX
  8
LAYER_1
 10
191.959
 20
324.5107
  0
SEQEND
  0
POLYLINE
  8
LAYER_1
 40
0.0847
 41
0.0847
 66
1
 10
0
 20
0
 30
0
  0
VERTEX
  8
LAYER_1
 10
192.8268
 20
324.5107
  0
VERTEX
  8
LAYER_1
 10
195.0493
 20
324.5107
  0
SEQEND
  0
POLYLINE
  8
LAYER_1
 40
0.0847
 41
0.0847
 66
1
 10
0
 20
0
 30
0
  0
VERTEX
  8
LAYER_1
 10
37.1883
 20
366.3995
  0
VERTEX
  8
LAYER_1
 10
37.1883
 20
370.4
  0
SEQEND
  0
POLYLINE
  8
LAYER_1
 40
0.1693
 41
0.1693
 66
1
 10
0
 20
0
 30
0
  0
VERTEX
  8
LAYER_1
 10
37.1883
 20
370.4
  0
VERTEX
  8
LAYER_1
 10
36.4051
 20
373.2999
  0
SEQEND
  0
POLYLINE
  8
LAYER_1
 40
0.1693
 41
0.1693
 66
1
 10
0
 20
0
 30
0
  0
VERTEX
  8
LAYER_1
 10
37.1883
 20
370.4
  0
VERTEX
  8
LAYER_1
 10
37.9503
 20
373.2999
  0
SEQEND
  0
POLYLINE
  8
LAYER_1
 40
0.1693
 41
0.1693
 66
1
 10
0
 20
0
 30
0
  0
VERTEX
  8
LAYER_1
 10
37.1883
 20
366.3995
  0
VERTEX
  8
LAYER_1
 10
37.9503
 20
363.4997
  0
SEQEND
  0
POLYLINE
  8
LAYER_1
 40
0.1693
 41
0.1693
 66
1
 10
0
 20
0
 30
0
  0
VERTEX
  8
LAYER_1
 10
37.1883
 20
366.3995
  0
VERTEX
  8
LAYER_1
 10
36.4051
 20
363.4997
  0
SEQEND
  0
POLYLINE
  8
LAYER_1
 40
0.0847
 41
0.0847
 66
1
 10
0
 20
0
 30
0
  0
VERTEX
  8
LAYER_1
 10
37.1883
 20
370.4
  0
VERTEX
  8
LAYER_1
 10
89.5123
 20
370.4
  0
SEQEND
  0
POLYLINE
  8
LAYER_1
 40
0.0847
 41
0.0847
 66
1
 10
0
 20
0
 30
0
  0
VERTEX
  8
LAYER_1
 10
37.1883
 20
366.3995
  0
VERTEX
  8
LAYER_1
 10
89.5123
 20
366.3995
  0
SEQEND
  0
TEXT
  8
LAYER_1
 10
36.4406
 20
366.7805
 11
36.4406
 21
366.7805
 40
3.6606
 41
0.5
 50
89.99999999
  1
20
  0
POLYLINE
  8
LAYER_1
 40
0.0847
 41
0.0847
 66
1
 10
0
 20
0
 30
0
  0
VERTEX
  8
LAYER_1
 10
37.1883
 20
282.6219
  0
VERTEX
  8
LAYER_1
 10
37.1883
 20
366.3995
  0
SEQEND
  0
POLYLINE
  8
LAYER_1
 40
0.1693
 41
0.1693
 66
1
 10
0
 20
0
 30
0
  0
VERTEX
  8
LAYER_1
 10
37.1883
 20
366.3995
  0
VERTEX
  8
LAYER_1
 10
36.4051
 20
369.2993
  0
SEQEND
  0
POLYLINE
  8
LAYER_1
 40
0.1693
 41
0.1693
 66
1
 10
0
 20
0
 30
0
  0
VERTEX
  8
LAYER_1
 10
37.1883
 20
366.3995
  0
VERTEX
  8
LAYER_1
 10
37.9503
 20
369.2993
  0
SEQEND
  0
POLYLINE
  8
LAYER_1
 40
0.1693
 41
0.1693
 66
1
 10
0
 20
0
 30
0
  0
VERTEX
  8
LAYER_1
 10
37.1883
 20
282.6218
  0
VERTEX
  8
LAYER_1
 10
37.9503
 20
279.722
  0
SEQEND
  0
POLYLINE
  8
LAYER_1
 40
0.1693
 41
0.1693
 66
1
 10
0
 20
0
 30
0
  0
VERTEX
  8
LAYER_1
 10
37.1883
 20
282.6218
  0
VERTEX
  8
LAYER_1
 10
36.4051
 20
279.722
  0
SEQEND
  0
POLYLINE
  8
LAYER_1
 40
0.0847
 41
0.0847
 66
1
 10
0
 20
0
 30
0
  0
VERTEX
  8
LAYER_1
 10
37.1883
 20
282.6219
  0
VERTEX
  8
LAYER_1
 10
89.5123
 20
282.6219
  0
SEQEND
  0
TEXT
  8
LAYER_1
 10
36.4406
 20
322.0131
 11
36.4406
 21
322.0131
 40
3.6606
 41
0.5
 50
89.99999999
  1
419
  0
POLYLINE
  8
LAYER_1
 40
0.0847
 41
0.0847
 66
1
 10
0
 20
0
 30
0
  0
VERTEX
  8
LAYER_1
 10
37.1883
 20
278.6213
  0
VERTEX
  8
LAYER_1
 10
37.1883
 20
282.6218
  0
SEQEND
  0
POLYLINE
  8
LAYER_1
 40
0.1693
 41
0.1693
 66
1
 10
0
 20
0
 30
0
  0
VERTEX
  8
LAYER_1
 10
37.1883
 20
282.6219
  0
VERTEX
  8
LAYER_1
 10
36.4051
 20
285.5005
  0
SEQEND
  0
POLYLINE
  8
LAYER_1
 40
0.1693
 41
0.1693
 66
1
 10
0
 20
0
 30
0
  0
VERTEX
  8
LAYER_1
 10
37.1883
 20
282.6219
  0
VERTEX
  8
LAYER_1
 10
37.9503
 20
285.5005
  0
SEQEND
  0
POLYLINE
  8
LAYER_1
 40
0.1693
 41
0.1693
 66
1
 10
0
 20
0
 30
0
  0
VERTEX
  8
LAYER_1
 10
37.1883
 20
278.6214
  0
VERTEX
  8
LAYER_1
 10
37.9503
 20
275.7215
  0
SEQEND
  0
POLYLINE
  8
LAYER_1
 40
0.1693
 41
0.1693
 66
1
 10
0
 20
0
 30
0
  0
VERTEX
  8
LAYER_1
 10
37.1883
 20
278.6214
  0
VERTEX
  8
LAYER_1
 10
36.4051
 20
275.7215
  0
SEQEND
  0
POLYLINE
  8
LAYER_1
 40
0.0847
 41
0.0847
 66
1
 10
0
 20
0
 30
0
  0
VERTEX
  8
LAYER_1
 10
37.1883
 20
278.6213
  0
VERTEX
  8
LAYER_1
 10
89.5123
 20
278.6213
  0
SEQEND
  0
TEXT
  8
LAYER_1
 10
36.4406
 20
279.0024
 11
36.4406
 21
279.0024
 40
3.6606
 41
0.5
 50
89.99999999
  1
20
  0
POLYLINE
  8
LAYER_1
 40
0.0847
 41
0.0847
 66
1
 10
0
 20
0
 30
0
  0
VERTEX
  8
LAYER_1
 10
22.6256
 20
278.6213
  0
VERTEX
  8
LAYER_1
 10
22.6256
 20
370.4
  0
SEQEND
  0
POLYLINE
  8
LAYER_1
 40
0.1693
 41
0.1693
 66
1
 10
0
 20
0
 30
0
  0
VERTEX
  8
LAYER_1
 10
22.6256
 20
370.4
  0
VERTEX
  8
LAYER_1
 10
23.3876
 20
367.5002
  0
SEQEND
  0
POLYLINE
  8
LAYER_1
 40
0.1693
 41
0.1693
 66
1
 10
0
 20
0
 30
0
  0
VERTEX
  8
LAYER_1
 10
22.6256
 20
370.4
  0
VERTEX
  8
LAYER_1
 10
21.8424
 20
367.5002
  0
SEQEND
  0
POLYLINE
  8
LAYER_1
 40
0.1693
 41
0.1693
 66
1
 10
0
 20
0
 30
0
  0
VERTEX
  8
LAYER_1
 10
22.6256
 20
278.6214
  0
VERTEX
  8
LAYER_1
 10
21.8424
 20
281.5212
  0
SEQEND
  0
POLYLINE
  8
LAYER_1
 40
0.1693
 41
0.1693
 66
1
 10
0
 20
0
 30
0
  0
VERTEX
  8
LAYER_1
 10
22.6256
 20
278.6214
  0
VERTEX
  8
LAYER_1
 10
23.3876
 20
281.5212
  0
SEQEND
  0
POLYLINE
  8
LAYER_1
 40
0.0847
 41
0.0847
 66
1
 10
0
 20
0
 30
0
  0
VERTEX
  8
LAYER_1
 10
22.6256
 20
370.4
  0
VERTEX
  8
LAYER_1
 10
37.1883
 20
370.4
  0
SEQEND
  0
POLYLINE
  8
LAYER_1
 40
0.0847
 41
0.0847
 66
1
 10
0
 20
0
 30
0
  0
VERTEX
  8
LAYER_1
 10
22.6256
 20
278.6214
  0
VERTEX
  8
LAYER_1
 10
37.1883
 20
278.6214
  0
SEQEND
  0
TEXT
  8
LAYER_1
 10
21.8778
 20
322.0131
 11
21.8778
 21
322.0131
 40
3.6606
 41
0.5
 50
89.99999999
  1
459
  0
POLYLINE
  8
LAYER_1
 40
0.1693
 41
0.1693
 66
1
 10
0
 20
0
 30
0
  0
VERTEX
  8
LAYER_1
 10
28.8274
 20
225.2602
  0
VERTEX
  8
LAYER_1
 10
60.9373
 20
225.2602
  0
SEQEND
  0
POLYLINE
  8
LAYER_1
 40
0.1693
 41
0.1693
 66
1
 10
0
 20
0
 30
0
  0
VERTEX
  8
LAYER_1
 10
28.8274
 20
221.2597
  0
VERTEX
  8
LAYER_1
 10
60.9373
 20
221.2597
  0
SEQEND
  0
POLYLINE
  8
LAYER_1
 40
0.1693
 41
0.1693
 66
1
 10
0
 20
0
 30
0
  0
VERTEX
  8
LAYER_1
 10
56.9368
 20
220.7517
  0
VERTEX
  8
LAYER_1
 10
60.4505
 20
220.7517
  0
SEQEND
  0
POLYLINE
  8
LAYER_1
 40
0.1693
 41
0.1693
 66
1
 10
0
 20
0
 30
0
  0
VERTEX
  8
LAYER_1
 10
56.9368
 20
220.7517
  0
VERTEX
  8
LAYER_1
 10
56.9368
 20
221.2597
  0
SEQEND
  0
POLYLINE
  8
LAYER_1
 40
0.1693
 41
0.1693
 66
1
 10
0
 20
0
 30
0
  0
VERTEX
  8
LAYER_1
 10
183.1536
 20
225.2602
  0
VERTEX
  8
LAYER_1
 10
218.2691
 20
225.2602
  0
SEQEND
  0
POLYLINE
  8
LAYER_1
 40
0.0847
 41
0.0847
 66
1
 10
0
 20
0
 30
0
  0
VERTEX
  8
LAYER_1
 10
57.8681
 20
221.2597
  0
VERTEX
  8
LAYER_1
 10
60.9373
 20
224.3288
  0
SEQEND
  0
POLYLINE
  8
LAYER_1
 40
0.0847
 41
0.0847
 66
1
 10
0
 20
0
 30
0
  0
VERTEX
  8
LAYER_1
 10
55.0318
 20
221.2597
  0
VERTEX
  8
LAYER_1
 10
59.0323
 20
225.2602
  0
SEQEND
  0
POLYLINE
  8
LAYER_1
 40
0.0847
 41
0.0847
 66
1
 10
0
 20
0
 30
0
  0
VERTEX
  8
LAYER_1
 10
52.1954
 20
221.2597
  0
VERTEX
  8
LAYER_1
 10
56.1959
 20
225.2602
  0
SEQEND
  0
POLYLINE
  8
LAYER_1
 40
0.0847
 41
0.0847
 66
1
 10
0
 20
0
 30
0
  0
VERTEX
  8
LAYER_1
 10
49.3803
 20
221.2597
  0
VERTEX
  8
LAYER_1
 10
53.3808
 20
225.2602
  0
SEQEND
  0
POLYLINE
  8
LAYER_1
 40
0.0847
 41
0.0847
 66
1
 10
0
 20
0
 30
0
  0
VERTEX
  8
LAYER_1
 10
46.544
 20
221.2597
  0
VERTEX
  8
LAYER_1
 10
50.5445
 20
225.2602
  0
SEQEND
  0
POLYLINE
  8
LAYER_1
 40
0.0847
 41
0.0847
 66
1
 10
0
 20
0
 30
0
  0
VERTEX
  8
LAYER_1
 10
43.7076
 20
221.2597
  0
VERTEX
  8
LAYER_1
 10
47.7081
 20
225.2602
  0
SEQEND
  0
POLYLINE
  8
LAYER_1
 40
0.0847
 41
0.0847
 66
1
 10
0
 20
0
 30
0
  0
VERTEX
  8
LAYER_1
 10
40.8925
 20
221.2597
  0
VERTEX
  8
LAYER_1
 10
44.893
 20
225.2602
  0
SEQEND
  0
POLYLINE
  8
LAYER_1
 40
0.0847
 41
0.0847
 66
1
 10
0
 20
0
 30
0
  0
VERTEX
  8
LAYER_1
 10
38.0561
 20
221.2597
  0
VERTEX
  8
LAYER_1
 10
42.0566
 20
225.2602
  0
SEQEND
  0
POLYLINE
  8
LAYER_1
 40
0.0847
 41
0.0847
 66
1
 10
0
 20
0
 30
0
  0
VERTEX
  8
LAYER_1
 10
35.2198
 20
221.2597
  0
VERTEX
  8
LAYER_1
 10
39.2203
 20
225.2602
  0
SEQEND
  0
POLYLINE
  8
LAYER_1
 40
0.0847
 41
0.0847
 66
1
 10
0
 20
0
 30
0
  0
VERTEX
  8
LAYER_1
 10
32.4046
 20
221.2597
  0
VERTEX
  8
LAYER_1
 10
36.4051
 20
225.2602
  0
SEQEND
  0
POLYLINE
  8
LAYER_1
 40
0.0847
 41
0.0847
 66
1
 10
0
 20
0
 30
0
  0
VERTEX
  8
LAYER_1
 10
29.5683
 20
221.2597
  0
VERTEX
  8
LAYER_1
 10
33.5688
 20
225.2602
  0
SEQEND
  0
POLYLINE
  8
LAYER_1
 40
0.0847
 41
0.0847
 66
1
 10
0
 20
0
 30
0
  0
VERTEX
  8
LAYER_1
 10
28.8275
 20
223.334
  0
VERTEX
  8
LAYER_1
 10
30.7536
 20
225.2602
  0
SEQEND
  0
POLYLINE
  8
LAYER_1
 40
0.0847
 41
0.0847
 66
1
 10
0
 20
0
 30
0
  0
VERTEX
  8
LAYER_1
 10
216.2371
 20
221.2597
  0
VERTEX
  8
LAYER_1
 10
218.2691
 20
223.2705
  0
SEQEND
  0
POLYLINE
  8
LAYER_1
 40
0.0847
 41
0.0847
 66
1
 10
0
 20
0
 30
0
  0
VERTEX
  8
LAYER_1
 10
213.4008
 20
221.2597
  0
VERTEX
  8
LAYER_1
 10
217.4013
 20
225.2602
  0
SEQEND
  0
POLYLINE
  8
LAYER_1
 40
0.0847
 41
0.0847
 66
1
 10
0
 20
0
 30
0
  0
VERTEX
  8
LAYER_1
 10
210.5856
 20
221.2597
  0
VERTEX
  8
LAYER_1
 10
214.5861
 20
225.2602
  0
SEQEND
  0
POLYLINE
  8
LAYER_1
 40
0.0847
 41
0.0847
 66
1
 10
0
 20
0
 30
0
  0
VERTEX
  8
LAYER_1
 10
207.7705
 20
221.2597
  0
VERTEX
  8
LAYER_1
 10
211.7498
 20
225.2602
  0
SEQEND
  0
POLYLINE
  8
LAYER_1
 40
0.0847
 41
0.0847
 66
1
 10
0
 20
0
 30
0
  0
VERTEX
  8
LAYER_1
 10
204.9341
 20
221.2597
  0
VERTEX
  8
LAYER_1
 10
208.9135
 20
225.2602
  0
SEQEND
  0
POLYLINE
  8
LAYER_1
 40
0.0847
 41
0.0847
 66
1
 10
0
 20
0
 30
0
  0
VERTEX
  8
LAYER_1
 10
202.119
 20
221.2597
  0
VERTEX
  8
LAYER_1
 10
206.1195
 20
225.2602
  0
SEQEND
  0
POLYLINE
  8
LAYER_1
 40
0.0847
 41
0.0847
 66
1
 10
0
 20
0
 30
0
  0
VERTEX
  8
LAYER_1
 10
199.2826
 20
221.2597
  0
VERTEX
  8
LAYER_1
 10
203.2832
 20
225.2602
  0
SEQEND
  0
POLYLINE
  8
LAYER_1
 40
0.0847
 41
0.0847
 66
1
 10
0
 20
0
 30
0
  0
VERTEX
  8
LAYER_1
 10
196.4463
 20
221.2597
  0
VERTEX
  8
LAYER_1
 10
200.4468
 20
225.2602
  0
SEQEND
  0
POLYLINE
  8
LAYER_1
 40
0.0847
 41
0.0847
 66
1
 10
0
 20
0
 30
0
  0
VERTEX
  8
LAYER_1
 10
193.6312
 20
221.2597
  0
VERTEX
  8
LAYER_1
 10
197.6317
 20
225.2602
  0
SEQEND
  0
POLYLINE
  8
LAYER_1
 40
0.0847
 41
0.0847
 66
1
 10
0
 20
0
 30
0
  0
VERTEX
  8
LAYER_1
 10
190.7948
 20
221.2597
  0
VERTEX
  8
LAYER_1
 10
194.7953
 20
225.2602
  0
SEQEND
  0
POLYLINE
  8
LAYER_1
 40
0.0847
 41
0.0847
 66
1
 10
0
 20
0
 30
0
  0
VERTEX
  8
LAYER_1
 10
187.9585
 20
221.2597
  0
VERTEX
  8
LAYER_1
 10
191.959
 20
225.2602
  0
SEQEND
  0
POLYLINE
  8
LAYER_1
 40
0.0847
 41
0.0847
 66
1
 10
0
 20
0
 30
0
  0
VERTEX
  8
LAYER_1
 10
185.1434
 20
221.2597
  0
VERTEX
  8
LAYER_1
 10
189.1439
 20
225.2602
  0
SEQEND
  0
POLYLINE
  8
LAYER_1
 40
0.0847
 41
0.0847
 66
1
 10
0
 20
0
 30
0
  0
VERTEX
  8
LAYER_1
 10
183.1537
 20
222.0852
  0
VERTEX
  8
LAYER_1
 10
186.3075
 20
225.2602
  0
SEQEND
  0
POLYLINE
  8
LAYER_1
 40
0.0847
 41
0.0847
 66
1
 10
0
 20
0
 30
0
  0
VERTEX
  8
LAYER_1
 10
183.1537
 20
224.9215
  0
VERTEX
  8
LAYER_1
 10
183.4924
 20
225.2602
  0
SEQEND
  0
POLYLINE
  8
LAYER_1
 40
0.1693
 41
0.1693
 66
1
 10
0
 20
0
 30
0
  0
VERTEX
  8
LAYER_1
 10
183.1536
 20
197.2567
  0
VERTEX
  8
LAYER_1
 10
183.1536
 20
225.2602
  0
SEQEND
  0
POLYLINE
  8
LAYER_1
 40
0.1693
 41
0.1693
 66
1
 10
0
 20
0
 30
0
  0
VERTEX
  8
LAYER_1
 10
183.1536
 20
221.2597
  0
VERTEX
  8
LAYER_1
 10
218.2691
 20
221.2597
  0
SEQEND
  0
POLYLINE
  8
LAYER_1
 40
0.1693
 41
0.1693
 66
1
 10
0
 20
0
 30
0
  0
VERTEX
  8
LAYER_1
 10
60.9373
 20
197.2567
  0
VERTEX
  8
LAYER_1
 10
60.9373
 20
225.2602
  0
SEQEND
  0
POLYLINE
  8
LAYER_1
 40
0.1693
 41
0.1693
 66
1
 10
0
 20
0
 30
0
  0
VERTEX
  8
LAYER_1
 10
60.4504
 20
196.7487
  0
VERTEX
  8
LAYER_1
 10
113.0496
 20
196.7487
  0
SEQEND
  0
POLYLINE
  8
LAYER_1
 40
0.1693
 41
0.1693
 66
1
 10
0
 20
0
 30
0
  0
VERTEX
  8
LAYER_1
 10
60.9373
 20
197.2567
  0
VERTEX
  8
LAYER_1
 10
113.0496
 20
197.2567
  0
SEQEND
  0
POLYLINE
  8
LAYER_1
 40
0.1693
 41
0.1693
 66
1
 10
0
 20
0
 30
0
  0
VERTEX
  8
LAYER_1
 10
113.0496
 20
196.7487
  0
VERTEX
  8
LAYER_1
 10
113.0496
 20
197.2567
  0
SEQEND
  0
POLYLINE
  8
LAYER_1
 40
0.1693
 41
0.1693
 66
1
 10
0
 20
0
 30
0
  0
VERTEX
  8
LAYER_1
 10
60.4504
 20
196.7487
  0
VERTEX
  8
LAYER_1
 10
60.4504
 20
220.7517
  0
SEQEND
  0
POLYLINE
  8
LAYER_1
 40
0.1693
 41
0.1693
 66
1
 10
0
 20
0
 30
0
  0
VERTEX
  8
LAYER_1
 10
183.6405
 20
196.7487
  0
VERTEX
  8
LAYER_1
 10
183.6405
 20
220.7517
  0
SEQEND
  0
POLYLINE
  8
LAYER_1
 40
0.1693
 41
0.1693
 66
1
 10
0
 20
0
 30
0
  0
VERTEX
  8
LAYER_1
 10
131.0413
 20
196.7487
  0
VERTEX
  8
LAYER_1
 10
183.6405
 20
196.7487
  0
SEQEND
  0
POLYLINE
  8
LAYER_1
 40
0.1693
 41
0.1693
 66
1
 10
0
 20
0
 30
0
  0
VERTEX
  8
LAYER_1
 10
131.0413
 20
196.7487
  0
VERTEX
  8
LAYER_1
 10
131.0413
 20
197.2567
  0
VERTEX
  8
LAYER_1
 10
183.1536
 20
197.2567
  0
SEQEND
  0
POLYLINE
  8
LAYER_1
 40
0.1693
 41
0.1693
 66
1
 10
0
 20
0
 30
0
  0
VERTEX
  8
LAYER_1
 10
183.6405
 20
220.7517
  0
VERTEX
  8
LAYER_1
 10
187.1541
 20
220.7517
  0
VERTEX
  8
LAYER_1
 10
187.1541
 20
221.2597
  0
SEQEND
  0
POLYLINE
  8
LAYER_1
 40
0.0847
 41
0.0847
 66
1
 10
0
 20
0
 30
0
  0
VERTEX
  8
LAYER_1
 10
200.6796
 20
197.0027
  0
VERTEX
  8
LAYER_1
 10
200.6796
 20
221.0057
  0
SEQEND
  0
POLYLINE
  8
LAYER_1
 40
0.1693
 41
0.1693
 66
1
 10
0
 20
0
 30
0
  0
VERTEX
  8
LAYER_1
 10
200.6796
 20
197.0027
  0
VERTEX
  8
LAYER_1
 10
199.8965
 20
199.9025
  0
SEQEND
  0
POLYLINE
  8
LAYER_1
 40
0.1693
 41
0.1693
 66
1
 10
0
 20
0
 30
0
  0
VERTEX
  8
LAYER_1
 10
200.6796
 20
197.0027
  0
VERTEX
  8
LAYER_1
 10
201.4416
 20
199.9025
  0
SEQEND
  0
POLYLINE
  8
LAYER_1
 40
0.1693
 41
0.1693
 66
1
 10
0
 20
0
 30
0
  0
VERTEX
  8
LAYER_1
 10
200.6796
 20
221.0057
  0
VERTEX
  8
LAYER_1
 10
201.4416
 20
218.1058
  0
SEQEND
  0
POLYLINE
  8
LAYER_1
 40
0.1693
 41
0.1693
 66
1
 10
0
 20
0
 30
0
  0
VERTEX
  8
LAYER_1
 10
200.6796
 20
221.0057
  0
VERTEX
  8
LAYER_1
 10
199.8965
 20
218.1058
  0
SEQEND
  0
POLYLINE
  8
LAYER_1
 40
0.0847
 41
0.0847
 66
1
 10
0
 20
0
 30
0
  0
VERTEX
  8
LAYER_1
 10
185.9899
 20
197.0027
  0
VERTEX
  8
LAYER_1
 10
200.6796
 20
197.0027
  0
SEQEND
  0
POLYLINE
  8
LAYER_1
 40
0.0847
 41
0.0847
 66
1
 10
0
 20
0
 30
0
  0
VERTEX
  8
LAYER_1
 10
185.9899
 20
221.0057
  0
VERTEX
  8
LAYER_1
 10
200.6796
 20
221.0057
  0
SEQEND
  0
TEXT
  8
LAYER_1
 10
199.9321
 20
206.5066
 11
199.9321
 21
206.5066
 40
3.6606
 41
0.5
 50
89.99999999
  1
120
  0
POLYLINE
  8
LAYER_1
 40
0.0847
 41
0.0847
 66
1
 10
0
 20
0
 30
0
  0
VERTEX
  8
LAYER_1
 10
88.4116
 20
205.6175
  0
VERTEX
  8
LAYER_1
 10
92.0311
 20
205.0884
  0
SEQEND
  0
POLYLINE
  8
LAYER_1
 40
0.0847
 41
0.0847
 66
1
 10
0
 20
0
 30
0
  0
VERTEX
  8
LAYER_1
 10
65.5093
 20
223.8208
  0
VERTEX
  8
LAYER_1
 10
65.4881
 20
223.8632
  0
VERTEX
  8
LAYER_1
 10
65.467
 20
223.8843
  0
VERTEX
  8
LAYER_1
 10
65.467
 20
223.9267
  0
VERTEX
  8
LAYER_1
 10
65.4458
 20
223.969
  0
VERTEX
  8
LAYER_1
 10
65.4246
 20
224.0113
  0
VERTEX
  8
LAYER_1
 10
65.4035
 20
224.0325
  0
VERTEX
  8
LAYER_1
 10
65.3823
 20
224.0748
  0
VERTEX
  8
LAYER_1
 10
65.3611
 20
224.1172
  0
VERTEX
  8
LAYER_1
 10
65.34
 20
224.1595
  0
VERTEX
  8
LAYER_1
 10
65.3188
 20
224.1807
  0
VERTEX
  8
LAYER_1
 10
65.2976
 20
224.223
  0
VERTEX
  8
LAYER_1
 10
65.2553
 20
224.2653
  0
VERTEX
  8
LAYER_1
 10
65.2341
 20
224.3077
  0
VERTEX
  8
LAYER_1
 10
65.213
 20
224.3288
  0
VERTEX
  8
LAYER_1
 10
65.1918
 20
224.3712
  0
VERTEX
  8
LAYER_1
 10
65.1494
 20
224.4135
  0
VERTEX
  8
LAYER_1
 10
65.1283
 20
224.4558
  0
VERTEX
  8
LAYER_1
 10
65.086
 20
224.4982
  0
VERTEX
  8
LAYER_1
 10
65.0648
 20
224.5193
  0
VERTEX
  8
LAYER_1
 10
65.0436
 20
224.5617
  0
VERTEX
  8
LAYER_1
 10
65.0013
 20
224.604
  0
VERTEX
  8
LAYER_1
 10
64.9801
 20
224.6464
  0
VERTEX
  8
LAYER_1
 10
64.9378
 20
224.6675
  0
VERTEX
  8
LAYER_1
 10
64.8954
 20
224.7099
  0
VERTEX
  8
LAYER_1
 10
64.8743
 20
224.7522
  0
VERTEX
  8
LAYER_1
 10
64.832
 20
224.7733
  0
VERTEX
  8
LAYER_1
 10
64.8108
 20
224.8157
  0
VERTEX
  8
LAYER_1
 10
64.7684
 20
224.858
  0
VERTEX
  8
LAYER_1
 10
64.7261
 20
224.8792
  0
VERTEX
  8
LAYER_1
 10
64.705
 20
224.9215
  0
VERTEX
  8
LAYER_1
 10
64.6626
 20
224.9638
  0
VERTEX
  8
LAYER_1
 10
64.6203
 20
224.985
  0
VERTEX
  8
LAYER_1
 10
64.578
 20
225.0273
  0
VERTEX
  8
LAYER_1
 10
64.5568
 20
225.0485
  0
VERTEX
  8
LAYER_1
 10
64.5144
 20
225.0908
  0
VERTEX
  8
LAYER_1
 10
64.4721
 20
225.112
  0
VERTEX
  8
LAYER_1
 10
64.4298
 20
225.1544
  0
VERTEX
  8
LAYER_1
 10
64.3875
 20
225.1755
  0
VERTEX
  8
LAYER_1
 10
64.3451
 20
225.2179
  0
VERTEX
  8
LAYER_1
 10
64.324
 20
225.239
  0
VERTEX
  8
LAYER_1
 10
64.2816
 20
225.2602
  0
VERTEX
  8
LAYER_1
 10
64.2393
 20
225.3025
  0
VERTEX
  8
LAYER_1
 10
64.197
 20
225.3237
  0
VERTEX
  8
LAYER_1
 10
64.1546
 20
225.3448
  0
VERTEX
  8
LAYER_1
 10
64.1123
 20
225.3872
  0
VERTEX
  8
LAYER_1
 10
64.07
 20
225.4083
  0
VERTEX
  8
LAYER_1
 10
64.0276
 20
225.4295
  0
VERTEX
  8
LAYER_1
 10
64.0065
 20
225.4507
  0
VERTEX
  8
LAYER_1
 10
63.9641
 20
225.4718
  0
VERTEX
  8
LAYER_1
 10
63.9218
 20
225.493
  0
VERTEX
  8
LAYER_1
 10
63.8795
 20
225.5142
  0
VERTEX
  8
LAYER_1
 10
63.8371
 20
225.5565
  0
VERTEX
  8
LAYER_1
 10
63.7948
 20
225.5565
  0
VERTEX
  8
LAYER_1
 10
63.7525
 20
225.5777
  0
VERTEX
  8
LAYER_1
 10
63.7101
 20
225.5988
  0
VERTEX
  8
LAYER_1
 10
63.689
 20
225.62
  0
VERTEX
  8
LAYER_1
 10
63.6466
 20
225.6412
  0
VERTEX
  8
LAYER_1
 10
63.6043
 20
225.6623
  0
VERTEX
  8
LAYER_1
 10
63.5619
 20
225.6835
  0
VERTEX
  8
LAYER_1
 10
63.5196
 20
225.6835
  0
VERTEX
  8
LAYER_1
 10
63.4985
 20
225.7047
  0
VERTEX
  8
LAYER_1
 10
63.4561
 20
225.7259
  0
VERTEX
  8
LAYER_1
 10
63.4138
 20
225.7259
  0
SEQEND
  0
POLYLINE
  8
LAYER_1
 40
0.0847
 41
0.0847
 66
1
 10
0
 20
0
 30
0
  0
VERTEX
  8
LAYER_1
 10
65.5093
 20
223.8208
  0
VERTEX
  8
LAYER_1
 10
65.5728
 20
223.6515
  0
SEQEND
  0
POLYLINE
  8
LAYER_1
 40
0.0847
 41
0.0847
 66
1
 10
0
 20
0
 30
0
  0
VERTEX
  8
LAYER_1
 10
63.4138
 20
225.7259
  0
VERTEX
  8
LAYER_1
 10
63.0328
 20
225.8528
  0
SEQEND
  0
POLYLINE
  8
LAYER_1
 40
0.0847
 41
0.0847
 66
1
 10
0
 20
0
 30
0
  0
VERTEX
  8
LAYER_1
 10
68.8959
 20
218.2329
  0
VERTEX
  8
LAYER_1
 10
69.8908
 20
217.0899
  0
SEQEND
  0
POLYLINE
  8
LAYER_1
 40
0.0847
 41
0.0847
 66
1
 10
0
 20
0
 30
0
  0
VERTEX
  8
LAYER_1
 10
67.9858
 20
219.4817
  0
VERTEX
  8
LAYER_1
 10
68.8959
 20
218.2329
  0
SEQEND
  0
POLYLINE
  8
LAYER_1
 40
0.0847
 41
0.0847
 66
1
 10
0
 20
0
 30
0
  0
VERTEX
  8
LAYER_1
 10
67.1179
 20
220.7728
  0
VERTEX
  8
LAYER_1
 10
67.9858
 20
219.4817
  0
SEQEND
  0
POLYLINE
  8
LAYER_1
 40
0.0847
 41
0.0847
 66
1
 10
0
 20
0
 30
0
  0
VERTEX
  8
LAYER_1
 10
66.3136
 20
222.1698
  0
VERTEX
  8
LAYER_1
 10
67.1179
 20
220.7728
  0
SEQEND
  0
POLYLINE
  8
LAYER_1
 40
0.0847
 41
0.0847
 66
1
 10
0
 20
0
 30
0
  0
VERTEX
  8
LAYER_1
 10
65.5728
 20
223.6515
  0
VERTEX
  8
LAYER_1
 10
66.3136
 20
222.1698
  0
SEQEND
  0
POLYLINE
  8
LAYER_1
 40
0.0847
 41
0.0847
 66
1
 10
0
 20
0
 30
0
  0
VERTEX
  8
LAYER_1
 10
97.5768
 20
204.6227
  0
VERTEX
  8
LAYER_1
 10
98.2329
 20
204.6227
  0
SEQEND
  0
POLYLINE
  8
LAYER_1
 40
0.0847
 41
0.0847
 66
1
 10
0
 20
0
 30
0
  0
VERTEX
  8
LAYER_1
 10
96.8994
 20
204.6227
  0
VERTEX
  8
LAYER_1
 10
97.5768
 20
204.6227
  0
SEQEND
  0
POLYLINE
  8
LAYER_1
 40
0.0847
 41
0.0847
 66
1
 10
0
 20
0
 30
0
  0
VERTEX
  8
LAYER_1
 10
95.2696
 20
204.7497
  0
VERTEX
  8
LAYER_1
 10
96.8994
 20
204.6227
  0
SEQEND
  0
POLYLINE
  8
LAYER_1
 40
0.0847
 41
0.0847
 66
1
 10
0
 20
0
 30
0
  0
VERTEX
  8
LAYER_1
 10
93.6398
 20
204.8978
  0
VERTEX
  8
LAYER_1
 10
95.2696
 20
204.7497
  0
SEQEND
  0
POLYLINE
  8
LAYER_1
 40
0.0847
 41
0.0847
 66
1
 10
0
 20
0
 30
0
  0
VERTEX
  8
LAYER_1
 10
92.0311
 20
205.0883
  0
VERTEX
  8
LAYER_1
 10
93.6398
 20
204.8978
  0
SEQEND
  0
POLYLINE
  8
LAYER_1
 40
0.0847
 41
0.0847
 66
1
 10
0
 20
0
 30
0
  0
VERTEX
  8
LAYER_1
 10
87.4379
 20
205.808
  0
VERTEX
  8
LAYER_1
 10
88.4116
 20
205.6175
  0
SEQEND
  0
POLYLINE
  8
LAYER_1
 40
0.0847
 41
0.0847
 66
1
 10
0
 20
0
 30
0
  0
VERTEX
  8
LAYER_1
 10
86.4643
 20
206.0408
  0
VERTEX
  8
LAYER_1
 10
87.4379
 20
205.808
  0
SEQEND
  0
POLYLINE
  8
LAYER_1
 40
0.0847
 41
0.0847
 66
1
 10
0
 20
0
 30
0
  0
VERTEX
  8
LAYER_1
 10
85.8928
 20
206.189
  0
VERTEX
  8
LAYER_1
 10
86.4643
 20
206.0408
  0
SEQEND
  0
POLYLINE
  8
LAYER_1
 40
0.0847
 41
0.0847
 66
1
 10
0
 20
0
 30
0
  0
VERTEX
  8
LAYER_1
 10
85.3636
 20
206.3583
  0
VERTEX
  8
LAYER_1
 10
85.8928
 20
206.189
  0
SEQEND
  0
POLYLINE
  8
LAYER_1
 40
0.0847
 41
0.0847
 66
1
 10
0
 20
0
 30
0
  0
VERTEX
  8
LAYER_1
 10
84.4534
 20
206.6546
  0
VERTEX
  8
LAYER_1
 10
85.3636
 20
206.3583
  0
SEQEND
  0
POLYLINE
  8
LAYER_1
 40
0.0847
 41
0.0847
 66
1
 10
0
 20
0
 30
0
  0
VERTEX
  8
LAYER_1
 10
83.5433
 20
206.9933
  0
VERTEX
  8
LAYER_1
 10
84.4534
 20
206.6546
  0
SEQEND
  0
POLYLINE
  8
LAYER_1
 40
0.0847
 41
0.0847
 66
1
 10
0
 20
0
 30
0
  0
VERTEX
  8
LAYER_1
 10
82.6543
 20
207.3532
  0
VERTEX
  8
LAYER_1
 10
83.5433
 20
206.9933
  0
SEQEND
  0
POLYLINE
  8
LAYER_1
 40
0.0847
 41
0.0847
 66
1
 10
0
 20
0
 30
0
  0
VERTEX
  8
LAYER_1
 10
81.7653
 20
207.7342
  0
VERTEX
  8
LAYER_1
 10
82.6543
 20
207.3532
  0
SEQEND
  0
POLYLINE
  8
LAYER_1
 40
0.0847
 41
0.0847
 66
1
 10
0
 20
0
 30
0
  0
VERTEX
  8
LAYER_1
 10
80.8763
 20
208.1575
  0
VERTEX
  8
LAYER_1
 10
81.7653
 20
207.7342
  0
SEQEND
  0
POLYLINE
  8
LAYER_1
 40
0.0847
 41
0.0847
 66
1
 10
0
 20
0
 30
0
  0
VERTEX
  8
LAYER_1
 10
80.3683
 20
208.3903
  0
VERTEX
  8
LAYER_1
 10
80.8763
 20
208.1575
  0
SEQEND
  0
POLYLINE
  8
LAYER_1
 40
0.0847
 41
0.0847
 66
1
 10
0
 20
0
 30
0
  0
VERTEX
  8
LAYER_1
 10
79.7121
 20
208.729
  0
VERTEX
  8
LAYER_1
 10
80.3683
 20
208.3903
  0
SEQEND
  0
POLYLINE
  8
LAYER_1
 40
0.0847
 41
0.0847
 66
1
 10
0
 20
0
 30
0
  0
VERTEX
  8
LAYER_1
 10
78.6114
 20
209.3217
  0
VERTEX
  8
LAYER_1
 10
79.7121
 20
208.729
  0
SEQEND
  0
POLYLINE
  8
LAYER_1
 40
0.0847
 41
0.0847
 66
1
 10
0
 20
0
 30
0
  0
VERTEX
  8
LAYER_1
 10
77.5108
 20
209.9355
  0
VERTEX
  8
LAYER_1
 10
78.6114
 20
209.3217
  0
SEQEND
  0
POLYLINE
  8
LAYER_1
 40
0.0847
 41
0.0847
 66
1
 10
0
 20
0
 30
0
  0
VERTEX
  8
LAYER_1
 10
76.4524
 20
210.6128
  0
VERTEX
  8
LAYER_1
 10
77.5108
 20
209.9355
  0
SEQEND
  0
POLYLINE
  8
LAYER_1
 40
0.0847
 41
0.0847
 66
1
 10
0
 20
0
 30
0
  0
VERTEX
  8
LAYER_1
 10
75.4153
 20
211.3325
  0
VERTEX
  8
LAYER_1
 10
76.4524
 20
210.6128
  0
SEQEND
  0
POLYLINE
  8
LAYER_1
 40
0.0847
 41
0.0847
 66
1
 10
0
 20
0
 30
0
  0
VERTEX
  8
LAYER_1
 10
74.4416
 20
212.1156
  0
VERTEX
  8
LAYER_1
 10
75.4153
 20
211.3325
  0
SEQEND
  0
POLYLINE
  8
LAYER_1
 40
0.0847
 41
0.0847
 66
1
 10
0
 20
0
 30
0
  0
VERTEX
  8
LAYER_1
 10
73.8913
 20
212.5813
  0
VERTEX
  8
LAYER_1
 10
74.4416
 20
212.1156
  0
SEQEND
  0
POLYLINE
  8
LAYER_1
 40
0.0847
 41
0.0847
 66
1
 10
0
 20
0
 30
0
  0
VERTEX
  8
LAYER_1
 10
73.4679
 20
212.9623
  0
VERTEX
  8
LAYER_1
 10
73.8913
 20
212.5813
  0
SEQEND
  0
POLYLINE
  8
LAYER_1
 40
0.0847
 41
0.0847
 66
1
 10
0
 20
0
 30
0
  0
VERTEX
  8
LAYER_1
 10
72.7906
 20
213.6608
  0
VERTEX
  8
LAYER_1
 10
73.4679
 20
212.9623
  0
SEQEND
  0
POLYLINE
  8
LAYER_1
 40
0.0847
 41
0.0847
 66
1
 10
0
 20
0
 30
0
  0
VERTEX
  8
LAYER_1
 10
72.1344
 20
214.3805
  0
VERTEX
  8
LAYER_1
 10
72.7906
 20
213.6608
  0
SEQEND
  0
POLYLINE
  8
LAYER_1
 40
0.0847
 41
0.0847
 66
1
 10
0
 20
0
 30
0
  0
VERTEX
  8
LAYER_1
 10
71.4783
 20
215.1213
  0
VERTEX
  8
LAYER_1
 10
72.1344
 20
214.3805
  0
SEQEND
  0
POLYLINE
  8
LAYER_1
 40
0.0847
 41
0.0847
 66
1
 10
0
 20
0
 30
0
  0
VERTEX
  8
LAYER_1
 10
70.8644
 20
215.8833
  0
VERTEX
  8
LAYER_1
 10
71.4783
 20
215.1213
  0
SEQEND
  0
POLYLINE
  8
LAYER_1
 40
0.0847
 41
0.0847
 66
1
 10
0
 20
0
 30
0
  0
VERTEX
  8
LAYER_1
 10
70.2294
 20
216.6453
  0
VERTEX
  8
LAYER_1
 10
70.8644
 20
215.8833
  0
SEQEND
  0
POLYLINE
  8
LAYER_1
 40
0.0847
 41
0.0847
 66
1
 10
0
 20
0
 30
0
  0
VERTEX
  8
LAYER_1
 10
69.8908
 20
217.0898
  0
VERTEX
  8
LAYER_1
 10
70.2294
 20
216.6453
  0
SEQEND
  0
POLYLINE
  8
LAYER_1
 40
0.0847
 41
0.0847
 66
1
 10
0
 20
0
 30
0
  0
VERTEX
  8
LAYER_1
 10
101.4291
 20
204.6861
  0
VERTEX
  8
LAYER_1
 10
102.0429
 20
204.6861
  0
SEQEND
  0
POLYLINE
  8
LAYER_1
 40
0.0847
 41
0.0847
 66
1
 10
0
 20
0
 30
0
  0
VERTEX
  8
LAYER_1
 10
100.7941
 20
204.665
  0
VERTEX
  8
LAYER_1
 10
101.4291
 20
204.6861
  0
SEQEND
  0
POLYLINE
  8
LAYER_1
 40
0.0847
 41
0.0847
 66
1
 10
0
 20
0
 30
0
  0
VERTEX
  8
LAYER_1
 10
100.1591
 20
204.6438
  0
VERTEX
  8
LAYER_1
 10
100.7941
 20
204.665
  0
SEQEND
  0
POLYLINE
  8
LAYER_1
 40
0.0847
 41
0.0847
 66
1
 10
0
 20
0
 30
0
  0
VERTEX
  8
LAYER_1
 10
99.5241
 20
204.6438
  0
VERTEX
  8
LAYER_1
 10
100.1591
 20
204.6438
  0
SEQEND
  0
POLYLINE
  8
LAYER_1
 40
0.0847
 41
0.0847
 66
1
 10
0
 20
0
 30
0
  0
VERTEX
  8
LAYER_1
 10
98.8891
 20
204.6226
  0
VERTEX
  8
LAYER_1
 10
99.5241
 20
204.6438
  0
SEQEND
  0
POLYLINE
  8
LAYER_1
 40
0.0847
 41
0.0847
 66
1
 10
0
 20
0
 30
0
  0
VERTEX
  8
LAYER_1
 10
98.233
 20
204.6226
  0
VERTEX
  8
LAYER_1
 10
98.8891
 20
204.6226
  0
SEQEND
  0
POLYLINE
  8
LAYER_1
 40
0.0847
 41
0.0847
 66
1
 10
0
 20
0
 30
0
  0
VERTEX
  8
LAYER_1
 10
56.9368
 20
228.4351
  0
VERTEX
  8
LAYER_1
 10
57.2331
 20
228.4563
  0
SEQEND
  0
POLYLINE
  8
LAYER_1
 40
0.0847
 41
0.0847
 66
1
 10
0
 20
0
 30
0
  0
VERTEX
  8
LAYER_1
 10
56.6828
 20
228.3928
  0
VERTEX
  8
LAYER_1
 10
56.9368
 20
228.4351
  0
SEQEND
  0
POLYLINE
  8
LAYER_1
 40
0.0847
 41
0.0847
 66
1
 10
0
 20
0
 30
0
  0
VERTEX
  8
LAYER_1
 10
56.4288
 20
228.3081
  0
VERTEX
  8
LAYER_1
 10
56.6828
 20
228.3928
  0
SEQEND
  0
POLYLINE
  8
LAYER_1
 40
0.0847
 41
0.0847
 66
1
 10
0
 20
0
 30
0
  0
VERTEX
  8
LAYER_1
 10
56.196
 20
228.2023
  0
VERTEX
  8
LAYER_1
 10
56.4288
 20
228.3081
  0
SEQEND
  0
POLYLINE
  8
LAYER_1
 40
0.0847
 41
0.0847
 66
1
 10
0
 20
0
 30
0
  0
VERTEX
  8
LAYER_1
 10
56.0055
 20
228.0753
  0
VERTEX
  8
LAYER_1
 10
56.196
 20
228.2023
  0
SEQEND
  0
POLYLINE
  8
LAYER_1
 40
0.0847
 41
0.0847
 66
1
 10
0
 20
0
 30
0
  0
VERTEX
  8
LAYER_1
 10
55.815
 20
227.906
  0
VERTEX
  8
LAYER_1
 10
56.0055
 20
228.0753
  0
SEQEND
  0
POLYLINE
  8
LAYER_1
 40
0.0847
 41
0.0847
 66
1
 10
0
 20
0
 30
0
  0
VERTEX
  8
LAYER_1
 10
55.6668
 20
227.6943
  0
VERTEX
  8
LAYER_1
 10
55.815
 20
227.906
  0
SEQEND
  0
POLYLINE
  8
LAYER_1
 40
0.0847
 41
0.0847
 66
1
 10
0
 20
0
 30
0
  0
VERTEX
  8
LAYER_1
 10
55.5398
 20
227.4615
  0
VERTEX
  8
LAYER_1
 10
55.6668
 20
227.6943
  0
SEQEND
  0
POLYLINE
  8
LAYER_1
 40
0.0847
 41
0.0847
 66
1
 10
0
 20
0
 30
0
  0
VERTEX
  8
LAYER_1
 10
55.434
 20
227.2075
  0
VERTEX
  8
LAYER_1
 10
55.5398
 20
227.4615
  0
SEQEND
  0
POLYLINE
  8
LAYER_1
 40
0.0847
 41
0.0847
 66
1
 10
0
 20
0
 30
0
  0
VERTEX
  8
LAYER_1
 10
55.2858
 20
226.5937
  0
VERTEX
  8
LAYER_1
 10
55.3493
 20
226.9112
  0
SEQEND
  0
POLYLINE
  8
LAYER_1
 40
0.0847
 41
0.0847
 66
1
 10
0
 20
0
 30
0
  0
VERTEX
  8
LAYER_1
 10
55.2435
 20
226.2338
  0
VERTEX
  8
LAYER_1
 10
55.2858
 20
226.5937
  0
SEQEND
  0
POLYLINE
  8
LAYER_1
 40
0.0847
 41
0.0847
 66
1
 10
0
 20
0
 30
0
  0
VERTEX
  8
LAYER_1
 10
55.2435
 20
225.8528
  0
VERTEX
  8
LAYER_1
 10
55.2435
 20
226.2338
  0
SEQEND
  0
POLYLINE
  8
LAYER_1
 40
0.0847
 41
0.0847
 66
1
 10
0
 20
0
 30
0
  0
VERTEX
  8
LAYER_1
 10
103.8845
 20
204.7285
  0
VERTEX
  8
LAYER_1
 10
104.4983
 20
204.7285
  0
SEQEND
  0
POLYLINE
  8
LAYER_1
 40
0.0847
 41
0.0847
 66
1
 10
0
 20
0
 30
0
  0
VERTEX
  8
LAYER_1
 10
103.2918
 20
204.7285
  0
VERTEX
  8
LAYER_1
 10
103.8845
 20
204.7285
  0
SEQEND
  0
POLYLINE
  8
LAYER_1
 40
0.0847
 41
0.0847
 66
1
 10
0
 20
0
 30
0
  0
VERTEX
  8
LAYER_1
 10
102.678
 20
204.7073
  0
VERTEX
  8
LAYER_1
 10
103.2918
 20
204.7285
  0
SEQEND
  0
POLYLINE
  8
LAYER_1
 40
0.0847
 41
0.0847
 66
1
 10
0
 20
0
 30
0
  0
VERTEX
  8
LAYER_1
 10
102.043
 20
204.6862
  0
VERTEX
  8
LAYER_1
 10
102.678
 20
204.7073
  0
SEQEND
  0
POLYLINE
  8
LAYER_1
 40
0.0847
 41
0.0847
 66
1
 10
0
 20
0
 30
0
  0
VERTEX
  8
LAYER_1
 10
105.1968
 20
204.7285
  0
VERTEX
  8
LAYER_1
 10
106.0646
 20
204.665
  0
VERTEX
  8
LAYER_1
 10
106.9325
 20
204.6015
  0
VERTEX
  8
LAYER_1
 10
107.8003
 20
204.538
  0
VERTEX
  8
LAYER_1
 10
108.6681
 20
204.4745
  0
VERTEX
  8
LAYER_1
 10
109.536
 20
204.3898
  0
VERTEX
  8
LAYER_1
 10
110.044
 20
204.3475
  0
VERTEX
  8
LAYER_1
 10
110.171
 20
204.3263
  0
VERTEX
  8
LAYER_1
 10
110.425
 20
204.3052
  0
VERTEX
  8
LAYER_1
 10
110.6578
 20
204.284
  0
VERTEX
  8
LAYER_1
 10
110.9118
 20
204.2417
  0
SEQEND
  0
POLYLINE
  8
LAYER_1
 40
0.0847
 41
0.0847
 66
1
 10
0
 20
0
 30
0
  0
VERTEX
  8
LAYER_1
 10
104.4983
 20
204.7285
  0
VERTEX
  8
LAYER_1
 10
105.1968
 20
204.7285
  0
SEQEND
  0
POLYLINE
  8
LAYER_1
 40
0.0847
 41
0.0847
 66
1
 10
0
 20
0
 30
0
  0
VERTEX
  8
LAYER_1
 10
57.2331
 20
228.4563
  0
VERTEX
  8
LAYER_1
 10
186.8366
 20
228.4563
  0
SEQEND
  0
POLYLINE
  8
LAYER_1
 40
0.0847
 41
0.0847
 66
1
 10
0
 20
0
 30
0
  0
VERTEX
  8
LAYER_1
 10
55.2435
 20
225.8528
  0
VERTEX
  8
LAYER_1
 10
188.8475
 20
225.8528
  0
SEQEND
  0
POLYLINE
  8
LAYER_1
 40
0.0847
 41
0.0847
 66
1
 10
0
 20
0
 30
0
  0
VERTEX
  8
LAYER_1
 10
155.6581
 20
205.6175
  0
VERTEX
  8
LAYER_1
 10
152.0598
 20
205.0883
  0
SEQEND
  0
POLYLINE
  8
LAYER_1
 40
0.0847
 41
0.0847
 66
1
 10
0
 20
0
 30
0
  0
VERTEX
  8
LAYER_1
 10
180.656
 20
225.7258
  0
VERTEX
  8
LAYER_1
 10
180.6348
 20
225.7047
  0
VERTEX
  8
LAYER_1
 10
180.5925
 20
225.7047
  0
VERTEX
  8
LAYER_1
 10
180.5502
 20
225.6835
  0
VERTEX
  8
LAYER_1
 10
180.5078
 20
225.6623
  0
VERTEX
  8
LAYER_1
 10
180.4867
 20
225.6623
  0
VERTEX
  8
LAYER_1
 10
180.4443
 20
225.6412
  0
VERTEX
  8
LAYER_1
 10
180.402
 20
225.62
  0
VERTEX
  8
LAYER_1
 10
180.3596
 20
225.5988
  0
VERTEX
  8
LAYER_1
 10
180.3173
 20
225.5777
  0
VERTEX
  8
LAYER_1
 10
180.275
 20
225.5565
  0
VERTEX
  8
LAYER_1
 10
180.2326
 20
225.5353
  0
VERTEX
  8
LAYER_1
 10
180.2115
 20
225.5142
  0
VERTEX
  8
LAYER_1
 10
180.1692
 20
225.493
  0
VERTEX
  8
LAYER_1
 10
180.1268
 20
225.4718
  0
VERTEX
  8
LAYER_1
 10
180.0845
 20
225.4507
  0
VERTEX
  8
LAYER_1
 10
180.0422
 20
225.4295
  0
VERTEX
  8
LAYER_1
 10
179.9998
 20
225.4083
  0
VERTEX
  8
LAYER_1
 10
179.9575
 20
225.366
  0
VERTEX
  8
LAYER_1
 10
179.9152
 20
225.3448
  0
VERTEX
  8
LAYER_1
 10
179.894
 20
225.3237
  0
VERTEX
  8
LAYER_1
 10
179.8516
 20
225.3025
  0
VERTEX
  8
LAYER_1
 10
179.8093
 20
225.2602
  0
VERTEX
  8
LAYER_1
 10
179.767
 20
225.239
  0
VERTEX
  8
LAYER_1
 10
179.7246
 20
225.1967
  0
VERTEX
  8
LAYER_1
 10
179.6823
 20
225.1755
  0
VERTEX
  8
LAYER_1
 10
179.64
 20
225.1543
  0
VERTEX
  8
LAYER_1
 10
179.6188
 20
225.112
  0
VERTEX
  8
LAYER_1
 10
179.5765
 20
225.0908
  0
VERTEX
  8
LAYER_1
 10
179.5342
 20
225.0485
  0
VERTEX
  8
LAYER_1
 10
179.4918
 20
225.0062
  0
VERTEX
  8
LAYER_1
 10
179.4495
 20
224.985
  0
VERTEX
  8
LAYER_1
 10
179.4283
 20
224.9427
  0
VERTEX
  8
LAYER_1
 10
179.386
 20
224.9215
  0
VERTEX
  8
LAYER_1
 10
179.3437
 20
224.8792
  0
VERTEX
  8
LAYER_1
 10
179.3225
 20
224.8368
  0
VERTEX
  8
LAYER_1
 10
179.2801
 20
224.8157
  0
VERTEX
  8
LAYER_1
 10
179.2378
 20
224.7733
  0
VERTEX
  8
LAYER_1
 10
179.2166
 20
224.731
  0
VERTEX
  8
LAYER_1
 10
179.1743
 20
224.7098
  0
VERTEX
  8
LAYER_1
 10
179.132
 20
224.6675
  0
VERTEX
  8
LAYER_1
 10
179.1108
 20
224.6252
  0
VERTEX
  8
LAYER_1
 10
179.0685
 20
224.5828
  0
VERTEX
  8
LAYER_1
 10
179.0473
 20
224.5617
  0
VERTEX
  8
LAYER_1
 10
179.0262
 20
224.5193
  0
VERTEX
  8
LAYER_1
 10
178.9838
 20
224.477
  0
VERTEX
  8
LAYER_1
 10
178.9627
 20
224.4347
  0
VERTEX
  8
LAYER_1
 10
178.9203
 20
224.4135
  0
VERTEX
  8
LAYER_1
 10
178.8992
 20
224.3712
  0
VERTEX
  8
LAYER_1
 10
178.878
 20
224.3288
  0
VERTEX
  8
LAYER_1
 10
178.8357
 20
224.2865
  0
VERTEX
  8
LAYER_1
 10
178.8145
 20
224.2653
  0
VERTEX
  8
LAYER_1
 10
178.7933
 20
224.223
  0
VERTEX
  8
LAYER_1
 10
178.7721
 20
224.1807
  0
VERTEX
  8
LAYER_1
 10
178.751
 20
224.1383
  0
VERTEX
  8
LAYER_1
 10
178.7298
 20
224.1172
  0
VERTEX
  8
LAYER_1
 10
178.7086
 20
224.0748
  0
VERTEX
  8
LAYER_1
 10
178.6875
 20
224.0325
  0
VERTEX
  8
LAYER_1
 10
178.6663
 20
223.9902
  0
VERTEX
  8
LAYER_1
 10
178.6451
 20
223.969
  0
VERTEX
  8
LAYER_1
 10
178.624
 20
223.9267
  0
VERTEX
  8
LAYER_1
 10
178.6028
 20
223.8843
  0
VERTEX
  8
LAYER_1
 10
178.5817
 20
223.842
  0
VERTEX
  8
LAYER_1
 10
178.5817
 20
223.8208
  0
SEQEND
  0
POLYLINE
  8
LAYER_1
 40
0.0847
 41
0.0847
 66
1
 10
0
 20
0
 30
0
  0
VERTEX
  8
LAYER_1
 10
178.5816
 20
223.8208
  0
VERTEX
  8
LAYER_1
 10
178.4969
 20
223.6515
  0
SEQEND
  0
POLYLINE
  8
LAYER_1
 40
0.0847
 41
0.0847
 66
1
 10
0
 20
0
 30
0
  0
VERTEX
  8
LAYER_1
 10
180.6559
 20
225.7259
  0
VERTEX
  8
LAYER_1
 10
181.0369
 20
225.8528
  0
SEQEND
  0
POLYLINE
  8
LAYER_1
 40
0.0847
 41
0.0847
 66
1
 10
0
 20
0
 30
0
  0
VERTEX
  8
LAYER_1
 10
175.1738
 20
218.2329
  0
VERTEX
  8
LAYER_1
 10
174.2001
 20
217.0899
  0
SEQEND
  0
POLYLINE
  8
LAYER_1
 40
0.0847
 41
0.0847
 66
1
 10
0
 20
0
 30
0
  0
VERTEX
  8
LAYER_1
 10
176.1051
 20
219.4817
  0
VERTEX
  8
LAYER_1
 10
175.1738
 20
218.2329
  0
SEQEND
  0
POLYLINE
  8
LAYER_1
 40
0.0847
 41
0.0847
 66
1
 10
0
 20
0
 30
0
  0
VERTEX
  8
LAYER_1
 10
176.9729
 20
220.7728
  0
VERTEX
  8
LAYER_1
 10
176.1051
 20
219.4817
  0
SEQEND
  0
POLYLINE
  8
LAYER_1
 40
0.0847
 41
0.0847
 66
1
 10
0
 20
0
 30
0
  0
VERTEX
  8
LAYER_1
 10
177.7561
 20
222.1698
  0
VERTEX
  8
LAYER_1
 10
176.9729
 20
220.7728
  0
SEQEND
  0
POLYLINE
  8
LAYER_1
 40
0.0847
 41
0.0847
 66
1
 10
0
 20
0
 30
0
  0
VERTEX
  8
LAYER_1
 10
178.4969
 20
223.6515
  0
VERTEX
  8
LAYER_1
 10
177.7561
 20
222.1698
  0
SEQEND
  0
POLYLINE
  8
LAYER_1
 40
0.0847
 41
0.0847
 66
1
 10
0
 20
0
 30
0
  0
VERTEX
  8
LAYER_1
 10
146.5141
 20
204.6227
  0
VERTEX
  8
LAYER_1
 10
145.8579
 20
204.6227
  0
SEQEND
  0
POLYLINE
  8
LAYER_1
 40
0.0847
 41
0.0847
 66
1
 10
0
 20
0
 30
0
  0
VERTEX
  8
LAYER_1
 10
147.1914
 20
204.6227
  0
VERTEX
  8
LAYER_1
 10
146.5141
 20
204.6227
  0
SEQEND
  0
POLYLINE
  8
LAYER_1
 40
0.0847
 41
0.0847
 66
1
 10
0
 20
0
 30
0
  0
VERTEX
  8
LAYER_1
 10
148.8213
 20
204.7497
  0
VERTEX
  8
LAYER_1
 10
147.1914
 20
204.6227
  0
SEQEND
  0
POLYLINE
  8
LAYER_1
 40
0.0847
 41
0.0847
 66
1
 10
0
 20
0
 30
0
  0
VERTEX
  8
LAYER_1
 10
150.4299
 20
204.8978
  0
VERTEX
  8
LAYER_1
 10
148.8213
 20
204.7497
  0
SEQEND
  0
POLYLINE
  8
LAYER_1
 40
0.0847
 41
0.0847
 66
1
 10
0
 20
0
 30
0
  0
VERTEX
  8
LAYER_1
 10
152.0598
 20
205.0883
  0
VERTEX
  8
LAYER_1
 10
150.4299
 20
204.8978
  0
SEQEND
  0
POLYLINE
  8
LAYER_1
 40
0.0847
 41
0.0847
 66
1
 10
0
 20
0
 30
0
  0
VERTEX
  8
LAYER_1
 10
156.6529
 20
205.808
  0
VERTEX
  8
LAYER_1
 10
155.6581
 20
205.6175
  0
SEQEND
  0
POLYLINE
  8
LAYER_1
 40
0.0847
 41
0.0847
 66
1
 10
0
 20
0
 30
0
  0
VERTEX
  8
LAYER_1
 10
157.6266
 20
206.0408
  0
VERTEX
  8
LAYER_1
 10
156.6529
 20
205.808
  0
SEQEND
  0
POLYLINE
  8
LAYER_1
 40
0.0847
 41
0.0847
 66
1
 10
0
 20
0
 30
0
  0
VERTEX
  8
LAYER_1
 10
158.1769
 20
206.189
  0
VERTEX
  8
LAYER_1
 10
157.6266
 20
206.0408
  0
SEQEND
  0
POLYLINE
  8
LAYER_1
 40
0.0847
 41
0.0847
 66
1
 10
0
 20
0
 30
0
  0
VERTEX
  8
LAYER_1
 10
158.7273
 20
206.3583
  0
VERTEX
  8
LAYER_1
 10
158.1769
 20
206.189
  0
SEQEND
  0
POLYLINE
  8
LAYER_1
 40
0.0847
 41
0.0847
 66
1
 10
0
 20
0
 30
0
  0
VERTEX
  8
LAYER_1
 10
159.6374
 20
206.6546
  0
VERTEX
  8
LAYER_1
 10
158.7273
 20
206.3583
  0
SEQEND
  0
POLYLINE
  8
LAYER_1
 40
0.0847
 41
0.0847
 66
1
 10
0
 20
0
 30
0
  0
VERTEX
  8
LAYER_1
 10
160.5476
 20
206.9933
  0
VERTEX
  8
LAYER_1
 10
159.6374
 20
206.6546
  0
SEQEND
  0
POLYLINE
  8
LAYER_1
 40
0.0847
 41
0.0847
 66
1
 10
0
 20
0
 30
0
  0
VERTEX
  8
LAYER_1
 10
161.4366
 20
207.3532
  0
VERTEX
  8
LAYER_1
 10
160.5476
 20
206.9933
  0
SEQEND
  0
POLYLINE
  8
LAYER_1
 40
0.0847
 41
0.0847
 66
1
 10
0
 20
0
 30
0
  0
VERTEX
  8
LAYER_1
 10
162.3256
 20
207.7342
  0
VERTEX
  8
LAYER_1
 10
161.4366
 20
207.3532
  0
SEQEND
  0
POLYLINE
  8
LAYER_1
 40
0.0847
 41
0.0847
 66
1
 10
0
 20
0
 30
0
  0
VERTEX
  8
LAYER_1
 10
163.1934
 20
208.1575
  0
VERTEX
  8
LAYER_1
 10
162.3256
 20
207.7342
  0
SEQEND
  0
POLYLINE
  8
LAYER_1
 40
0.0847
 41
0.0847
 66
1
 10
0
 20
0
 30
0
  0
VERTEX
  8
LAYER_1
 10
163.7014
 20
208.3903
  0
VERTEX
  8
LAYER_1
 10
163.1934
 20
208.1575
  0
SEQEND
  0
POLYLINE
  8
LAYER_1
 40
0.0847
 41
0.0847
 66
1
 10
0
 20
0
 30
0
  0
VERTEX
  8
LAYER_1
 10
164.3576
 20
208.729
  0
VERTEX
  8
LAYER_1
 10
163.7014
 20
208.3903
  0
SEQEND
  0
POLYLINE
  8
LAYER_1
 40
0.0847
 41
0.0847
 66
1
 10
0
 20
0
 30
0
  0
VERTEX
  8
LAYER_1
 10
165.4794
 20
209.3217
  0
VERTEX
  8
LAYER_1
 10
164.3576
 20
208.729
  0
SEQEND
  0
POLYLINE
  8
LAYER_1
 40
0.0847
 41
0.0847
 66
1
 10
0
 20
0
 30
0
  0
VERTEX
  8
LAYER_1
 10
166.5801
 20
209.9355
  0
VERTEX
  8
LAYER_1
 10
165.4794
 20
209.3217
  0
SEQEND
  0
POLYLINE
  8
LAYER_1
 40
0.0847
 41
0.0847
 66
1
 10
0
 20
0
 30
0
  0
VERTEX
  8
LAYER_1
 10
167.6384
 20
210.6128
  0
VERTEX
  8
LAYER_1
 10
166.5801
 20
209.9355
  0
SEQEND
  0
POLYLINE
  8
LAYER_1
 40
0.0847
 41
0.0847
 66
1
 10
0
 20
0
 30
0
  0
VERTEX
  8
LAYER_1
 10
168.6756
 20
211.3325
  0
VERTEX
  8
LAYER_1
 10
167.6384
 20
210.6128
  0
SEQEND
  0
POLYLINE
  8
LAYER_1
 40
0.0847
 41
0.0847
 66
1
 10
0
 20
0
 30
0
  0
VERTEX
  8
LAYER_1
 10
169.6493
 20
212.1156
  0
VERTEX
  8
LAYER_1
 10
168.6756
 20
211.3325
  0
SEQEND
  0
POLYLINE
  8
LAYER_1
 40
0.0847
 41
0.0847
 66
1
 10
0
 20
0
 30
0
  0
VERTEX
  8
LAYER_1
 10
170.1996
 20
212.5813
  0
VERTEX
  8
LAYER_1
 10
169.6493
 20
212.1156
  0
SEQEND
  0
POLYLINE
  8
LAYER_1
 40
0.0847
 41
0.0847
 66
1
 10
0
 20
0
 30
0
  0
VERTEX
  8
LAYER_1
 10
170.6018
 20
212.9623
  0
VERTEX
  8
LAYER_1
 10
170.1996
 20
212.5813
  0
SEQEND
  0
POLYLINE
  8
LAYER_1
 40
0.0847
 41
0.0847
 66
1
 10
0
 20
0
 30
0
  0
VERTEX
  8
LAYER_1
 10
171.3003
 20
213.6608
  0
VERTEX
  8
LAYER_1
 10
170.6018
 20
212.9623
  0
SEQEND
  0
POLYLINE
  8
LAYER_1
 40
0.0847
 41
0.0847
 66
1
 10
0
 20
0
 30
0
  0
VERTEX
  8
LAYER_1
 10
171.9564
 20
214.3805
  0
VERTEX
  8
LAYER_1
 10
171.3003
 20
213.6608
  0
SEQEND
  0
POLYLINE
  8
LAYER_1
 40
0.0847
 41
0.0847
 66
1
 10
0
 20
0
 30
0
  0
VERTEX
  8
LAYER_1
 10
172.5914
 20
215.1213
  0
VERTEX
  8
LAYER_1
 10
171.9564
 20
214.3805
  0
SEQEND
  0
POLYLINE
  8
LAYER_1
 40
0.0847
 41
0.0847
 66
1
 10
0
 20
0
 30
0
  0
VERTEX
  8
LAYER_1
 10
173.2264
 20
215.8833
  0
VERTEX
  8
LAYER_1
 10
172.5914
 20
215.1213
  0
SEQEND
  0
POLYLINE
  8
LAYER_1
 40
0.0847
 41
0.0847
 66
1
 10
0
 20
0
 30
0
  0
VERTEX
  8
LAYER_1
 10
173.8402
 20
216.6453
  0
VERTEX
  8
LAYER_1
 10
173.2264
 20
215.8833
  0
SEQEND
  0
POLYLINE
  8
LAYER_1
 40
0.0847
 41
0.0847
 66
1
 10
0
 20
0
 30
0
  0
VERTEX
  8
LAYER_1
 10
174.2001
 20
217.0898
  0
VERTEX
  8
LAYER_1
 10
173.8402
 20
216.6453
  0
SEQEND
  0
POLYLINE
  8
LAYER_1
 40
0.0847
 41
0.0847
 66
1
 10
0
 20
0
 30
0
  0
VERTEX
  8
LAYER_1
 10
142.6617
 20
204.6861
  0
VERTEX
  8
LAYER_1
 10
142.0267
 20
204.6861
  0
SEQEND
  0
POLYLINE
  8
LAYER_1
 40
0.0847
 41
0.0847
 66
1
 10
0
 20
0
 30
0
  0
VERTEX
  8
LAYER_1
 10
143.2967
 20
204.665
  0
VERTEX
  8
LAYER_1
 10
142.6617
 20
204.6861
  0
SEQEND
  0
POLYLINE
  8
LAYER_1
 40
0.0847
 41
0.0847
 66
1
 10
0
 20
0
 30
0
  0
VERTEX
  8
LAYER_1
 10
143.9106
 20
204.6438
  0
VERTEX
  8
LAYER_1
 10
143.2967
 20
204.665
  0
SEQEND
  0
POLYLINE
  8
LAYER_1
 40
0.0847
 41
0.0847
 66
1
 10
0
 20
0
 30
0
  0
VERTEX
  8
LAYER_1
 10
144.5667
 20
204.6438
  0
VERTEX
  8
LAYER_1
 10
143.9106
 20
204.6438
  0
SEQEND
  0
POLYLINE
  8
LAYER_1
 40
0.0847
 41
0.0847
 66
1
 10
0
 20
0
 30
0
  0
VERTEX
  8
LAYER_1
 10
145.2017
 20
204.6226
  0
VERTEX
  8
LAYER_1
 10
144.5667
 20
204.6438
  0
SEQEND
  0
POLYLINE
  8
LAYER_1
 40
0.0847
 41
0.0847
 66
1
 10
0
 20
0
 30
0
  0
VERTEX
  8
LAYER_1
 10
145.8579
 20
204.6226
  0
VERTEX
  8
LAYER_1
 10
145.2017
 20
204.6226
  0
SEQEND
  0
POLYLINE
  8
LAYER_1
 40
0.0847
 41
0.0847
 66
1
 10
0
 20
0
 30
0
  0
VERTEX
  8
LAYER_1
 10
187.1329
 20
228.4351
  0
VERTEX
  8
LAYER_1
 10
186.8366
 20
228.4563
  0
SEQEND
  0
POLYLINE
  8
LAYER_1
 40
0.0847
 41
0.0847
 66
1
 10
0
 20
0
 30
0
  0
VERTEX
  8
LAYER_1
 10
187.4081
 20
228.3928
  0
VERTEX
  8
LAYER_1
 10
187.1329
 20
228.4351
  0
SEQEND
  0
POLYLINE
  8
LAYER_1
 40
0.0847
 41
0.0847
 66
1
 10
0
 20
0
 30
0
  0
VERTEX
  8
LAYER_1
 10
187.6621
 20
228.3081
  0
VERTEX
  8
LAYER_1
 10
187.4081
 20
228.3928
  0
SEQEND
  0
POLYLINE
  8
LAYER_1
 40
0.0847
 41
0.0847
 66
1
 10
0
 20
0
 30
0
  0
VERTEX
  8
LAYER_1
 10
187.8949
 20
228.2023
  0
VERTEX
  8
LAYER_1
 10
187.6621
 20
228.3081
  0
SEQEND
  0
POLYLINE
  8
LAYER_1
 40
0.0847
 41
0.0847
 66
1
 10
0
 20
0
 30
0
  0
VERTEX
  8
LAYER_1
 10
188.0854
 20
228.0753
  0
VERTEX
  8
LAYER_1
 10
187.8949
 20
228.2023
  0
SEQEND
  0
POLYLINE
  8
LAYER_1
 40
0.0847
 41
0.0847
 66
1
 10
0
 20
0
 30
0
  0
VERTEX
  8
LAYER_1
 10
188.2547
 20
227.906
  0
VERTEX
  8
LAYER_1
 10
188.0854
 20
228.0753
  0
SEQEND
  0
POLYLINE
  8
LAYER_1
 40
0.0847
 41
0.0847
 66
1
 10
0
 20
0
 30
0
  0
VERTEX
  8
LAYER_1
 10
188.424
 20
227.6943
  0
VERTEX
  8
LAYER_1
 10
188.2547
 20
227.906
  0
SEQEND
  0
POLYLINE
  8
LAYER_1
 40
0.0847
 41
0.0847
 66
1
 10
0
 20
0
 30
0
  0
VERTEX
  8
LAYER_1
 10
188.551
 20
227.4615
  0
VERTEX
  8
LAYER_1
 10
188.424
 20
227.6943
  0
SEQEND
  0
POLYLINE
  8
LAYER_1
 40
0.0847
 41
0.0847
 66
1
 10
0
 20
0
 30
0
  0
VERTEX
  8
LAYER_1
 10
188.6569
 20
227.2075
  0
VERTEX
  8
LAYER_1
 10
188.551
 20
227.4615
  0
SEQEND
  0
POLYLINE
  8
LAYER_1
 40
0.0847
 41
0.0847
 66
1
 10
0
 20
0
 30
0
  0
VERTEX
  8
LAYER_1
 10
188.805
 20
226.5937
  0
VERTEX
  8
LAYER_1
 10
188.7415
 20
226.9112
  0
SEQEND
  0
POLYLINE
  8
LAYER_1
 40
0.0847
 41
0.0847
 66
1
 10
0
 20
0
 30
0
  0
VERTEX
  8
LAYER_1
 10
188.8262
 20
226.2338
  0
VERTEX
  8
LAYER_1
 10
188.805
 20
226.5937
  0
SEQEND
  0
POLYLINE
  8
LAYER_1
 40
0.0847
 41
0.0847
 66
1
 10
0
 20
0
 30
0
  0
VERTEX
  8
LAYER_1
 10
188.8473
 20
225.8528
  0
VERTEX
  8
LAYER_1
 10
188.8262
 20
226.2338
  0
SEQEND
  0
POLYLINE
  8
LAYER_1
 40
0.0847
 41
0.0847
 66
1
 10
0
 20
0
 30
0
  0
VERTEX
  8
LAYER_1
 10
140.1852
 20
204.7285
  0
VERTEX
  8
LAYER_1
 10
139.5925
 20
204.7285
  0
SEQEND
  0
POLYLINE
  8
LAYER_1
 40
0.0847
 41
0.0847
 66
1
 10
0
 20
0
 30
0
  0
VERTEX
  8
LAYER_1
 10
140.799
 20
204.7285
  0
VERTEX
  8
LAYER_1
 10
140.1852
 20
204.7285
  0
SEQEND
  0
POLYLINE
  8
LAYER_1
 40
0.0847
 41
0.0847
 66
1
 10
0
 20
0
 30
0
  0
VERTEX
  8
LAYER_1
 10
141.4128
 20
204.7073
  0
VERTEX
  8
LAYER_1
 10
140.799
 20
204.7285
  0
SEQEND
  0
POLYLINE
  8
LAYER_1
 40
0.0847
 41
0.0847
 66
1
 10
0
 20
0
 30
0
  0
VERTEX
  8
LAYER_1
 10
142.0267
 20
204.6862
  0
VERTEX
  8
LAYER_1
 10
141.4128
 20
204.7073
  0
SEQEND
  0
POLYLINE
  8
LAYER_1
 40
0.0847
 41
0.0847
 66
1
 10
0
 20
0
 30
0
  0
VERTEX
  8
LAYER_1
 10
138.894
 20
204.7285
  0
VERTEX
  8
LAYER_1
 10
138.0262
 20
204.665
  0
VERTEX
  8
LAYER_1
 10
137.1583
 20
204.6015
  0
VERTEX
  8
LAYER_1
 10
136.2905
 20
204.538
  0
VERTEX
  8
LAYER_1
 10
135.4227
 20
204.4745
  0
VERTEX
  8
LAYER_1
 10
134.5548
 20
204.3898
  0
VERTEX
  8
LAYER_1
 10
134.0468
 20
204.3475
  0
VERTEX
  8
LAYER_1
 10
133.8987
 20
204.3263
  0
VERTEX
  8
LAYER_1
 10
133.6658
 20
204.3052
  0
VERTEX
  8
LAYER_1
 10
133.433
 20
204.284
  0
VERTEX
  8
LAYER_1
 10
133.179
 20
204.2417
  0
VERTEX
  8
LAYER_1
 10
132.9462
 20
204.1993
  0
VERTEX
  8
LAYER_1
 10
132.6922
 20
204.1782
  0
VERTEX
  8
LAYER_1
 10
132.5652
 20
204.1358
  0
VERTEX
  8
LAYER_1
 10
132.3323
 20
204.0935
  0
SEQEND
  0
POLYLINE
  8
LAYER_1
 40
0.0847
 41
0.0847
 66
1
 10
0
 20
0
 30
0
  0
VERTEX
  8
LAYER_1
 10
139.5925
 20
204.7285
  0
VERTEX
  8
LAYER_1
 10
138.894
 20
204.7285
  0
SEQEND
  0
POLYLINE
  8
LAYER_1
 40
0.0847
 41
0.0847
 66
1
 10
0
 20
0
 30
0
  0
VERTEX
  8
LAYER_1
 10
55.4338
 20
227.2075
  0
VERTEX
  8
LAYER_1
 10
55.3492
 20
226.9112
  0
SEQEND
  0
TEXT
  8
LAYER_1
 10
82.908
 20
192.5222
 11
82.908
 21
192.5222
 40
3.6606
 41
0.5
  1
t=2.5
  0
POLYLINE
  8
LAYER_1
 40
0.0847
 41
0.0847
 66
1
 10
0
 20
0
 30
0
  0
VERTEX
  8
LAYER_1
 10
51.9414
 20
211.2267
  0
VERTEX
  8
LAYER_1
 10
56.9368
 20
211.2267
  0
SEQEND
  0
POLYLINE
  8
LAYER_1
 40
0.0847
 41
0.0847
 66
1
 10
0
 20
0
 30
0
  0
VERTEX
  8
LAYER_1
 10
60.9373
 20
211.2267
  0
VERTEX
  8
LAYER_1
 10
65.9326
 20
211.2267
  0
SEQEND
  0
POLYLINE
  8
LAYER_1
 40
0.0847
 41
0.0847
 66
1
 10
0
 20
0
 30
0
  0
VERTEX
  8
LAYER_1
 10
56.9368
 20
211.2267
  0
VERTEX
  8
LAYER_1
 10
60.9373
 20
211.2267
  0
SEQEND
  0
POLYLINE
  8
LAYER_1
 40
0.1693
 41
0.1693
 66
1
 10
0
 20
0
 30
0
  0
VERTEX
  8
LAYER_1
 10
56.9368
 20
211.2267
  0
VERTEX
  8
LAYER_1
 10
54.0369
 20
210.4435
  0
SEQEND
  0
POLYLINE
  8
LAYER_1
 40
0.1693
 41
0.1693
 66
1
 10
0
 20
0
 30
0
  0
VERTEX
  8
LAYER_1
 10
56.9368
 20
211.2267
  0
VERTEX
  8
LAYER_1
 10
54.0369
 20
211.9887
  0
SEQEND
  0
POLYLINE
  8
LAYER_1
 40
0.1693
 41
0.1693
 66
1
 10
0
 20
0
 30
0
  0
VERTEX
  8
LAYER_1
 10
60.9373
 20
211.2267
  0
VERTEX
  8
LAYER_1
 10
63.8371
 20
211.9887
  0
SEQEND
  0
POLYLINE
  8
LAYER_1
 40
0.1693
 41
0.1693
 66
1
 10
0
 20
0
 30
0
  0
VERTEX
  8
LAYER_1
 10
60.9373
 20
211.2267
  0
VERTEX
  8
LAYER_1
 10
63.8371
 20
210.4435
  0
SEQEND
  0
POLYLINE
  8
LAYER_1
 40
0.0847
 41
0.0847
 66
1
 10
0
 20
0
 30
0
  0
VERTEX
  8
LAYER_1
 10
56.9368
 20
211.2267
  0
VERTEX
  8
LAYER_1
 10
56.9368
 20
219.5875
  0
SEQEND
  0
POLYLINE
  8
LAYER_1
 40
0.0847
 41
0.0847
 66
1
 10
0
 20
0
 30
0
  0
VERTEX
  8
LAYER_1
 10
60.9373
 20
211.2267
  0
VERTEX
  8
LAYER_1
 10
60.9373
 20
219.5875
  0
SEQEND
  0
TEXT
  8
LAYER_1
 10
57.3179
 20
212.0167
 11
57.3179
 21
212.0167
 40
3.6606
 41
0.5
  1
20
  0
POLYLINE
  8
LAYER_1
 40
0.0847
 41
0.0847
 66
1
 10
0
 20
0
 30
0
  0
VERTEX
  8
LAYER_1
 10
110.9118
 20
204.2417
  0
VERTEX
  8
LAYER_1
 10
111.1446
 20
204.1993
  0
VERTEX
  8
LAYER_1
 10
111.3775
 20
204.1782
  0
VERTEX
  8
LAYER_1
 10
111.5256
 20
204.1358
  0
VERTEX
  8
LAYER_1
 10
111.7584
 20
204.0935
  0
VERTEX
  8
LAYER_1
 10
112.1818
 20
204.0089
  0
VERTEX
  8
LAYER_1
 10
112.5839
 20
203.903
  0
VERTEX
  8
LAYER_1
 10
112.9861
 20
203.776
  0
VERTEX
  8
LAYER_1
 10
113.4094
 20
203.649
  0
VERTEX
  8
LAYER_1
 10
113.8116
 20
203.522
  0
VERTEX
  8
LAYER_1
 10
114.0445
 20
203.4373
  0
SEQEND
  0
POLYLINE
  8
LAYER_1
 40
0.0847
 41
0.0847
 66
1
 10
0
 20
0
 30
0
  0
VERTEX
  8
LAYER_1
 10
132.3325
 20
204.0935
  0
VERTEX
  8
LAYER_1
 10
131.9091
 20
204.0089
  0
VERTEX
  8
LAYER_1
 10
131.507
 20
203.903
  0
VERTEX
  8
LAYER_1
 10
131.0836
 20
203.776
  0
VERTEX
  8
LAYER_1
 10
130.6815
 20
203.649
  0
VERTEX
  8
LAYER_1
 10
130.2793
 20
203.522
  0
VERTEX
  8
LAYER_1
 10
130.0464
 20
203.4374
  0
SEQEND
  0
POLYLINE
  8
LAYER_1
 40
0.0847
 41
0.0847
 66
1
 10
0
 20
0
 30
0
  0
VERTEX
  8
LAYER_1
 10
114.0445
 20
203.4585
  0
VERTEX
  8
LAYER_1
 10
130.0465
 20
203.4585
  0
SEQEND
  0
POLYLINE
  8
LAYER_1
 40
0.0847
 41
0.0847
 66
1
 10
0
 20
0
 30
0
  0
VERTEX
  8
LAYER_1
 10
114.0445
 20
201.4477
  0
VERTEX
  8
LAYER_1
 10
114.0445
 20
203.4374
  0
SEQEND
  0
POLYLINE
  8
LAYER_1
 40
0.0847
 41
0.0847
 66
1
 10
0
 20
0
 30
0
  0
VERTEX
  8
LAYER_1
 10
130.0465
 20
201.4477
  0
VERTEX
  8
LAYER_1
 10
130.0465
 20
203.4374
  0
SEQEND
  0
POLYLINE
  8
LAYER_1
 40
0.0847
 41
0.0847
 66
1
 10
0
 20
0
 30
0
  0
VERTEX
  8
LAYER_1
 10
114.0445
 20
201.4477
  0
VERTEX
  8
LAYER_1
 10
130.0465
 20
201.4477
  0
SEQEND
  0
POLYLINE
  8
LAYER_1
 40
0.0847
 41
0.0847
 66
1
 10
0
 20
0
 30
0
  0
VERTEX
  8
LAYER_1
 10
117.537
 20
201.4477
  0
VERTEX
  8
LAYER_1
 10
117.0501
 20
201.9345
  0
SEQEND
  0
POLYLINE
  8
LAYER_1
 40
0.0847
 41
0.0847
 66
1
 10
0
 20
0
 30
0
  0
VERTEX
  8
LAYER_1
 10
116.0553
 20
202.9505
  0
VERTEX
  8
LAYER_1
 10
115.5473
 20
203.4585
  0
SEQEND
  0
POLYLINE
  8
LAYER_1
 40
0.0847
 41
0.0847
 66
1
 10
0
 20
0
 30
0
  0
VERTEX
  8
LAYER_1
 10
126.5328
 20
201.4477
  0
VERTEX
  8
LAYER_1
 10
127.0196
 20
201.9345
  0
SEQEND
  0
POLYLINE
  8
LAYER_1
 40
0.0847
 41
0.0847
 66
1
 10
0
 20
0
 30
0
  0
VERTEX
  8
LAYER_1
 10
128.0356
 20
202.9505
  0
VERTEX
  8
LAYER_1
 10
128.5436
 20
203.4585
  0
SEQEND
  0
POLYLINE
  8
LAYER_1
 40
0.0847
 41
0.0847
 66
1
 10
0
 20
0
 30
0
  0
VERTEX
  8
LAYER_1
 10
122.0455
 20
191.2665
  0
VERTEX
  8
LAYER_1
 10
122.0455
 20
193.6584
  0
SEQEND
  0
POLYLINE
  8
LAYER_1
 40
0.0847
 41
0.0847
 66
1
 10
0
 20
0
 30
0
  0
VERTEX
  8
LAYER_1
 10
122.0455
 20
194.6108
  0
VERTEX
  8
LAYER_1
 10
122.0455
 20
195.5634
  0
SEQEND
  0
POLYLINE
  8
LAYER_1
 40
0.0847
 41
0.0847
 66
1
 10
0
 20
0
 30
0
  0
VERTEX
  8
LAYER_1
 10
122.0455
 20
196.537
  0
VERTEX
  8
LAYER_1
 10
122.0455
 20
201.3207
  0
SEQEND
  0
POLYLINE
  8
LAYER_1
 40
0.0847
 41
0.0847
 66
1
 10
0
 20
0
 30
0
  0
VERTEX
  8
LAYER_1
 10
122.0455
 20
202.2944
  0
VERTEX
  8
LAYER_1
 10
122.0455
 20
203.2469
  0
SEQEND
  0
POLYLINE
  8
LAYER_1
 40
0.0847
 41
0.0847
 66
1
 10
0
 20
0
 30
0
  0
VERTEX
  8
LAYER_1
 10
122.0455
 20
204.1994
  0
VERTEX
  8
LAYER_1
 10
122.0455
 20
209.0042
  0
SEQEND
  0
POLYLINE
  8
LAYER_1
 40
0.0847
 41
0.0847
 66
1
 10
0
 20
0
 30
0
  0
VERTEX
  8
LAYER_1
 10
122.0455
 20
209.9567
  0
VERTEX
  8
LAYER_1
 10
122.0455
 20
210.9092
  0
SEQEND
  0
POLYLINE
  8
LAYER_1
 40
0.0847
 41
0.0847
 66
1
 10
0
 20
0
 30
0
  0
VERTEX
  8
LAYER_1
 10
122.0455
 20
211.8829
  0
VERTEX
  8
LAYER_1
 10
122.0455
 20
216.6665
  0
SEQEND
  0
POLYLINE
  8
LAYER_1
 40
0.0847
 41
0.0847
 66
1
 10
0
 20
0
 30
0
  0
VERTEX
  8
LAYER_1
 10
122.0455
 20
217.6402
  0
VERTEX
  8
LAYER_1
 10
122.0455
 20
218.5927
  0
SEQEND
  0
POLYLINE
  8
LAYER_1
 40
0.0847
 41
0.0847
 66
1
 10
0
 20
0
 30
0
  0
VERTEX
  8
LAYER_1
 10
122.0455
 20
219.5452
  0
VERTEX
  8
LAYER_1
 10
122.0455
 20
224.3501
  0
SEQEND
  0
POLYLINE
  8
LAYER_1
 40
0.0847
 41
0.0847
 66
1
 10
0
 20
0
 30
0
  0
VERTEX
  8
LAYER_1
 10
122.0455
 20
225.3026
  0
VERTEX
  8
LAYER_1
 10
122.0455
 20
226.2551
  0
SEQEND
  0
POLYLINE
  8
LAYER_1
 40
0.0847
 41
0.0847
 66
1
 10
0
 20
0
 30
0
  0
VERTEX
  8
LAYER_1
 10
122.0455
 20
227.2287
  0
VERTEX
  8
LAYER_1
 10
122.0455
 20
232.0124
  0
SEQEND
  0
POLYLINE
  8
LAYER_1
 40
0.0847
 41
0.0847
 66
1
 10
0
 20
0
 30
0
  0
VERTEX
  8
LAYER_1
 10
122.0455
 20
232.9861
  0
VERTEX
  8
LAYER_1
 10
122.0455
 20
233.9386
  0
SEQEND
  0
POLYLINE
  8
LAYER_1
 40
0.0847
 41
0.0847
 66
1
 10
0
 20
0
 30
0
  0
VERTEX
  8
LAYER_1
 10
122.0455
 20
234.8911
  0
VERTEX
  8
LAYER_1
 10
122.0455
 20
237.3041
  0
SEQEND
  0
POLYLINE
  8
LAYER_1
 40
0.1693
 41
0.1693
 66
1
 10
0
 20
0
 30
0
  0
VERTEX
  8
LAYER_1
 10
98.0636
 20
170.756
  0
VERTEX
  8
LAYER_1
 10
98.0636
 20
176.9367
  0
SEQEND
  0
POLYLINE
  8
LAYER_1
 40
0.1693
 41
0.1693
 66
1
 10
0
 20
0
 30
0
  0
VERTEX
  8
LAYER_1
 10
98.0636
 20
170.756
  0
VERTEX
  8
LAYER_1
 10
146.0273
 20
170.756
  0
VERTEX
  8
LAYER_1
 10
146.0273
 20
176.9367
  0
SEQEND
  0
POLYLINE
  8
LAYER_1
 40
0.1693
 41
0.1693
 66
1
 10
0
 20
0
 30
0
  0
VERTEX
  8
LAYER_1
 10
98.0636
 20
176.9367
  0
VERTEX
  8
LAYER_1
 10
146.0273
 20
176.9367
  0
SEQEND
  0
POLYLINE
  8
LAYER_1
 40
0.0847
 41
0.0847
 66
1
 10
0
 20
0
 30
0
  0
VERTEX
  8
LAYER_1
 10
14.5399
 20
221.2597
  0
VERTEX
  8
LAYER_1
 10
14.5399
 20
225.2602
  0
SEQEND
  0
POLYLINE
  8
LAYER_1
 40
0.1693
 41
0.1693
 66
1
 10
0
 20
0
 30
0
  0
VERTEX
  8
LAYER_1
 10
14.5399
 20
225.2602
  0
VERTEX
  8
LAYER_1
 10
13.7568
 20
228.1388
  0
SEQEND
  0
POLYLINE
  8
LAYER_1
 40
0.1693
 41
0.1693
 66
1
 10
0
 20
0
 30
0
  0
VERTEX
  8
LAYER_1
 10
14.5399
 20
225.2602
  0
VERTEX
  8
LAYER_1
 10
15.3019
 20
228.1388
  0
SEQEND
  0
POLYLINE
  8
LAYER_1
 40
0.1693
 41
0.1693
 66
1
 10
0
 20
0
 30
0
  0
VERTEX
  8
LAYER_1
 10
14.5399
 20
221.2597
  0
VERTEX
  8
LAYER_1
 10
15.3019
 20
218.3599
  0
SEQEND
  0
POLYLINE
  8
LAYER_1
 40
0.1693
 41
0.1693
 66
1
 10
0
 20
0
 30
0
  0
VERTEX
  8
LAYER_1
 10
14.5399
 20
221.2597
  0
VERTEX
  8
LAYER_1
 10
13.7568
 20
218.3599
  0
SEQEND
  0
POLYLINE
  8
LAYER_1
 40
0.0847
 41
0.0847
 66
1
 10
0
 20
0
 30
0
  0
VERTEX
  8
LAYER_1
 10
14.5399
 20
225.2602
  0
VERTEX
  8
LAYER_1
 10
26.6049
 20
225.2602
  0
SEQEND
  0
POLYLINE
  8
LAYER_1
 40
0.0847
 41
0.0847
 66
1
 10
0
 20
0
 30
0
  0
VERTEX
  8
LAYER_1
 10
14.5399
 20
221.2597
  0
VERTEX
  8
LAYER_1
 10
26.6049
 20
221.2597
  0
SEQEND
  0
TEXT
  8
LAYER_1
 10
13.7922
 20
221.6195
 11
13.7922
 21
221.6195
 40
3.6606
 41
0.5
 50
89.99999999
  1
20
  0
TEXT
  8
LAYER_1
 10
7.1528
 20
212.2639
 11
7.1528
 21
212.2639
 40
4.8722
 41
0.5
  1
天板厚：20025
  0
POLYLINE
  8
LAYER_1
 40
0.0847
 41
0.0847
 66
1
 10
0
 20
0
 30
0
  0
VERTEX
  8
LAYER_1
 10
60.9373
 20
249.1362
  0
VERTEX
  8
LAYER_1
 10
183.1536
 20
249.1362
  0
SEQEND
  0
POLYLINE
  8
LAYER_1
 40
0.1693
 41
0.1693
 66
1
 10
0
 20
0
 30
0
  0
VERTEX
  8
LAYER_1
 10
60.9373
 20
249.1362
  0
VERTEX
  8
LAYER_1
 10
63.8371
 20
249.9193
  0
SEQEND
  0
POLYLINE
  8
LAYER_1
 40
0.1693
 41
0.1693
 66
1
 10
0
 20
0
 30
0
  0
VERTEX
  8
LAYER_1
 10
60.9373
 20
249.1362
  0
VERTEX
  8
LAYER_1
 10
63.8371
 20
248.353
  0
SEQEND
  0
POLYLINE
  8
LAYER_1
 40
0.1693
 41
0.1693
 66
1
 10
0
 20
0
 30
0
  0
VERTEX
  8
LAYER_1
 10
183.1536
 20
249.1362
  0
VERTEX
  8
LAYER_1
 10
180.2538
 20
248.353
  0
SEQEND
  0
POLYLINE
  8
LAYER_1
 40
0.1693
 41
0.1693
 66
1
 10
0
 20
0
 30
0
  0
VERTEX
  8
LAYER_1
 10
183.1536
 20
249.1362
  0
VERTEX
  8
LAYER_1
 10
180.2538
 20
249.9193
  0
SEQEND
  0
POLYLINE
  8
LAYER_1
 40
0.0847
 41
0.0847
 66
1
 10
0
 20
0
 30
0
  0
VERTEX
  8
LAYER_1
 10
60.9373
 20
232.2452
  0
VERTEX
  8
LAYER_1
 10
60.9373
 20
249.1362
  0
SEQEND
  0
POLYLINE
  8
LAYER_1
 40
0.0847
 41
0.0847
 66
1
 10
0
 20
0
 30
0
  0
VERTEX
  8
LAYER_1
 10
183.1536
 20
232.2452
  0
VERTEX
  8
LAYER_1
 10
183.1536
 20
249.1362
  0
SEQEND
  0
TEXT
  8
LAYER_1
 10
119.5477
 20
249.926
 11
119.5477
 21
249.926
 40
3.6606
 41
0.5
  1
611
  0
POLYLINE
  8
LAYER_1
 40
0.0847
 41
0.0847
 66
1
 10
0
 20
0
 30
0
  0
VERTEX
  8
LAYER_1
 10
188.403
 20
225.5565
  0
VERTEX
  8
LAYER_1
 10
198.7958
 20
235.9493
  0
SEQEND
  0
TEXT
  8
LAYER_1
 10
202.2668
 20
236.9231
 11
202.2668
 21
236.9231
 40
3.1022
 41
0.5
  1
付属：専用特殊コーキングテープ
  0
TEXT
  8
LAYER_1
 10
106.4246
 20
172.6467
 11
106.4246
 21
172.6467
 40
3.6606
 41
0.5
  1
A0A'断面図　S=1/5
  0
POLYLINE
  8
LAYER_1
 40
0.1693
 41
0.1693
 66
1
 10
0
 20
0
 30
0
  0
VERTEX
  8
LAYER_1
 10
385.1895
 20
324.5107
  0
VERTEX
  8
LAYER_1
 10
385.1895
 20
325.0187
  0
VERTEX
  8
LAYER_1
 10
385.1683
 20
325.5267
  0
VERTEX
  8
LAYER_1
 10
385.1471
 20
326.0347
  0
VERTEX
  8
LAYER_1
 10
385.1259
 20
326.5427
  0
VERTEX
  8
LAYER_1
 10
385.0836
 20
327.0507
  0
VERTEX
  8
LAYER_1
 10
385.0201
 20
327.5799
  0
VERTEX
  8
LAYER_1
 10
384.9566
 20
328.0879
  0
VERTEX
  8
LAYER_1
 10
384.8931
 20
328.5958
  0
VERTEX
  8
LAYER_1
 10
384.8085
 20
329.1038
  0
VERTEX
  8
LAYER_1
 10
384.7238
 20
329.6118
  0
VERTEX
  8
LAYER_1
 10
384.618
 20
330.1198
  0
VERTEX
  8
LAYER_1
 10
384.5121
 20
330.6278
  0
VERTEX
  8
LAYER_1
 10
384.4063
 20
331.1147
  0
VERTEX
  8
LAYER_1
 10
384.2793
 20
331.6227
  0
VERTEX
  8
LAYER_1
 10
384.1311
 20
332.1307
  0
VERTEX
  8
LAYER_1
 10
384.0041
 20
332.6387
  0
VERTEX
  8
LAYER_1
 10
383.8348
 20
333.1255
  0
VERTEX
  8
LAYER_1
 10
383.6866
 20
333.6335
  0
VERTEX
  8
LAYER_1
 10
383.4961
 20
334.1415
  0
VERTEX
  8
LAYER_1
 10
383.3268
 20
334.6283
  0
VERTEX
  8
LAYER_1
 10
383.1363
 20
335.1152
  0
VERTEX
  8
LAYER_1
 10
382.9458
 20
335.6232
  0
VERTEX
  8
LAYER_1
 10
382.7341
 20
336.11
  0
VERTEX
  8
LAYER_1
 10
382.5013
 20
336.5969
  0
VERTEX
  8
LAYER_1
 10
382.2896
 20
337.0837
  0
VERTEX
  8
LAYER_1
 10
382.0568
 20
337.5705
  0
VERTEX
  8
LAYER_1
 10
381.8028
 20
338.0573
  0
VERTEX
  8
LAYER_1
 10
381.5488
 20
338.5442
  0
VERTEX
  8
LAYER_1
 10
381.2948
 20
339.0099
  0
VERTEX
  8
LAYER_1
 10
381.0196
 20
339.4967
  0
VERTEX
  8
LAYER_1
 10
380.7445
 20
339.9623
  0
VERTEX
  8
LAYER_1
 10
380.4481
 20
340.4492
  0
VERTEX
  8
LAYER_1
 10
380.1518
 20
340.9148
  0
VERTEX
  8
LAYER_1
 10
379.8555
 20
341.3805
  0
VERTEX
  8
LAYER_1
 10
379.5379
 20
341.8462
  0
VERTEX
  8
LAYER_1
 10
379.2204
 20
342.3118
  0
VERTEX
  8
LAYER_1
 10
378.8818
 20
342.7563
  0
VERTEX
  8
LAYER_1
 10
378.5431
 20
343.222
  0
VERTEX
  8
LAYER_1
 10
378.1833
 20
343.6665
  0
VERTEX
  8
LAYER_1
 10
377.8446
 20
344.1322
  0
VERTEX
  8
LAYER_1
 10
377.4636
 20
344.5767
  0
VERTEX
  8
LAYER_1
 10
377.1038
 20
345.0212
  0
VERTEX
  8
LAYER_1
 10
376.7228
 20
345.4445
  0
VERTEX
  8
LAYER_1
 10
376.3206
 20
345.889
  0
VERTEX
  8
LAYER_1
 10
375.9396
 20
346.3335
  0
VERTEX
  8
LAYER_1
 10
375.5375
 20
346.7568
  0
VERTEX
  8
LAYER_1
 10
375.1141
 20
347.1802
  0
VERTEX
  8
LAYER_1
 10
374.6908
 20
347.6035
  0
VERTEX
  8
LAYER_1
 10
374.2675
 20
348.0269
  0
VERTEX
  8
LAYER_1
 10
373.823
 20
348.4502
  0
VERTEX
  8
LAYER_1
 10
373.3785
 20
348.8523
  0
VERTEX
  8
LAYER_1
 10
372.934
 20
349.2757
  0
VERTEX
  8
LAYER_1
 10
372.4895
 20
349.6778
  0
VERTEX
  8
LAYER_1
 10
372.0238
 20
350.08
  0
VERTEX
  8
LAYER_1
 10
371.537
 20
350.4822
  0
VERTEX
  8
LAYER_1
 10
371.0501
 20
350.8632
  0
VERTEX
  8
LAYER_1
 10
370.5633
 20
351.2442
  0
VERTEX
  8
LAYER_1
 10
370.0765
 20
351.6463
  0
VERTEX
  8
LAYER_1
 10
369.5684
 20
352.0273
  0
VERTEX
  8
LAYER_1
 10
369.0605
 20
352.3872
  0
VERTEX
  8
LAYER_1
 10
368.5524
 20
352.7682
  0
VERTEX
  8
LAYER_1
 10
368.0233
 20
353.128
  0
VERTEX
  8
LAYER_1
 10
367.4941
 20
353.509
  0
VERTEX
  8
LAYER_1
 10
366.9649
 20
353.8477
  0
VERTEX
  8
LAYER_1
 10
366.4146
 20
354.2075
  0
VERTEX
  8
LAYER_1
 10
365.8643
 20
354.5673
  0
VERTEX
  8
LAYER_1
 10
365.314
 20
354.906
  0
VERTEX
  8
LAYER_1
 10
364.7636
 20
355.2447
  0
VERTEX
  8
LAYER_1
 10
364.1921
 20
355.5834
  0
VERTEX
  8
LAYER_1
 10
363.6206
 20
355.922
  0
VERTEX
  8
LAYER_1
 10
363.028
 20
356.2395
  0
VERTEX
  8
LAYER_1
 10
362.4564
 20
356.557
  0
VERTEX
  8
LAYER_1
 10
361.8638
 20
356.8745
  0
VERTEX
  8
LAYER_1
 10
361.2711
 20
357.192
  0
VERTEX
  8
LAYER_1
 10
360.6573
 20
357.4884
  0
VERTEX
  8
LAYER_1
 10
360.0434
 20
357.7847
  0
VERTEX
  8
LAYER_1
 10
359.4296
 20
358.081
  0
VERTEX
  8
LAYER_1
 10
358.8158
 20
358.3773
  0
VERTEX
  8
LAYER_1
 10
358.202
 20
358.6525
  0
VERTEX
  8
LAYER_1
 10
357.567
 20
358.9277
  0
VERTEX
  8
LAYER_1
 10
356.932
 20
359.2028
  0
VERTEX
  8
LAYER_1
 10
356.2969
 20
359.478
  0
VERTEX
  8
LAYER_1
 10
355.6408
 20
359.732
  0
VERTEX
  8
LAYER_1
 10
355.0058
 20
360.0072
  0
VERTEX
  8
LAYER_1
 10
354.3496
 20
360.24
  0
VERTEX
  8
LAYER_1
 10
353.6934
 20
360.494
  0
VERTEX
  8
LAYER_1
 10
353.0161
 20
360.7269
  0
VERTEX
  8
LAYER_1
 10
352.36
 20
360.9809
  0
VERTEX
  8
LAYER_1
 10
351.6826
 20
361.1925
  0
VERTEX
  8
LAYER_1
 10
351.0053
 20
361.4253
  0
VERTEX
  8
LAYER_1
 10
350.328
 20
361.637
  0
VERTEX
  8
LAYER_1
 10
349.6506
 20
361.8487
  0
VERTEX
  8
LAYER_1
 10
348.9521
 20
362.0604
  0
VERTEX
  8
LAYER_1
 10
348.2536
 20
362.2509
  0
VERTEX
  8
LAYER_1
 10
347.5763
 20
362.4625
  0
VERTEX
  8
LAYER_1
 10
346.8778
 20
362.653
  0
VERTEX
  8
LAYER_1
 10
346.1581
 20
362.8224
  0
VERTEX
  8
LAYER_1
 10
345.4596
 20
362.9917
  0
VERTEX
  8
LAYER_1
 10
344.7611
 20
363.1822
  0
VERTEX
  8
LAYER_1
 10
344.0414
 20
363.3304
  0
VERTEX
  8
LAYER_1
 10
343.3218
 20
363.4997
  0
VERTEX
  8
LAYER_1
 10
342.6021
 20
363.6479
  0
VERTEX
  8
LAYER_1
 10
341.8825
 20
363.796
  0
VERTEX
  8
LAYER_1
 10
341.1628
 20
363.923
  0
VERTEX
  8
LAYER_1
 10
340.4431
 20
364.0712
  0
VERTEX
  8
LAYER_1
 10
339.7235
 20
364.1982
  0
VERTEX
  8
LAYER_1
 10
338.9826
 20
364.3252
  0
VERTEX
  8
LAYER_1
 10
338.2629
 20
364.431
  0
VERTEX
  8
LAYER_1
 10
337.5221
 20
364.5368
  0
VERTEX
  8
LAYER_1
 10
336.7813
 20
364.6427
  0
VERTEX
  8
LAYER_1
 10
336.0405
 20
364.7485
  0
VERTEX
  8
LAYER_1
 10
335.2996
 20
364.8332
  0
VERTEX
  8
LAYER_1
 10
334.5588
 20
364.9179
  0
VERTEX
  8
LAYER_1
 10
333.818
 20
364.9813
  0
VERTEX
  8
LAYER_1
 10
333.0771
 20
365.066
  0
VERTEX
  8
LAYER_1
 10
332.3363
 20
365.1295
  0
VERTEX
  8
LAYER_1
 10
331.5955
 20
365.193
  0
VERTEX
  8
LAYER_1
 10
330.8334
 20
365.2354
  0
VERTEX
  8
LAYER_1
 10
330.0926
 20
365.2777
  0
VERTEX
  8
LAYER_1
 10
329.3518
 20
365.32
  0
VERTEX
  8
LAYER_1
 10
328.5898
 20
365.3624
  0
VERTEX
  8
LAYER_1
 10
327.849
 20
365.3835
  0
VERTEX
  8
LAYER_1
 10
327.0869
 20
365.4047
  0
VERTEX
  8
LAYER_1
 10
326.3461
 20
365.4047
  0
VERTEX
  8
LAYER_1
 10
325.5841
 20
365.4259
  0
VERTEX
  8
LAYER_1
 10
324.8433
 20
365.4259
  0
VERTEX
  8
LAYER_1
 10
324.0813
 20
365.4259
  0
VERTEX
  8
LAYER_1
 10
323.3405
 20
365.4047
  0
VERTEX
  8
LAYER_1
 10
322.5785
 20
365.3835
  0
VERTEX
  8
LAYER_1
 10
321.8376
 20
365.3624
  0
VERTEX
  8
LAYER_1
 10
321.0756
 20
365.3412
  0
VERTEX
  8
LAYER_1
 10
320.3348
 20
365.2988
  0
VERTEX
  8
LAYER_1
 10
319.594
 20
365.2565
  0
VERTEX
  8
LAYER_1
 10
318.832
 20
365.193
  0
VERTEX
  8
LAYER_1
 10
318.0911
 20
365.1507
  0
VERTEX
  8
LAYER_1
 10
317.3503
 20
365.0872
  0
VERTEX
  8
LAYER_1
 10
316.6094
 20
365.0237
  0
VERTEX
  8
LAYER_1
 10
315.8686
 20
364.939
  0
VERTEX
  8
LAYER_1
 10
315.1278
 20
364.8543
  0
VERTEX
  8
LAYER_1
 10
314.3869
 20
364.7697
  0
VERTEX
  8
LAYER_1
 10
313.6461
 20
364.6639
  0
VERTEX
  8
LAYER_1
 10
312.9053
 20
364.5792
  0
VERTEX
  8
LAYER_1
 10
312.1645
 20
364.4733
  0
VERTEX
  8
LAYER_1
 10
311.4448
 20
364.3463
  0
VERTEX
  8
LAYER_1
 10
310.7039
 20
364.2405
  0
VERTEX
  8
LAYER_1
 10
309.9843
 20
364.1135
  0
VERTEX
  8
LAYER_1
 10
309.2434
 20
363.9865
  0
VERTEX
  8
LAYER_1
 10
308.5238
 20
363.8384
  0
VERTEX
  8
LAYER_1
 10
307.8041
 20
363.6902
  0
VERTEX
  8
LAYER_1
 10
307.0844
 20
363.542
  0
VERTEX
  8
LAYER_1
 10
306.3648
 20
363.3938
  0
VERTEX
  8
LAYER_1
 10
305.6663
 20
363.2245
  0
VERTEX
  8
LAYER_1
 10
304.9466
 20
363.0552
  0
VERTEX
  8
LAYER_1
 10
304.2481
 20
362.8858
  0
VERTEX
  8
LAYER_1
 10
303.5496
 20
362.6953
  0
VERTEX
  8
LAYER_1
 10
302.8511
 20
362.526
  0
VERTEX
  8
LAYER_1
 10
302.1526
 20
362.3144
  0
VERTEX
  8
LAYER_1
 10
301.4541
 20
362.1238
  0
VERTEX
  8
LAYER_1
 10
300.7556
 20
361.9122
  0
VERTEX
  8
LAYER_1
 10
300.0783
 20
361.7217
  0
VERTEX
  8
LAYER_1
 10
299.401
 20
361.4889
  0
VERTEX
  8
LAYER_1
 10
298.7236
 20
361.2772
  0
VERTEX
  8
LAYER_1
 10
298.0463
 20
361.0443
  0
VERTEX
  8
LAYER_1
 10
297.3901
 20
360.8115
  0
VERTEX
  8
LAYER_1
 10
296.7128
 20
360.5787
  0
VERTEX
  8
LAYER_1
 10
296.0566
 20
360.3247
  0
VERTEX
  8
LAYER_1
 10
295.4004
 20
360.0918
  0
VERTEX
  8
LAYER_1
 10
294.7443
 20
359.8167
  0
VERTEX
  8
LAYER_1
 10
294.1093
 20
359.5627
  0
VERTEX
  8
LAYER_1
 10
293.4531
 20
359.3087
  0
VERTEX
  8
LAYER_1
 10
292.8181
 20
359.0335
  0
VERTEX
  8
LAYER_1
 10
292.2043
 20
358.7584
  0
VERTEX
  8
LAYER_1
 10
291.5693
 20
358.462
  0
VERTEX
  8
LAYER_1
 10
290.9555
 20
358.1868
  0
VERTEX
  8
LAYER_1
 10
290.3416
 20
357.8905
  0
VERTEX
  8
LAYER_1
 10
289.7278
 20
357.5942
  0
VERTEX
  8
LAYER_1
 10
289.114
 20
357.2767
  0
VERTEX
  8
LAYER_1
 10
288.5213
 20
356.9804
  0
VERTEX
  8
LAYER_1
 10
287.9286
 20
356.6628
  0
VERTEX
  8
LAYER_1
 10
287.336
 20
356.3453
  0
VERTEX
  8
LAYER_1
 10
286.7645
 20
356.0278
  0
VERTEX
  8
LAYER_1
 10
286.1718
 20
355.6892
  0
VERTEX
  8
LAYER_1
 10
285.6215
 20
355.3505
  0
VERTEX
  8
LAYER_1
 10
285.05
 20
355.0118
  0
VERTEX
  8
LAYER_1
 10
284.4996
 20
354.6732
  0
VERTEX
  8
LAYER_1
 10
283.9493
 20
354.3345
  0
VERTEX
  8
LAYER_1
 10
283.3989
 20
353.9747
  0
VERTEX
  8
LAYER_1
 10
282.8486
 20
353.6148
  0
VERTEX
  8
LAYER_1
 10
282.3195
 20
353.255
  0
VERTEX
  8
LAYER_1
 10
281.8114
 20
352.8952
  0
VERTEX
  8
LAYER_1
 10
281.2823
 20
352.5142
  0
VERTEX
  8
LAYER_1
 10
280.7743
 20
352.1332
  0
VERTEX
  8
LAYER_1
 10
280.2663
 20
351.7733
  0
VERTEX
  8
LAYER_1
 10
279.7795
 20
351.3712
  0
VERTEX
  8
LAYER_1
 10
279.2926
 20
350.9902
  0
VERTEX
  8
LAYER_1
 10
278.8058
 20
350.6092
  0
VERTEX
  8
LAYER_1
 10
278.319
 20
350.207
  0
VERTEX
  8
LAYER_1
 10
277.8533
 20
349.8048
  0
VERTEX
  8
LAYER_1
 10
277.3876
 20
349.4027
  0
VERTEX
  8
LAYER_1
 10
276.9431
 20
349.0005
  0
SEQEND
  0
POLYLINE
  8
LAYER_1
 40
0.1693
 41
0.1693
 66
1
 10
0
 20
0
 30
0
  0
VERTEX
  8
LAYER_1
 10
276.9431
 20
349.0005
  0
VERTEX
  8
LAYER_1
 10
276.4986
 20
348.5772
  0
VERTEX
  8
LAYER_1
 10
276.0541
 20
348.175
  0
VERTEX
  8
LAYER_1
 10
275.6308
 20
347.7517
  0
VERTEX
  8
LAYER_1
 10
275.2075
 20
347.3283
  0
VERTEX
  8
LAYER_1
 10
274.7841
 20
346.905
  0
VERTEX
  8
LAYER_1
 10
274.3819
 20
346.4605
  0
VERTEX
  8
LAYER_1
 10
273.9798
 20
346.0372
  0
VERTEX
  8
LAYER_1
 10
273.5988
 20
345.5927
  0
VERTEX
  8
LAYER_1
 10
273.2178
 20
345.1482
  0
VERTEX
  8
LAYER_1
 10
272.8368
 20
344.7249
  0
VERTEX
  8
LAYER_1
 10
272.477
 20
344.2592
  0
VERTEX
  8
LAYER_1
 10
272.1171
 20
343.8147
  0
VERTEX
  8
LAYER_1
 10
271.7573
 20
343.3702
  0
VERTEX
  8
LAYER_1
 10
271.4186
 20
342.9045
  0
VERTEX
  8
LAYER_1
 10
271.0799
 20
342.46
  0
VERTEX
  8
LAYER_1
 10
270.7624
 20
341.9943
  0
VERTEX
  8
LAYER_1
 10
270.445
 20
341.5287
  0
VERTEX
  8
LAYER_1
 10
270.1274
 20
341.063
  0
VERTEX
  8
LAYER_1
 10
269.8311
 20
340.5974
  0
VERTEX
  8
LAYER_1
 10
269.5348
 20
340.1317
  0
VERTEX
  8
LAYER_1
 10
269.2596
 20
339.6448
  0
VERTEX
  8
LAYER_1
 10
268.9844
 20
339.1792
  0
VERTEX
  8
LAYER_1
 10
268.7093
 20
338.6924
  0
VERTEX
  8
LAYER_1
 10
268.4553
 20
338.2055
  0
VERTEX
  8
LAYER_1
 10
268.2225
 20
337.7187
  0
VERTEX
  8
LAYER_1
 10
267.9684
 20
337.253
  0
VERTEX
  8
LAYER_1
 10
267.7568
 20
336.7662
  0
VERTEX
  8
LAYER_1
 10
267.5239
 20
336.2582
  0
VERTEX
  8
LAYER_1
 10
267.3123
 20
335.7714
  0
VERTEX
  8
LAYER_1
 10
267.1218
 20
335.2845
  0
VERTEX
  8
LAYER_1
 10
266.9101
 20
334.7977
  0
VERTEX
  8
LAYER_1
 10
266.7408
 20
334.2897
  0
VERTEX
  8
LAYER_1
 10
266.5714
 20
333.8028
  0
VERTEX
  8
LAYER_1
 10
266.4021
 20
333.2948
  0
VERTEX
  8
LAYER_1
 10
266.2328
 20
332.7868
  0
VERTEX
  8
LAYER_1
 10
266.0846
 20
332.3
  0
VERTEX
  8
LAYER_1
 10
265.9576
 20
331.792
  0
VERTEX
  8
LAYER_1
 10
265.8306
 20
331.284
  0
VERTEX
  8
LAYER_1
 10
265.7036
 20
330.776
  0
VERTEX
  8
LAYER_1
 10
265.5978
 20
330.268
  0
VERTEX
  8
LAYER_1
 10
265.4919
 20
329.7812
  0
VERTEX
  8
LAYER_1
 10
265.4073
 20
329.2732
  0
VERTEX
  8
LAYER_1
 10
265.3226
 20
328.7652
  0
VERTEX
  8
LAYER_1
 10
265.2379
 20
328.236
  0
VERTEX
  8
LAYER_1
 10
265.1744
 20
327.728
  0
VERTEX
  8
LAYER_1
 10
265.1321
 20
327.22
  0
VERTEX
  8
LAYER_1
 10
265.0686
 20
326.712
  0
VERTEX
  8
LAYER_1
 10
265.0474
 20
326.204
  0
VERTEX
  8
LAYER_1
 10
265.0263
 20
325.696
  0
VERTEX
  8
LAYER_1
 10
265.0051
 20
325.188
  0
VERTEX
  8
LAYER_1
 10
264.9839
 20
324.68
  0
VERTEX
  8
LAYER_1
 10
264.9839
 20
324.1509
  0
VERTEX
  8
LAYER_1
 10
265.0051
 20
323.6429
  0
VERTEX
  8
LAYER_1
 10
265.0263
 20
323.1349
  0
VERTEX
  8
LAYER_1
 10
265.0474
 20
322.6269
  0
VERTEX
  8
LAYER_1
 10
265.0898
 20
322.1188
  0
VERTEX
  8
LAYER_1
 10
265.1321
 20
321.6108
  0
VERTEX
  8
LAYER_1
 10
265.1956
 20
321.1028
  0
VERTEX
  8
LAYER_1
 10
265.2591
 20
320.5948
  0
VERTEX
  8
LAYER_1
 10
265.3438
 20
320.0657
  0
VERTEX
  8
LAYER_1
 10
265.4284
 20
319.5577
  0
VERTEX
  8
LAYER_1
 10
265.5343
 20
319.0708
  0
VERTEX
  8
LAYER_1
 10
265.619
 20
318.5628
  0
VERTEX
  8
LAYER_1
 10
265.7459
 20
318.0548
  0
VERTEX
  8
LAYER_1
 10
265.8729
 20
317.5468
  0
VERTEX
  8
LAYER_1
 10
265.9999
 20
317.0389
  0
VERTEX
  8
LAYER_1
 10
266.1481
 20
316.5309
  0
VERTEX
  8
LAYER_1
 10
266.2963
 20
316.044
  0
VERTEX
  8
LAYER_1
 10
266.4444
 20
315.536
  0
VERTEX
  8
LAYER_1
 10
266.6138
 20
315.0492
  0
VERTEX
  8
LAYER_1
 10
266.8043
 20
314.5412
  0
VERTEX
  8
LAYER_1
 10
266.9948
 20
314.0544
  0
VERTEX
  8
LAYER_1
 10
267.1853
 20
313.5464
  0
VERTEX
  8
LAYER_1
 10
267.3969
 20
313.0595
  0
VERTEX
  8
LAYER_1
 10
267.6086
 20
312.5727
  0
VERTEX
  8
LAYER_1
 10
267.8203
 20
312.0858
  0
VERTEX
  8
LAYER_1
 10
268.0531
 20
311.599
  0
VERTEX
  8
LAYER_1
 10
268.3071
 20
311.1122
  0
VERTEX
  8
LAYER_1
 10
268.5399
 20
310.6253
  0
VERTEX
  8
LAYER_1
 10
268.8151
 20
310.1597
  0
VERTEX
  8
LAYER_1
 10
269.0691
 20
309.6729
  0
VERTEX
  8
LAYER_1
 10
269.3443
 20
309.186
  0
VERTEX
  8
LAYER_1
 10
269.6406
 20
308.7203
  0
VERTEX
  8
LAYER_1
 10
269.9369
 20
308.2547
  0
VERTEX
  8
LAYER_1
 10
270.2333
 20
307.789
  0
VERTEX
  8
LAYER_1
 10
270.5508
 20
307.3233
  0
VERTEX
  8
LAYER_1
 10
270.8683
 20
306.8577
  0
VERTEX
  8
LAYER_1
 10
271.1858
 20
306.392
  0
VERTEX
  8
LAYER_1
 10
271.5244
 20
305.9475
  0
VERTEX
  8
LAYER_1
 10
271.8843
 20
305.4818
  0
VERTEX
  8
LAYER_1
 10
272.2229
 20
305.0373
  0
VERTEX
  8
LAYER_1
 10
272.5828
 20
304.5929
  0
VERTEX
  8
LAYER_1
 10
272.9638
 20
304.1483
  0
VERTEX
  8
LAYER_1
 10
273.3448
 20
303.7038
  0
VERTEX
  8
LAYER_1
 10
273.7258
 20
303.2593
  0
VERTEX
  8
LAYER_1
 10
274.128
 20
302.8148
  0
VERTEX
  8
LAYER_1
 10
274.5301
 20
302.3915
  0
VERTEX
  8
LAYER_1
 10
274.9323
 20
301.9682
  0
VERTEX
  8
LAYER_1
 10
275.3556
 20
301.5448
  0
VERTEX
  8
LAYER_1
 10
275.7789
 20
301.1215
  0
VERTEX
  8
LAYER_1
 10
276.2023
 20
300.6982
  0
VERTEX
  8
LAYER_1
 10
276.6468
 20
300.2749
  0
VERTEX
  8
LAYER_1
 10
277.0913
 20
299.8727
  0
VERTEX
  8
LAYER_1
 10
277.5569
 20
299.4705
  0
VERTEX
  8
LAYER_1
 10
278.0226
 20
299.0684
  0
VERTEX
  8
LAYER_1
 10
278.4883
 20
298.6662
  0
VERTEX
  8
LAYER_1
 10
278.9751
 20
298.264
  0
VERTEX
  8
LAYER_1
 10
279.4408
 20
297.883
  0
VERTEX
  8
LAYER_1
 10
279.9488
 20
297.502
  0
VERTEX
  8
LAYER_1
 10
280.4356
 20
297.121
  0
VERTEX
  8
LAYER_1
 10
280.9436
 20
296.74
  0
VERTEX
  8
LAYER_1
 10
281.4728
 20
296.359
  0
VERTEX
  8
LAYER_1
 10
281.9808
 20
295.9992
  0
VERTEX
  8
LAYER_1
 10
282.51
 20
295.6182
  0
VERTEX
  8
LAYER_1
 10
283.0391
 20
295.2583
  0
VERTEX
  8
LAYER_1
 10
283.5895
 20
294.9197
  0
VERTEX
  8
LAYER_1
 10
284.1398
 20
294.5599
  0
VERTEX
  8
LAYER_1
 10
284.6901
 20
294.2212
  0
VERTEX
  8
LAYER_1
 10
285.2405
 20
293.8613
  0
VERTEX
  8
LAYER_1
 10
285.8119
 20
293.5438
  0
VERTEX
  8
LAYER_1
 10
286.3834
 20
293.2052
  0
VERTEX
  8
LAYER_1
 10
286.9549
 20
292.8665
  0
VERTEX
  8
LAYER_1
 10
287.5476
 20
292.549
  0
VERTEX
  8
LAYER_1
 10
288.1191
 20
292.2315
  0
VERTEX
  8
LAYER_1
 10
288.7329
 20
291.9352
  0
VERTEX
  8
LAYER_1
 10
289.3256
 20
291.6177
  0
VERTEX
  8
LAYER_1
 10
289.9395
 20
291.3214
  0
VERTEX
  8
LAYER_1
 10
290.5533
 20
291.025
  0
VERTEX
  8
LAYER_1
 10
291.1671
 20
290.7287
  0
VERTEX
  8
LAYER_1
 10
291.7809
 20
290.4323
  0
VERTEX
  8
LAYER_1
 10
292.4159
 20
290.1572
  0
VERTEX
  8
LAYER_1
 10
293.0509
 20
289.882
  0
VERTEX
  8
LAYER_1
 10
293.686
 20
289.6068
  0
VERTEX
  8
LAYER_1
 10
294.3209
 20
289.3528
  0
VERTEX
  8
LAYER_1
 10
294.9771
 20
289.0988
  0
VERTEX
  8
LAYER_1
 10
295.6333
 20
288.8448
  0
VERTEX
  8
LAYER_1
 10
296.2895
 20
288.5908
  0
VERTEX
  8
LAYER_1
 10
296.9456
 20
288.358
  0
VERTEX
  8
LAYER_1
 10
297.6018
 20
288.104
  0
VERTEX
  8
LAYER_1
 10
298.2791
 20
287.8712
  0
VERTEX
  8
LAYER_1
 10
298.9565
 20
287.6595
  0
VERTEX
  8
LAYER_1
 10
299.6338
 20
287.4267
  0
VERTEX
  8
LAYER_1
 10
300.3111
 20
287.215
  0
VERTEX
  8
LAYER_1
 10
301.0096
 20
287.0033
  0
VERTEX
  8
LAYER_1
 10
301.6869
 20
286.8128
  0
VERTEX
  8
LAYER_1
 10
302.3854
 20
286.6224
  0
VERTEX
  8
LAYER_1
 10
303.0839
 20
286.4318
  0
VERTEX
  8
LAYER_1
 10
303.7825
 20
286.2413
  0
VERTEX
  8
LAYER_1
 10
304.4809
 20
286.072
  0
VERTEX
  8
LAYER_1
 10
305.2006
 20
285.8815
  0
VERTEX
  8
LAYER_1
 10
305.8991
 20
285.7333
  0
VERTEX
  8
LAYER_1
 10
306.6188
 20
285.564
  0
VERTEX
  8
LAYER_1
 10
307.3384
 20
285.4158
  0
VERTEX
  8
LAYER_1
 10
308.0581
 20
285.2677
  0
VERTEX
  8
LAYER_1
 10
308.7778
 20
285.1195
  0
VERTEX
  8
LAYER_1
 10
309.4974
 20
284.9925
  0
VERTEX
  8
LAYER_1
 10
310.2383
 20
284.8443
  0
VERTEX
  8
LAYER_1
 10
310.9579
 20
284.7597
  0
VERTEX
  8
LAYER_1
 10
311.6988
 20
284.6327
  0
VERTEX
  8
LAYER_1
 10
312.4184
 20
284.5269
  0
VERTEX
  8
LAYER_1
 10
313.1593
 20
284.421
  0
VERTEX
  8
LAYER_1
 10
313.9001
 20
284.3152
  0
VERTEX
  8
LAYER_1
 10
314.6409
 20
284.2305
  0
VERTEX
  8
LAYER_1
 10
315.3818
 20
284.1458
  0
VERTEX
  8
LAYER_1
 10
316.1226
 20
284.0612
  0
VERTEX
  8
LAYER_1
 10
316.8634
 20
283.9977
  0
VERTEX
  8
LAYER_1
 10
317.6043
 20
283.913
  0
VERTEX
  8
LAYER_1
 10
318.3451
 20
283.8707
  0
VERTEX
  8
LAYER_1
 10
319.1071
 20
283.8072
  0
VERTEX
  8
LAYER_1
 10
319.8479
 20
283.7648
  0
VERTEX
  8
LAYER_1
 10
320.5888
 20
283.7225
  0
VERTEX
  8
LAYER_1
 10
321.3508
 20
283.6802
  0
VERTEX
  8
LAYER_1
 10
322.0916
 20
283.659
  0
VERTEX
  8
LAYER_1
 10
322.8536
 20
283.6378
  0
VERTEX
  8
LAYER_1
 10
323.5944
 20
283.6167
  0
VERTEX
  8
LAYER_1
 10
324.3564
 20
283.6167
  0
VERTEX
  8
LAYER_1
 10
325.0973
 20
283.5955
  0
VERTEX
  8
LAYER_1
 10
325.8593
 20
283.6167
  0
VERTEX
  8
LAYER_1
 10
326.6001
 20
283.6167
  0
VERTEX
  8
LAYER_1
 10
327.3621
 20
283.6378
  0
VERTEX
  8
LAYER_1
 10
328.103
 20
283.659
  0
VERTEX
  8
LAYER_1
 10
328.8438
 20
283.6802
  0
VERTEX
  8
LAYER_1
 10
329.6058
 20
283.7225
  0
VERTEX
  8
LAYER_1
 10
330.3466
 20
283.7648
  0
VERTEX
  8
LAYER_1
 10
331.1086
 20
283.8072
  0
VERTEX
  8
LAYER_1
 10
331.8494
 20
283.8707
  0
VERTEX
  8
LAYER_1
 10
332.5903
 20
283.9342
  0
VERTEX
  8
LAYER_1
 10
333.3311
 20
283.9977
  0
VERTEX
  8
LAYER_1
 10
334.0719
 20
284.0612
  0
VERTEX
  8
LAYER_1
 10
334.8128
 20
284.1458
  0
VERTEX
  8
LAYER_1
 10
335.5536
 20
284.2305
  0
VERTEX
  8
LAYER_1
 10
336.2944
 20
284.3152
  0
VERTEX
  8
LAYER_1
 10
337.0353
 20
284.421
  0
VERTEX
  8
LAYER_1
 10
337.7761
 20
284.5269
  0
VERTEX
  8
LAYER_1
 10
338.5169
 20
284.6327
  0
VERTEX
  8
LAYER_1
 10
339.2366
 20
284.7597
  0
VERTEX
  8
LAYER_1
 10
339.9774
 20
284.8655
  0
VERTEX
  8
LAYER_1
 10
340.6971
 20
284.9925
  0
VERTEX
  8
LAYER_1
 10
341.4168
 20
285.1195
  0
VERTEX
  8
LAYER_1
 10
342.1364
 20
285.2677
  0
SEQEND
  0
POLYLINE
  8
LAYER_1
 40
0.1693
 41
0.1693
 66
1
 10
0
 20
0
 30
0
  0
VERTEX
  8
LAYER_1
 10
342.1364
 20
285.2677
  0
VERTEX
  8
LAYER_1
 10
342.8561
 20
285.4159
  0
VERTEX
  8
LAYER_1
 10
343.5758
 20
285.564
  0
VERTEX
  8
LAYER_1
 10
344.2954
 20
285.7334
  0
VERTEX
  8
LAYER_1
 10
344.9939
 20
285.9027
  0
VERTEX
  8
LAYER_1
 10
345.7136
 20
286.072
  0
VERTEX
  8
LAYER_1
 10
346.4121
 20
286.2414
  0
VERTEX
  8
LAYER_1
 10
347.1106
 20
286.4318
  0
VERTEX
  8
LAYER_1
 10
347.8091
 20
286.6224
  0
VERTEX
  8
LAYER_1
 10
348.5076
 20
286.8129
  0
VERTEX
  8
LAYER_1
 10
349.1849
 20
287.0245
  0
VERTEX
  8
LAYER_1
 10
349.8834
 20
287.215
  0
VERTEX
  8
LAYER_1
 10
350.5608
 20
287.4479
  0
VERTEX
  8
LAYER_1
 10
351.2381
 20
287.6595
  0
VERTEX
  8
LAYER_1
 10
351.9154
 20
287.8924
  0
VERTEX
  8
LAYER_1
 10
352.5928
 20
288.1252
  0
VERTEX
  8
LAYER_1
 10
353.2489
 20
288.358
  0
VERTEX
  8
LAYER_1
 10
353.9051
 20
288.5909
  0
VERTEX
  8
LAYER_1
 10
354.5613
 20
288.8449
  0
VERTEX
  8
LAYER_1
 10
355.2174
 20
289.0988
  0
VERTEX
  8
LAYER_1
 10
355.8736
 20
289.3528
  0
VERTEX
  8
LAYER_1
 10
356.5086
 20
289.628
  0
VERTEX
  8
LAYER_1
 10
357.1436
 20
289.882
  0
VERTEX
  8
LAYER_1
 10
357.7786
 20
290.1572
  0
VERTEX
  8
LAYER_1
 10
358.4136
 20
290.4535
  0
VERTEX
  8
LAYER_1
 10
359.0274
 20
290.7287
  0
VERTEX
  8
LAYER_1
 10
359.6413
 20
291.025
  0
VERTEX
  8
LAYER_1
 10
360.2551
 20
291.3214
  0
VERTEX
  8
LAYER_1
 10
360.8689
 20
291.6177
  0
VERTEX
  8
LAYER_1
 10
361.4616
 20
291.9352
  0
VERTEX
  8
LAYER_1
 10
362.0754
 20
292.2527
  0
VERTEX
  8
LAYER_1
 10
362.6469
 20
292.5702
  0
VERTEX
  8
LAYER_1
 10
363.2396
 20
292.8877
  0
VERTEX
  8
LAYER_1
 10
363.8111
 20
293.2052
  0
VERTEX
  8
LAYER_1
 10
364.3826
 20
293.5438
  0
VERTEX
  8
LAYER_1
 10
364.9541
 20
293.8825
  0
VERTEX
  8
LAYER_1
 10
365.5044
 20
294.2212
  0
VERTEX
  8
LAYER_1
 10
366.0548
 20
294.5599
  0
VERTEX
  8
LAYER_1
 10
366.6051
 20
294.9197
  0
VERTEX
  8
LAYER_1
 10
367.1555
 20
295.2795
  0
VERTEX
  8
LAYER_1
 10
367.6846
 20
295.6394
  0
VERTEX
  8
LAYER_1
 10
368.2138
 20
295.9992
  0
VERTEX
  8
LAYER_1
 10
368.7218
 20
296.359
  0
VERTEX
  8
LAYER_1
 10
369.2509
 20
296.74
  0
VERTEX
  8
LAYER_1
 10
369.759
 20
297.121
  0
VERTEX
  8
LAYER_1
 10
370.2458
 20
297.502
  0
VERTEX
  8
LAYER_1
 10
370.7326
 20
297.883
  0
VERTEX
  8
LAYER_1
 10
371.2195
 20
298.2852
  0
VERTEX
  8
LAYER_1
 10
371.7063
 20
298.6662
  0
VERTEX
  8
LAYER_1
 10
372.1719
 20
299.0684
  0
VERTEX
  8
LAYER_1
 10
372.6376
 20
299.4705
  0
VERTEX
  8
LAYER_1
 10
373.1033
 20
299.8727
  0
VERTEX
  8
LAYER_1
 10
373.5478
 20
300.296
  0
VERTEX
  8
LAYER_1
 10
373.9923
 20
300.6982
  0
VERTEX
  8
LAYER_1
 10
374.4156
 20
301.1215
  0
VERTEX
  8
LAYER_1
 10
374.8389
 20
301.5448
  0
VERTEX
  8
LAYER_1
 10
375.2623
 20
301.9682
  0
VERTEX
  8
LAYER_1
 10
375.6645
 20
302.3915
  0
VERTEX
  8
LAYER_1
 10
376.0666
 20
302.836
  0
VERTEX
  8
LAYER_1
 10
376.4688
 20
303.2594
  0
VERTEX
  8
LAYER_1
 10
376.8498
 20
303.7039
  0
VERTEX
  8
LAYER_1
 10
377.2308
 20
304.1483
  0
VERTEX
  8
LAYER_1
 10
377.5906
 20
304.5929
  0
VERTEX
  8
LAYER_1
 10
377.9504
 20
305.0374
  0
VERTEX
  8
LAYER_1
 10
378.3103
 20
305.4818
  0
VERTEX
  8
LAYER_1
 10
378.6489
 20
305.9475
  0
VERTEX
  8
LAYER_1
 10
378.9876
 20
306.4132
  0
VERTEX
  8
LAYER_1
 10
379.3263
 20
306.8577
  0
VERTEX
  8
LAYER_1
 10
379.6438
 20
307.3233
  0
VERTEX
  8
LAYER_1
 10
379.9613
 20
307.789
  0
VERTEX
  8
LAYER_1
 10
380.2576
 20
308.2547
  0
VERTEX
  8
LAYER_1
 10
380.5539
 20
308.7415
  0
VERTEX
  8
LAYER_1
 10
380.8291
 20
309.2072
  0
VERTEX
  8
LAYER_1
 10
381.1043
 20
309.6729
  0
VERTEX
  8
LAYER_1
 10
381.3794
 20
310.1597
  0
VERTEX
  8
LAYER_1
 10
381.6334
 20
310.6465
  0
VERTEX
  8
LAYER_1
 10
381.8875
 20
311.1122
  0
VERTEX
  8
LAYER_1
 10
382.1203
 20
311.599
  0
VERTEX
  8
LAYER_1
 10
382.3531
 20
312.0858
  0
VERTEX
  8
LAYER_1
 10
382.586
 20
312.5727
  0
VERTEX
  8
LAYER_1
 10
382.7976
 20
313.0595
  0
VERTEX
  8
LAYER_1
 10
383.0093
 20
313.5675
  0
VERTEX
  8
LAYER_1
 10
383.1998
 20
314.0544
  0
VERTEX
  8
LAYER_1
 10
383.3903
 20
314.5412
  0
VERTEX
  8
LAYER_1
 10
383.5596
 20
315.0492
  0
VERTEX
  8
LAYER_1
 10
383.7289
 20
315.536
  0
VERTEX
  8
LAYER_1
 10
383.8983
 20
316.044
  0
VERTEX
  8
LAYER_1
 10
384.0465
 20
316.552
  0
VERTEX
  8
LAYER_1
 10
384.1946
 20
317.0389
  0
VERTEX
  8
LAYER_1
 10
384.3216
 20
317.5469
  0
VERTEX
  8
LAYER_1
 10
384.4486
 20
318.0549
  0
VERTEX
  8
LAYER_1
 10
384.5544
 20
318.5629
  0
VERTEX
  8
LAYER_1
 10
384.6603
 20
319.0709
  0
VERTEX
  8
LAYER_1
 10
384.7661
 20
319.5789
  0
VERTEX
  8
LAYER_1
 10
384.8508
 20
320.0868
  0
VERTEX
  8
LAYER_1
 10
384.9143
 20
320.5948
  0
VERTEX
  8
LAYER_1
 10
384.9778
 20
321.1028
  0
VERTEX
  8
LAYER_1
 10
385.0413
 20
321.6108
  0
VERTEX
  8
LAYER_1
 10
385.0836
 20
322.1188
  0
VERTEX
  8
LAYER_1
 10
385.1259
 20
322.6269
  0
VERTEX
  8
LAYER_1
 10
385.1683
 20
323.156
  0
VERTEX
  8
LAYER_1
 10
385.1895
 20
323.664
  0
VERTEX
  8
LAYER_1
 10
385.1895
 20
324.172
  0
VERTEX
  8
LAYER_1
 10
385.1895
 20
324.5107
  0
SEQEND
  0
POLYLINE
  8
LAYER_1
 40
0.1693
 41
0.1693
 66
1
 10
0
 20
0
 30
0
  0
VERTEX
  8
LAYER_1
 10
391.8993
 20
324.5107
  0
VERTEX
  8
LAYER_1
 10
391.8781
 20
325.3573
  0
SEQEND
  0
POLYLINE
  8
LAYER_1
 40
0.1693
 41
0.1693
 66
1
 10
0
 20
0
 30
0
  0
VERTEX
  8
LAYER_1
 10
391.8146
 20
326.8813
  0
VERTEX
  8
LAYER_1
 10
391.6453
 20
328.5747
  0
SEQEND
  0
POLYLINE
  8
LAYER_1
 40
0.1693
 41
0.1693
 66
1
 10
0
 20
0
 30
0
  0
VERTEX
  8
LAYER_1
 10
391.4124
 20
330.0987
  0
VERTEX
  8
LAYER_1
 10
391.1372
 20
331.6227
  0
SEQEND
  0
POLYLINE
  8
LAYER_1
 40
0.1693
 41
0.1693
 66
1
 10
0
 20
0
 30
0
  0
VERTEX
  8
LAYER_1
 10
390.7351
 20
333.316
  0
VERTEX
  8
LAYER_1
 10
390.5657
 20
333.951
  0
VERTEX
  8
LAYER_1
 10
390.3118
 20
334.7977
  0
SEQEND
  0
POLYLINE
  8
LAYER_1
 40
0.1693
 41
0.1693
 66
1
 10
0
 20
0
 30
0
  0
VERTEX
  8
LAYER_1
 10
389.8249
 20
336.2793
  0
VERTEX
  8
LAYER_1
 10
389.1688
 20
337.9727
  0
SEQEND
  0
POLYLINE
  8
LAYER_1
 40
0.1693
 41
0.1693
 66
1
 10
0
 20
0
 30
0
  0
VERTEX
  8
LAYER_1
 10
388.5126
 20
339.412
  0
VERTEX
  8
LAYER_1
 10
387.8352
 20
340.8302
  0
SEQEND
  0
POLYLINE
  8
LAYER_1
 40
0.1693
 41
0.1693
 66
1
 10
0
 20
0
 30
0
  0
VERTEX
  8
LAYER_1
 10
386.9251
 20
342.5235
  0
VERTEX
  8
LAYER_1
 10
386.6288
 20
343.0315
  0
VERTEX
  8
LAYER_1
 10
386.0996
 20
343.8782
  0
SEQEND
  0
POLYLINE
  8
LAYER_1
 40
0.1693
 41
0.1693
 66
1
 10
0
 20
0
 30
0
  0
VERTEX
  8
LAYER_1
 10
385.2529
 20
345.2117
  0
VERTEX
  8
LAYER_1
 10
384.0253
 20
346.905
  0
SEQEND
  0
POLYLINE
  8
LAYER_1
 40
0.1693
 41
0.1693
 66
1
 10
0
 20
0
 30
0
  0
VERTEX
  8
LAYER_1
 10
382.6918
 20
348.5983
  0
VERTEX
  8
LAYER_1
 10
382.0356
 20
349.3815
  0
VERTEX
  8
LAYER_1
 10
381.2736
 20
350.2282
  0
SEQEND
  0
POLYLINE
  8
LAYER_1
 40
0.1693
 41
0.1693
 66
1
 10
0
 20
0
 30
0
  0
VERTEX
  8
LAYER_1
 10
379.7919
 20
351.7945
  0
VERTEX
  8
LAYER_1
 10
378.268
 20
353.3185
  0
SEQEND
  0
POLYLINE
  8
LAYER_1
 40
0.1693
 41
0.1693
 66
1
 10
0
 20
0
 30
0
  0
VERTEX
  8
LAYER_1
 10
376.5746
 20
354.8213
  0
VERTEX
  8
LAYER_1
 10
376.1936
 20
355.16
  0
VERTEX
  8
LAYER_1
 10
374.9236
 20
356.176
  0
SEQEND
  0
POLYLINE
  8
LAYER_1
 40
0.1693
 41
0.1693
 66
1
 10
0
 20
0
 30
0
  0
VERTEX
  8
LAYER_1
 10
373.5478
 20
357.2555
  0
VERTEX
  8
LAYER_1
 10
371.8544
 20
358.4832
  0
SEQEND
  0
POLYLINE
  8
LAYER_1
 40
0.1693
 41
0.1693
 66
1
 10
0
 20
0
 30
0
  0
VERTEX
  8
LAYER_1
 10
370.3728
 20
359.478
  0
VERTEX
  8
LAYER_1
 10
369.1875
 20
360.2612
  0
VERTEX
  8
LAYER_1
 10
368.7641
 20
360.494
  0
SEQEND
  0
POLYLINE
  8
LAYER_1
 40
0.1693
 41
0.1693
 66
1
 10
0
 20
0
 30
0
  0
VERTEX
  8
LAYER_1
 10
367.0708
 20
361.51
  0
VERTEX
  8
LAYER_1
 10
366.6263
 20
361.7852
  0
VERTEX
  8
LAYER_1
 10
365.7796
 20
362.2297
  0
SEQEND
  0
POLYLINE
  8
LAYER_1
 40
0.1693
 41
0.1693
 66
1
 10
0
 20
0
 30
0
  0
VERTEX
  8
LAYER_1
 10
364.0863
 20
363.1398
  0
VERTEX
  8
LAYER_1
 10
363.9593
 20
363.2245
  0
VERTEX
  8
LAYER_1
 10
362.6893
 20
363.8172
  0
SEQEND
  0
POLYLINE
  8
LAYER_1
 40
0.1693
 41
0.1693
 66
1
 10
0
 20
0
 30
0
  0
VERTEX
  8
LAYER_1
 10
361.1865
 20
364.558
  0
VERTEX
  8
LAYER_1
 10
359.4931
 20
365.2777
  0
SEQEND
  0
POLYLINE
  8
LAYER_1
 40
0.1693
 41
0.1693
 66
1
 10
0
 20
0
 30
0
  0
VERTEX
  8
LAYER_1
 10
357.9057
 20
365.9338
  0
VERTEX
  8
LAYER_1
 10
356.2123
 20
366.59
  0
SEQEND
  0
POLYLINE
  8
LAYER_1
 40
0.1693
 41
0.1693
 66
1
 10
0
 20
0
 30
0
  0
VERTEX
  8
LAYER_1
 10
354.5402
 20
367.2038
  0
VERTEX
  8
LAYER_1
 10
352.8468
 20
367.7753
  0
SEQEND
  0
POLYLINE
  8
LAYER_1
 40
0.1693
 41
0.1693
 66
1
 10
0
 20
0
 30
0
  0
VERTEX
  8
LAYER_1
 10
351.5345
 20
368.1987
  0
VERTEX
  8
LAYER_1
 10
349.8412
 20
368.7067
  0
SEQEND
  0
POLYLINE
  8
LAYER_1
 40
0.1693
 41
0.1693
 66
1
 10
0
 20
0
 30
0
  0
VERTEX
  8
LAYER_1
 10
348.4442
 20
369.0877
  0
VERTEX
  8
LAYER_1
 10
346.7508
 20
369.511
  0
SEQEND
  0
POLYLINE
  8
LAYER_1
 40
0.1693
 41
0.1693
 66
1
 10
0
 20
0
 30
0
  0
VERTEX
  8
LAYER_1
 10
345.3115
 20
369.8497
  0
VERTEX
  8
LAYER_1
 10
343.6182
 20
370.2307
  0
SEQEND
  0
POLYLINE
  8
LAYER_1
 40
0.1693
 41
0.1693
 66
1
 10
0
 20
0
 30
0
  0
VERTEX
  8
LAYER_1
 10
342.1153
 20
370.527
  0
VERTEX
  8
LAYER_1
 10
340.422
 20
370.8233
  0
SEQEND
  0
POLYLINE
  8
LAYER_1
 40
0.1693
 41
0.1693
 66
1
 10
0
 20
0
 30
0
  0
VERTEX
  8
LAYER_1
 10
338.8768
 20
371.0562
  0
VERTEX
  8
LAYER_1
 10
337.1835
 20
371.3102
  0
SEQEND
  0
POLYLINE
  8
LAYER_1
 40
0.1693
 41
0.1693
 66
1
 10
0
 20
0
 30
0
  0
VERTEX
  8
LAYER_1
 10
335.596
 20
371.5007
  0
VERTEX
  8
LAYER_1
 10
333.9027
 20
371.67
  0
SEQEND
  0
POLYLINE
  8
LAYER_1
 40
0.1693
 41
0.1693
 66
1
 10
0
 20
0
 30
0
  0
VERTEX
  8
LAYER_1
 10
332.294
 20
371.797
  0
VERTEX
  8
LAYER_1
 10
330.6007
 20
371.924
  0
SEQEND
  0
POLYLINE
  8
LAYER_1
 40
0.1693
 41
0.1693
 66
1
 10
0
 20
0
 30
0
  0
VERTEX
  8
LAYER_1
 10
328.9708
 20
372.0087
  0
VERTEX
  8
LAYER_1
 10
327.2775
 20
372.051
  0
SEQEND
  0
POLYLINE
  8
LAYER_1
 40
0.1693
 41
0.1693
 66
1
 10
0
 20
0
 30
0
  0
VERTEX
  8
LAYER_1
 10
325.6265
 20
372.0934
  0
VERTEX
  8
LAYER_1
 10
323.9332
 20
372.0934
  0
SEQEND
  0
POLYLINE
  8
LAYER_1
 40
0.1693
 41
0.1693
 66
1
 10
0
 20
0
 30
0
  0
VERTEX
  8
LAYER_1
 10
322.3033
 20
372.0722
  0
VERTEX
  8
LAYER_1
 10
320.61
 20
371.9875
  0
SEQEND
  0
POLYLINE
  8
LAYER_1
 40
0.1693
 41
0.1693
 66
1
 10
0
 20
0
 30
0
  0
VERTEX
  8
LAYER_1
 10
318.959
 20
371.9029
  0
VERTEX
  8
LAYER_1
 10
317.2657
 20
371.7759
  0
SEQEND
  0
POLYLINE
  8
LAYER_1
 40
0.1693
 41
0.1693
 66
1
 10
0
 20
0
 30
0
  0
VERTEX
  8
LAYER_1
 10
315.6359
 20
371.6277
  0
VERTEX
  8
LAYER_1
 10
313.9425
 20
371.4372
  0
SEQEND
  0
POLYLINE
  8
LAYER_1
 40
0.1693
 41
0.1693
 66
1
 10
0
 20
0
 30
0
  0
VERTEX
  8
LAYER_1
 10
312.3339
 20
371.2467
  0
VERTEX
  8
LAYER_1
 10
310.6405
 20
370.9927
  0
SEQEND
  0
POLYLINE
  8
LAYER_1
 40
0.1693
 41
0.1693
 66
1
 10
0
 20
0
 30
0
  0
VERTEX
  8
LAYER_1
 10
309.0742
 20
370.7175
  0
VERTEX
  8
LAYER_1
 10
307.3809
 20
370.4
  0
SEQEND
  0
POLYLINE
  8
LAYER_1
 40
0.1693
 41
0.1693
 66
1
 10
0
 20
0
 30
0
  0
VERTEX
  8
LAYER_1
 10
305.8357
 20
370.0825
  0
VERTEX
  8
LAYER_1
 10
304.1424
 20
369.7015
  0
SEQEND
  0
POLYLINE
  8
LAYER_1
 40
0.1693
 41
0.1693
 66
1
 10
0
 20
0
 30
0
  0
VERTEX
  8
LAYER_1
 10
302.6395
 20
369.3417
  0
VERTEX
  8
LAYER_1
 10
300.9462
 20
368.8972
  0
SEQEND
  0
POLYLINE
  8
LAYER_1
 40
0.1693
 41
0.1693
 66
1
 10
0
 20
0
 30
0
  0
VERTEX
  8
LAYER_1
 10
299.5069
 20
368.4738
  0
VERTEX
  8
LAYER_1
 10
297.8135
 20
367.9658
  0
SEQEND
  0
POLYLINE
  8
LAYER_1
 40
0.1693
 41
0.1693
 66
1
 10
0
 20
0
 30
0
  0
VERTEX
  8
LAYER_1
 10
296.4377
 20
367.5002
  0
VERTEX
  8
LAYER_1
 10
294.7444
 20
366.9075
  0
SEQEND
  0
POLYLINE
  8
LAYER_1
 40
0.1693
 41
0.1693
 66
1
 10
0
 20
0
 30
0
  0
VERTEX
  8
LAYER_1
 10
293.4532
 20
366.4207
  0
VERTEX
  8
LAYER_1
 10
291.7599
 20
365.7645
  0
SEQEND
  0
POLYLINE
  8
LAYER_1
 40
0.1693
 41
0.1693
 66
1
 10
0
 20
0
 30
0
  0
VERTEX
  8
LAYER_1
 10
290.0877
 20
365.0449
  0
VERTEX
  8
LAYER_1
 10
288.5214
 20
364.3464
  0
SEQEND
  0
POLYLINE
  8
LAYER_1
 40
0.1693
 41
0.1693
 66
1
 10
0
 20
0
 30
0
  0
VERTEX
  8
LAYER_1
 10
286.828
 20
363.5209
  0
VERTEX
  8
LAYER_1
 10
285.7697
 20
362.9917
  0
VERTEX
  8
LAYER_1
 10
285.3464
 20
362.7588
  0
SEQEND
  0
POLYLINE
  8
LAYER_1
 40
0.1693
 41
0.1693
 66
1
 10
0
 20
0
 30
0
  0
VERTEX
  8
LAYER_1
 10
283.653
 20
361.8275
  0
VERTEX
  8
LAYER_1
 10
283.1239
 20
361.5312
  0
VERTEX
  8
LAYER_1
 10
282.2772
 20
361.0232
  0
SEQEND
  0
POLYLINE
  8
LAYER_1
 40
0.1693
 41
0.1693
 66
1
 10
0
 20
0
 30
0
  0
VERTEX
  8
LAYER_1
 10
280.5839
 20
360.0072
  0
VERTEX
  8
LAYER_1
 10
278.8905
 20
358.8854
  0
SEQEND
  0
POLYLINE
  8
LAYER_1
 40
0.1693
 41
0.1693
 66
1
 10
0
 20
0
 30
0
  0
VERTEX
  8
LAYER_1
 10
277.303
 20
357.7635
  0
VERTEX
  8
LAYER_1
 10
275.8425
 20
356.6628
  0
SEQEND
  0
POLYLINE
  8
LAYER_1
 40
0.1693
 41
0.1693
 66
1
 10
0
 20
0
 30
0
  0
VERTEX
  8
LAYER_1
 10
274.1492
 20
355.287
  0
VERTEX
  8
LAYER_1
 10
273.6412
 20
354.8637
  0
VERTEX
  8
LAYER_1
 10
272.7945
 20
354.1228
  0
SEQEND
  0
POLYLINE
  8
LAYER_1
 40
0.1693
 41
0.1693
 66
1
 10
0
 20
0
 30
0
  0
VERTEX
  8
LAYER_1
 10
271.1647
 20
352.5777
  0
VERTEX
  8
LAYER_1
 10
269.6407
 20
351.0537
  0
SEQEND
  0
POLYLINE
  8
LAYER_1
 40
0.1693
 41
0.1693
 66
1
 10
0
 20
0
 30
0
  0
VERTEX
  8
LAYER_1
 10
268.1379
 20
349.3604
  0
VERTEX
  8
LAYER_1
 10
267.8415
 20
349.0429
  0
VERTEX
  8
LAYER_1
 10
266.8467
 20
347.7729
  0
SEQEND
  0
POLYLINE
  8
LAYER_1
 40
0.1693
 41
0.1693
 66
1
 10
0
 20
0
 30
0
  0
VERTEX
  8
LAYER_1
 10
265.5979
 20
346.1219
  0
VERTEX
  8
LAYER_1
 10
264.7088
 20
344.8519
  0
VERTEX
  8
LAYER_1
 10
264.4549
 20
344.4285
  0
SEQEND
  0
POLYLINE
  8
LAYER_1
 40
0.1693
 41
0.1693
 66
1
 10
0
 20
0
 30
0
  0
VERTEX
  8
LAYER_1
 10
263.3965
 20
342.7352
  0
VERTEX
  8
LAYER_1
 10
263.3542
 20
342.6717
  0
VERTEX
  8
LAYER_1
 10
262.6769
 20
341.4017
  0
SEQEND
  0
POLYLINE
  8
LAYER_1
 40
0.1693
 41
0.1693
 66
1
 10
0
 20
0
 30
0
  0
VERTEX
  8
LAYER_1
 10
261.9572
 20
340.0259
  0
VERTEX
  8
LAYER_1
 10
261.1952
 20
338.3325
  0
SEQEND
  0
POLYLINE
  8
LAYER_1
 40
0.1693
 41
0.1693
 66
1
 10
0
 20
0
 30
0
  0
VERTEX
  8
LAYER_1
 10
260.6237
 20
336.9144
  0
VERTEX
  8
LAYER_1
 10
260.2215
 20
335.8983
  0
VERTEX
  8
LAYER_1
 10
260.0945
 20
335.475
  0
SEQEND
  0
POLYLINE
  8
LAYER_1
 40
0.1693
 41
0.1693
 66
1
 10
0
 20
0
 30
0
  0
VERTEX
  8
LAYER_1
 10
259.5865
 20
333.7817
  0
VERTEX
  8
LAYER_1
 10
259.523
 20
333.57
  0
VERTEX
  8
LAYER_1
 10
259.2267
 20
332.3
  0
SEQEND
  0
POLYLINE
  8
LAYER_1
 40
0.1693
 41
0.1693
 66
1
 10
0
 20
0
 30
0
  0
VERTEX
  8
LAYER_1
 10
258.888
 20
330.7972
  0
VERTEX
  8
LAYER_1
 10
258.6128
 20
329.1039
  0
SEQEND
  0
POLYLINE
  8
LAYER_1
 40
0.1693
 41
0.1693
 66
1
 10
0
 20
0
 30
0
  0
VERTEX
  8
LAYER_1
 10
258.4647
 20
327.5799
  0
VERTEX
  8
LAYER_1
 10
258.3588
 20
326.4792
  0
VERTEX
  8
LAYER_1
 10
258.3588
 20
326.0559
  0
SEQEND
  0
POLYLINE
  8
LAYER_1
 40
0.1693
 41
0.1693
 66
1
 10
0
 20
0
 30
0
  0
VERTEX
  8
LAYER_1
 10
258.3165
 20
324.3625
  0
VERTEX
  8
LAYER_1
 10
258.2953
 20
324.1085
  0
VERTEX
  8
LAYER_1
 10
258.3377
 20
322.8385
  0
SEQEND
  0
POLYLINE
  8
LAYER_1
 40
0.1693
 41
0.1693
 66
1
 10
0
 20
0
 30
0
  0
VERTEX
  8
LAYER_1
 10
258.4435
 20
321.2934
  0
VERTEX
  8
LAYER_1
 10
258.634
 20
319.6
  0
SEQEND
  0
POLYLINE
  8
LAYER_1
 40
0.1693
 41
0.1693
 66
1
 10
0
 20
0
 30
0
  0
VERTEX
  8
LAYER_1
 10
258.9092
 20
318.076
  0
VERTEX
  8
LAYER_1
 10
259.1208
 20
316.9965
  0
VERTEX
  8
LAYER_1
 10
259.2267
 20
316.5732
  0
SEQEND
  0
POLYLINE
  8
LAYER_1
 40
0.1693
 41
0.1693
 66
1
 10
0
 20
0
 30
0
  0
VERTEX
  8
LAYER_1
 10
259.6712
 20
314.8799
  0
VERTEX
  8
LAYER_1
 10
259.7347
 20
314.647
  0
VERTEX
  8
LAYER_1
 10
260.158
 20
313.377
  0
SEQEND
  0
POLYLINE
  8
LAYER_1
 40
0.1693
 41
0.1693
 66
1
 10
0
 20
0
 30
0
  0
VERTEX
  8
LAYER_1
 10
260.6872
 20
311.9165
  0
VERTEX
  8
LAYER_1
 10
261.3645
 20
310.2232
  0
SEQEND
  0
POLYLINE
  8
LAYER_1
 40
0.1693
 41
0.1693
 66
1
 10
0
 20
0
 30
0
  0
VERTEX
  8
LAYER_1
 10
262.0418
 20
308.7839
  0
VERTEX
  8
LAYER_1
 10
262.5287
 20
307.8102
  0
VERTEX
  8
LAYER_1
 10
262.7615
 20
307.3869
  0
SEQEND
  0
POLYLINE
  8
LAYER_1
 40
0.1693
 41
0.1693
 66
1
 10
0
 20
0
 30
0
  0
VERTEX
  8
LAYER_1
 10
263.714
 20
305.6935
  0
VERTEX
  8
LAYER_1
 10
263.7775
 20
305.6089
  0
VERTEX
  8
LAYER_1
 10
264.603
 20
304.3389
  0
SEQEND
  0
POLYLINE
  8
LAYER_1
 40
0.1693
 41
0.1693
 66
1
 10
0
 20
0
 30
0
  0
VERTEX
  8
LAYER_1
 10
265.492
 20
303.0054
  0
VERTEX
  8
LAYER_1
 10
266.7408
 20
301.3332
  0
SEQEND
  0
POLYLINE
  8
LAYER_1
 40
0.1693
 41
0.1693
 66
1
 10
0
 20
0
 30
0
  0
VERTEX
  8
LAYER_1
 10
268.1167
 20
299.6398
  0
VERTEX
  8
LAYER_1
 10
268.4342
 20
299.28
  0
VERTEX
  8
LAYER_1
 10
269.5983
 20
298.01
  0
SEQEND
  0
POLYLINE
  8
LAYER_1
 40
0.1693
 41
0.1693
 66
1
 10
0
 20
0
 30
0
  0
VERTEX
  8
LAYER_1
 10
271.1223
 20
296.486
  0
VERTEX
  8
LAYER_1
 10
272.2442
 20
295.3854
  0
VERTEX
  8
LAYER_1
 10
272.6675
 20
295.0255
  0
SEQEND
  0
POLYLINE
  8
LAYER_1
 40
0.1693
 41
0.1693
 66
1
 10
0
 20
0
 30
0
  0
VERTEX
  8
LAYER_1
 10
274.3608
 20
293.5227
  0
VERTEX
  8
LAYER_1
 10
276.0542
 20
292.2104
  0
SEQEND
  0
POLYLINE
  8
LAYER_1
 40
0.1693
 41
0.1693
 66
1
 10
0
 20
0
 30
0
  0
VERTEX
  8
LAYER_1
 10
277.4512
 20
291.1732
  0
VERTEX
  8
LAYER_1
 10
278.954
 20
290.0725
  0
SEQEND
  0
POLYLINE
  8
LAYER_1
 40
0.1693
 41
0.1693
 66
1
 10
0
 20
0
 30
0
  0
VERTEX
  8
LAYER_1
 10
280.6473
 20
288.993
  0
VERTEX
  8
LAYER_1
 10
281.4305
 20
288.485
  0
VERTEX
  8
LAYER_1
 10
282.2772
 20
287.9982
  0
SEQEND
  0
POLYLINE
  8
LAYER_1
 40
0.1693
 41
0.1693
 66
1
 10
0
 20
0
 30
0
  0
VERTEX
  8
LAYER_1
 10
283.9705
 20
287.0033
  0
VERTEX
  8
LAYER_1
 10
284.0128
 20
286.961
  0
VERTEX
  8
LAYER_1
 10
285.2828
 20
286.3048
  0
SEQEND
  0
POLYLINE
  8
LAYER_1
 40
0.1693
 41
0.1693
 66
1
 10
0
 20
0
 30
0
  0
VERTEX
  8
LAYER_1
 10
286.701
 20
285.5428
  0
VERTEX
  8
LAYER_1
 10
288.3943
 20
284.7597
  0
SEQEND
  0
POLYLINE
  8
LAYER_1
 40
0.1693
 41
0.1693
 66
1
 10
0
 20
0
 30
0
  0
VERTEX
  8
LAYER_1
 10
289.8972
 20
284.0823
  0
VERTEX
  8
LAYER_1
 10
291.5905
 20
283.3627
  0
SEQEND
  0
POLYLINE
  8
LAYER_1
 40
0.1693
 41
0.1693
 66
1
 10
0
 20
0
 30
0
  0
VERTEX
  8
LAYER_1
 10
293.178
 20
282.7277
  0
VERTEX
  8
LAYER_1
 10
294.8713
 20
282.0927
  0
SEQEND
  0
POLYLINE
  8
LAYER_1
 40
0.1693
 41
0.1693
 66
1
 10
0
 20
0
 30
0
  0
VERTEX
  8
LAYER_1
 10
296.5647
 20
281.5
  0
VERTEX
  8
LAYER_1
 10
298.258
 20
280.9497
  0
SEQEND
  0
POLYLINE
  8
LAYER_1
 40
0.1693
 41
0.1693
 66
1
 10
0
 20
0
 30
0
  0
VERTEX
  8
LAYER_1
 10
299.5915
 20
280.5475
  0
VERTEX
  8
LAYER_1
 10
301.2848
 20
280.0607
  0
SEQEND
  0
POLYLINE
  8
LAYER_1
 40
0.1693
 41
0.1693
 66
1
 10
0
 20
0
 30
0
  0
VERTEX
  8
LAYER_1
 10
302.6818
 20
279.722
  0
VERTEX
  8
LAYER_1
 10
304.3751
 20
279.2987
  0
SEQEND
  0
POLYLINE
  8
LAYER_1
 40
0.1693
 41
0.1693
 66
1
 10
0
 20
0
 30
0
  0
VERTEX
  8
LAYER_1
 10
305.8356
 20
278.9812
  0
VERTEX
  8
LAYER_1
 10
307.5289
 20
278.6214
  0
SEQEND
  0
POLYLINE
  8
LAYER_1
 40
0.1693
 41
0.1693
 66
1
 10
0
 20
0
 30
0
  0
VERTEX
  8
LAYER_1
 10
309.0318
 20
278.3462
  0
VERTEX
  8
LAYER_1
 10
310.7251
 20
278.0499
  0
SEQEND
  0
POLYLINE
  8
LAYER_1
 40
0.1693
 41
0.1693
 66
1
 10
0
 20
0
 30
0
  0
VERTEX
  8
LAYER_1
 10
312.2703
 20
277.817
  0
VERTEX
  8
LAYER_1
 10
313.9636
 20
277.6054
  0
SEQEND
  0
POLYLINE
  8
LAYER_1
 40
0.1693
 41
0.1693
 66
1
 10
0
 20
0
 30
0
  0
VERTEX
  8
LAYER_1
 10
315.5723
 20
277.436
  0
VERTEX
  8
LAYER_1
 10
317.2656
 20
277.2667
  0
SEQEND
  0
POLYLINE
  8
LAYER_1
 40
0.1693
 41
0.1693
 66
1
 10
0
 20
0
 30
0
  0
VERTEX
  8
LAYER_1
 10
318.8743
 20
277.1609
  0
VERTEX
  8
LAYER_1
 10
320.5676
 20
277.055
  0
SEQEND
  0
POLYLINE
  8
LAYER_1
 40
0.1693
 41
0.1693
 66
1
 10
0
 20
0
 30
0
  0
VERTEX
  8
LAYER_1
 10
322.1974
 20
276.9915
  0
VERTEX
  8
LAYER_1
 10
323.8908
 20
276.9492
  0
SEQEND
  0
POLYLINE
  8
LAYER_1
 40
0.1693
 41
0.1693
 66
1
 10
0
 20
0
 30
0
  0
VERTEX
  8
LAYER_1
 10
325.5418
 20
276.928
  0
VERTEX
  8
LAYER_1
 10
327.2351
 20
276.928
  0
SEQEND
  0
POLYLINE
  8
LAYER_1
 40
0.1693
 41
0.1693
 66
1
 10
0
 20
0
 30
0
  0
VERTEX
  8
LAYER_1
 10
328.8649
 20
276.9915
  0
VERTEX
  8
LAYER_1
 10
330.5582
 20
277.0762
  0
SEQEND
  0
POLYLINE
  8
LAYER_1
 40
0.1693
 41
0.1693
 66
1
 10
0
 20
0
 30
0
  0
VERTEX
  8
LAYER_1
 10
332.2092
 20
277.182
  0
VERTEX
  8
LAYER_1
 10
333.9026
 20
277.3302
  0
SEQEND
  0
POLYLINE
  8
LAYER_1
 40
0.1693
 41
0.1693
 66
1
 10
0
 20
0
 30
0
  0
VERTEX
  8
LAYER_1
 10
335.5324
 20
277.4995
  0
VERTEX
  8
LAYER_1
 10
337.2257
 20
277.7112
  0
SEQEND
  0
POLYLINE
  8
LAYER_1
 40
0.1693
 41
0.1693
 66
1
 10
0
 20
0
 30
0
  0
VERTEX
  8
LAYER_1
 10
338.8132
 20
277.944
  0
VERTEX
  8
LAYER_1
 10
340.5066
 20
278.198
  0
SEQEND
  0
POLYLINE
  8
LAYER_1
 40
0.1693
 41
0.1693
 66
1
 10
0
 20
0
 30
0
  0
VERTEX
  8
LAYER_1
 10
342.0941
 20
278.4944
  0
VERTEX
  8
LAYER_1
 10
343.7874
 20
278.8119
  0
SEQEND
  0
POLYLINE
  8
LAYER_1
 40
0.1693
 41
0.1693
 66
1
 10
0
 20
0
 30
0
  0
VERTEX
  8
LAYER_1
 10
345.3114
 20
279.1717
  0
VERTEX
  8
LAYER_1
 10
347.0047
 20
279.5527
  0
SEQEND
  0
POLYLINE
  8
LAYER_1
 40
0.1693
 41
0.1693
 66
1
 10
0
 20
0
 30
0
  0
VERTEX
  8
LAYER_1
 10
348.4864
 20
279.9549
  0
VERTEX
  8
LAYER_1
 10
350.1797
 20
280.3994
  0
SEQEND
  0
POLYLINE
  8
LAYER_1
 40
0.1693
 41
0.1693
 66
1
 10
0
 20
0
 30
0
  0
VERTEX
  8
LAYER_1
 10
351.6191
 20
280.8439
  0
VERTEX
  8
LAYER_1
 10
353.3124
 20
281.373
  0
SEQEND
  0
POLYLINE
  8
LAYER_1
 40
0.1693
 41
0.1693
 66
1
 10
0
 20
0
 30
0
  0
VERTEX
  8
LAYER_1
 10
354.6671
 20
281.8599
  0
VERTEX
  8
LAYER_1
 10
356.3604
 20
282.4525
  0
SEQEND
  0
POLYLINE
  8
LAYER_1
 40
0.1693
 41
0.1693
 66
1
 10
0
 20
0
 30
0
  0
VERTEX
  8
LAYER_1
 10
357.6516
 20
282.9605
  0
VERTEX
  8
LAYER_1
 10
359.3026
 20
283.6379
  0
SEQEND
  0
POLYLINE
  8
LAYER_1
 40
0.1693
 41
0.1693
 66
1
 10
0
 20
0
 30
0
  0
VERTEX
  8
LAYER_1
 10
360.9959
 20
284.3787
  0
VERTEX
  8
LAYER_1
 10
362.1178
 20
284.8867
  0
VERTEX
  8
LAYER_1
 10
362.5411
 20
285.0984
  0
SEQEND
  0
POLYLINE
  8
LAYER_1
 40
0.1693
 41
0.1693
 66
1
 10
0
 20
0
 30
0
  0
VERTEX
  8
LAYER_1
 10
364.2344
 20
285.945
  0
VERTEX
  8
LAYER_1
 10
364.8483
 20
286.2625
  0
VERTEX
  8
LAYER_1
 10
365.695
 20
286.7282
  0
SEQEND
  0
POLYLINE
  8
LAYER_1
 40
0.1693
 41
0.1693
 66
1
 10
0
 20
0
 30
0
  0
VERTEX
  8
LAYER_1
 10
367.3883
 20
287.6595
  0
VERTEX
  8
LAYER_1
 10
367.4941
 20
287.723
  0
VERTEX
  8
LAYER_1
 10
368.7641
 20
288.485
  0
SEQEND
  0
POLYLINE
  8
LAYER_1
 40
0.1693
 41
0.1693
 66
1
 10
0
 20
0
 30
0
  0
VERTEX
  8
LAYER_1
 10
370.4363
 20
289.5434
  0
VERTEX
  8
LAYER_1
 10
372.1296
 20
290.7075
  0
SEQEND
  0
POLYLINE
  8
LAYER_1
 40
0.1693
 41
0.1693
 66
1
 10
0
 20
0
 30
0
  0
VERTEX
  8
LAYER_1
 10
373.6959
 20
291.8717
  0
VERTEX
  8
LAYER_1
 10
374.7331
 20
292.6549
  0
VERTEX
  8
LAYER_1
 10
375.1564
 20
292.9935
  0
SEQEND
  0
POLYLINE
  8
LAYER_1
 40
0.1693
 41
0.1693
 66
1
 10
0
 20
0
 30
0
  0
VERTEX
  8
LAYER_1
 10
376.8497
 20
294.4117
  0
VERTEX
  8
LAYER_1
 10
376.8921
 20
294.454
  0
VERTEX
  8
LAYER_1
 10
378.1621
 20
295.6182
  0
SEQEND
  0
POLYLINE
  8
LAYER_1
 40
0.1693
 41
0.1693
 66
1
 10
0
 20
0
 30
0
  0
VERTEX
  8
LAYER_1
 10
379.7707
 20
297.1845
  0
VERTEX
  8
LAYER_1
 10
380.8503
 20
298.2852
  0
VERTEX
  8
LAYER_1
 10
381.2101
 20
298.7085
  0
SEQEND
  0
POLYLINE
  8
LAYER_1
 40
0.1693
 41
0.1693
 66
1
 10
0
 20
0
 30
0
  0
VERTEX
  8
LAYER_1
 10
382.6282
 20
300.3172
  0
VERTEX
  8
LAYER_1
 10
383.9406
 20
302.0105
  0
SEQEND
  0
POLYLINE
  8
LAYER_1
 40
0.1693
 41
0.1693
 66
1
 10
0
 20
0
 30
0
  0
VERTEX
  8
LAYER_1
 10
385.1047
 20
303.6615
  0
VERTEX
  8
LAYER_1
 10
385.7186
 20
304.5294
  0
VERTEX
  8
LAYER_1
 10
385.9726
 20
304.9527
  0
SEQEND
  0
POLYLINE
  8
LAYER_1
 40
0.1693
 41
0.1693
 66
1
 10
0
 20
0
 30
0
  0
VERTEX
  8
LAYER_1
 10
387.0098
 20
306.646
  0
VERTEX
  8
LAYER_1
 10
387.0521
 20
306.7095
  0
VERTEX
  8
LAYER_1
 10
387.7082
 20
307.9795
  0
SEQEND
  0
POLYLINE
  8
LAYER_1
 40
0.1693
 41
0.1693
 66
1
 10
0
 20
0
 30
0
  0
VERTEX
  8
LAYER_1
 10
388.3856
 20
309.3554
  0
VERTEX
  8
LAYER_1
 10
389.1476
 20
311.0487
  0
SEQEND
  0
POLYLINE
  8
LAYER_1
 40
0.1693
 41
0.1693
 66
1
 10
0
 20
0
 30
0
  0
VERTEX
  8
LAYER_1
 10
389.6979
 20
312.4669
  0
VERTEX
  8
LAYER_1
 10
390.0789
 20
313.504
  0
VERTEX
  8
LAYER_1
 10
390.2059
 20
313.9274
  0
SEQEND
  0
POLYLINE
  8
LAYER_1
 40
0.1693
 41
0.1693
 66
1
 10
0
 20
0
 30
0
  0
VERTEX
  8
LAYER_1
 10
390.7139
 20
315.6207
  0
VERTEX
  8
LAYER_1
 10
390.7774
 20
315.8324
  0
VERTEX
  8
LAYER_1
 10
391.0526
 20
317.1024
  0
SEQEND
  0
POLYLINE
  8
LAYER_1
 40
0.1693
 41
0.1693
 66
1
 10
0
 20
0
 30
0
  0
VERTEX
  8
LAYER_1
 10
391.3701
 20
318.6052
  0
VERTEX
  8
LAYER_1
 10
391.6241
 20
320.2985
  0
SEQEND
  0
POLYLINE
  8
LAYER_1
 40
0.1693
 41
0.1693
 66
1
 10
0
 20
0
 30
0
  0
VERTEX
  8
LAYER_1
 10
391.7511
 20
321.8225
  0
VERTEX
  8
LAYER_1
 10
391.8569
 20
322.9232
  0
VERTEX
  8
LAYER_1
 10
391.8569
 20
323.3465
  0
SEQEND
  0
POLYLINE
  8
LAYER_1
 40
0.1693
 41
0.1693
 66
1
 10
0
 20
0
 30
0
  0
VERTEX
  8
LAYER_1
 10
391.8993
 20
324.5107
  0
SEQEND
  0
POLYLINE
  8
LAYER_1
 40
0.1693
 41
0.1693
 66
1
 10
0
 20
0
 30
0
  0
VERTEX
  8
LAYER_1
 10
301.0942
 20
260.6932
  0
VERTEX
  8
LAYER_1
 10
301.0942
 20
266.8738
  0
SEQEND
  0
POLYLINE
  8
LAYER_1
 40
0.1693
 41
0.1693
 66
1
 10
0
 20
0
 30
0
  0
VERTEX
  8
LAYER_1
 10
301.0942
 20
260.6932
  0
VERTEX
  8
LAYER_1
 10
349.0579
 20
260.6932
  0
VERTEX
  8
LAYER_1
 10
349.0579
 20
266.8738
  0
SEQEND
  0
POLYLINE
  8
LAYER_1
 40
0.1693
 41
0.1693
 66
1
 10
0
 20
0
 30
0
  0
VERTEX
  8
LAYER_1
 10
301.0942
 20
266.8738
  0
VERTEX
  8
LAYER_1
 10
349.0579
 20
266.8738
  0
SEQEND
  0
TEXT
  8
LAYER_1
 10
306.8303
 20
262.704
 11
306.8303
 21
262.704
 40
3.6606
 41
0.5
  1
天板開口寸法図　S=1/5
  0
POLYLINE
  8
LAYER_1
 40
0.0847
 41
0.0847
 66
1
 10
0
 20
0
 30
0
  0
VERTEX
  8
LAYER_1
 10
116.0341
 20
272.4195
  0
VERTEX
  8
LAYER_1
 10
117.8968
 20
273.499
  0
SEQEND
  0
POLYLINE
  8
LAYER_1
 40
0.0847
 41
0.0847
 66
1
 10
0
 20
0
 30
0
  0
VERTEX
  8
LAYER_1
 10
118.6588
 20
273.9224
  0
VERTEX
  8
LAYER_1
 10
119.3996
 20
274.3669
  0
SEQEND
  0
POLYLINE
  8
LAYER_1
 40
0.0847
 41
0.0847
 66
1
 10
0
 20
0
 30
0
  0
VERTEX
  8
LAYER_1
 10
120.1616
 20
274.7902
  0
VERTEX
  8
LAYER_1
 10
122.0454
 20
275.8908
  0
SEQEND
  0
POLYLINE
  8
LAYER_1
 40
0.0847
 41
0.0847
 66
1
 10
0
 20
0
 30
0
  0
VERTEX
  8
LAYER_1
 10
116.0341
 20
272.4195
  0
VERTEX
  8
LAYER_1
 10
117.8968
 20
272.4195
  0
SEQEND
  0
POLYLINE
  8
LAYER_1
 40
0.0847
 41
0.0847
 66
1
 10
0
 20
0
 30
0
  0
VERTEX
  8
LAYER_1
 10
118.6588
 20
272.4195
  0
VERTEX
  8
LAYER_1
 10
119.3996
 20
272.4195
  0
SEQEND
  0
POLYLINE
  8
LAYER_1
 40
0.0847
 41
0.0847
 66
1
 10
0
 20
0
 30
0
  0
VERTEX
  8
LAYER_1
 10
120.1616
 20
272.4195
  0
VERTEX
  8
LAYER_1
 10
122.0454
 20
272.4195
  0
VERTEX
  8
LAYER_1
 10
122.0454
 20
274.5573
  0
SEQEND
  0
POLYLINE
  8
LAYER_1
 40
0.0847
 41
0.0847
 66
1
 10
0
 20
0
 30
0
  0
VERTEX
  8
LAYER_1
 10
122.0454
 20
275.4252
  0
VERTEX
  8
LAYER_1
 10
122.0454
 20
276.2718
  0
SEQEND
  0
POLYLINE
  8
LAYER_1
 40
0.0847
 41
0.0847
 66
1
 10
0
 20
0
 30
0
  0
VERTEX
  8
LAYER_1
 10
122.0454
 20
277.1397
  0
VERTEX
  8
LAYER_1
 10
122.0454
 20
281.4365
  0
SEQEND
  0
POLYLINE
  8
LAYER_1
 40
0.0847
 41
0.0847
 66
1
 10
0
 20
0
 30
0
  0
VERTEX
  8
LAYER_1
 10
122.0454
 20
282.3043
  0
VERTEX
  8
LAYER_1
 10
122.0454
 20
283.151
  0
SEQEND
  0
POLYLINE
  8
LAYER_1
 40
0.0847
 41
0.0847
 66
1
 10
0
 20
0
 30
0
  0
VERTEX
  8
LAYER_1
 10
122.0454
 20
284.0188
  0
VERTEX
  8
LAYER_1
 10
122.0454
 20
288.3157
  0
SEQEND
  0
POLYLINE
  8
LAYER_1
 40
0.0847
 41
0.0847
 66
1
 10
0
 20
0
 30
0
  0
VERTEX
  8
LAYER_1
 10
122.0454
 20
289.1835
  0
VERTEX
  8
LAYER_1
 10
122.0454
 20
290.0302
  0
SEQEND
  0
POLYLINE
  8
LAYER_1
 40
0.0847
 41
0.0847
 66
1
 10
0
 20
0
 30
0
  0
VERTEX
  8
LAYER_1
 10
122.0454
 20
290.898
  0
VERTEX
  8
LAYER_1
 10
122.0454
 20
295.1948
  0
SEQEND
  0
POLYLINE
  8
LAYER_1
 40
0.0847
 41
0.0847
 66
1
 10
0
 20
0
 30
0
  0
VERTEX
  8
LAYER_1
 10
122.0454
 20
296.0627
  0
VERTEX
  8
LAYER_1
 10
122.0454
 20
296.9305
  0
SEQEND
  0
POLYLINE
  8
LAYER_1
 40
0.0847
 41
0.0847
 66
1
 10
0
 20
0
 30
0
  0
VERTEX
  8
LAYER_1
 10
122.0454
 20
297.7772
  0
VERTEX
  8
LAYER_1
 10
122.0454
 20
302.074
  0
SEQEND
  0
POLYLINE
  8
LAYER_1
 40
0.0847
 41
0.0847
 66
1
 10
0
 20
0
 30
0
  0
VERTEX
  8
LAYER_1
 10
122.0454
 20
302.9418
  0
VERTEX
  8
LAYER_1
 10
122.0454
 20
303.8097
  0
SEQEND
  0
POLYLINE
  8
LAYER_1
 40
0.0847
 41
0.0847
 66
1
 10
0
 20
0
 30
0
  0
VERTEX
  8
LAYER_1
 10
122.0454
 20
304.6563
  0
VERTEX
  8
LAYER_1
 10
122.0454
 20
308.9532
  0
SEQEND
  0
POLYLINE
  8
LAYER_1
 40
0.0847
 41
0.0847
 66
1
 10
0
 20
0
 30
0
  0
VERTEX
  8
LAYER_1
 10
122.0454
 20
309.821
  0
VERTEX
  8
LAYER_1
 10
122.0454
 20
310.6888
  0
SEQEND
  0
POLYLINE
  8
LAYER_1
 40
0.0847
 41
0.0847
 66
1
 10
0
 20
0
 30
0
  0
VERTEX
  8
LAYER_1
 10
122.0454
 20
311.5355
  0
VERTEX
  8
LAYER_1
 10
122.0454
 20
315.8323
  0
SEQEND
  0
POLYLINE
  8
LAYER_1
 40
0.0847
 41
0.0847
 66
1
 10
0
 20
0
 30
0
  0
VERTEX
  8
LAYER_1
 10
122.0454
 20
316.7002
  0
VERTEX
  8
LAYER_1
 10
122.0454
 20
317.568
  0
SEQEND
  0
POLYLINE
  8
LAYER_1
 40
0.0847
 41
0.0847
 66
1
 10
0
 20
0
 30
0
  0
VERTEX
  8
LAYER_1
 10
122.0454
 20
318.4147
  0
VERTEX
  8
LAYER_1
 10
122.0454
 20
322.7327
  0
SEQEND
  0
POLYLINE
  8
LAYER_1
 40
0.0847
 41
0.0847
 66
1
 10
0
 20
0
 30
0
  0
VERTEX
  8
LAYER_1
 10
122.0454
 20
323.5793
  0
VERTEX
  8
LAYER_1
 10
122.0454
 20
324.4472
  0
SEQEND
  0
POLYLINE
  8
LAYER_1
 40
0.0847
 41
0.0847
 66
1
 10
0
 20
0
 30
0
  0
VERTEX
  8
LAYER_1
 10
122.0454
 20
325.2938
  0
VERTEX
  8
LAYER_1
 10
122.0454
 20
329.6118
  0
SEQEND
  0
POLYLINE
  8
LAYER_1
 40
0.0847
 41
0.0847
 66
1
 10
0
 20
0
 30
0
  0
VERTEX
  8
LAYER_1
 10
122.0454
 20
330.4585
  0
VERTEX
  8
LAYER_1
 10
122.0454
 20
331.3263
  0
SEQEND
  0
POLYLINE
  8
LAYER_1
 40
0.0847
 41
0.0847
 66
1
 10
0
 20
0
 30
0
  0
VERTEX
  8
LAYER_1
 10
122.0454
 20
332.173
  0
VERTEX
  8
LAYER_1
 10
122.0454
 20
336.491
  0
SEQEND
  0
POLYLINE
  8
LAYER_1
 40
0.0847
 41
0.0847
 66
1
 10
0
 20
0
 30
0
  0
VERTEX
  8
LAYER_1
 10
122.0454
 20
337.3377
  0
VERTEX
  8
LAYER_1
 10
122.0454
 20
338.2055
  0
SEQEND
  0
POLYLINE
  8
LAYER_1
 40
0.0847
 41
0.0847
 66
1
 10
0
 20
0
 30
0
  0
VERTEX
  8
LAYER_1
 10
122.0454
 20
339.0733
  0
VERTEX
  8
LAYER_1
 10
122.0454
 20
343.3702
  0
SEQEND
  0
POLYLINE
  8
LAYER_1
 40
0.0847
 41
0.0847
 66
1
 10
0
 20
0
 30
0
  0
VERTEX
  8
LAYER_1
 10
122.0454
 20
344.2168
  0
VERTEX
  8
LAYER_1
 10
122.0454
 20
345.0847
  0
SEQEND
  0
POLYLINE
  8
LAYER_1
 40
0.0847
 41
0.0847
 66
1
 10
0
 20
0
 30
0
  0
VERTEX
  8
LAYER_1
 10
122.0454
 20
345.9525
  0
VERTEX
  8
LAYER_1
 10
122.0454
 20
350.2493
  0
SEQEND
  0
POLYLINE
  8
LAYER_1
 40
0.0847
 41
0.0847
 66
1
 10
0
 20
0
 30
0
  0
VERTEX
  8
LAYER_1
 10
122.0454
 20
351.096
  0
VERTEX
  8
LAYER_1
 10
122.0454
 20
351.9639
  0
SEQEND
  0
POLYLINE
  8
LAYER_1
 40
0.0847
 41
0.0847
 66
1
 10
0
 20
0
 30
0
  0
VERTEX
  8
LAYER_1
 10
122.0454
 20
352.8317
  0
VERTEX
  8
LAYER_1
 10
122.0454
 20
357.1285
  0
SEQEND
  0
POLYLINE
  8
LAYER_1
 40
0.0847
 41
0.0847
 66
1
 10
0
 20
0
 30
0
  0
VERTEX
  8
LAYER_1
 10
122.0454
 20
357.9752
  0
VERTEX
  8
LAYER_1
 10
122.0454
 20
358.843
  0
SEQEND
  0
POLYLINE
  8
LAYER_1
 40
0.0847
 41
0.0847
 66
1
 10
0
 20
0
 30
0
  0
VERTEX
  8
LAYER_1
 10
122.0454
 20
359.7108
  0
VERTEX
  8
LAYER_1
 10
122.0454
 20
364.0077
  0
SEQEND
  0
POLYLINE
  8
LAYER_1
 40
0.0847
 41
0.0847
 66
1
 10
0
 20
0
 30
0
  0
VERTEX
  8
LAYER_1
 10
122.0454
 20
364.8755
  0
VERTEX
  8
LAYER_1
 10
122.0454
 20
365.7222
  0
SEQEND
  0
POLYLINE
  8
LAYER_1
 40
0.0847
 41
0.0847
 66
1
 10
0
 20
0
 30
0
  0
VERTEX
  8
LAYER_1
 10
122.0454
 20
366.59
  0
VERTEX
  8
LAYER_1
 10
122.0454
 20
370.8868
  0
SEQEND
  0
POLYLINE
  8
LAYER_1
 40
0.0847
 41
0.0847
 66
1
 10
0
 20
0
 30
0
  0
VERTEX
  8
LAYER_1
 10
122.0454
 20
371.7547
  0
VERTEX
  8
LAYER_1
 10
122.0454
 20
372.6013
  0
SEQEND
  0
POLYLINE
  8
LAYER_1
 40
0.0847
 41
0.0847
 66
1
 10
0
 20
0
 30
0
  0
VERTEX
  8
LAYER_1
 10
122.0454
 20
373.4692
  0
VERTEX
  8
LAYER_1
 10
122.0454
 20
377.766
  0
SEQEND
  0
POLYLINE
  8
LAYER_1
 40
0.0847
 41
0.0847
 66
1
 10
0
 20
0
 30
0
  0
VERTEX
  8
LAYER_1
 10
122.0454
 20
378.6338
  0
VERTEX
  8
LAYER_1
 10
122.0454
 20
379.4805
  0
SEQEND
  0
POLYLINE
  8
LAYER_1
 40
0.0847
 41
0.0847
 66
1
 10
0
 20
0
 30
0
  0
VERTEX
  8
LAYER_1
 10
122.0454
 20
380.3483
  0
VERTEX
  8
LAYER_1
 10
122.0454
 20
382.5073
  0
SEQEND
  0
TEXT
  8
LAYER_1
 10
111.2929
 20
270.6747
 11
111.2929
 21
270.6747
 40
6.0838
 41
0.5
  1
B'
  0
TEXT
  8
LAYER_1
 10
95.0155
 20
262.7039
 11
95.0155
 21
262.7039
 40
3.6606
 41
0.5
  1
ボトムケースカバー平面図　S=1/5
  0
POLYLINE
  8
LAYER_1
 40
0.1693
 41
0.1693
 66
1
 10
0
 20
0
 30
0
  0
VERTEX
  8
LAYER_1
 10
92.0311
 20
260.6932
  0
VERTEX
  8
LAYER_1
 10
92.0311
 20
266.8738
  0
SEQEND
  0
POLYLINE
  8
LAYER_1
 40
0.1693
 41
0.1693
 66
1
 10
0
 20
0
 30
0
  0
VERTEX
  8
LAYER_1
 10
92.0311
 20
260.6932
  0
VERTEX
  8
LAYER_1
 10
151.9963
 20
260.6932
  0
VERTEX
  8
LAYER_1
 10
151.9963
 20
266.8738
  0
SEQEND
  0
POLYLINE
  8
LAYER_1
 40
0.1693
 41
0.1693
 66
1
 10
0
 20
0
 30
0
  0
VERTEX
  8
LAYER_1
 10
92.0311
 20
266.8738
  0
VERTEX
  8
LAYER_1
 10
151.9963
 20
266.8738
  0
SEQEND
  0
POLYLINE
  8
LAYER_1
 40
0.1693
 41
0.1693
 66
1
 10
0
 20
0
 30
0
  0
VERTEX
  8
LAYER_1
 10
370.9866
 20
225.2602
  0
VERTEX
  8
LAYER_1
 10
397.0004
 20
225.2602
  0
SEQEND
  0
POLYLINE
  8
LAYER_1
 40
0.0847
 41
0.0847
 66
1
 10
0
 20
0
 30
0
  0
VERTEX
  8
LAYER_1
 10
320.5888
 20
213.301
  0
VERTEX
  8
LAYER_1
 10
329.5846
 20
213.301
  0
SEQEND
  0
POLYLINE
  8
LAYER_1
 40
0.1693
 41
0.1693
 66
1
 10
0
 20
0
 30
0
  0
VERTEX
  8
LAYER_1
 10
320.5888
 20
213.301
  0
VERTEX
  8
LAYER_1
 10
323.4886
 20
214.0842
  0
SEQEND
  0
POLYLINE
  8
LAYER_1
 40
0.1693
 41
0.1693
 66
1
 10
0
 20
0
 30
0
  0
VERTEX
  8
LAYER_1
 10
320.5888
 20
213.301
  0
VERTEX
  8
LAYER_1
 10
323.4886
 20
212.5179
  0
SEQEND
  0
POLYLINE
  8
LAYER_1
 40
0.1693
 41
0.1693
 66
1
 10
0
 20
0
 30
0
  0
VERTEX
  8
LAYER_1
 10
329.5846
 20
213.301
  0
VERTEX
  8
LAYER_1
 10
326.6848
 20
212.5179
  0
SEQEND
  0
POLYLINE
  8
LAYER_1
 40
0.1693
 41
0.1693
 66
1
 10
0
 20
0
 30
0
  0
VERTEX
  8
LAYER_1
 10
329.5846
 20
213.301
  0
VERTEX
  8
LAYER_1
 10
326.6848
 20
214.0842
  0
SEQEND
  0
POLYLINE
  8
LAYER_1
 40
0.0847
 41
0.0847
 66
1
 10
0
 20
0
 30
0
  0
VERTEX
  8
LAYER_1
 10
320.5888
 20
205.2788
  0
VERTEX
  8
LAYER_1
 10
320.5888
 20
213.301
  0
SEQEND
  0
POLYLINE
  8
LAYER_1
 40
0.0847
 41
0.0847
 66
1
 10
0
 20
0
 30
0
  0
VERTEX
  8
LAYER_1
 10
329.5846
 20
205.2788
  0
VERTEX
  8
LAYER_1
 10
329.5846
 20
213.301
  0
SEQEND
  0
TEXT
  8
LAYER_1
 10
323.4673
 20
214.0909
 11
323.4673
 21
214.0909
 40
3.6606
 41
0.5
  1
45
  0
POLYLINE
  8
LAYER_1
 40
0.1693
 41
0.1693
 66
1
 10
0
 20
0
 30
0
  0
VERTEX
  8
LAYER_1
 10
244.0501
 20
225.2602
  0
VERTEX
  8
LAYER_1
 10
279.1868
 20
225.2602
  0
SEQEND
  0
POLYLINE
  8
LAYER_1
 40
0.1693
 41
0.1693
 66
1
 10
0
 20
0
 30
0
  0
VERTEX
  8
LAYER_1
 10
279.1868
 20
197.2567
  0
VERTEX
  8
LAYER_1
 10
279.1868
 20
225.2602
  0
SEQEND
  0
POLYLINE
  8
LAYER_1
 40
0.1693
 41
0.1693
 66
1
 10
0
 20
0
 30
0
  0
VERTEX
  8
LAYER_1
 10
370.9866
 20
197.2567
  0
VERTEX
  8
LAYER_1
 10
370.9866
 20
225.2602
  0
SEQEND
  0
POLYLINE
  8
LAYER_1
 40
0.0847
 41
0.0847
 66
1
 10
0
 20
0
 30
0
  0
VERTEX
  8
LAYER_1
 10
394.5663
 20
221.2597
  0
VERTEX
  8
LAYER_1
 10
397.0004
 20
223.6938
  0
SEQEND
  0
POLYLINE
  8
LAYER_1
 40
0.0847
 41
0.0847
 66
1
 10
0
 20
0
 30
0
  0
VERTEX
  8
LAYER_1
 10
391.7299
 20
221.2597
  0
VERTEX
  8
LAYER_1
 10
395.7304
 20
225.2602
  0
SEQEND
  0
POLYLINE
  8
LAYER_1
 40
0.0847
 41
0.0847
 66
1
 10
0
 20
0
 30
0
  0
VERTEX
  8
LAYER_1
 10
388.9148
 20
221.2597
  0
VERTEX
  8
LAYER_1
 10
392.9153
 20
225.2602
  0
SEQEND
  0
POLYLINE
  8
LAYER_1
 40
0.0847
 41
0.0847
 66
1
 10
0
 20
0
 30
0
  0
VERTEX
  8
LAYER_1
 10
386.0784
 20
221.2597
  0
VERTEX
  8
LAYER_1
 10
390.0789
 20
225.2602
  0
SEQEND
  0
POLYLINE
  8
LAYER_1
 40
0.0847
 41
0.0847
 66
1
 10
0
 20
0
 30
0
  0
VERTEX
  8
LAYER_1
 10
383.2421
 20
221.2597
  0
VERTEX
  8
LAYER_1
 10
387.2426
 20
225.2602
  0
SEQEND
  0
POLYLINE
  8
LAYER_1
 40
0.0847
 41
0.0847
 66
1
 10
0
 20
0
 30
0
  0
VERTEX
  8
LAYER_1
 10
380.4269
 20
221.2597
  0
VERTEX
  8
LAYER_1
 10
384.4274
 20
225.2602
  0
SEQEND
  0
POLYLINE
  8
LAYER_1
 40
0.0847
 41
0.0847
 66
1
 10
0
 20
0
 30
0
  0
VERTEX
  8
LAYER_1
 10
377.5906
 20
221.2597
  0
VERTEX
  8
LAYER_1
 10
381.5911
 20
225.2602
  0
SEQEND
  0
POLYLINE
  8
LAYER_1
 40
0.0847
 41
0.0847
 66
1
 10
0
 20
0
 30
0
  0
VERTEX
  8
LAYER_1
 10
374.7542
 20
221.2597
  0
VERTEX
  8
LAYER_1
 10
378.7547
 20
225.2602
  0
SEQEND
  0
POLYLINE
  8
LAYER_1
 40
0.0847
 41
0.0847
 66
1
 10
0
 20
0
 30
0
  0
VERTEX
  8
LAYER_1
 10
371.9391
 20
221.2597
  0
VERTEX
  8
LAYER_1
 10
375.9395
 20
225.2602
  0
SEQEND
  0
POLYLINE
  8
LAYER_1
 40
0.0847
 41
0.0847
 66
1
 10
0
 20
0
 30
0
  0
VERTEX
  8
LAYER_1
 10
370.9866
 20
223.1435
  0
VERTEX
  8
LAYER_1
 10
373.1032
 20
225.2602
  0
SEQEND
  0
POLYLINE
  8
LAYER_1
 40
0.0847
 41
0.0847
 66
1
 10
0
 20
0
 30
0
  0
VERTEX
  8
LAYER_1
 10
278.5941
 20
221.2597
  0
VERTEX
  8
LAYER_1
 10
279.1867
 20
221.8523
  0
SEQEND
  0
POLYLINE
  8
LAYER_1
 40
0.0847
 41
0.0847
 66
1
 10
0
 20
0
 30
0
  0
VERTEX
  8
LAYER_1
 10
275.7577
 20
221.2597
  0
VERTEX
  8
LAYER_1
 10
279.1867
 20
224.6675
  0
SEQEND
  0
POLYLINE
  8
LAYER_1
 40
0.0847
 41
0.0847
 66
1
 10
0
 20
0
 30
0
  0
VERTEX
  8
LAYER_1
 10
272.9426
 20
221.2597
  0
VERTEX
  8
LAYER_1
 10
276.9431
 20
225.2602
  0
SEQEND
  0
POLYLINE
  8
LAYER_1
 40
0.0847
 41
0.0847
 66
1
 10
0
 20
0
 30
0
  0
VERTEX
  8
LAYER_1
 10
270.1063
 20
221.2597
  0
VERTEX
  8
LAYER_1
 10
274.1068
 20
225.2602
  0
SEQEND
  0
POLYLINE
  8
LAYER_1
 40
0.0847
 41
0.0847
 66
1
 10
0
 20
0
 30
0
  0
VERTEX
  8
LAYER_1
 10
267.2911
 20
221.2597
  0
VERTEX
  8
LAYER_1
 10
271.2916
 20
225.2602
  0
SEQEND
  0
POLYLINE
  8
LAYER_1
 40
0.0847
 41
0.0847
 66
1
 10
0
 20
0
 30
0
  0
VERTEX
  8
LAYER_1
 10
264.4548
 20
221.2597
  0
VERTEX
  8
LAYER_1
 10
268.4553
 20
225.2602
  0
SEQEND
  0
POLYLINE
  8
LAYER_1
 40
0.0847
 41
0.0847
 66
1
 10
0
 20
0
 30
0
  0
VERTEX
  8
LAYER_1
 10
261.6184
 20
221.2597
  0
VERTEX
  8
LAYER_1
 10
265.619
 20
225.2602
  0
SEQEND
  0
POLYLINE
  8
LAYER_1
 40
0.0847
 41
0.0847
 66
1
 10
0
 20
0
 30
0
  0
VERTEX
  8
LAYER_1
 10
258.8033
 20
221.2597
  0
VERTEX
  8
LAYER_1
 10
262.8038
 20
225.2602
  0
SEQEND
  0
POLYLINE
  8
LAYER_1
 40
0.0847
 41
0.0847
 66
1
 10
0
 20
0
 30
0
  0
VERTEX
  8
LAYER_1
 10
255.967
 20
221.2597
  0
VERTEX
  8
LAYER_1
 10
259.9675
 20
225.2602
  0
SEQEND
  0
POLYLINE
  8
LAYER_1
 40
0.0847
 41
0.0847
 66
1
 10
0
 20
0
 30
0
  0
VERTEX
  8
LAYER_1
 10
253.1306
 20
221.2597
  0
VERTEX
  8
LAYER_1
 10
257.1311
 20
225.2602
  0
SEQEND
  0
POLYLINE
  8
LAYER_1
 40
0.0847
 41
0.0847
 66
1
 10
0
 20
0
 30
0
  0
VERTEX
  8
LAYER_1
 10
250.3155
 20
221.2597
  0
VERTEX
  8
LAYER_1
 10
254.316
 20
225.2602
  0
SEQEND
  0
POLYLINE
  8
LAYER_1
 40
0.0847
 41
0.0847
 66
1
 10
0
 20
0
 30
0
  0
VERTEX
  8
LAYER_1
 10
247.4791
 20
221.2597
  0
VERTEX
  8
LAYER_1
 10
251.4797
 20
225.2602
  0
SEQEND
  0
POLYLINE
  8
LAYER_1
 40
0.0847
 41
0.0847
 66
1
 10
0
 20
0
 30
0
  0
VERTEX
  8
LAYER_1
 10
244.6428
 20
221.2597
  0
VERTEX
  8
LAYER_1
 10
248.6433
 20
225.2602
  0
SEQEND
  0
POLYLINE
  8
LAYER_1
 40
0.0847
 41
0.0847
 66
1
 10
0
 20
0
 30
0
  0
VERTEX
  8
LAYER_1
 10
244.0502
 20
223.4822
  0
VERTEX
  8
LAYER_1
 10
245.8282
 20
225.2602
  0
SEQEND
  0
POLYLINE
  8
LAYER_1
 40
0.1693
 41
0.1693
 66
1
 10
0
 20
0
 30
0
  0
VERTEX
  8
LAYER_1
 10
244.0501
 20
221.2597
  0
VERTEX
  8
LAYER_1
 10
279.1868
 20
221.2597
  0
SEQEND
  0
POLYLINE
  8
LAYER_1
 40
0.1693
 41
0.1693
 66
1
 10
0
 20
0
 30
0
  0
VERTEX
  8
LAYER_1
 10
370.9866
 20
221.2597
  0
VERTEX
  8
LAYER_1
 10
397.0004
 20
221.2597
  0
SEQEND
  0
POLYLINE
  8
LAYER_1
 40
0.1693
 41
0.1693
 66
1
 10
0
 20
0
 30
0
  0
VERTEX
  8
LAYER_1
 10
278.7
 20
196.7487
  0
VERTEX
  8
LAYER_1
 10
278.7
 20
220.7517
  0
SEQEND
  0
POLYLINE
  8
LAYER_1
 40
0.1693
 41
0.1693
 66
1
 10
0
 20
0
 30
0
  0
VERTEX
  8
LAYER_1
 10
275.1863
 20
220.7517
  0
VERTEX
  8
LAYER_1
 10
278.7
 20
220.7517
  0
SEQEND
  0
POLYLINE
  8
LAYER_1
 40
0.1693
 41
0.1693
 66
1
 10
0
 20
0
 30
0
  0
VERTEX
  8
LAYER_1
 10
275.1863
 20
220.7517
  0
VERTEX
  8
LAYER_1
 10
275.1863
 20
221.2597
  0
SEQEND
  0
POLYLINE
  8
LAYER_1
 40
0.1693
 41
0.1693
 66
1
 10
0
 20
0
 30
0
  0
VERTEX
  8
LAYER_1
 10
278.7
 20
196.7487
  0
VERTEX
  8
LAYER_1
 10
316.1015
 20
196.7487
  0
VERTEX
  8
LAYER_1
 10
316.1015
 20
197.2567
  0
SEQEND
  0
POLYLINE
  8
LAYER_1
 40
0.1693
 41
0.1693
 66
1
 10
0
 20
0
 30
0
  0
VERTEX
  8
LAYER_1
 10
279.1868
 20
197.2567
  0
VERTEX
  8
LAYER_1
 10
316.1015
 20
197.2567
  0
SEQEND
  0
POLYLINE
  8
LAYER_1
 40
0.1693
 41
0.1693
 66
1
 10
0
 20
0
 30
0
  0
VERTEX
  8
LAYER_1
 10
334.0931
 20
197.2567
  0
VERTEX
  8
LAYER_1
 10
370.9866
 20
197.2567
  0
SEQEND
  0
POLYLINE
  8
LAYER_1
 40
0.1693
 41
0.1693
 66
1
 10
0
 20
0
 30
0
  0
VERTEX
  8
LAYER_1
 10
334.0931
 20
196.7487
  0
VERTEX
  8
LAYER_1
 10
334.0931
 20
197.2567
  0
SEQEND
  0
POLYLINE
  8
LAYER_1
 40
0.1693
 41
0.1693
 66
1
 10
0
 20
0
 30
0
  0
VERTEX
  8
LAYER_1
 10
334.0931
 20
196.7487
  0
VERTEX
  8
LAYER_1
 10
371.4946
 20
196.7487
  0
VERTEX
  8
LAYER_1
 10
371.4946
 20
220.7517
  0
VERTEX
  8
LAYER_1
 10
374.9871
 20
220.7517
  0
VERTEX
  8
LAYER_1
 10
374.9871
 20
221.2597
  0
SEQEND
  0
POLYLINE
  8
LAYER_1
 40
0.0847
 41
0.0847
 66
1
 10
0
 20
0
 30
0
  0
VERTEX
  8
LAYER_1
 10
316.4613
 20
203.649
  0
VERTEX
  8
LAYER_1
 10
316.8635
 20
203.522
  0
VERTEX
  8
LAYER_1
 10
317.0963
 20
203.4374
  0
SEQEND
  0
POLYLINE
  8
LAYER_1
 40
0.0847
 41
0.0847
 66
1
 10
0
 20
0
 30
0
  0
VERTEX
  8
LAYER_1
 10
317.0963
 20
203.4585
  0
VERTEX
  8
LAYER_1
 10
333.0983
 20
203.4585
  0
SEQEND
  0
POLYLINE
  8
LAYER_1
 40
0.0847
 41
0.0847
 66
1
 10
0
 20
0
 30
0
  0
VERTEX
  8
LAYER_1
 10
333.7333
 20
203.649
  0
VERTEX
  8
LAYER_1
 10
333.3311
 20
203.522
  0
VERTEX
  8
LAYER_1
 10
333.0983
 20
203.4374
  0
SEQEND
  0
POLYLINE
  8
LAYER_1
 40
0.0847
 41
0.0847
 66
1
 10
0
 20
0
 30
0
  0
VERTEX
  8
LAYER_1
 10
275.1863
 20
228.4352
  0
VERTEX
  8
LAYER_1
 10
275.4826
 20
228.4563
  0
SEQEND
  0
POLYLINE
  8
LAYER_1
 40
0.0847
 41
0.0847
 66
1
 10
0
 20
0
 30
0
  0
VERTEX
  8
LAYER_1
 10
274.9323
 20
228.3929
  0
VERTEX
  8
LAYER_1
 10
275.1863
 20
228.4352
  0
SEQEND
  0
POLYLINE
  8
LAYER_1
 40
0.0847
 41
0.0847
 66
1
 10
0
 20
0
 30
0
  0
VERTEX
  8
LAYER_1
 10
274.6783
 20
228.3082
  0
VERTEX
  8
LAYER_1
 10
274.9323
 20
228.3929
  0
SEQEND
  0
POLYLINE
  8
LAYER_1
 40
0.0847
 41
0.0847
 66
1
 10
0
 20
0
 30
0
  0
VERTEX
  8
LAYER_1
 10
274.4455
 20
228.2024
  0
VERTEX
  8
LAYER_1
 10
274.6783
 20
228.3082
  0
SEQEND
  0
POLYLINE
  8
LAYER_1
 40
0.0847
 41
0.0847
 66
1
 10
0
 20
0
 30
0
  0
VERTEX
  8
LAYER_1
 10
274.255
 20
228.0754
  0
VERTEX
  8
LAYER_1
 10
274.4455
 20
228.2024
  0
SEQEND
  0
POLYLINE
  8
LAYER_1
 40
0.0847
 41
0.0847
 66
1
 10
0
 20
0
 30
0
  0
VERTEX
  8
LAYER_1
 10
274.0645
 20
227.906
  0
VERTEX
  8
LAYER_1
 10
274.255
 20
228.0754
  0
SEQEND
  0
POLYLINE
  8
LAYER_1
 40
0.0847
 41
0.0847
 66
1
 10
0
 20
0
 30
0
  0
VERTEX
  8
LAYER_1
 10
273.9163
 20
227.6944
  0
VERTEX
  8
LAYER_1
 10
274.0645
 20
227.906
  0
SEQEND
  0
POLYLINE
  8
LAYER_1
 40
0.0847
 41
0.0847
 66
1
 10
0
 20
0
 30
0
  0
VERTEX
  8
LAYER_1
 10
273.7893
 20
227.4616
  0
VERTEX
  8
LAYER_1
 10
273.9163
 20
227.6944
  0
SEQEND
  0
POLYLINE
  8
LAYER_1
 40
0.0847
 41
0.0847
 66
1
 10
0
 20
0
 30
0
  0
VERTEX
  8
LAYER_1
 10
273.6835
 20
227.2076
  0
VERTEX
  8
LAYER_1
 10
273.7893
 20
227.4616
  0
SEQEND
  0
POLYLINE
  8
LAYER_1
 40
0.0847
 41
0.0847
 66
1
 10
0
 20
0
 30
0
  0
VERTEX
  8
LAYER_1
 10
273.5353
 20
226.5937
  0
VERTEX
  8
LAYER_1
 10
273.5988
 20
226.9112
  0
SEQEND
  0
POLYLINE
  8
LAYER_1
 40
0.0847
 41
0.0847
 66
1
 10
0
 20
0
 30
0
  0
VERTEX
  8
LAYER_1
 10
273.493
 20
226.2339
  0
VERTEX
  8
LAYER_1
 10
273.5353
 20
226.5937
  0
SEQEND
  0
POLYLINE
  8
LAYER_1
 40
0.0847
 41
0.0847
 66
1
 10
0
 20
0
 30
0
  0
VERTEX
  8
LAYER_1
 10
273.493
 20
225.8529
  0
VERTEX
  8
LAYER_1
 10
273.493
 20
226.2339
  0
SEQEND
  0
POLYLINE
  8
LAYER_1
 40
0.0847
 41
0.0847
 66
1
 10
0
 20
0
 30
0
  0
VERTEX
  8
LAYER_1
 10
291.0402
 20
213.6609
  0
VERTEX
  8
LAYER_1
 10
291.7175
 20
212.9624
  0
VERTEX
  8
LAYER_1
 10
292.1408
 20
212.5814
  0
VERTEX
  8
LAYER_1
 10
292.6912
 20
212.1157
  0
VERTEX
  8
LAYER_1
 10
293.6648
 20
211.3326
  0
VERTEX
  8
LAYER_1
 10
294.702
 20
210.6129
  0
VERTEX
  8
LAYER_1
 10
295.7603
 20
209.9356
  0
VERTEX
  8
LAYER_1
 10
296.861
 20
209.3217
  0
VERTEX
  8
LAYER_1
 10
297.9617
 20
208.7291
  0
VERTEX
  8
LAYER_1
 10
298.6178
 20
208.3904
  0
VERTEX
  8
LAYER_1
 10
299.1258
 20
208.1576
  0
VERTEX
  8
LAYER_1
 10
300.0148
 20
207.7342
  0
VERTEX
  8
LAYER_1
 10
300.9038
 20
207.3532
  0
VERTEX
  8
LAYER_1
 10
301.7928
 20
206.9934
  0
VERTEX
  8
LAYER_1
 10
302.703
 20
206.6547
  0
VERTEX
  8
LAYER_1
 10
303.6132
 20
206.3584
  0
VERTEX
  8
LAYER_1
 10
304.1423
 20
206.1891
  0
VERTEX
  8
LAYER_1
 10
304.7138
 20
206.0409
  0
VERTEX
  8
LAYER_1
 10
305.6875
 20
205.8081
  0
VERTEX
  8
LAYER_1
 10
306.6612
 20
205.6176
  0
SEQEND
  0
POLYLINE
  8
LAYER_1
 40
0.0847
 41
0.0847
 66
1
 10
0
 20
0
 30
0
  0
VERTEX
  8
LAYER_1
 10
290.384
 20
214.3806
  0
VERTEX
  8
LAYER_1
 10
291.0402
 20
213.6609
  0
SEQEND
  0
POLYLINE
  8
LAYER_1
 40
0.0847
 41
0.0847
 66
1
 10
0
 20
0
 30
0
  0
VERTEX
  8
LAYER_1
 10
289.7278
 20
215.1214
  0
VERTEX
  8
LAYER_1
 10
290.384
 20
214.3806
  0
SEQEND
  0
POLYLINE
  8
LAYER_1
 40
0.0847
 41
0.0847
 66
1
 10
0
 20
0
 30
0
  0
VERTEX
  8
LAYER_1
 10
289.114
 20
215.8834
  0
VERTEX
  8
LAYER_1
 10
289.7278
 20
215.1214
  0
SEQEND
  0
POLYLINE
  8
LAYER_1
 40
0.0847
 41
0.0847
 66
1
 10
0
 20
0
 30
0
  0
VERTEX
  8
LAYER_1
 10
288.479
 20
216.6454
  0
VERTEX
  8
LAYER_1
 10
289.114
 20
215.8834
  0
SEQEND
  0
POLYLINE
  8
LAYER_1
 40
0.0847
 41
0.0847
 66
1
 10
0
 20
0
 30
0
  0
VERTEX
  8
LAYER_1
 10
288.1403
 20
217.0899
  0
VERTEX
  8
LAYER_1
 10
288.479
 20
216.6454
  0
SEQEND
  0
POLYLINE
  8
LAYER_1
 40
0.0847
 41
0.0847
 66
1
 10
0
 20
0
 30
0
  0
VERTEX
  8
LAYER_1
 10
287.1455
 20
218.2329
  0
VERTEX
  8
LAYER_1
 10
288.1403
 20
217.0899
  0
SEQEND
  0
POLYLINE
  8
LAYER_1
 40
0.0847
 41
0.0847
 66
1
 10
0
 20
0
 30
0
  0
VERTEX
  8
LAYER_1
 10
286.2353
 20
219.4817
  0
VERTEX
  8
LAYER_1
 10
287.1455
 20
218.2329
  0
SEQEND
  0
POLYLINE
  8
LAYER_1
 40
0.0847
 41
0.0847
 66
1
 10
0
 20
0
 30
0
  0
VERTEX
  8
LAYER_1
 10
285.3675
 20
220.7728
  0
VERTEX
  8
LAYER_1
 10
286.2353
 20
219.4817
  0
SEQEND
  0
POLYLINE
  8
LAYER_1
 40
0.0847
 41
0.0847
 66
1
 10
0
 20
0
 30
0
  0
VERTEX
  8
LAYER_1
 10
283.7165
 20
223.9055
  0
VERTEX
  8
LAYER_1
 10
285.3675
 20
220.7728
  0
SEQEND
  0
POLYLINE
  8
LAYER_1
 40
0.0847
 41
0.0847
 66
1
 10
0
 20
0
 30
0
  0
VERTEX
  8
LAYER_1
 10
283.7165
 20
223.9055
  0
VERTEX
  8
LAYER_1
 10
283.6953
 20
223.9478
  0
VERTEX
  8
LAYER_1
 10
283.6953
 20
223.969
  0
VERTEX
  8
LAYER_1
 10
283.6742
 20
224.0113
  0
VERTEX
  8
LAYER_1
 10
283.653
 20
224.0537
  0
VERTEX
  8
LAYER_1
 10
283.6318
 20
224.0748
  0
VERTEX
  8
LAYER_1
 10
283.6107
 20
224.1172
  0
VERTEX
  8
LAYER_1
 10
283.5895
 20
224.1595
  0
VERTEX
  8
LAYER_1
 10
283.5472
 20
224.2019
  0
VERTEX
  8
LAYER_1
 10
283.526
 20
224.2442
  0
VERTEX
  8
LAYER_1
 10
283.5048
 20
224.2653
  0
VERTEX
  8
LAYER_1
 10
283.4837
 20
224.3077
  0
VERTEX
  8
LAYER_1
 10
283.4625
 20
224.35
  0
VERTEX
  8
LAYER_1
 10
283.4201
 20
224.3923
  0
VERTEX
  8
LAYER_1
 10
283.399
 20
224.4135
  0
VERTEX
  8
LAYER_1
 10
283.3567
 20
224.4558
  0
VERTEX
  8
LAYER_1
 10
283.3355
 20
224.4982
  0
VERTEX
  8
LAYER_1
 10
283.3143
 20
224.5405
  0
VERTEX
  8
LAYER_1
 10
283.272
 20
224.5617
  0
VERTEX
  8
LAYER_1
 10
283.2508
 20
224.604
  0
VERTEX
  8
LAYER_1
 10
283.2085
 20
224.6463
  0
VERTEX
  8
LAYER_1
 10
283.1873
 20
224.6887
  0
VERTEX
  8
LAYER_1
 10
283.145
 20
224.7099
  0
VERTEX
  8
LAYER_1
 10
283.1027
 20
224.7522
  0
VERTEX
  8
LAYER_1
 10
283.0815
 20
224.7945
  0
VERTEX
  8
LAYER_1
 10
283.0392
 20
224.8157
  0
VERTEX
  8
LAYER_1
 10
282.9968
 20
224.858
  0
VERTEX
  8
LAYER_1
 10
282.9757
 20
224.9003
  0
VERTEX
  8
LAYER_1
 10
282.9333
 20
224.9215
  0
VERTEX
  8
LAYER_1
 10
282.891
 20
224.9638
  0
VERTEX
  8
LAYER_1
 10
282.8698
 20
225.0062
  0
VERTEX
  8
LAYER_1
 10
282.8275
 20
225.0273
  0
VERTEX
  8
LAYER_1
 10
282.7852
 20
225.0697
  0
VERTEX
  8
LAYER_1
 10
282.7428
 20
225.0908
  0
VERTEX
  8
LAYER_1
 10
282.7005
 20
225.1332
  0
VERTEX
  8
LAYER_1
 10
282.6793
 20
225.1543
  0
VERTEX
  8
LAYER_1
 10
282.637
 20
225.1967
  0
VERTEX
  8
LAYER_1
 10
282.5947
 20
225.2178
  0
VERTEX
  8
LAYER_1
 10
282.5523
 20
225.239
  0
VERTEX
  8
LAYER_1
 10
282.51
 20
225.2813
  0
VERTEX
  8
LAYER_1
 10
282.4677
 20
225.3025
  0
VERTEX
  8
LAYER_1
 10
282.4253
 20
225.3237
  0
VERTEX
  8
LAYER_1
 10
282.4042
 20
225.366
  0
VERTEX
  8
LAYER_1
 10
282.3618
 20
225.3872
  0
VERTEX
  8
LAYER_1
 10
282.3195
 20
225.4083
  0
VERTEX
  8
LAYER_1
 10
282.2772
 20
225.4295
  0
VERTEX
  8
LAYER_1
 10
282.2348
 20
225.4718
  0
VERTEX
  8
LAYER_1
 10
282.1925
 20
225.493
  0
VERTEX
  8
LAYER_1
 10
282.1502
 20
225.5142
  0
VERTEX
  8
LAYER_1
 10
282.1078
 20
225.5353
  0
VERTEX
  8
LAYER_1
 10
282.0867
 20
225.5565
  0
VERTEX
  8
LAYER_1
 10
282.0443
 20
225.5777
  0
VERTEX
  8
LAYER_1
 10
282.002
 20
225.5988
  0
VERTEX
  8
LAYER_1
 10
281.9597
 20
225.62
  0
VERTEX
  8
LAYER_1
 10
281.9173
 20
225.62
  0
VERTEX
  8
LAYER_1
 10
281.875
 20
225.6412
  0
VERTEX
  8
LAYER_1
 10
281.8326
 20
225.6623
  0
VERTEX
  8
LAYER_1
 10
281.8115
 20
225.6835
  0
VERTEX
  8
LAYER_1
 10
281.7692
 20
225.6835
  0
VERTEX
  8
LAYER_1
 10
281.7268
 20
225.7047
  0
VERTEX
  8
LAYER_1
 10
281.6845
 20
225.7258
  0
VERTEX
  8
LAYER_1
 10
281.6633
 20
225.7258
  0
VERTEX
  8
LAYER_1
 10
281.2823
 20
225.8528
  0
SEQEND
  0
POLYLINE
  8
LAYER_1
 40
0.0847
 41
0.0847
 66
1
 10
0
 20
0
 30
0
  0
VERTEX
  8
LAYER_1
 10
306.6612
 20
205.6175
  0
VERTEX
  8
LAYER_1
 10
307.148
 20
205.5117
  0
VERTEX
  8
LAYER_1
 10
307.9947
 20
205.3423
  0
VERTEX
  8
LAYER_1
 10
308.8413
 20
205.173
  0
VERTEX
  8
LAYER_1
 10
309.688
 20
205.0037
  0
VERTEX
  8
LAYER_1
 10
310.5346
 20
204.8555
  0
VERTEX
  8
LAYER_1
 10
311.3813
 20
204.7073
  0
VERTEX
  8
LAYER_1
 10
311.8893
 20
204.6227
  0
VERTEX
  8
LAYER_1
 10
312.1433
 20
204.5803
  0
VERTEX
  8
LAYER_1
 10
312.609
 20
204.5168
  0
VERTEX
  8
LAYER_1
 10
313.0746
 20
204.4533
  0
VERTEX
  8
LAYER_1
 10
313.5403
 20
204.3898
  0
VERTEX
  8
LAYER_1
 10
314.006
 20
204.3052
  0
VERTEX
  8
LAYER_1
 10
314.4717
 20
204.2205
  0
VERTEX
  8
LAYER_1
 10
314.7256
 20
204.157
  0
VERTEX
  8
LAYER_1
 10
314.895
 20
204.1147
  0
VERTEX
  8
LAYER_1
 10
315.1701
 20
204.03
  0
VERTEX
  8
LAYER_1
 10
315.4453
 20
203.9665
  0
VERTEX
  8
LAYER_1
 10
315.7416
 20
203.8818
  0
VERTEX
  8
LAYER_1
 10
316.0168
 20
203.776
  0
VERTEX
  8
LAYER_1
 10
316.292
 20
203.6913
  0
VERTEX
  8
LAYER_1
 10
316.4613
 20
203.649
  0
SEQEND
  0
POLYLINE
  8
LAYER_1
 40
0.0847
 41
0.0847
 66
1
 10
0
 20
0
 30
0
  0
VERTEX
  8
LAYER_1
 10
374.9871
 20
228.4352
  0
VERTEX
  8
LAYER_1
 10
374.6908
 20
228.4563
  0
SEQEND
  0
POLYLINE
  8
LAYER_1
 40
0.0847
 41
0.0847
 66
1
 10
0
 20
0
 30
0
  0
VERTEX
  8
LAYER_1
 10
375.2623
 20
228.3928
  0
VERTEX
  8
LAYER_1
 10
374.9871
 20
228.4352
  0
SEQEND
  0
POLYLINE
  8
LAYER_1
 40
0.0847
 41
0.0847
 66
1
 10
0
 20
0
 30
0
  0
VERTEX
  8
LAYER_1
 10
375.5163
 20
228.3082
  0
VERTEX
  8
LAYER_1
 10
375.2623
 20
228.3928
  0
SEQEND
  0
POLYLINE
  8
LAYER_1
 40
0.0847
 41
0.0847
 66
1
 10
0
 20
0
 30
0
  0
VERTEX
  8
LAYER_1
 10
375.728
 20
228.2023
  0
VERTEX
  8
LAYER_1
 10
375.5163
 20
228.3082
  0
SEQEND
  0
POLYLINE
  8
LAYER_1
 40
0.0847
 41
0.0847
 66
1
 10
0
 20
0
 30
0
  0
VERTEX
  8
LAYER_1
 10
375.9396
 20
228.0753
  0
VERTEX
  8
LAYER_1
 10
375.728
 20
228.2023
  0
SEQEND
  0
POLYLINE
  8
LAYER_1
 40
0.0847
 41
0.0847
 66
1
 10
0
 20
0
 30
0
  0
VERTEX
  8
LAYER_1
 10
376.109
 20
227.906
  0
VERTEX
  8
LAYER_1
 10
375.9396
 20
228.0753
  0
SEQEND
  0
POLYLINE
  8
LAYER_1
 40
0.0847
 41
0.0847
 66
1
 10
0
 20
0
 30
0
  0
VERTEX
  8
LAYER_1
 10
376.2571
 20
227.6944
  0
VERTEX
  8
LAYER_1
 10
376.109
 20
227.906
  0
SEQEND
  0
POLYLINE
  8
LAYER_1
 40
0.0847
 41
0.0847
 66
1
 10
0
 20
0
 30
0
  0
VERTEX
  8
LAYER_1
 10
376.4053
 20
227.4615
  0
VERTEX
  8
LAYER_1
 10
376.2571
 20
227.6944
  0
SEQEND
  0
POLYLINE
  8
LAYER_1
 40
0.0847
 41
0.0847
 66
1
 10
0
 20
0
 30
0
  0
VERTEX
  8
LAYER_1
 10
376.5112
 20
227.2075
  0
VERTEX
  8
LAYER_1
 10
376.4053
 20
227.4615
  0
SEQEND
  0
POLYLINE
  8
LAYER_1
 40
0.0847
 41
0.0847
 66
1
 10
0
 20
0
 30
0
  0
VERTEX
  8
LAYER_1
 10
376.6382
 20
226.5937
  0
VERTEX
  8
LAYER_1
 10
376.5958
 20
226.9112
  0
SEQEND
  0
POLYLINE
  8
LAYER_1
 40
0.0847
 41
0.0847
 66
1
 10
0
 20
0
 30
0
  0
VERTEX
  8
LAYER_1
 10
376.6805
 20
226.2339
  0
VERTEX
  8
LAYER_1
 10
376.6382
 20
226.5937
  0
SEQEND
  0
POLYLINE
  8
LAYER_1
 40
0.0847
 41
0.0847
 66
1
 10
0
 20
0
 30
0
  0
VERTEX
  8
LAYER_1
 10
376.7017
 20
225.8529
  0
VERTEX
  8
LAYER_1
 10
376.6805
 20
226.2339
  0
SEQEND
  0
POLYLINE
  8
LAYER_1
 40
0.0847
 41
0.0847
 66
1
 10
0
 20
0
 30
0
  0
VERTEX
  8
LAYER_1
 10
359.1545
 20
213.6609
  0
VERTEX
  8
LAYER_1
 10
358.456
 20
212.9624
  0
VERTEX
  8
LAYER_1
 10
358.0539
 20
212.5814
  0
VERTEX
  8
LAYER_1
 10
357.5035
 20
212.1157
  0
VERTEX
  8
LAYER_1
 10
356.5087
 20
211.3325
  0
VERTEX
  8
LAYER_1
 10
355.4927
 20
210.6129
  0
VERTEX
  8
LAYER_1
 10
354.4344
 20
209.9355
  0
VERTEX
  8
LAYER_1
 10
353.3337
 20
209.3217
  0
VERTEX
  8
LAYER_1
 10
352.2119
 20
208.729
  0
VERTEX
  8
LAYER_1
 10
351.5557
 20
208.3904
  0
VERTEX
  8
LAYER_1
 10
351.0477
 20
208.1575
  0
VERTEX
  8
LAYER_1
 10
350.1799
 20
207.7342
  0
VERTEX
  8
LAYER_1
 10
349.2908
 20
207.3532
  0
VERTEX
  8
LAYER_1
 10
348.3807
 20
206.9934
  0
VERTEX
  8
LAYER_1
 10
347.4917
 20
206.6547
  0
VERTEX
  8
LAYER_1
 10
346.5604
 20
206.3584
  0
VERTEX
  8
LAYER_1
 10
346.0312
 20
206.189
  0
VERTEX
  8
LAYER_1
 10
345.4809
 20
206.0409
  0
VERTEX
  8
LAYER_1
 10
344.5072
 20
205.808
  0
VERTEX
  8
LAYER_1
 10
343.5123
 20
205.6175
  0
SEQEND
  0
POLYLINE
  8
LAYER_1
 40
0.0847
 41
0.0847
 66
1
 10
0
 20
0
 30
0
  0
VERTEX
  8
LAYER_1
 10
359.8107
 20
214.3805
  0
VERTEX
  8
LAYER_1
 10
359.1545
 20
213.6609
  0
SEQEND
  0
POLYLINE
  8
LAYER_1
 40
0.0847
 41
0.0847
 66
1
 10
0
 20
0
 30
0
  0
VERTEX
  8
LAYER_1
 10
360.4457
 20
215.1214
  0
VERTEX
  8
LAYER_1
 10
359.8107
 20
214.3805
  0
SEQEND
  0
POLYLINE
  8
LAYER_1
 40
0.0847
 41
0.0847
 66
1
 10
0
 20
0
 30
0
  0
VERTEX
  8
LAYER_1
 10
361.0807
 20
215.8833
  0
VERTEX
  8
LAYER_1
 10
360.4457
 20
215.1214
  0
SEQEND
  0
POLYLINE
  8
LAYER_1
 40
0.0847
 41
0.0847
 66
1
 10
0
 20
0
 30
0
  0
VERTEX
  8
LAYER_1
 10
361.6945
 20
216.6453
  0
VERTEX
  8
LAYER_1
 10
361.0807
 20
215.8833
  0
SEQEND
  0
POLYLINE
  8
LAYER_1
 40
0.0847
 41
0.0847
 66
1
 10
0
 20
0
 30
0
  0
VERTEX
  8
LAYER_1
 10
362.0544
 20
217.0898
  0
VERTEX
  8
LAYER_1
 10
361.6945
 20
216.6453
  0
SEQEND
  0
POLYLINE
  8
LAYER_1
 40
0.0847
 41
0.0847
 66
1
 10
0
 20
0
 30
0
  0
VERTEX
  8
LAYER_1
 10
363.0281
 20
218.2328
  0
VERTEX
  8
LAYER_1
 10
362.0544
 20
217.0898
  0
SEQEND
  0
POLYLINE
  8
LAYER_1
 40
0.0847
 41
0.0847
 66
1
 10
0
 20
0
 30
0
  0
VERTEX
  8
LAYER_1
 10
363.9594
 20
219.4817
  0
VERTEX
  8
LAYER_1
 10
363.0281
 20
218.2328
  0
SEQEND
  0
POLYLINE
  8
LAYER_1
 40
0.0847
 41
0.0847
 66
1
 10
0
 20
0
 30
0
  0
VERTEX
  8
LAYER_1
 10
364.8061
 20
220.7728
  0
VERTEX
  8
LAYER_1
 10
363.9594
 20
219.4817
  0
SEQEND
  0
POLYLINE
  8
LAYER_1
 40
0.0847
 41
0.0847
 66
1
 10
0
 20
0
 30
0
  0
VERTEX
  8
LAYER_1
 10
366.4571
 20
223.9055
  0
VERTEX
  8
LAYER_1
 10
364.8061
 20
220.7728
  0
SEQEND
  0
POLYLINE
  8
LAYER_1
 40
0.0847
 41
0.0847
 66
1
 10
0
 20
0
 30
0
  0
VERTEX
  8
LAYER_1
 10
368.5102
 20
225.7258
  0
VERTEX
  8
LAYER_1
 10
368.4679
 20
225.7046
  0
VERTEX
  8
LAYER_1
 10
368.4467
 20
225.7046
  0
VERTEX
  8
LAYER_1
 10
368.4044
 20
225.6835
  0
VERTEX
  8
LAYER_1
 10
368.3621
 20
225.6623
  0
VERTEX
  8
LAYER_1
 10
368.3197
 20
225.6623
  0
VERTEX
  8
LAYER_1
 10
368.2774
 20
225.6411
  0
VERTEX
  8
LAYER_1
 10
368.2562
 20
225.62
  0
VERTEX
  8
LAYER_1
 10
368.2139
 20
225.5988
  0
VERTEX
  8
LAYER_1
 10
368.1716
 20
225.5776
  0
VERTEX
  8
LAYER_1
 10
368.1293
 20
225.5565
  0
VERTEX
  8
LAYER_1
 10
368.0869
 20
225.5353
  0
VERTEX
  8
LAYER_1
 10
368.0446
 20
225.5142
  0
VERTEX
  8
LAYER_1
 10
368.0023
 20
225.493
  0
VERTEX
  8
LAYER_1
 10
367.9811
 20
225.4718
  0
VERTEX
  8
LAYER_1
 10
367.9387
 20
225.4506
  0
VERTEX
  8
LAYER_1
 10
367.8964
 20
225.4295
  0
VERTEX
  8
LAYER_1
 10
367.8541
 20
225.4083
  0
VERTEX
  8
LAYER_1
 10
367.8117
 20
225.366
  0
VERTEX
  8
LAYER_1
 10
367.7694
 20
225.3448
  0
VERTEX
  8
LAYER_1
 10
367.7271
 20
225.3236
  0
VERTEX
  8
LAYER_1
 10
367.6848
 20
225.3025
  0
VERTEX
  8
LAYER_1
 10
367.6636
 20
225.2601
  0
VERTEX
  8
LAYER_1
 10
367.6212
 20
225.239
  0
VERTEX
  8
LAYER_1
 10
367.5789
 20
225.1966
  0
VERTEX
  8
LAYER_1
 10
367.5366
 20
225.1755
  0
VERTEX
  8
LAYER_1
 10
367.4942
 20
225.1543
  0
VERTEX
  8
LAYER_1
 10
367.4519
 20
225.112
  0
VERTEX
  8
LAYER_1
 10
367.4096
 20
225.0908
  0
VERTEX
  8
LAYER_1
 10
367.3884
 20
225.0485
  0
VERTEX
  8
LAYER_1
 10
367.3461
 20
225.0062
  0
VERTEX
  8
LAYER_1
 10
367.3037
 20
224.985
  0
SEQEND
  0
POLYLINE
  8
LAYER_1
 40
0.0847
 41
0.0847
 66
1
 10
0
 20
0
 30
0
  0
VERTEX
  8
LAYER_1
 10
367.3036
 20
224.985
  0
VERTEX
  8
LAYER_1
 10
367.2613
 20
224.9427
  0
VERTEX
  8
LAYER_1
 10
367.2401
 20
224.9215
  0
VERTEX
  8
LAYER_1
 10
367.1977
 20
224.8792
  0
VERTEX
  8
LAYER_1
 10
367.1554
 20
224.8368
  0
VERTEX
  8
LAYER_1
 10
367.1343
 20
224.8157
  0
VERTEX
  8
LAYER_1
 10
367.0919
 20
224.7733
  0
VERTEX
  8
LAYER_1
 10
367.0496
 20
224.731
  0
VERTEX
  8
LAYER_1
 10
367.0284
 20
224.7098
  0
VERTEX
  8
LAYER_1
 10
366.9861
 20
224.6675
  0
VERTEX
  8
LAYER_1
 10
366.9649
 20
224.6252
  0
VERTEX
  8
LAYER_1
 10
366.9226
 20
224.5828
  0
VERTEX
  8
LAYER_1
 10
366.9014
 20
224.5617
  0
VERTEX
  8
LAYER_1
 10
366.8591
 20
224.5193
  0
VERTEX
  8
LAYER_1
 10
366.8379
 20
224.477
  0
VERTEX
  8
LAYER_1
 10
366.7956
 20
224.4347
  0
VERTEX
  8
LAYER_1
 10
366.7744
 20
224.4135
  0
VERTEX
  8
LAYER_1
 10
366.7532
 20
224.3712
  0
VERTEX
  8
LAYER_1
 10
366.7109
 20
224.3288
  0
VERTEX
  8
LAYER_1
 10
366.6898
 20
224.2865
  0
VERTEX
  8
LAYER_1
 10
366.6686
 20
224.2653
  0
VERTEX
  8
LAYER_1
 10
366.6474
 20
224.223
  0
VERTEX
  8
LAYER_1
 10
366.6262
 20
224.1807
  0
VERTEX
  8
LAYER_1
 10
366.6051
 20
224.1383
  0
VERTEX
  8
LAYER_1
 10
366.5628
 20
224.1172
  0
VERTEX
  8
LAYER_1
 10
366.5416
 20
224.0748
  0
VERTEX
  8
LAYER_1
 10
366.5204
 20
224.0325
  0
VERTEX
  8
LAYER_1
 10
366.4993
 20
223.9902
  0
VERTEX
  8
LAYER_1
 10
366.4993
 20
223.969
  0
VERTEX
  8
LAYER_1
 10
366.4781
 20
223.9267
  0
VERTEX
  8
LAYER_1
 10
366.4569
 20
223.9055
  0
SEQEND
  0
POLYLINE
  8
LAYER_1
 40
0.0847
 41
0.0847
 66
1
 10
0
 20
0
 30
0
  0
VERTEX
  8
LAYER_1
 10
368.5101
 20
225.7258
  0
VERTEX
  8
LAYER_1
 10
368.8911
 20
225.8528
  0
SEQEND
  0
POLYLINE
  8
LAYER_1
 40
0.0847
 41
0.0847
 66
1
 10
0
 20
0
 30
0
  0
VERTEX
  8
LAYER_1
 10
343.5123
 20
205.6175
  0
VERTEX
  8
LAYER_1
 10
343.0254
 20
205.5117
  0
VERTEX
  8
LAYER_1
 10
342.1788
 20
205.3423
  0
VERTEX
  8
LAYER_1
 10
341.3321
 20
205.173
  0
VERTEX
  8
LAYER_1
 10
340.4854
 20
205.0037
  0
VERTEX
  8
LAYER_1
 10
339.6388
 20
204.8555
  0
VERTEX
  8
LAYER_1
 10
338.7921
 20
204.7073
  0
VERTEX
  8
LAYER_1
 10
338.3053
 20
204.6227
  0
VERTEX
  8
LAYER_1
 10
338.0301
 20
204.5803
  0
VERTEX
  8
LAYER_1
 10
337.5645
 20
204.5168
  0
VERTEX
  8
LAYER_1
 10
337.0988
 20
204.4533
  0
VERTEX
  8
LAYER_1
 10
336.6331
 20
204.3898
  0
VERTEX
  8
LAYER_1
 10
336.1886
 20
204.3052
  0
VERTEX
  8
LAYER_1
 10
335.7229
 20
204.2205
  0
VERTEX
  8
LAYER_1
 10
335.4478
 20
204.157
  0
VERTEX
  8
LAYER_1
 10
335.2996
 20
204.1147
  0
VERTEX
  8
LAYER_1
 10
335.0033
 20
204.03
  0
VERTEX
  8
LAYER_1
 10
334.7281
 20
203.9665
  0
VERTEX
  8
LAYER_1
 10
334.453
 20
203.8818
  0
VERTEX
  8
LAYER_1
 10
334.1778
 20
203.776
  0
VERTEX
  8
LAYER_1
 10
333.9026
 20
203.6913
  0
VERTEX
  8
LAYER_1
 10
333.7333
 20
203.649
  0
SEQEND
  0
POLYLINE
  8
LAYER_1
 40
0.0847
 41
0.0847
 66
1
 10
0
 20
0
 30
0
  0
VERTEX
  8
LAYER_1
 10
275.4826
 20
228.4563
  0
VERTEX
  8
LAYER_1
 10
374.6908
 20
228.4563
  0
SEQEND
  0
POLYLINE
  8
LAYER_1
 40
0.0847
 41
0.0847
 66
1
 10
0
 20
0
 30
0
  0
VERTEX
  8
LAYER_1
 10
273.493
 20
225.8528
  0
VERTEX
  8
LAYER_1
 10
376.7016
 20
225.8528
  0
SEQEND
  0
POLYLINE
  8
LAYER_1
 40
0.0847
 41
0.0847
 66
1
 10
0
 20
0
 30
0
  0
VERTEX
  8
LAYER_1
 10
273.6834
 20
227.2075
  0
VERTEX
  8
LAYER_1
 10
273.5988
 20
226.9112
  0
SEQEND
  0
POLYLINE
  8
LAYER_1
 40
0.0847
 41
0.0847
 66
1
 10
0
 20
0
 30
0
  0
VERTEX
  8
LAYER_1
 10
317.0963
 20
201.4477
  0
VERTEX
  8
LAYER_1
 10
317.0963
 20
203.4373
  0
SEQEND
  0
POLYLINE
  8
LAYER_1
 40
0.0847
 41
0.0847
 66
1
 10
0
 20
0
 30
0
  0
VERTEX
  8
LAYER_1
 10
333.0983
 20
201.4477
  0
VERTEX
  8
LAYER_1
 10
333.0983
 20
203.4373
  0
SEQEND
  0
POLYLINE
  8
LAYER_1
 40
0.0847
 41
0.0847
 66
1
 10
0
 20
0
 30
0
  0
VERTEX
  8
LAYER_1
 10
317.0963
 20
201.4477
  0
VERTEX
  8
LAYER_1
 10
333.0983
 20
201.4477
  0
SEQEND
  0
POLYLINE
  8
LAYER_1
 40
0.0847
 41
0.0847
 66
1
 10
0
 20
0
 30
0
  0
VERTEX
  8
LAYER_1
 10
320.5888
 20
201.4477
  0
VERTEX
  8
LAYER_1
 10
320.102
 20
201.9345
  0
SEQEND
  0
POLYLINE
  8
LAYER_1
 40
0.0847
 41
0.0847
 66
1
 10
0
 20
0
 30
0
  0
VERTEX
  8
LAYER_1
 10
319.1071
 20
202.9505
  0
VERTEX
  8
LAYER_1
 10
318.5991
 20
203.4585
  0
SEQEND
  0
POLYLINE
  8
LAYER_1
 40
0.0847
 41
0.0847
 66
1
 10
0
 20
0
 30
0
  0
VERTEX
  8
LAYER_1
 10
329.5846
 20
201.4477
  0
VERTEX
  8
LAYER_1
 10
330.0715
 20
201.9345
  0
SEQEND
  0
POLYLINE
  8
LAYER_1
 40
0.0847
 41
0.0847
 66
1
 10
0
 20
0
 30
0
  0
VERTEX
  8
LAYER_1
 10
331.0875
 20
202.9505
  0
VERTEX
  8
LAYER_1
 10
331.5955
 20
203.4585
  0
SEQEND
  0
POLYLINE
  8
LAYER_1
 40
0.1693
 41
0.1693
 66
1
 10
0
 20
0
 30
0
  0
VERTEX
  8
LAYER_1
 10
301.1155
 20
170.756
  0
VERTEX
  8
LAYER_1
 10
301.1155
 20
176.9367
  0
SEQEND
  0
POLYLINE
  8
LAYER_1
 40
0.1693
 41
0.1693
 66
1
 10
0
 20
0
 30
0
  0
VERTEX
  8
LAYER_1
 10
301.1155
 20
170.756
  0
VERTEX
  8
LAYER_1
 10
349.0791
 20
170.756
  0
VERTEX
  8
LAYER_1
 10
349.0791
 20
176.9367
  0
SEQEND
  0
POLYLINE
  8
LAYER_1
 40
0.1693
 41
0.1693
 66
1
 10
0
 20
0
 30
0
  0
VERTEX
  8
LAYER_1
 10
301.1155
 20
176.9367
  0
VERTEX
  8
LAYER_1
 10
349.0791
 20
176.9367
  0
SEQEND
  0
POLYLINE
  8
LAYER_1
 40
0.0847
 41
0.0847
 66
1
 10
0
 20
0
 30
0
  0
VERTEX
  8
LAYER_1
 10
325.0973
 20
191.2665
  0
VERTEX
  8
LAYER_1
 10
325.0973
 20
193.6584
  0
SEQEND
  0
POLYLINE
  8
LAYER_1
 40
0.0847
 41
0.0847
 66
1
 10
0
 20
0
 30
0
  0
VERTEX
  8
LAYER_1
 10
325.0973
 20
194.6108
  0
VERTEX
  8
LAYER_1
 10
325.0973
 20
195.5634
  0
SEQEND
  0
POLYLINE
  8
LAYER_1
 40
0.0847
 41
0.0847
 66
1
 10
0
 20
0
 30
0
  0
VERTEX
  8
LAYER_1
 10
325.0973
 20
196.537
  0
VERTEX
  8
LAYER_1
 10
325.0973
 20
201.3207
  0
SEQEND
  0
POLYLINE
  8
LAYER_1
 40
0.0847
 41
0.0847
 66
1
 10
0
 20
0
 30
0
  0
VERTEX
  8
LAYER_1
 10
325.0973
 20
202.2944
  0
VERTEX
  8
LAYER_1
 10
325.0973
 20
203.2469
  0
SEQEND
  0
POLYLINE
  8
LAYER_1
 40
0.0847
 41
0.0847
 66
1
 10
0
 20
0
 30
0
  0
VERTEX
  8
LAYER_1
 10
325.0973
 20
204.1994
  0
VERTEX
  8
LAYER_1
 10
325.0973
 20
209.0042
  0
SEQEND
  0
POLYLINE
  8
LAYER_1
 40
0.0847
 41
0.0847
 66
1
 10
0
 20
0
 30
0
  0
VERTEX
  8
LAYER_1
 10
325.0973
 20
209.9567
  0
VERTEX
  8
LAYER_1
 10
325.0973
 20
210.9092
  0
SEQEND
  0
POLYLINE
  8
LAYER_1
 40
0.0847
 41
0.0847
 66
1
 10
0
 20
0
 30
0
  0
VERTEX
  8
LAYER_1
 10
325.0973
 20
211.8829
  0
VERTEX
  8
LAYER_1
 10
325.0973
 20
216.6665
  0
SEQEND
  0
POLYLINE
  8
LAYER_1
 40
0.0847
 41
0.0847
 66
1
 10
0
 20
0
 30
0
  0
VERTEX
  8
LAYER_1
 10
325.0973
 20
217.6402
  0
VERTEX
  8
LAYER_1
 10
325.0973
 20
218.5927
  0
SEQEND
  0
POLYLINE
  8
LAYER_1
 40
0.0847
 41
0.0847
 66
1
 10
0
 20
0
 30
0
  0
VERTEX
  8
LAYER_1
 10
325.0973
 20
219.5452
  0
VERTEX
  8
LAYER_1
 10
325.0973
 20
224.3501
  0
SEQEND
  0
POLYLINE
  8
LAYER_1
 40
0.0847
 41
0.0847
 66
1
 10
0
 20
0
 30
0
  0
VERTEX
  8
LAYER_1
 10
325.0973
 20
225.3026
  0
VERTEX
  8
LAYER_1
 10
325.0973
 20
226.2551
  0
SEQEND
  0
POLYLINE
  8
LAYER_1
 40
0.0847
 41
0.0847
 66
1
 10
0
 20
0
 30
0
  0
VERTEX
  8
LAYER_1
 10
325.0973
 20
227.2287
  0
VERTEX
  8
LAYER_1
 10
325.0973
 20
232.0124
  0
SEQEND
  0
POLYLINE
  8
LAYER_1
 40
0.0847
 41
0.0847
 66
1
 10
0
 20
0
 30
0
  0
VERTEX
  8
LAYER_1
 10
325.0973
 20
232.9861
  0
VERTEX
  8
LAYER_1
 10
325.0973
 20
233.9386
  0
SEQEND
  0
POLYLINE
  8
LAYER_1
 40
0.0847
 41
0.0847
 66
1
 10
0
 20
0
 30
0
  0
VERTEX
  8
LAYER_1
 10
325.0973
 20
234.8911
  0
VERTEX
  8
LAYER_1
 10
325.0973
 20
237.3041
  0
SEQEND
  0
POLYLINE
  8
LAYER_1
 40
0.0847
 41
0.0847
 66
1
 10
0
 20
0
 30
0
  0
VERTEX
  8
LAYER_1
 10
279.1868
 20
249.1362
  0
VERTEX
  8
LAYER_1
 10
370.9866
 20
249.1362
  0
SEQEND
  0
POLYLINE
  8
LAYER_1
 40
0.1693
 41
0.1693
 66
1
 10
0
 20
0
 30
0
  0
VERTEX
  8
LAYER_1
 10
279.1868
 20
249.1362
  0
VERTEX
  8
LAYER_1
 10
282.0866
 20
249.9193
  0
SEQEND
  0
POLYLINE
  8
LAYER_1
 40
0.1693
 41
0.1693
 66
1
 10
0
 20
0
 30
0
  0
VERTEX
  8
LAYER_1
 10
279.1868
 20
249.1362
  0
VERTEX
  8
LAYER_1
 10
282.0866
 20
248.353
  0
SEQEND
  0
POLYLINE
  8
LAYER_1
 40
0.1693
 41
0.1693
 66
1
 10
0
 20
0
 30
0
  0
VERTEX
  8
LAYER_1
 10
370.9866
 20
249.1362
  0
VERTEX
  8
LAYER_1
 10
368.0868
 20
248.353
  0
SEQEND
  0
POLYLINE
  8
LAYER_1
 40
0.1693
 41
0.1693
 66
1
 10
0
 20
0
 30
0
  0
VERTEX
  8
LAYER_1
 10
370.9866
 20
249.1362
  0
VERTEX
  8
LAYER_1
 10
368.0868
 20
249.9193
  0
SEQEND
  0
POLYLINE
  8
LAYER_1
 40
0.0847
 41
0.0847
 66
1
 10
0
 20
0
 30
0
  0
VERTEX
  8
LAYER_1
 10
279.1868
 20
232.2452
  0
VERTEX
  8
LAYER_1
 10
279.1868
 20
249.1362
  0
SEQEND
  0
POLYLINE
  8
LAYER_1
 40
0.0847
 41
0.0847
 66
1
 10
0
 20
0
 30
0
  0
VERTEX
  8
LAYER_1
 10
370.9866
 20
232.2452
  0
VERTEX
  8
LAYER_1
 10
370.9866
 20
249.1362
  0
SEQEND
  0
TEXT
  8
LAYER_1
 10
322.5995
 20
249.9261
 11
322.5995
 21
249.9261
 40
3.6606
 41
0.5
  1
459
  0
POLYLINE
  8
LAYER_1
 40
0.0847
 41
0.0847
 66
1
 10
0
 20
0
 30
0
  0
VERTEX
  8
LAYER_1
 10
273.7258
 20
225.9798
  0
VERTEX
  8
LAYER_1
 10
263.2271
 20
236.4997
  0
SEQEND
  0
TEXT
  8
LAYER_1
 10
309.4765
 20
172.6467
 11
309.4765
 21
172.6467
 40
3.6606
 41
0.5
  1
B0B'断面図　S=1/5
  0
POLYLINE
  8
LAYER_1
 40
0.0847
 41
0.0847
 66
1
 10
0
 20
0
 30
0
  0
VERTEX
  8
LAYER_1
 10
258.2953
 20
402.4675
  0
VERTEX
  8
LAYER_1
 10
391.8993
 20
402.4675
  0
SEQEND
  0
POLYLINE
  8
LAYER_1
 40
0.1693
 41
0.1693
 66
1
 10
0
 20
0
 30
0
  0
VERTEX
  8
LAYER_1
 10
258.2953
 20
402.4675
  0
VERTEX
  8
LAYER_1
 10
261.1951
 20
403.2295
  0
SEQEND
  0
POLYLINE
  8
LAYER_1
 40
0.1693
 41
0.1693
 66
1
 10
0
 20
0
 30
0
  0
VERTEX
  8
LAYER_1
 10
258.2953
 20
402.4675
  0
VERTEX
  8
LAYER_1
 10
261.1951
 20
401.6843
  0
SEQEND
  0
POLYLINE
  8
LAYER_1
 40
0.1693
 41
0.1693
 66
1
 10
0
 20
0
 30
0
  0
VERTEX
  8
LAYER_1
 10
391.8993
 20
402.4675
  0
VERTEX
  8
LAYER_1
 10
388.9995
 20
401.6843
  0
SEQEND
  0
POLYLINE
  8
LAYER_1
 40
0.1693
 41
0.1693
 66
1
 10
0
 20
0
 30
0
  0
VERTEX
  8
LAYER_1
 10
391.8993
 20
402.4675
  0
VERTEX
  8
LAYER_1
 10
388.9995
 20
403.2295
  0
SEQEND
  0
POLYLINE
  8
LAYER_1
 40
0.0847
 41
0.0847
 66
1
 10
0
 20
0
 30
0
  0
VERTEX
  8
LAYER_1
 10
258.2953
 20
342.2272
  0
VERTEX
  8
LAYER_1
 10
258.2953
 20
402.4675
  0
SEQEND
  0
POLYLINE
  8
LAYER_1
 40
0.0847
 41
0.0847
 66
1
 10
0
 20
0
 30
0
  0
VERTEX
  8
LAYER_1
 10
391.8993
 20
342.2272
  0
VERTEX
  8
LAYER_1
 10
391.8993
 20
402.4675
  0
SEQEND
  0
TEXT
  8
LAYER_1
 10
311.339
 20
402.7494
 11
311.339
 21
402.7494
 40
3.6606
 41
0.5
  1
668（縁 外寸法）
  0
POLYLINE
  8
LAYER_1
 40
0.0847
 41
0.0847
 66
1
 10
0
 20
0
 30
0
  0
VERTEX
  8
LAYER_1
 10
264.9839
 20
390.8047
  0
VERTEX
  8
LAYER_1
 10
385.1894
 20
390.8047
  0
SEQEND
  0
POLYLINE
  8
LAYER_1
 40
0.1693
 41
0.1693
 66
1
 10
0
 20
0
 30
0
  0
VERTEX
  8
LAYER_1
 10
264.9839
 20
390.8047
  0
VERTEX
  8
LAYER_1
 10
267.8838
 20
391.5667
  0
SEQEND
  0
POLYLINE
  8
LAYER_1
 40
0.1693
 41
0.1693
 66
1
 10
0
 20
0
 30
0
  0
VERTEX
  8
LAYER_1
 10
264.9839
 20
390.8047
  0
VERTEX
  8
LAYER_1
 10
267.8838
 20
390.0215
  0
SEQEND
  0
POLYLINE
  8
LAYER_1
 40
0.1693
 41
0.1693
 66
1
 10
0
 20
0
 30
0
  0
VERTEX
  8
LAYER_1
 10
385.1894
 20
390.8047
  0
VERTEX
  8
LAYER_1
 10
382.2896
 20
390.0215
  0
SEQEND
  0
POLYLINE
  8
LAYER_1
 40
0.1693
 41
0.1693
 66
1
 10
0
 20
0
 30
0
  0
VERTEX
  8
LAYER_1
 10
385.1894
 20
390.8047
  0
VERTEX
  8
LAYER_1
 10
382.2896
 20
391.5667
  0
SEQEND
  0
POLYLINE
  8
LAYER_1
 40
0.0847
 41
0.0847
 66
1
 10
0
 20
0
 30
0
  0
VERTEX
  8
LAYER_1
 10
264.9839
 20
342.2272
  0
VERTEX
  8
LAYER_1
 10
264.9839
 20
390.8047
  0
SEQEND
  0
POLYLINE
  8
LAYER_1
 40
0.0847
 41
0.0847
 66
1
 10
0
 20
0
 30
0
  0
VERTEX
  8
LAYER_1
 10
385.1894
 20
342.2272
  0
VERTEX
  8
LAYER_1
 10
385.1894
 20
390.8047
  0
SEQEND
  0
TEXT
  8
LAYER_1
 10
305.2218
 20
391.5947
 11
305.2218
 21
391.5947
 40
3.6606
 41
0.5
  1
601（取付け面加工寸法）
  0
POLYLINE
  8
LAYER_1
 40
0.0847
 41
0.0847
 66
1
 10
0
 20
0
 30
0
  0
VERTEX
  8
LAYER_1
 10
242.5684
 20
283.5955
  0
VERTEX
  8
LAYER_1
 10
242.5684
 20
365.4258
  0
SEQEND
  0
POLYLINE
  8
LAYER_1
 40
0.1693
 41
0.1693
 66
1
 10
0
 20
0
 30
0
  0
VERTEX
  8
LAYER_1
 10
242.5684
 20
365.4258
  0
VERTEX
  8
LAYER_1
 10
243.3304
 20
362.526
  0
SEQEND
  0
POLYLINE
  8
LAYER_1
 40
0.1693
 41
0.1693
 66
1
 10
0
 20
0
 30
0
  0
VERTEX
  8
LAYER_1
 10
242.5684
 20
365.4258
  0
VERTEX
  8
LAYER_1
 10
241.7853
 20
362.526
  0
SEQEND
  0
POLYLINE
  8
LAYER_1
 40
0.1693
 41
0.1693
 66
1
 10
0
 20
0
 30
0
  0
VERTEX
  8
LAYER_1
 10
242.5684
 20
283.5955
  0
VERTEX
  8
LAYER_1
 10
241.7853
 20
286.4742
  0
SEQEND
  0
POLYLINE
  8
LAYER_1
 40
0.1693
 41
0.1693
 66
1
 10
0
 20
0
 30
0
  0
VERTEX
  8
LAYER_1
 10
242.5684
 20
283.5955
  0
VERTEX
  8
LAYER_1
 10
243.3304
 20
286.4742
  0
SEQEND
  0
POLYLINE
  8
LAYER_1
 40
0.0847
 41
0.0847
 66
1
 10
0
 20
0
 30
0
  0
VERTEX
  8
LAYER_1
 10
242.5684
 20
365.4258
  0
VERTEX
  8
LAYER_1
 10
287.2301
 20
365.4258
  0
SEQEND
  0
POLYLINE
  8
LAYER_1
 40
0.0847
 41
0.0847
 66
1
 10
0
 20
0
 30
0
  0
VERTEX
  8
LAYER_1
 10
242.5684
 20
283.5955
  0
VERTEX
  8
LAYER_1
 10
287.2301
 20
283.5955
  0
SEQEND
  0
POLYLINE
  8
LAYER_1
 40
0.0847
 41
0.0847
 66
1
 10
0
 20
0
 30
0
  0
VERTEX
  8
LAYER_1
 10
229.5721
 20
276.928
  0
VERTEX
  8
LAYER_1
 10
229.5721
 20
372.1145
  0
SEQEND
  0
POLYLINE
  8
LAYER_1
 40
0.1693
 41
0.1693
 66
1
 10
0
 20
0
 30
0
  0
VERTEX
  8
LAYER_1
 10
229.5721
 20
372.1145
  0
VERTEX
  8
LAYER_1
 10
230.3553
 20
369.2147
  0
SEQEND
  0
POLYLINE
  8
LAYER_1
 40
0.1693
 41
0.1693
 66
1
 10
0
 20
0
 30
0
  0
VERTEX
  8
LAYER_1
 10
229.5721
 20
372.1145
  0
VERTEX
  8
LAYER_1
 10
228.789
 20
369.2147
  0
SEQEND
  0
POLYLINE
  8
LAYER_1
 40
0.1693
 41
0.1693
 66
1
 10
0
 20
0
 30
0
  0
VERTEX
  8
LAYER_1
 10
229.5721
 20
276.928
  0
VERTEX
  8
LAYER_1
 10
228.789
 20
279.8278
  0
SEQEND
  0
POLYLINE
  8
LAYER_1
 40
0.1693
 41
0.1693
 66
1
 10
0
 20
0
 30
0
  0
VERTEX
  8
LAYER_1
 10
229.5721
 20
276.928
  0
VERTEX
  8
LAYER_1
 10
230.3553
 20
279.8278
  0
SEQEND
  0
POLYLINE
  8
LAYER_1
 40
0.0847
 41
0.0847
 66
1
 10
0
 20
0
 30
0
  0
VERTEX
  8
LAYER_1
 10
229.5721
 20
372.1145
  0
VERTEX
  8
LAYER_1
 10
287.2301
 20
372.1145
  0
SEQEND
  0
POLYLINE
  8
LAYER_1
 40
0.0847
 41
0.0847
 66
1
 10
0
 20
0
 30
0
  0
VERTEX
  8
LAYER_1
 10
229.5721
 20
276.928
  0
VERTEX
  8
LAYER_1
 10
287.2301
 20
276.928
  0
SEQEND
  0
TEXT
  8
LAYER_1
 10
228.8457
 20
310.7524
 11
228.8457
 21
310.7524
 40
3.6606
 41
0.5
 50
89.99999999
  1
476（縁 外寸法）
  0
TEXT
  8
LAYER_1
 10
241.8208
 20
304.6353
 11
241.8208
 21
304.6353
 40
3.6606
 41
0.5
 50
89.99999999
  1
409（取付け面加工寸法）
  0
POLYLINE
  8
LAYER_1
 40
0.0847
 41
0.0847
 66
1
 10
0
 20
0
 30
0
  0
VERTEX
  8
LAYER_1
 10
117.5369
 20
213.301
  0
VERTEX
  8
LAYER_1
 10
126.5328
 20
213.301
  0
SEQEND
  0
POLYLINE
  8
LAYER_1
 40
0.1693
 41
0.1693
 66
1
 10
0
 20
0
 30
0
  0
VERTEX
  8
LAYER_1
 10
117.5369
 20
213.301
  0
VERTEX
  8
LAYER_1
 10
120.4368
 20
214.0842
  0
SEQEND
  0
POLYLINE
  8
LAYER_1
 40
0.1693
 41
0.1693
 66
1
 10
0
 20
0
 30
0
  0
VERTEX
  8
LAYER_1
 10
117.5369
 20
213.301
  0
VERTEX
  8
LAYER_1
 10
120.4368
 20
212.5179
  0
SEQEND
  0
POLYLINE
  8
LAYER_1
 40
0.1693
 41
0.1693
 66
1
 10
0
 20
0
 30
0
  0
VERTEX
  8
LAYER_1
 10
126.5328
 20
213.301
  0
VERTEX
  8
LAYER_1
 10
123.6541
 20
212.5179
  0
SEQEND
  0
POLYLINE
  8
LAYER_1
 40
0.1693
 41
0.1693
 66
1
 10
0
 20
0
 30
0
  0
VERTEX
  8
LAYER_1
 10
126.5328
 20
213.301
  0
VERTEX
  8
LAYER_1
 10
123.6541
 20
214.0842
  0
SEQEND
  0
TEXT
  8
LAYER_1
 10
120.4158
 20
214.0909
 11
120.4158
 21
214.0909
 40
3.6606
 41
0.5
  1
45
  0
POLYLINE
  8
LAYER_1
 40
0.0847
 41
0.0847
 66
1
 10
0
 20
0
 30
0
  0
VERTEX
  8
LAYER_1
 10
117.5369
 20
206.2737
  0
VERTEX
  8
LAYER_1
 10
117.5369
 20
213.301
  0
SEQEND
  0
POLYLINE
  8
LAYER_1
 40
0.0847
 41
0.0847
 66
1
 10
0
 20
0
 30
0
  0
VERTEX
  8
LAYER_1
 10
126.5328
 20
206.2737
  0
VERTEX
  8
LAYER_1
 10
126.5328
 20
213.301
  0
SEQEND
  0
TEXT
  8
LAYER_1
 10
350.8993
 20
273.2239
 11
350.8993
 21
273.2239
 40
3.0419
 41
0.5
  1
石材及び木材の場合、開口部分の面取 10R020R推奨
  0
POLYLINE
  8
LAYER_1
 40
0.0847
 41
0.0847
 66
1
 10
0
 20
0
 30
0
  0
VERTEX
  8
LAYER_1
 10
359.5355
 20
286.3472
  0
VERTEX
  8
LAYER_1
 10
369.4414
 20
277.6688
  0
SEQEND
  0
POLYLINE
  8
LAYER_1
 40
0.0847
 41
0.0847
 66
1
 10
0
 20
0
 30
0
  0
VERTEX
  8
LAYER_1
 10
113.0496
 20
185.2763
  0
VERTEX
  8
LAYER_1
 10
131.0413
 20
185.2763
  0
SEQEND
  0
POLYLINE
  8
LAYER_1
 40
0.1693
 41
0.1693
 66
1
 10
0
 20
0
 30
0
  0
VERTEX
  8
LAYER_1
 10
113.0496
 20
185.2763
  0
VERTEX
  8
LAYER_1
 10
115.9494
 20
186.0595
  0
SEQEND
  0
POLYLINE
  8
LAYER_1
 40
0.1693
 41
0.1693
 66
1
 10
0
 20
0
 30
0
  0
VERTEX
  8
LAYER_1
 10
113.0496
 20
185.2763
  0
VERTEX
  8
LAYER_1
 10
115.9494
 20
184.4932
  0
SEQEND
  0
POLYLINE
  8
LAYER_1
 40
0.1693
 41
0.1693
 66
1
 10
0
 20
0
 30
0
  0
VERTEX
  8
LAYER_1
 10
131.0413
 20
185.2763
  0
VERTEX
  8
LAYER_1
 10
128.1414
 20
184.4932
  0
SEQEND
  0
POLYLINE
  8
LAYER_1
 40
0.1693
 41
0.1693
 66
1
 10
0
 20
0
 30
0
  0
VERTEX
  8
LAYER_1
 10
131.0413
 20
185.2763
  0
VERTEX
  8
LAYER_1
 10
128.1414
 20
186.0595
  0
SEQEND
  0
TEXT
  8
LAYER_1
 10
120.4151
 20
186.0662
 11
120.4151
 21
186.0662
 40
3.6606
 41
0.5
  1
90
  0
POLYLINE
  8
LAYER_1
 40
0.0847
 41
0.0847
 66
1
 10
0
 20
0
 30
0
  0
VERTEX
  8
LAYER_1
 10
113.0496
 20
185.2763
  0
VERTEX
  8
LAYER_1
 10
113.0496
 20
194.9918
  0
SEQEND
  0
POLYLINE
  8
LAYER_1
 40
0.0847
 41
0.0847
 66
1
 10
0
 20
0
 30
0
  0
VERTEX
  8
LAYER_1
 10
131.0413
 20
185.2763
  0
VERTEX
  8
LAYER_1
 10
131.0413
 20
194.9918
  0
SEQEND
  0
POLYLINE
  8
LAYER_1
 40
0.0847
 41
0.0847
 66
1
 10
0
 20
0
 30
0
  0
VERTEX
  8
LAYER_1
 10
316.1015
 20
185.2763
  0
VERTEX
  8
LAYER_1
 10
334.0931
 20
185.2763
  0
SEQEND
  0
POLYLINE
  8
LAYER_1
 40
0.1693
 41
0.1693
 66
1
 10
0
 20
0
 30
0
  0
VERTEX
  8
LAYER_1
 10
316.1014
 20
185.2763
  0
VERTEX
  8
LAYER_1
 10
318.9801
 20
186.0595
  0
SEQEND
  0
POLYLINE
  8
LAYER_1
 40
0.1693
 41
0.1693
 66
1
 10
0
 20
0
 30
0
  0
VERTEX
  8
LAYER_1
 10
316.1014
 20
185.2763
  0
VERTEX
  8
LAYER_1
 10
318.9801
 20
184.4932
  0
SEQEND
  0
POLYLINE
  8
LAYER_1
 40
0.1693
 41
0.1693
 66
1
 10
0
 20
0
 30
0
  0
VERTEX
  8
LAYER_1
 10
334.0931
 20
185.2763
  0
VERTEX
  8
LAYER_1
 10
331.1933
 20
184.4932
  0
SEQEND
  0
POLYLINE
  8
LAYER_1
 40
0.1693
 41
0.1693
 66
1
 10
0
 20
0
 30
0
  0
VERTEX
  8
LAYER_1
 10
334.0931
 20
185.2763
  0
VERTEX
  8
LAYER_1
 10
331.1933
 20
186.0595
  0
SEQEND
  0
TEXT
  8
LAYER_1
 10
323.4673
 20
186.0663
 11
323.4673
 21
186.0663
 40
3.6606
 41
0.5
  1
90
  0
POLYLINE
  8
LAYER_1
 40
0.0847
 41
0.0847
 66
1
 10
0
 20
0
 30
0
  0
VERTEX
  8
LAYER_1
 10
316.1014
 20
185.2763
  0
VERTEX
  8
LAYER_1
 10
316.1014
 20
194.9918
  0
SEQEND
  0
POLYLINE
  8
LAYER_1
 40
0.0847
 41
0.0847
 66
1
 10
0
 20
0
 30
0
  0
VERTEX
  8
LAYER_1
 10
334.0931
 20
185.2763
  0
VERTEX
  8
LAYER_1
 10
334.0931
 20
194.9918
  0
SEQEND
  0
POLYLINE
  8
LAYER_1
 40
0.0847
 41
0.0847
 66
1
 10
0
 20
0
 30
0
  0
VERTEX
  8
LAYER_1
 10
122.0454
 20
191.2665
  0
VERTEX
  8
LAYER_1
 10
122.0454
 20
193.4678
  0
SEQEND
  0
POLYLINE
  8
LAYER_1
 40
0.0847
 41
0.0847
 66
1
 10
0
 20
0
 30
0
  0
VERTEX
  8
LAYER_1
 10
122.0454
 20
194.3568
  0
VERTEX
  8
LAYER_1
 10
122.0454
 20
195.2458
  0
SEQEND
  0
POLYLINE
  8
LAYER_1
 40
0.0847
 41
0.0847
 66
1
 10
0
 20
0
 30
0
  0
VERTEX
  8
LAYER_1
 10
122.0454
 20
196.1348
  0
VERTEX
  8
LAYER_1
 10
122.0454
 20
200.5587
  0
SEQEND
  0
POLYLINE
  8
LAYER_1
 40
0.0847
 41
0.0847
 66
1
 10
0
 20
0
 30
0
  0
VERTEX
  8
LAYER_1
 10
122.0454
 20
201.4477
  0
VERTEX
  8
LAYER_1
 10
122.0454
 20
202.3155
  0
SEQEND
  0
POLYLINE
  8
LAYER_1
 40
0.0847
 41
0.0847
 66
1
 10
0
 20
0
 30
0
  0
VERTEX
  8
LAYER_1
 10
122.0454
 20
203.2045
  0
VERTEX
  8
LAYER_1
 10
122.0454
 20
207.6283
  0
SEQEND
  0
POLYLINE
  8
LAYER_1
 40
0.0847
 41
0.0847
 66
1
 10
0
 20
0
 30
0
  0
VERTEX
  8
LAYER_1
 10
122.0454
 20
208.5173
  0
VERTEX
  8
LAYER_1
 10
122.0454
 20
209.4063
  0
SEQEND
  0
POLYLINE
  8
LAYER_1
 40
0.0847
 41
0.0847
 66
1
 10
0
 20
0
 30
0
  0
VERTEX
  8
LAYER_1
 10
122.0454
 20
210.2953
  0
VERTEX
  8
LAYER_1
 10
122.0454
 20
212.5178
  0
SEQEND
  0
TEXT
  8
LAYER_1
 10
50.3183
 20
138.3576
 11
50.3183
 21
138.3576
 40
3.8842
 41
0.5
  1
マジェスティックシリーズ用ボトムケースカバー
  0
TEXT
  8
LAYER_1
 10
349.7475
 20
139.3691
 11
349.7475
 21
139.3691
 40
3.3848
 41
0.5
 62
39
  1
●TEL 0120-65-1232●FAX 06-6532-1580
  0
TEXT
  8
LAYER_1
 10
349.7475
 20
135.8544
 11
349.7475
 21
135.8544
 40
3.3848
 41
0.5
 62
39
  1
hits@hiratatile.co.jp
  0
INSERT
  8
LAYER_1
  2
AIGNBL01010002
 10
0
 20
0
 30
0
  0
TEXT
  8
LAYER_1
 10
50.3859
 20
131.5829
 11
50.3859
 21
131.5829
 40
4.6883
 41
0.5
 62
39
  1
SC-BCC-BK
  0
POLYLINE
  8
LAYER_1
 40
0.254
 41
0.254
 66
1
 10
0
 20
0
 30
0
  0
VERTEX
  8
LAYER_1
 10
3.1173
 20
149.6834
  0
VERTEX
  8
LAYER_1
 10
417.095
 20
149.6834
  0
SEQEND
  0
TEXT
  8
LAYER_1
 10
130.2451
 20
138.4048
 11
130.2451
 21
138.4048
 40
3.8842
 41
0.5
  1
※埋め込み（オーバーカウンター／ドロップイン）取付専用
  0
ENDSEC
  0
EOF
