  0
SECTION
  2
HEADER
  9
$ACADVER
  1
AC1009
  9
$LUNITS
 70
2
  9
$LUPREC
 70
4
  9
$LTSCALE
 40
1.0
  9
$EXTMIN
 10
3.1173
 20
6.8623
 30
0
  9
$EXTMAX
 10
417.095
 20
232.5582
 30
0
  0
ENDSEC
  0
SECTION
  2
TABLES
  0
TABLE
  2
LTYPE
 70
256
  0
LTYPE
  2
AIGENLINE001
 70
64
  3
generate AI->DXF Converter
 72
65
 73
2
 40
2.032
 49
1.016
 49
-1.016
  0
ENDTAB
  0
TABLE
  2
LAYER
 70
1
  0
LAYER
  2
LAYER_1
 70
64
 62
7
  6
CONTINUOUS
  0
ENDTAB
  0
TABLE
  2
STYLE
 70
6
  0
STYLE
  2
STANDARD
 70
0
 40
0
 50
0
 71
0
 41
0
 42
0
  3
TXT
  4
BIGFONT
  0
ENDTAB
  0
ENDSEC
  0
SECTION
  2
BLOCKS
  0
BLOCK
  8
LAYER_1
  2
AIGNBL01040005
 70
64
 10
0
 20
0
 30
0
  3
AIGNBL01040005
  0
POLYLINE
  8
LAYER_1
 40
0.05
 41
0.05
 62
29
 66
1
 10
0
 20
0
 30
0
 70
1
  0
VERTEX
  8
LAYER_1
 10
320.4766
 20
15.8555
  0
VERTEX
  8
LAYER_1
 10
319.9877
 20
14.6704
  0
VERTEX
  8
LAYER_1
 10
319.3597
 20
14.6704
  0
VERTEX
  8
LAYER_1
 10
320.9592
 20
18.4363
  0
VERTEX
  8
LAYER_1
 10
321.6924
 20
18.4363
  0
VERTEX
  8
LAYER_1
 10
323.2988
 20
14.6704
  0
VERTEX
  8
LAYER_1
 10
322.6487
 20
14.6704
  0
VERTEX
  8
LAYER_1
 10
322.1461
 20
15.8555
  0
SEQEND
  0
POLYLINE
  8
LAYER_1
 40
0.05
 41
0.05
 62
29
 66
1
 10
0
 20
0
 30
0
 70
1
  0
VERTEX
  8
LAYER_1
 10
322.0203
 20
16.2345
  0
VERTEX
  8
LAYER_1
 10
321.5594
 20
17.3193
  0
VERTEX
  8
LAYER_1
 10
321.3147
 20
18.0063
  0
VERTEX
  8
LAYER_1
 10
321.301
 20
18.0063
  0
VERTEX
  8
LAYER_1
 10
321.0633
 20
17.3238
  0
VERTEX
  8
LAYER_1
 10
320.6027
 20
16.2345
  0
SEQEND
  0
ENDBLK
  0
BLOCK
  8
LAYER_1
  2
AIGNBL01040006
 70
64
 10
0
 20
0
 30
0
  3
AIGNBL01040006
  0
POLYLINE
  8
LAYER_1
 40
0.05
 41
0.05
 62
29
 66
1
 10
0
 20
0
 30
0
 70
1
  0
VERTEX
  8
LAYER_1
 10
327.6641
 20
14.1171
 42
-0.01562387181
  0
VERTEX
  8
LAYER_1
 10
325.8619
 20
14.5533
  0
VERTEX
  8
LAYER_1
 10
325.5753
 20
14.6087
 42
-0.08357116773
  0
VERTEX
  8
LAYER_1
 10
324.7113
 20
14.7749
 42
-0.09750805853
  0
VERTEX
  8
LAYER_1
 10
324.0501
 20
15.1809
 42
-0.2129055397
  0
VERTEX
  8
LAYER_1
 10
323.5014
 20
16.5136
 42
-0.09685143224
  0
VERTEX
  8
LAYER_1
 10
323.646
 20
17.287
 42
-0.2046325641
  0
VERTEX
  8
LAYER_1
 10
324.6935
 20
18.3112
 42
-0.09825434011
  0
VERTEX
  8
LAYER_1
 10
325.6945
 20
18.4976
 42
-0.08554836282
  0
VERTEX
  8
LAYER_1
 10
326.5631
 20
18.3563
 42
-0.1004347897
  0
VERTEX
  8
LAYER_1
 10
327.2282
 20
17.962
 42
-0.2140895568
  0
VERTEX
  8
LAYER_1
 10
327.8036
 20
16.5921
 42
-0.09540761417
  0
VERTEX
  8
LAYER_1
 10
327.6647
 20
15.8243
 42
-0.2143180113
  0
VERTEX
  8
LAYER_1
 10
326.6419
 20
14.8459
 42
-0.02339684384
  0
VERTEX
  8
LAYER_1
 10
326.4628
 20
14.7876
  0
VERTEX
  8
LAYER_1
 10
326.4628
 20
14.7652
 42
0.01715381139
  0
VERTEX
  8
LAYER_1
 10
327.8391
 20
14.525
  0
SEQEND
  0
POLYLINE
  8
LAYER_1
 40
0.05
 41
0.05
 62
29
 66
1
 10
0
 20
0
 30
0
 70
1
  0
VERTEX
  8
LAYER_1
 10
327.1614
 20
16.5707
 42
0.1071478063
  0
VERTEX
  8
LAYER_1
 10
327.0101
 20
17.2755
 42
0.29764763
  0
VERTEX
  8
LAYER_1
 10
325.6731
 20
18.1011
 42
0.1072381498
  0
VERTEX
  8
LAYER_1
 10
324.9833
 20
17.9616
 42
0.2386128144
  0
VERTEX
  8
LAYER_1
 10
324.1964
 20
16.9559
 42
0.05752200415
  0
VERTEX
  8
LAYER_1
 10
324.1508
 20
16.5259
 42
0.218096749
  0
VERTEX
  8
LAYER_1
 10
324.6814
 20
15.3305
 42
0.1772796408
  0
VERTEX
  8
LAYER_1
 10
325.6452
 20
15.0049
 42
0.1075185771
  0
VERTEX
  8
LAYER_1
 10
326.3266
 20
15.1439
 42
0.2370926009
  0
VERTEX
  8
LAYER_1
 10
327.1137
 20
16.1435
 42
0.05601310134
  0
SEQEND
  0
ENDBLK
  0
BLOCK
  8
LAYER_1
  2
AIGNBL01040007
 70
64
 10
0
 20
0
 30
0
  3
AIGNBL01040007
  0
POLYLINE
  8
LAYER_1
 40
0.05
 41
0.05
 62
29
 66
1
 10
0
 20
0
 30
0
 70
1
  0
VERTEX
  8
LAYER_1
 10
329.131
 20
18.4363
  0
VERTEX
  8
LAYER_1
 10
329.131
 20
16.2069
 42
0.1145199457
  0
VERTEX
  8
LAYER_1
 10
329.2649
 20
15.5411
 42
0.1464896694
  0
VERTEX
  8
LAYER_1
 10
329.6152
 20
15.1559
 42
0.1362580474
  0
VERTEX
  8
LAYER_1
 10
330.2276
 20
15.0049
 42
0.1219437831
  0
VERTEX
  8
LAYER_1
 10
330.8507
 20
15.1397
 42
0.1502873274
  0
VERTEX
  8
LAYER_1
 10
331.2225
 20
15.5087
 42
0.1256234729
  0
VERTEX
  8
LAYER_1
 10
331.3731
 20
16.2069
  0
VERTEX
  8
LAYER_1
 10
331.3731
 20
18.4363
  0
VERTEX
  8
LAYER_1
 10
331.9877
 20
18.4363
  0
VERTEX
  8
LAYER_1
 10
331.9877
 20
16.2403
 42
-0.09997895241
  0
VERTEX
  8
LAYER_1
 10
331.8528
 20
15.4976
 42
-0.1214934275
  0
VERTEX
  8
LAYER_1
 10
331.4795
 20
14.991
 42
-0.110620524
  0
VERTEX
  8
LAYER_1
 10
330.854
 20
14.6843
 42
-0.06129362553
  0
VERTEX
  8
LAYER_1
 10
330.2065
 20
14.6087
 42
-0.09420005614
  0
VERTEX
  8
LAYER_1
 10
329.3874
 20
14.7469
 42
-0.24315236
  0
VERTEX
  8
LAYER_1
 10
328.5839
 20
15.6576
 42
-0.0632033471
  0
VERTEX
  8
LAYER_1
 10
328.5164
 20
16.2183
  0
VERTEX
  8
LAYER_1
 10
328.5164
 20
18.4363
  0
SEQEND
  0
ENDBLK
  0
BLOCK
  8
LAYER_1
  2
AIGNBL01040008
 70
64
 10
0
 20
0
 30
0
  3
AIGNBL01040008
  0
POLYLINE
  8
LAYER_1
 40
0.05
 41
0.05
 62
29
 66
1
 10
0
 20
0
 30
0
 70
1
  0
VERTEX
  8
LAYER_1
 10
333.734
 20
15.8555
  0
VERTEX
  8
LAYER_1
 10
333.2448
 20
14.6704
  0
VERTEX
  8
LAYER_1
 10
332.6167
 20
14.6704
  0
VERTEX
  8
LAYER_1
 10
334.216
 20
18.4363
  0
VERTEX
  8
LAYER_1
 10
334.9491
 20
18.4363
  0
VERTEX
  8
LAYER_1
 10
336.5555
 20
14.6704
  0
VERTEX
  8
LAYER_1
 10
335.9061
 20
14.6704
  0
VERTEX
  8
LAYER_1
 10
335.4035
 20
15.8555
  0
SEQEND
  0
POLYLINE
  8
LAYER_1
 40
0.05
 41
0.05
 62
29
 66
1
 10
0
 20
0
 30
0
 70
1
  0
VERTEX
  8
LAYER_1
 10
335.2774
 20
16.2345
  0
VERTEX
  8
LAYER_1
 10
334.8161
 20
17.3193
  0
VERTEX
  8
LAYER_1
 10
334.5715
 20
18.0063
  0
VERTEX
  8
LAYER_1
 10
334.5577
 20
18.0063
  0
VERTEX
  8
LAYER_1
 10
334.3203
 20
17.3238
  0
VERTEX
  8
LAYER_1
 10
333.8594
 20
16.2345
  0
SEQEND
  0
ENDBLK
  0
BLOCK
  8
LAYER_1
  2
AIGNBL01040009
 70
64
 10
0
 20
0
 30
0
  3
AIGNBL01040009
  0
POLYLINE
  8
LAYER_1
 40
0.05
 41
0.05
 62
29
 66
1
 10
0
 20
0
 30
0
 70
1
  0
VERTEX
  8
LAYER_1
 10
337.5963
 20
18.3915
 42
-0.03240300255
  0
VERTEX
  8
LAYER_1
 10
338.7631
 20
18.4645
 42
-0.08082287254
  0
VERTEX
  8
LAYER_1
 10
339.7196
 20
18.3327
 42
-0.07816212749
  0
VERTEX
  8
LAYER_1
 10
340.0829
 20
18.1517
 42
-0.2483921074
  0
VERTEX
  8
LAYER_1
 10
340.4946
 20
17.3634
 42
-0.226147
  0
VERTEX
  8
LAYER_1
 10
340.1315
 20
16.5593
 42
-0.1097235065
  0
VERTEX
  8
LAYER_1
 10
339.5032
 20
16.246
 42
-0.06565761462
  0
VERTEX
  8
LAYER_1
 10
338.6929
 20
16.1456
 42
-0.06238970687
  0
VERTEX
  8
LAYER_1
 10
338.2043
 20
16.179
  0
VERTEX
  8
LAYER_1
 10
338.2043
 20
14.6704
  0
VERTEX
  8
LAYER_1
 10
337.5963
 20
14.6704
  0
SEQEND
  0
POLYLINE
  8
LAYER_1
 40
0.05
 41
0.05
 62
29
 66
1
 10
0
 20
0
 30
0
 70
1
  0
VERTEX
  8
LAYER_1
 10
338.2043
 20
16.5759
 42
0.04202964651
  0
VERTEX
  8
LAYER_1
 10
338.7066
 20
16.5366
 42
0.1032325703
  0
VERTEX
  8
LAYER_1
 10
339.4258
 20
16.6639
 42
0.1555838345
  0
VERTEX
  8
LAYER_1
 10
339.7906
 20
16.9684
 42
0.1352564048
  0
VERTEX
  8
LAYER_1
 10
339.8876
 20
17.3411
 42
0.1737047371
  0
VERTEX
  8
LAYER_1
 10
339.7528
 20
17.7484
 42
0.1517050813
  0
VERTEX
  8
LAYER_1
 10
339.3317
 20
18.0079
 42
0.06879756253
  0
VERTEX
  8
LAYER_1
 10
338.7772
 20
18.0787
 42
0.06317907604
  0
VERTEX
  8
LAYER_1
 10
338.2043
 20
18.0394
  0
SEQEND
  0
ENDBLK
  0
BLOCK
  8
LAYER_1
  2
AIGNBL0104000A
 70
64
 10
0
 20
0
 30
0
  3
AIGNBL0104000A
  0
POLYLINE
  8
LAYER_1
 40
0.05
 41
0.05
 62
29
 66
1
 10
0
 20
0
 30
0
 70
1
  0
VERTEX
  8
LAYER_1
 10
342.0466
 20
18.1345
 42
-0.2767830485
  0
VERTEX
  8
LAYER_1
 10
341.9071
 20
17.8944
 42
-0.1265113161
  0
VERTEX
  8
LAYER_1
 10
341.655
 20
17.8327
 42
-0.2237303387
  0
VERTEX
  8
LAYER_1
 10
341.3446
 20
17.9651
 42
-0.1708347924
  0
VERTEX
  8
LAYER_1
 10
341.2846
 20
18.1345
 42
-0.2643957951
  0
VERTEX
  8
LAYER_1
 10
341.434
 20
18.3815
 42
-0.1289907874
  0
VERTEX
  8
LAYER_1
 10
341.6687
 20
18.4414
 42
-0.2252979244
  0
VERTEX
  8
LAYER_1
 10
341.9855
 20
18.3108
 42
-0.1691669651
  0
SEQEND
  0
POLYLINE
  8
LAYER_1
 40
0.05
 41
0.05
 62
29
 66
1
 10
0
 20
0
 30
0
 70
1
  0
VERTEX
  8
LAYER_1
 10
341.3611
 20
14.6704
  0
VERTEX
  8
LAYER_1
 10
341.3611
 20
17.3745
  0
VERTEX
  8
LAYER_1
 10
341.9757
 20
17.3745
  0
VERTEX
  8
LAYER_1
 10
341.9757
 20
14.6704
  0
SEQEND
  0
ENDBLK
  0
BLOCK
  8
LAYER_1
  2
AIGNBL0104000B
 70
64
 10
0
 20
0
 30
0
  3
AIGNBL0104000B
  0
POLYLINE
  8
LAYER_1
 40
0.05
 41
0.05
 62
29
 66
1
 10
0
 20
0
 30
0
 70
1
  0
VERTEX
  8
LAYER_1
 10
343.8474
 20
15.8555
  0
VERTEX
  8
LAYER_1
 10
343.3592
 20
14.6704
  0
VERTEX
  8
LAYER_1
 10
342.7301
 20
14.6704
  0
VERTEX
  8
LAYER_1
 10
344.3297
 20
18.4363
  0
VERTEX
  8
LAYER_1
 10
345.0635
 20
18.4363
  0
VERTEX
  8
LAYER_1
 10
346.67
 20
14.6704
  0
VERTEX
  8
LAYER_1
 10
346.0202
 20
14.6704
  0
VERTEX
  8
LAYER_1
 10
345.5176
 20
15.8555
  0
SEQEND
  0
POLYLINE
  8
LAYER_1
 40
0.05
 41
0.05
 62
29
 66
1
 10
0
 20
0
 30
0
 70
1
  0
VERTEX
  8
LAYER_1
 10
345.3915
 20
16.2345
  0
VERTEX
  8
LAYER_1
 10
344.9305
 20
17.3193
  0
VERTEX
  8
LAYER_1
 10
344.6866
 20
18.0063
  0
VERTEX
  8
LAYER_1
 10
344.6718
 20
18.0063
  0
VERTEX
  8
LAYER_1
 10
344.4348
 20
17.3238
  0
VERTEX
  8
LAYER_1
 10
343.9738
 20
16.2345
  0
SEQEND
  0
ENDBLK
  0
BLOCK
  8
LAYER_1
  2
AIGNBL01030004
 70
64
 10
0
 20
0
 30
0
  3
AIGNBL01030004
  0
INSERT
  8
LAYER_1
  2
AIGNBL01040005
 10
0
 20
0
 30
0
  0
INSERT
  8
LAYER_1
  2
AIGNBL01040006
 10
0
 20
0
 30
0
  0
INSERT
  8
LAYER_1
  2
AIGNBL01040007
 10
0
 20
0
 30
0
  0
INSERT
  8
LAYER_1
  2
AIGNBL01040008
 10
0
 20
0
 30
0
  0
INSERT
  8
LAYER_1
  2
AIGNBL01040009
 10
0
 20
0
 30
0
  0
INSERT
  8
LAYER_1
  2
AIGNBL0104000A
 10
0
 20
0
 30
0
  0
INSERT
  8
LAYER_1
  2
AIGNBL0104000B
 10
0
 20
0
 30
0
  0
ENDBLK
  0
BLOCK
  8
LAYER_1
  2
AIGNBL0103000D
 70
64
 10
0
 20
0
 30
0
  3
AIGNBL0103000D
  0
POLYLINE
  8
LAYER_1
 40
0.05
 41
0.05
 62
29
 66
1
 10
0
 20
0
 30
0
 70
1
  0
VERTEX
  8
LAYER_1
 10
319.4696
 20
12.7711
  0
VERTEX
  8
LAYER_1
 10
320.0228
 20
12.7711
  0
VERTEX
  8
LAYER_1
 10
320.0228
 20
12.6774
  0
VERTEX
  8
LAYER_1
 10
319.3645
 20
12.6774
  0
VERTEX
  8
LAYER_1
 10
319.3645
 20
13.7106
  0
VERTEX
  8
LAYER_1
 10
320.0053
 20
13.7106
  0
VERTEX
  8
LAYER_1
 10
320.0053
 20
13.6172
  0
VERTEX
  8
LAYER_1
 10
319.4696
 20
13.6172
  0
VERTEX
  8
LAYER_1
 10
319.4696
 20
13.2627
  0
VERTEX
  8
LAYER_1
 10
319.9701
 20
13.2627
  0
VERTEX
  8
LAYER_1
 10
319.9701
 20
13.1694
  0
VERTEX
  8
LAYER_1
 10
319.4696
 20
13.1694
  0
SEQEND
  0
ENDBLK
  0
BLOCK
  8
LAYER_1
  2
AIGNBL0103000E
 70
64
 10
0
 20
0
 30
0
  3
AIGNBL0103000E
  0
POLYLINE
  8
LAYER_1
 40
0.05
 41
0.05
 62
29
 66
1
 10
0
 20
0
 30
0
 70
1
  0
VERTEX
  8
LAYER_1
 10
321.1625
 20
12.8307
  0
VERTEX
  8
LAYER_1
 10
321.1652
 20
12.8307
  0
VERTEX
  8
LAYER_1
 10
321.1652
 20
13.7106
  0
VERTEX
  8
LAYER_1
 10
321.2703
 20
13.7106
  0
VERTEX
  8
LAYER_1
 10
321.2703
 20
12.6774
  0
VERTEX
  8
LAYER_1
 10
321.1394
 20
12.6774
  0
VERTEX
  8
LAYER_1
 10
320.5382
 20
13.5663
  0
VERTEX
  8
LAYER_1
 10
320.5348
 20
13.5663
  0
VERTEX
  8
LAYER_1
 10
320.5348
 20
12.6774
  0
VERTEX
  8
LAYER_1
 10
320.43
 20
12.6774
  0
VERTEX
  8
LAYER_1
 10
320.43
 20
13.7106
  0
VERTEX
  8
LAYER_1
 10
320.5613
 20
13.7106
  0
SEQEND
  0
ENDBLK
  0
BLOCK
  8
LAYER_1
  2
AIGNBL0103000F
 70
64
 10
0
 20
0
 30
0
  3
AIGNBL0103000F
  0
POLYLINE
  8
LAYER_1
 40
0.05
 41
0.05
 62
29
 66
1
 10
0
 20
0
 30
0
 70
1
  0
VERTEX
  8
LAYER_1
 10
321.7433
 20
12.8893
  0
VERTEX
  8
LAYER_1
 10
321.7978
 20
12.7863
 42
0.1809219053
  0
VERTEX
  8
LAYER_1
 10
321.9111
 20
12.7446
  0
VERTEX
  8
LAYER_1
 10
322.0003
 20
12.7642
  0
VERTEX
  8
LAYER_1
 10
322.0565
 20
12.8176
  0
VERTEX
  8
LAYER_1
 10
322.0854
 20
12.8941
  0
VERTEX
  8
LAYER_1
 10
322.0937
 20
12.9837
  0
VERTEX
  8
LAYER_1
 10
322.0937
 20
13.7106
  0
VERTEX
  8
LAYER_1
 10
322.1988
 20
13.7106
  0
VERTEX
  8
LAYER_1
 10
322.1988
 20
12.9751
  0
VERTEX
  8
LAYER_1
 10
322.1874
 20
12.8672
  0
VERTEX
  8
LAYER_1
 10
322.1461
 20
12.7622
  0
VERTEX
  8
LAYER_1
 10
322.0613
 20
12.6826
  0
VERTEX
  8
LAYER_1
 10
321.9225
 20
12.6512
 42
-0.1846674817
  0
VERTEX
  8
LAYER_1
 10
321.7378
 20
12.7112
 42
-0.1765293084
  0
VERTEX
  8
LAYER_1
 10
321.6455
 20
12.8628
  0
SEQEND
  0
ENDBLK
  0
BLOCK
  8
LAYER_1
  2
AIGNBL01030010
 70
64
 10
0
 20
0
 30
0
  3
AIGNBL01030010
  0
POLYLINE
  8
LAYER_1
 40
0.05
 41
0.05
 62
29
 66
1
 10
0
 20
0
 30
0
 70
1
  0
VERTEX
  8
LAYER_1
 10
323.6871
 20
13.1942
 42
-0.1037038216
  0
VERTEX
  8
LAYER_1
 10
323.646
 20
12.9768
 42
-0.1002458474
  0
VERTEX
  8
LAYER_1
 10
323.5334
 20
12.8052
  0
VERTEX
  8
LAYER_1
 10
323.3625
 20
12.6922
 42
-0.09506675375
  0
VERTEX
  8
LAYER_1
 10
323.1486
 20
12.6512
 42
-0.1010866674
  0
VERTEX
  8
LAYER_1
 10
322.935
 20
12.6922
 42
-0.1000561267
  0
VERTEX
  8
LAYER_1
 10
322.7641
 20
12.8052
 42
-0.09479293922
  0
VERTEX
  8
LAYER_1
 10
322.6508
 20
12.9768
 42
-0.09316534225
  0
VERTEX
  8
LAYER_1
 10
322.6101
 20
13.1942
 42
-0.1027149125
  0
VERTEX
  8
LAYER_1
 10
322.6508
 20
13.4116
 42
-0.1007559602
  0
VERTEX
  8
LAYER_1
 10
322.7641
 20
13.5831
 42
-0.09634037191
  0
VERTEX
  8
LAYER_1
 10
322.935
 20
13.6961
 42
-0.09532420784
  0
VERTEX
  8
LAYER_1
 10
323.1486
 20
13.7371
 42
-0.1018017754
  0
VERTEX
  8
LAYER_1
 10
323.3625
 20
13.6961
 42
-0.09904976341
  0
VERTEX
  8
LAYER_1
 10
323.5334
 20
13.5831
 42
-0.09543199427
  0
VERTEX
  8
LAYER_1
 10
323.646
 20
13.4116
 42
-0.09417236148
  0
SEQEND
  0
POLYLINE
  8
LAYER_1
 40
0.05
 41
0.05
 62
29
 66
1
 10
0
 20
0
 30
0
 70
1
  0
VERTEX
  8
LAYER_1
 10
323.5761
 20
13.1935
  0
VERTEX
  8
LAYER_1
 10
323.5472
 20
13.3654
  0
VERTEX
  8
LAYER_1
 10
323.4624
 20
13.5087
  0
VERTEX
  8
LAYER_1
 10
323.3274
 20
13.6069
  0
VERTEX
  8
LAYER_1
 10
323.1486
 20
13.6438
 42
0.1146758138
  0
VERTEX
  8
LAYER_1
 10
322.9698
 20
13.6069
  0
VERTEX
  8
LAYER_1
 10
322.8351
 20
13.5087
  0
VERTEX
  8
LAYER_1
 10
322.7503
 20
13.3654
  0
VERTEX
  8
LAYER_1
 10
322.7211
 20
13.1935
  0
VERTEX
  8
LAYER_1
 10
322.7503
 20
13.0216
  0
VERTEX
  8
LAYER_1
 10
322.8351
 20
12.8786
  0
VERTEX
  8
LAYER_1
 10
322.9698
 20
12.7811
 42
0.1008280473
  0
VERTEX
  8
LAYER_1
 10
323.1486
 20
12.7446
  0
VERTEX
  8
LAYER_1
 10
323.3274
 20
12.7811
  0
VERTEX
  8
LAYER_1
 10
323.4624
 20
12.8786
  0
VERTEX
  8
LAYER_1
 10
323.5472
 20
13.0216
  0
SEQEND
  0
ENDBLK
  0
BLOCK
  8
LAYER_1
  2
AIGNBL01030011
 70
64
 10
0
 20
0
 30
0
  3
AIGNBL01030011
  0
POLYLINE
  8
LAYER_1
 40
0.05
 41
0.05
 62
29
 66
1
 10
0
 20
0
 30
0
 70
1
  0
VERTEX
  8
LAYER_1
 10
324.4618
 20
12.6774
  0
VERTEX
  8
LAYER_1
 10
324.3571
 20
12.6774
  0
VERTEX
  8
LAYER_1
 10
324.3571
 20
13.1229
  0
VERTEX
  8
LAYER_1
 10
323.9702
 20
13.7106
  0
VERTEX
  8
LAYER_1
 10
324.1015
 20
13.7106
  0
VERTEX
  8
LAYER_1
 10
324.4126
 20
13.2104
  0
VERTEX
  8
LAYER_1
 10
324.7261
 20
13.7106
  0
VERTEX
  8
LAYER_1
 10
324.8484
 20
13.7106
  0
VERTEX
  8
LAYER_1
 10
324.4618
 20
13.1229
  0
SEQEND
  0
ENDBLK
  0
BLOCK
  8
LAYER_1
  2
AIGNBL01030012
 70
64
 10
0
 20
0
 30
0
  3
AIGNBL01030012
  0
POLYLINE
  8
LAYER_1
 40
0.05
 41
0.05
 62
29
 66
1
 10
0
 20
0
 30
0
 70
1
  0
VERTEX
  8
LAYER_1
 10
325.7534
 20
13.7106
  0
VERTEX
  8
LAYER_1
 10
326.061
 20
13.7106
  0
VERTEX
  8
LAYER_1
 10
326.1796
 20
13.6982
  0
VERTEX
  8
LAYER_1
 10
326.2864
 20
13.6558
  0
VERTEX
  8
LAYER_1
 10
326.3642
 20
13.5749
  0
VERTEX
  8
LAYER_1
 10
326.3939
 20
13.4467
 42
-0.1787887146
  0
VERTEX
  8
LAYER_1
 10
326.3439
 20
13.3044
 42
-0.1639171028
  0
VERTEX
  8
LAYER_1
 10
326.2106
 20
13.2249
  0
VERTEX
  8
LAYER_1
 10
326.2106
 20
13.2221
 42
-0.1735745096
  0
VERTEX
  8
LAYER_1
 10
326.3773
 20
13.1439
 42
-0.1923137572
  0
VERTEX
  8
LAYER_1
 10
326.4435
 20
12.9634
  0
VERTEX
  8
LAYER_1
 10
326.4163
 20
12.8463
  0
VERTEX
  8
LAYER_1
 10
326.3401
 20
12.7556
  0
VERTEX
  8
LAYER_1
 10
326.2192
 20
12.6981
  0
VERTEX
  8
LAYER_1
 10
326.0594
 20
12.6774
  0
VERTEX
  8
LAYER_1
 10
325.7534
 20
12.6774
  0
SEQEND
  0
POLYLINE
  8
LAYER_1
 40
0.05
 41
0.05
 62
29
 66
1
 10
0
 20
0
 30
0
 70
1
  0
VERTEX
  8
LAYER_1
 10
325.8585
 20
13.2583
  0
VERTEX
  8
LAYER_1
 10
326.07
 20
13.2583
  0
VERTEX
  8
LAYER_1
 10
326.1468
 20
13.2672
  0
VERTEX
  8
LAYER_1
 10
326.2171
 20
13.2969
  0
VERTEX
  8
LAYER_1
 10
326.2692
 20
13.3534
  0
VERTEX
  8
LAYER_1
 10
326.2888
 20
13.4395
  0
VERTEX
  8
LAYER_1
 10
326.2692
 20
13.5232
  0
VERTEX
  8
LAYER_1
 10
326.2161
 20
13.5794
  0
VERTEX
  8
LAYER_1
 10
326.1372
 20
13.6107
  0
VERTEX
  8
LAYER_1
 10
326.0407
 20
13.6204
  0
VERTEX
  8
LAYER_1
 10
325.8585
 20
13.6204
  0
SEQEND
  0
POLYLINE
  8
LAYER_1
 40
0.05
 41
0.05
 62
29
 66
1
 10
0
 20
0
 30
0
 70
1
  0
VERTEX
  8
LAYER_1
 10
325.8585
 20
12.768
  0
VERTEX
  8
LAYER_1
 10
326.0542
 20
12.768
  0
VERTEX
  8
LAYER_1
 10
326.1627
 20
12.779
  0
VERTEX
  8
LAYER_1
 10
326.2533
 20
12.8139
  0
VERTEX
  8
LAYER_1
 10
326.315
 20
12.8769
  0
VERTEX
  8
LAYER_1
 10
326.3384
 20
12.9696
 42
0.2554060681
  0
VERTEX
  8
LAYER_1
 10
326.2692
 20
13.1218
 42
0.1380642909
  0
VERTEX
  8
LAYER_1
 10
326.0731
 20
13.1721
  0
VERTEX
  8
LAYER_1
 10
325.8585
 20
13.1721
  0
SEQEND
  0
ENDBLK
  0
BLOCK
  8
LAYER_1
  2
AIGNBL01030013
 70
64
 10
0
 20
0
 30
0
  3
AIGNBL01030013
  0
POLYLINE
  8
LAYER_1
 40
0.05
 41
0.05
 62
29
 66
1
 10
0
 20
0
 30
0
 70
1
  0
VERTEX
  8
LAYER_1
 10
326.8755
 20
12.6774
  0
VERTEX
  8
LAYER_1
 10
326.7601
 20
12.6774
  0
VERTEX
  8
LAYER_1
 10
327.2069
 20
13.7106
  0
VERTEX
  8
LAYER_1
 10
327.3092
 20
13.7106
  0
VERTEX
  8
LAYER_1
 10
327.7526
 20
12.6774
  0
VERTEX
  8
LAYER_1
 10
327.6358
 20
12.6774
  0
VERTEX
  8
LAYER_1
 10
327.5218
 20
12.9489
  0
VERTEX
  8
LAYER_1
 10
326.9878
 20
12.9489
  0
SEQEND
  0
POLYLINE
  8
LAYER_1
 40
0.05
 41
0.05
 62
29
 66
1
 10
0
 20
0
 30
0
 70
1
  0
VERTEX
  8
LAYER_1
 10
327.0271
 20
13.0454
  0
VERTEX
  8
LAYER_1
 10
327.4825
 20
13.0454
  0
VERTEX
  8
LAYER_1
 10
327.2548
 20
13.5942
  0
SEQEND
  0
ENDBLK
  0
BLOCK
  8
LAYER_1
  2
AIGNBL01030014
 70
64
 10
0
 20
0
 30
0
  3
AIGNBL01030014
  0
POLYLINE
  8
LAYER_1
 40
0.05
 41
0.05
 62
29
 66
1
 10
0
 20
0
 30
0
 70
1
  0
VERTEX
  8
LAYER_1
 10
328.4371
 20
12.6774
  0
VERTEX
  8
LAYER_1
 10
328.3321
 20
12.6774
  0
VERTEX
  8
LAYER_1
 10
328.3321
 20
13.6172
  0
VERTEX
  8
LAYER_1
 10
327.9858
 20
13.6172
  0
VERTEX
  8
LAYER_1
 10
327.9858
 20
13.7106
  0
VERTEX
  8
LAYER_1
 10
328.7827
 20
13.7106
  0
VERTEX
  8
LAYER_1
 10
328.7827
 20
13.6172
  0
VERTEX
  8
LAYER_1
 10
328.4371
 20
13.6172
  0
SEQEND
  0
ENDBLK
  0
BLOCK
  8
LAYER_1
  2
AIGNBL01030015
 70
64
 10
0
 20
0
 30
0
  3
AIGNBL01030015
  0
POLYLINE
  8
LAYER_1
 40
0.05
 41
0.05
 62
29
 66
1
 10
0
 20
0
 30
0
 70
1
  0
VERTEX
  8
LAYER_1
 10
329.1389
 20
13.7106
  0
VERTEX
  8
LAYER_1
 10
329.2436
 20
13.7106
  0
VERTEX
  8
LAYER_1
 10
329.2436
 20
13.2627
  0
VERTEX
  8
LAYER_1
 10
329.8073
 20
13.2627
  0
VERTEX
  8
LAYER_1
 10
329.8073
 20
13.7106
  0
VERTEX
  8
LAYER_1
 10
329.9123
 20
13.7106
  0
VERTEX
  8
LAYER_1
 10
329.9123
 20
12.6774
  0
VERTEX
  8
LAYER_1
 10
329.8073
 20
12.6774
  0
VERTEX
  8
LAYER_1
 10
329.8073
 20
13.1666
  0
VERTEX
  8
LAYER_1
 10
329.2436
 20
13.1666
  0
VERTEX
  8
LAYER_1
 10
329.2436
 20
12.6774
  0
VERTEX
  8
LAYER_1
 10
329.1389
 20
12.6774
  0
SEQEND
  0
ENDBLK
  0
BLOCK
  8
LAYER_1
  2
AIGNBL01030016
 70
64
 10
0
 20
0
 30
0
  3
AIGNBL01030016
  0
POLYLINE
  8
LAYER_1
 40
0.05
 41
0.05
 62
29
 66
1
 10
0
 20
0
 30
0
 70
1
  0
VERTEX
  8
LAYER_1
 10
330.4928
 20
12.6774
  0
VERTEX
  8
LAYER_1
 10
330.3878
 20
12.6774
  0
VERTEX
  8
LAYER_1
 10
330.3878
 20
13.7106
  0
VERTEX
  8
LAYER_1
 10
330.6916
 20
13.7106
  0
VERTEX
  8
LAYER_1
 10
330.8322
 20
13.6961
  0
VERTEX
  8
LAYER_1
 10
330.9448
 20
13.6486
  0
VERTEX
  8
LAYER_1
 10
331.0182
 20
13.5632
  0
VERTEX
  8
LAYER_1
 10
331.0444
 20
13.435
  0
VERTEX
  8
LAYER_1
 10
331.0244
 20
13.3313
  0
VERTEX
  8
LAYER_1
 10
330.969
 20
13.2504
  0
VERTEX
  8
LAYER_1
 10
330.8856
 20
13.1956
  0
VERTEX
  8
LAYER_1
 10
330.7805
 20
13.1694
  0
VERTEX
  8
LAYER_1
 10
331.0826
 20
12.6774
  0
VERTEX
  8
LAYER_1
 10
330.9541
 20
12.6774
  0
VERTEX
  8
LAYER_1
 10
330.6682
 20
13.1604
  0
VERTEX
  8
LAYER_1
 10
330.4928
 20
13.1604
  0
SEQEND
  0
POLYLINE
  8
LAYER_1
 40
0.05
 41
0.05
 62
29
 66
1
 10
0
 20
0
 30
0
 70
1
  0
VERTEX
  8
LAYER_1
 10
330.4928
 20
13.251
  0
VERTEX
  8
LAYER_1
 10
330.6754
 20
13.251
 42
0.1656263988
  0
VERTEX
  8
LAYER_1
 10
330.8711
 20
13.2969
 42
0.250658542
  0
VERTEX
  8
LAYER_1
 10
330.9397
 20
13.435
  0
VERTEX
  8
LAYER_1
 10
330.9204
 20
13.5208
  0
VERTEX
  8
LAYER_1
 10
330.868
 20
13.578
  0
VERTEX
  8
LAYER_1
 10
330.7864
 20
13.61
  0
VERTEX
  8
LAYER_1
 10
330.6799
 20
13.6204
  0
VERTEX
  8
LAYER_1
 10
330.4928
 20
13.6204
  0
SEQEND
  0
ENDBLK
  0
BLOCK
  8
LAYER_1
  2
AIGNBL01030017
 70
64
 10
0
 20
0
 30
0
  3
AIGNBL01030017
  0
POLYLINE
  8
LAYER_1
 40
0.05
 41
0.05
 62
29
 66
1
 10
0
 20
0
 30
0
 70
1
  0
VERTEX
  8
LAYER_1
 10
332.4848
 20
13.1942
 42
-0.1002731409
  0
VERTEX
  8
LAYER_1
 10
332.4441
 20
12.9768
 42
-0.1003765801
  0
VERTEX
  8
LAYER_1
 10
332.3308
 20
12.8052
 42
-0.09507020048
  0
VERTEX
  8
LAYER_1
 10
332.1603
 20
12.6922
 42
-0.09502028874
  0
VERTEX
  8
LAYER_1
 10
331.9463
 20
12.6512
 42
-0.101175466
  0
VERTEX
  8
LAYER_1
 10
331.7324
 20
12.6922
 42
-0.09966682099
  0
VERTEX
  8
LAYER_1
 10
331.5618
 20
12.8052
 42
-0.09547486106
  0
VERTEX
  8
LAYER_1
 10
331.4488
 20
12.9768
 42
-0.09293253763
  0
VERTEX
  8
LAYER_1
 10
331.4082
 20
13.1942
 42
-0.1022983043
  0
VERTEX
  8
LAYER_1
 10
331.4488
 20
13.4116
 42
-0.1013677539
  0
VERTEX
  8
LAYER_1
 10
331.5618
 20
13.5831
 42
-0.09584066826
  0
VERTEX
  8
LAYER_1
 10
331.7324
 20
13.6961
 42
-0.09517167486
  0
VERTEX
  8
LAYER_1
 10
331.9463
 20
13.7371
 42
-0.1018346168
  0
VERTEX
  8
LAYER_1
 10
332.1603
 20
13.6961
 42
-0.10208105
  0
VERTEX
  8
LAYER_1
 10
332.3308
 20
13.5831
 42
-0.09492976366
  0
VERTEX
  8
LAYER_1
 10
332.4441
 20
13.4116
 42
-0.09296145325
  0
SEQEND
  0
POLYLINE
  8
LAYER_1
 40
0.05
 41
0.05
 62
29
 66
1
 10
0
 20
0
 30
0
 70
1
  0
VERTEX
  8
LAYER_1
 10
332.3739
 20
13.1935
  0
VERTEX
  8
LAYER_1
 10
332.3446
 20
13.3654
  0
VERTEX
  8
LAYER_1
 10
332.2598
 20
13.5087
  0
VERTEX
  8
LAYER_1
 10
332.1251
 20
13.6069
 42
0.1018863245
  0
VERTEX
  8
LAYER_1
 10
331.9463
 20
13.6438
  0
VERTEX
  8
LAYER_1
 10
331.7675
 20
13.6069
  0
VERTEX
  8
LAYER_1
 10
331.6325
 20
13.5087
  0
VERTEX
  8
LAYER_1
 10
331.5477
 20
13.3654
  0
VERTEX
  8
LAYER_1
 10
331.5188
 20
13.1935
  0
VERTEX
  8
LAYER_1
 10
331.5477
 20
13.0216
  0
VERTEX
  8
LAYER_1
 10
331.6325
 20
12.8786
  0
VERTEX
  8
LAYER_1
 10
331.7675
 20
12.7811
  0
VERTEX
  8
LAYER_1
 10
331.9463
 20
12.7446
 42
0.1157330551
  0
VERTEX
  8
LAYER_1
 10
332.1251
 20
12.7811
  0
VERTEX
  8
LAYER_1
 10
332.2598
 20
12.8786
  0
VERTEX
  8
LAYER_1
 10
332.3446
 20
13.0216
  0
SEQEND
  0
ENDBLK
  0
BLOCK
  8
LAYER_1
  2
AIGNBL01030018
 70
64
 10
0
 20
0
 30
0
  3
AIGNBL01030018
  0
POLYLINE
  8
LAYER_1
 40
0.05
 41
0.05
 62
29
 66
1
 10
0
 20
0
 30
0
 70
1
  0
VERTEX
  8
LAYER_1
 10
333.9265
 20
13.1942
 42
-0.1035463774
  0
VERTEX
  8
LAYER_1
 10
333.8856
 20
12.9768
 42
-0.1000469042
  0
VERTEX
  8
LAYER_1
 10
333.7729
 20
12.8052
 42
-0.09471741496
  0
VERTEX
  8
LAYER_1
 10
333.602
 20
12.6922
 42
-0.09506675375
  0
VERTEX
  8
LAYER_1
 10
333.3881
 20
12.6512
 42
-0.101822328
  0
VERTEX
  8
LAYER_1
 10
333.1745
 20
12.6922
 42
-0.1021045144
  0
VERTEX
  8
LAYER_1
 10
333.0036
 20
12.8052
 42
-0.09479293922
  0
VERTEX
  8
LAYER_1
 10
332.8903
 20
12.9768
 42
-0.09313545426
  0
VERTEX
  8
LAYER_1
 10
332.8496
 20
13.1942
 42
-0.1020962526
  0
VERTEX
  8
LAYER_1
 10
332.8903
 20
13.4116
 42
-0.1007559602
  0
VERTEX
  8
LAYER_1
 10
333.0036
 20
13.5831
 42
-0.09634037191
  0
VERTEX
  8
LAYER_1
 10
333.1745
 20
13.6961
 42
-0.0953147657
  0
VERTEX
  8
LAYER_1
 10
333.3881
 20
13.7371
 42
-0.1018017754
  0
VERTEX
  8
LAYER_1
 10
333.602
 20
13.6961
 42
-0.09904976342
  0
VERTEX
  8
LAYER_1
 10
333.7729
 20
13.5831
 42
-0.09562840933
  0
VERTEX
  8
LAYER_1
 10
333.8856
 20
13.4116
 42
-0.09373843258
  0
SEQEND
  0
POLYLINE
  8
LAYER_1
 40
0.05
 41
0.05
 62
29
 66
1
 10
0
 20
0
 30
0
 70
1
  0
VERTEX
  8
LAYER_1
 10
333.8156
 20
13.1935
  0
VERTEX
  8
LAYER_1
 10
333.7867
 20
13.3654
  0
VERTEX
  8
LAYER_1
 10
333.7019
 20
13.5087
  0
VERTEX
  8
LAYER_1
 10
333.5669
 20
13.6069
  0
VERTEX
  8
LAYER_1
 10
333.3881
 20
13.6438
 42
0.11467303
  0
VERTEX
  8
LAYER_1
 10
333.2093
 20
13.6069
  0
VERTEX
  8
LAYER_1
 10
333.0746
 20
13.5087
  0
VERTEX
  8
LAYER_1
 10
332.9898
 20
13.3654
  0
VERTEX
  8
LAYER_1
 10
332.9606
 20
13.1935
  0
VERTEX
  8
LAYER_1
 10
332.9898
 20
13.0216
  0
VERTEX
  8
LAYER_1
 10
333.0746
 20
12.8786
  0
VERTEX
  8
LAYER_1
 10
333.2093
 20
12.7811
 42
0.1008257054
  0
VERTEX
  8
LAYER_1
 10
333.3881
 20
12.7446
  0
VERTEX
  8
LAYER_1
 10
333.5669
 20
12.7811
  0
VERTEX
  8
LAYER_1
 10
333.7019
 20
12.8786
  0
VERTEX
  8
LAYER_1
 10
333.7867
 20
13.0216
  0
SEQEND
  0
ENDBLK
  0
BLOCK
  8
LAYER_1
  2
AIGNBL01030019
 70
64
 10
0
 20
0
 30
0
  3
AIGNBL01030019
  0
POLYLINE
  8
LAYER_1
 40
0.05
 41
0.05
 62
29
 66
1
 10
0
 20
0
 30
0
 70
1
  0
VERTEX
  8
LAYER_1
 10
334.8574
 20
12.8555
  0
VERTEX
  8
LAYER_1
 10
334.8591
 20
12.8555
  0
VERTEX
  8
LAYER_1
 10
335.2047
 20
13.7106
  0
VERTEX
  8
LAYER_1
 10
335.3656
 20
13.7106
  0
VERTEX
  8
LAYER_1
 10
335.3656
 20
12.6774
  0
VERTEX
  8
LAYER_1
 10
335.2601
 20
12.6774
  0
VERTEX
  8
LAYER_1
 10
335.2601
 20
13.5749
  0
VERTEX
  8
LAYER_1
 10
335.2574
 20
13.5749
  0
VERTEX
  8
LAYER_1
 10
334.8839
 20
12.6774
  0
VERTEX
  8
LAYER_1
 10
334.8285
 20
12.6774
  0
VERTEX
  8
LAYER_1
 10
334.4547
 20
13.5749
  0
VERTEX
  8
LAYER_1
 10
334.4519
 20
13.5749
  0
VERTEX
  8
LAYER_1
 10
334.4519
 20
12.6774
  0
VERTEX
  8
LAYER_1
 10
334.3469
 20
12.6774
  0
VERTEX
  8
LAYER_1
 10
334.3469
 20
13.7106
  0
VERTEX
  8
LAYER_1
 10
334.5074
 20
13.7106
  0
SEQEND
  0
ENDBLK
  0
BLOCK
  8
LAYER_1
  2
AIGNBL0103001A
 70
64
 10
0
 20
0
 30
0
  3
AIGNBL0103001A
  0
POLYLINE
  8
LAYER_1
 40
0.05
 41
0.05
 62
29
 66
1
 10
0
 20
0
 30
0
 70
1
  0
VERTEX
  8
LAYER_1
 10
336.5121
 20
12.7711
  0
VERTEX
  8
LAYER_1
 10
337.0654
 20
12.7711
  0
VERTEX
  8
LAYER_1
 10
337.0654
 20
12.6774
  0
VERTEX
  8
LAYER_1
 10
336.407
 20
12.6774
  0
VERTEX
  8
LAYER_1
 10
336.407
 20
13.7106
  0
VERTEX
  8
LAYER_1
 10
337.0478
 20
13.7106
  0
VERTEX
  8
LAYER_1
 10
337.0478
 20
13.6172
  0
VERTEX
  8
LAYER_1
 10
336.5121
 20
13.6172
  0
VERTEX
  8
LAYER_1
 10
336.5121
 20
13.2627
  0
VERTEX
  8
LAYER_1
 10
337.0127
 20
13.2627
  0
VERTEX
  8
LAYER_1
 10
337.0127
 20
13.1694
  0
VERTEX
  8
LAYER_1
 10
336.5121
 20
13.1694
  0
SEQEND
  0
ENDBLK
  0
BLOCK
  8
LAYER_1
  2
AIGNBL0103001B
 70
64
 10
0
 20
0
 30
0
  3
AIGNBL0103001B
  0
POLYLINE
  8
LAYER_1
 40
0.05
 41
0.05
 62
29
 66
1
 10
0
 20
0
 30
0
 70
1
  0
VERTEX
  8
LAYER_1
 10
337.8106
 20
13.2934
  0
VERTEX
  8
LAYER_1
 10
338.0927
 20
13.7106
  0
VERTEX
  8
LAYER_1
 10
338.2178
 20
13.7106
  0
VERTEX
  8
LAYER_1
 10
337.8753
 20
13.219
  0
VERTEX
  8
LAYER_1
 10
338.2546
 20
12.6774
  0
VERTEX
  8
LAYER_1
 10
338.1234
 20
12.6774
  0
VERTEX
  8
LAYER_1
 10
337.8078
 20
13.1432
  0
VERTEX
  8
LAYER_1
 10
337.4943
 20
12.6774
  0
VERTEX
  8
LAYER_1
 10
337.3627
 20
12.6774
  0
VERTEX
  8
LAYER_1
 10
337.7424
 20
13.2204
  0
VERTEX
  8
LAYER_1
 10
337.3965
 20
13.7106
  0
VERTEX
  8
LAYER_1
 10
337.5281
 20
13.7106
  0
SEQEND
  0
ENDBLK
  0
BLOCK
  8
LAYER_1
  2
AIGNBL0103001C
 70
64
 10
0
 20
0
 30
0
  3
AIGNBL0103001C
  0
POLYLINE
  8
LAYER_1
 40
0.05
 41
0.05
 62
29
 66
1
 10
0
 20
0
 30
0
 70
1
  0
VERTEX
  8
LAYER_1
 10
338.6209
 20
13.7106
  0
VERTEX
  8
LAYER_1
 10
338.913
 20
13.7106
  0
VERTEX
  8
LAYER_1
 10
339.056
 20
13.6941
  0
VERTEX
  8
LAYER_1
 10
339.1659
 20
13.6428
  0
VERTEX
  8
LAYER_1
 10
339.2368
 20
13.5566
  0
VERTEX
  8
LAYER_1
 10
339.2613
 20
13.435
  0
VERTEX
  8
LAYER_1
 10
339.2361
 20
13.313
  0
VERTEX
  8
LAYER_1
 10
339.1645
 20
13.2269
  0
VERTEX
  8
LAYER_1
 10
339.0536
 20
13.1753
  0
VERTEX
  8
LAYER_1
 10
338.9099
 20
13.1577
  0
VERTEX
  8
LAYER_1
 10
338.7259
 20
13.1577
  0
VERTEX
  8
LAYER_1
 10
338.7259
 20
12.6774
  0
VERTEX
  8
LAYER_1
 10
338.6209
 20
12.6774
  0
SEQEND
  0
POLYLINE
  8
LAYER_1
 40
0.05
 41
0.05
 62
29
 66
1
 10
0
 20
0
 30
0
 70
1
  0
VERTEX
  8
LAYER_1
 10
338.7259
 20
13.2465
  0
VERTEX
  8
LAYER_1
 10
338.9037
 20
13.2465
 42
0.1834000512
  0
VERTEX
  8
LAYER_1
 10
339.0921
 20
13.2948
 42
0.2348377208
  0
VERTEX
  8
LAYER_1
 10
339.1565
 20
13.435
 42
0.2656295013
  0
VERTEX
  8
LAYER_1
 10
339.0901
 20
13.5759
 42
0.1265933612
  0
VERTEX
  8
LAYER_1
 10
338.9037
 20
13.6204
  0
VERTEX
  8
LAYER_1
 10
338.7259
 20
13.6204
  0
SEQEND
  0
ENDBLK
  0
BLOCK
  8
LAYER_1
  2
AIGNBL0103001D
 70
64
 10
0
 20
0
 30
0
  3
AIGNBL0103001D
  0
POLYLINE
  8
LAYER_1
 40
0.05
 41
0.05
 62
29
 66
1
 10
0
 20
0
 30
0
 70
1
  0
VERTEX
  8
LAYER_1
 10
339.7736
 20
12.7711
  0
VERTEX
  8
LAYER_1
 10
340.3268
 20
12.7711
  0
VERTEX
  8
LAYER_1
 10
340.3268
 20
12.6774
  0
VERTEX
  8
LAYER_1
 10
339.6685
 20
12.6774
  0
VERTEX
  8
LAYER_1
 10
339.6685
 20
13.7106
  0
VERTEX
  8
LAYER_1
 10
340.3093
 20
13.7106
  0
VERTEX
  8
LAYER_1
 10
340.3093
 20
13.6172
  0
VERTEX
  8
LAYER_1
 10
339.7736
 20
13.6172
  0
VERTEX
  8
LAYER_1
 10
339.7736
 20
13.2627
  0
VERTEX
  8
LAYER_1
 10
340.2741
 20
13.2627
  0
VERTEX
  8
LAYER_1
 10
340.2741
 20
13.1694
  0
VERTEX
  8
LAYER_1
 10
339.7736
 20
13.1694
  0
SEQEND
  0
ENDBLK
  0
BLOCK
  8
LAYER_1
  2
AIGNBL0103001E
 70
64
 10
0
 20
0
 30
0
  3
AIGNBL0103001E
  0
POLYLINE
  8
LAYER_1
 40
0.05
 41
0.05
 62
29
 66
1
 10
0
 20
0
 30
0
 70
1
  0
VERTEX
  8
LAYER_1
 10
340.8388
 20
12.6774
  0
VERTEX
  8
LAYER_1
 10
340.7337
 20
12.6774
  0
VERTEX
  8
LAYER_1
 10
340.7337
 20
13.7106
  0
VERTEX
  8
LAYER_1
 10
341.0376
 20
13.7106
  0
VERTEX
  8
LAYER_1
 10
341.1781
 20
13.6961
  0
VERTEX
  8
LAYER_1
 10
341.2908
 20
13.6486
  0
VERTEX
  8
LAYER_1
 10
341.3645
 20
13.5632
  0
VERTEX
  8
LAYER_1
 10
341.3904
 20
13.435
  0
VERTEX
  8
LAYER_1
 10
341.3704
 20
13.3313
  0
VERTEX
  8
LAYER_1
 10
341.3149
 20
13.2504
  0
VERTEX
  8
LAYER_1
 10
341.2315
 20
13.1956
  0
VERTEX
  8
LAYER_1
 10
341.1265
 20
13.1694
  0
VERTEX
  8
LAYER_1
 10
341.4286
 20
12.6774
  0
VERTEX
  8
LAYER_1
 10
341.3001
 20
12.6774
  0
VERTEX
  8
LAYER_1
 10
341.0142
 20
13.1604
  0
VERTEX
  8
LAYER_1
 10
340.8388
 20
13.1604
  0
SEQEND
  0
POLYLINE
  8
LAYER_1
 40
0.05
 41
0.05
 62
29
 66
1
 10
0
 20
0
 30
0
 70
1
  0
VERTEX
  8
LAYER_1
 10
340.8388
 20
13.251
  0
VERTEX
  8
LAYER_1
 10
341.0214
 20
13.251
 42
0.166558795
  0
VERTEX
  8
LAYER_1
 10
341.2171
 20
13.2969
 42
0.2505726271
  0
VERTEX
  8
LAYER_1
 10
341.2856
 20
13.435
  0
VERTEX
  8
LAYER_1
 10
341.2667
 20
13.5208
  0
VERTEX
  8
LAYER_1
 10
341.214
 20
13.578
  0
VERTEX
  8
LAYER_1
 10
341.1323
 20
13.61
  0
VERTEX
  8
LAYER_1
 10
341.0259
 20
13.6204
  0
VERTEX
  8
LAYER_1
 10
340.8388
 20
13.6204
  0
SEQEND
  0
ENDBLK
  0
BLOCK
  8
LAYER_1
  2
AIGNBL0103001F
 70
64
 10
0
 20
0
 30
0
  3
AIGNBL0103001F
  0
POLYLINE
  8
LAYER_1
 40
0.05
 41
0.05
 62
29
 66
1
 10
0
 20
0
 30
0
 70
1
  0
VERTEX
  8
LAYER_1
 10
341.9143
 20
12.6774
  0
VERTEX
  8
LAYER_1
 10
341.8096
 20
12.6774
  0
VERTEX
  8
LAYER_1
 10
341.8096
 20
13.7106
  0
VERTEX
  8
LAYER_1
 10
341.9143
 20
13.7106
  0
SEQEND
  0
ENDBLK
  0
BLOCK
  8
LAYER_1
  2
AIGNBL01030020
 70
64
 10
0
 20
0
 30
0
  3
AIGNBL01030020
  0
POLYLINE
  8
LAYER_1
 40
0.05
 41
0.05
 62
29
 66
1
 10
0
 20
0
 30
0
 70
1
  0
VERTEX
  8
LAYER_1
 10
342.4952
 20
12.7711
  0
VERTEX
  8
LAYER_1
 10
343.0481
 20
12.7711
  0
VERTEX
  8
LAYER_1
 10
343.0481
 20
12.6774
  0
VERTEX
  8
LAYER_1
 10
342.3901
 20
12.6774
  0
VERTEX
  8
LAYER_1
 10
342.3901
 20
13.7106
  0
VERTEX
  8
LAYER_1
 10
343.0309
 20
13.7106
  0
VERTEX
  8
LAYER_1
 10
343.0309
 20
13.6172
  0
VERTEX
  8
LAYER_1
 10
342.4952
 20
13.6172
  0
VERTEX
  8
LAYER_1
 10
342.4952
 20
13.2627
  0
VERTEX
  8
LAYER_1
 10
342.9958
 20
13.2627
  0
VERTEX
  8
LAYER_1
 10
342.9958
 20
13.1694
  0
VERTEX
  8
LAYER_1
 10
342.4952
 20
13.1694
  0
SEQEND
  0
ENDBLK
  0
BLOCK
  8
LAYER_1
  2
AIGNBL01030021
 70
64
 10
0
 20
0
 30
0
  3
AIGNBL01030021
  0
POLYLINE
  8
LAYER_1
 40
0.05
 41
0.05
 62
29
 66
1
 10
0
 20
0
 30
0
 70
1
  0
VERTEX
  8
LAYER_1
 10
344.1881
 20
12.8307
  0
VERTEX
  8
LAYER_1
 10
344.1909
 20
12.8307
  0
VERTEX
  8
LAYER_1
 10
344.1909
 20
13.7106
  0
VERTEX
  8
LAYER_1
 10
344.296
 20
13.7106
  0
VERTEX
  8
LAYER_1
 10
344.296
 20
12.6774
  0
VERTEX
  8
LAYER_1
 10
344.1647
 20
12.6774
  0
VERTEX
  8
LAYER_1
 10
343.5635
 20
13.5663
  0
VERTEX
  8
LAYER_1
 10
343.5604
 20
13.5663
  0
VERTEX
  8
LAYER_1
 10
343.5604
 20
12.6774
  0
VERTEX
  8
LAYER_1
 10
343.4554
 20
12.6774
  0
VERTEX
  8
LAYER_1
 10
343.4554
 20
13.7106
  0
VERTEX
  8
LAYER_1
 10
343.5869
 20
13.7106
  0
SEQEND
  0
ENDBLK
  0
BLOCK
  8
LAYER_1
  2
AIGNBL01030022
 70
64
 10
0
 20
0
 30
0
  3
AIGNBL01030022
  0
POLYLINE
  8
LAYER_1
 40
0.05
 41
0.05
 62
29
 66
1
 10
0
 20
0
 30
0
 70
1
  0
VERTEX
  8
LAYER_1
 10
345.6416
 20
12.8452
  0
VERTEX
  8
LAYER_1
 10
345.5779
 20
12.7708
  0
VERTEX
  8
LAYER_1
 10
345.4918
 20
12.7091
  0
VERTEX
  8
LAYER_1
 10
345.3836
 20
12.6668
  0
VERTEX
  8
LAYER_1
 10
345.2547
 20
12.6512
 42
-0.1009408553
  0
VERTEX
  8
LAYER_1
 10
345.0387
 20
12.6922
 42
-0.1036436467
  0
VERTEX
  8
LAYER_1
 10
344.8682
 20
12.8052
 42
-0.09785904176
  0
VERTEX
  8
LAYER_1
 10
344.7566
 20
12.9768
 42
-0.09235342416
  0
VERTEX
  8
LAYER_1
 10
344.7163
 20
13.1942
 42
-0.1035463776
  0
VERTEX
  8
LAYER_1
 10
344.7572
 20
13.4116
 42
-0.1004334688
  0
VERTEX
  8
LAYER_1
 10
344.8699
 20
13.5831
 42
-0.09536773851
  0
VERTEX
  8
LAYER_1
 10
345.0408
 20
13.6961
 42
-0.09517167486
  0
VERTEX
  8
LAYER_1
 10
345.2547
 20
13.7371
  0
VERTEX
  8
LAYER_1
 10
345.3663
 20
13.7251
  0
VERTEX
  8
LAYER_1
 10
345.4694
 20
13.6916
  0
VERTEX
  8
LAYER_1
 10
345.5568
 20
13.64
  0
VERTEX
  8
LAYER_1
 10
345.6226
 20
13.5721
  0
VERTEX
  8
LAYER_1
 10
345.5352
 20
13.5077
  0
VERTEX
  8
LAYER_1
 10
345.4918
 20
13.5577
  0
VERTEX
  8
LAYER_1
 10
345.4284
 20
13.6014
  0
VERTEX
  8
LAYER_1
 10
345.3488
 20
13.6321
  0
VERTEX
  8
LAYER_1
 10
345.2561
 20
13.6438
  0
VERTEX
  8
LAYER_1
 10
345.0759
 20
13.6073
  0
VERTEX
  8
LAYER_1
 10
344.9409
 20
13.5091
  0
VERTEX
  8
LAYER_1
 10
344.8561
 20
13.3658
  0
VERTEX
  8
LAYER_1
 10
344.8272
 20
13.1942
  0
VERTEX
  8
LAYER_1
 10
344.8572
 20
13.0226
  0
VERTEX
  8
LAYER_1
 10
344.9426
 20
12.8793
  0
VERTEX
  8
LAYER_1
 10
345.0776
 20
12.7811
 42
0.1009931409
  0
VERTEX
  8
LAYER_1
 10
345.2561
 20
12.7446
  0
VERTEX
  8
LAYER_1
 10
345.4253
 20
12.7811
 42
0.1318558246
  0
VERTEX
  8
LAYER_1
 10
345.5596
 20
12.8979
  0
SEQEND
  0
ENDBLK
  0
BLOCK
  8
LAYER_1
  2
AIGNBL01030023
 70
64
 10
0
 20
0
 30
0
  3
AIGNBL01030023
  0
POLYLINE
  8
LAYER_1
 40
0.05
 41
0.05
 62
29
 66
1
 10
0
 20
0
 30
0
 70
1
  0
VERTEX
  8
LAYER_1
 10
346.1287
 20
12.7711
  0
VERTEX
  8
LAYER_1
 10
346.682
 20
12.7711
  0
VERTEX
  8
LAYER_1
 10
346.682
 20
12.6774
  0
VERTEX
  8
LAYER_1
 10
346.0237
 20
12.6774
  0
VERTEX
  8
LAYER_1
 10
346.0237
 20
13.7106
  0
VERTEX
  8
LAYER_1
 10
346.6645
 20
13.7106
  0
VERTEX
  8
LAYER_1
 10
346.6645
 20
13.6172
  0
VERTEX
  8
LAYER_1
 10
346.1287
 20
13.6172
  0
VERTEX
  8
LAYER_1
 10
346.1287
 20
13.2627
  0
VERTEX
  8
LAYER_1
 10
346.6293
 20
13.2627
  0
VERTEX
  8
LAYER_1
 10
346.6293
 20
13.1694
  0
VERTEX
  8
LAYER_1
 10
346.1287
 20
13.1694
  0
SEQEND
  0
ENDBLK
  0
BLOCK
  8
LAYER_1
  2
AIGNBL01020003
 70
64
 10
0
 20
0
 30
0
  3
AIGNBL01020003
  0
INSERT
  8
LAYER_1
  2
AIGNBL01030004
 10
0
 20
0
 30
0
  0
ENDBLK
  0
BLOCK
  8
LAYER_1
  2
AIGNBL0102000C
 70
64
 10
0
 20
0
 30
0
  3
AIGNBL0102000C
  0
INSERT
  8
LAYER_1
  2
AIGNBL0103000D
 10
0
 20
0
 30
0
  0
INSERT
  8
LAYER_1
  2
AIGNBL0103000E
 10
0
 20
0
 30
0
  0
INSERT
  8
LAYER_1
  2
AIGNBL0103000F
 10
0
 20
0
 30
0
  0
INSERT
  8
LAYER_1
  2
AIGNBL01030010
 10
0
 20
0
 30
0
  0
INSERT
  8
LAYER_1
  2
AIGNBL01030011
 10
0
 20
0
 30
0
  0
INSERT
  8
LAYER_1
  2
AIGNBL01030012
 10
0
 20
0
 30
0
  0
INSERT
  8
LAYER_1
  2
AIGNBL01030013
 10
0
 20
0
 30
0
  0
INSERT
  8
LAYER_1
  2
AIGNBL01030014
 10
0
 20
0
 30
0
  0
INSERT
  8
LAYER_1
  2
AIGNBL01030015
 10
0
 20
0
 30
0
  0
INSERT
  8
LAYER_1
  2
AIGNBL01030016
 10
0
 20
0
 30
0
  0
INSERT
  8
LAYER_1
  2
AIGNBL01030017
 10
0
 20
0
 30
0
  0
INSERT
  8
LAYER_1
  2
AIGNBL01030018
 10
0
 20
0
 30
0
  0
INSERT
  8
LAYER_1
  2
AIGNBL01030019
 10
0
 20
0
 30
0
  0
INSERT
  8
LAYER_1
  2
AIGNBL0103001A
 10
0
 20
0
 30
0
  0
INSERT
  8
LAYER_1
  2
AIGNBL0103001B
 10
0
 20
0
 30
0
  0
INSERT
  8
LAYER_1
  2
AIGNBL0103001C
 10
0
 20
0
 30
0
  0
INSERT
  8
LAYER_1
  2
AIGNBL0103001D
 10
0
 20
0
 30
0
  0
INSERT
  8
LAYER_1
  2
AIGNBL0103001E
 10
0
 20
0
 30
0
  0
INSERT
  8
LAYER_1
  2
AIGNBL0103001F
 10
0
 20
0
 30
0
  0
INSERT
  8
LAYER_1
  2
AIGNBL01030020
 10
0
 20
0
 30
0
  0
INSERT
  8
LAYER_1
  2
AIGNBL01030021
 10
0
 20
0
 30
0
  0
INSERT
  8
LAYER_1
  2
AIGNBL01030022
 10
0
 20
0
 30
0
  0
INSERT
  8
LAYER_1
  2
AIGNBL01030023
 10
0
 20
0
 30
0
  0
ENDBLK
  0
BLOCK
  8
LAYER_1
  2
AIGNBL01010002
 70
64
 10
0
 20
0
 30
0
  3
AIGNBL01010002
  0
INSERT
  8
LAYER_1
  2
AIGNBL01020003
 10
0
 20
0
 30
0
  0
INSERT
  8
LAYER_1
  2
AIGNBL0102000C
 10
0
 20
0
 30
0
  0
ENDBLK
  0
ENDSEC
  0
SECTION
  2
ENTITIES
  0
POLYLINE
  8
LAYER_1
 40
0.1764
 41
0.1764
 66
1
 10
0
 20
0
 30
0
  0
VERTEX
  8
LAYER_1
 10
170.1352
 20
203.0303
 42
0.09849009481
  0
VERTEX
  8
LAYER_1
 10
143.3473
 20
197.7018
 42
0.09849068621
  0
VERTEX
  8
LAYER_1
 10
120.6377
 20
182.5278
 42
0.09849065187
  0
VERTEX
  8
LAYER_1
 10
105.4637
 20
159.8182
 42
0.09849325163
  0
VERTEX
  8
LAYER_1
 10
100.1352
 20
133.0303
  0
VERTEX
  8
LAYER_1
 10
118.1352
 20
133.0303
 42
-0.09849060204
  0
VERTEX
  8
LAYER_1
 10
122.0935
 20
152.9298
 42
-0.09849162203
  0
VERTEX
  8
LAYER_1
 10
133.3657
 20
169.7998
 42
-0.09849211678
  0
VERTEX
  8
LAYER_1
 10
150.2357
 20
181.072
 42
-0.09849055052
  0
VERTEX
  8
LAYER_1
 10
170.1352
 20
185.0303
  0
VERTEX
  8
LAYER_1
 10
170.1352
 20
203.0303
  0
SEQEND
  0
POLYLINE
  8
LAYER_1
 40
0.1764
 41
0.1764
 66
1
 10
0
 20
0
 30
0
  0
VERTEX
  8
LAYER_1
 10
100.1352
 20
133.0303
 42
0.09849319662
  0
VERTEX
  8
LAYER_1
 10
105.4637
 20
106.2424
 42
0.09849033098
  0
VERTEX
  8
LAYER_1
 10
120.6377
 20
83.5328
 42
0.09848865057
  0
VERTEX
  8
LAYER_1
 10
143.3473
 20
68.3587
 42
0.09849126462
  0
VERTEX
  8
LAYER_1
 10
170.1352
 20
63.0303
  0
VERTEX
  8
LAYER_1
 10
170.1352
 20
81.0303
 42
-0.09849056858
  0
VERTEX
  8
LAYER_1
 10
150.2357
 20
84.9886
 42
-0.09849178884
  0
VERTEX
  8
LAYER_1
 10
133.3657
 20
96.2607
 42
-0.09849152703
  0
VERTEX
  8
LAYER_1
 10
122.0935
 20
113.1307
 42
-0.09849097648
  0
VERTEX
  8
LAYER_1
 10
118.1352
 20
133.0303
  0
VERTEX
  8
LAYER_1
 10
100.1352
 20
133.0303
  0
SEQEND
  0
POLYLINE
  8
LAYER_1
 40
0.1764
 41
0.1764
 66
1
 10
0
 20
0
 30
0
  0
VERTEX
  8
LAYER_1
 10
170.1352
 20
203.0303
 42
-0.09849009528
  0
VERTEX
  8
LAYER_1
 10
196.9231
 20
197.7018
 42
-0.09849107574
  0
VERTEX
  8
LAYER_1
 10
219.6327
 20
182.5278
 42
-0.09849102358
  0
VERTEX
  8
LAYER_1
 10
234.8067
 20
159.8182
 42
-0.09849242118
  0
VERTEX
  8
LAYER_1
 10
240.1352
 20
133.0303
  0
VERTEX
  8
LAYER_1
 10
222.1352
 20
133.0303
 42
0.09849065536
  0
VERTEX
  8
LAYER_1
 10
218.1769
 20
152.9298
 42
0.09849071953
  0
VERTEX
  8
LAYER_1
 10
206.9048
 20
169.7998
 42
0.09849199948
  0
VERTEX
  8
LAYER_1
 10
190.0347
 20
181.072
 42
0.09849078405
  0
VERTEX
  8
LAYER_1
 10
170.1352
 20
185.0303
  0
VERTEX
  8
LAYER_1
 10
170.1352
 20
203.0303
  0
SEQEND
  0
POLYLINE
  8
LAYER_1
 40
0.1764
 41
0.1764
 66
1
 10
0
 20
0
 30
0
  0
VERTEX
  8
LAYER_1
 10
240.1352
 20
133.0303
 42
-0.09849236617
  0
VERTEX
  8
LAYER_1
 10
234.8067
 20
106.2424
 42
-0.09849070269
  0
VERTEX
  8
LAYER_1
 10
219.6327
 20
83.5328
 42
-0.0984890401
  0
VERTEX
  8
LAYER_1
 10
196.9231
 20
68.3587
 42
-0.09849126508
  0
VERTEX
  8
LAYER_1
 10
170.1352
 20
63.0303
  0
VERTEX
  8
LAYER_1
 10
170.1352
 20
81.0303
 42
0.09849080211
  0
VERTEX
  8
LAYER_1
 10
190.0347
 20
84.9886
 42
0.09849167153
  0
VERTEX
  8
LAYER_1
 10
206.9048
 20
96.2607
 42
0.09849062453
  0
VERTEX
  8
LAYER_1
 10
218.1769
 20
113.1307
 42
0.09849102979
  0
VERTEX
  8
LAYER_1
 10
222.1352
 20
133.0303
  0
VERTEX
  8
LAYER_1
 10
240.1352
 20
133.0303
  0
SEQEND
  0
POLYLINE
  8
LAYER_1
 40
0.1764
 41
0.1764
 66
1
 10
0
 20
0
 30
0
 70
1
  0
VERTEX
  8
LAYER_1
 10
300.101
 20
202.9883
  0
VERTEX
  8
LAYER_1
 10
302.4717
 20
202.9883
  0
VERTEX
  8
LAYER_1
 10
302.4717
 20
63.0343
  0
VERTEX
  8
LAYER_1
 10
300.101
 20
63.0343
  0
SEQEND
  0
POLYLINE
  8
LAYER_1
 40
0.1764
 41
0.1764
 66
1
 10
0
 20
0
 30
0
 70
1
  0
VERTEX
  8
LAYER_1
 10
302.4717
 20
202.057
  0
VERTEX
  8
LAYER_1
 10
304.3343
 20
202.057
  0
VERTEX
  8
LAYER_1
 10
304.3343
 20
64.0503
  0
VERTEX
  8
LAYER_1
 10
302.4717
 20
64.0503
  0
SEQEND
  0
POLYLINE
  8
LAYER_1
 40
0.1764
 41
0.1764
 66
1
 10
0
 20
0
 30
0
  0
VERTEX
  8
LAYER_1
 10
100.1183
 20
169.799
  0
VERTEX
  8
LAYER_1
 10
100.1183
 20
228.1343
  0
SEQEND
  0
POLYLINE
  8
LAYER_1
 40
0.1764
 41
0.1764
 66
1
 10
0
 20
0
 30
0
  0
VERTEX
  8
LAYER_1
 10
240.157
 20
169.799
  0
VERTEX
  8
LAYER_1
 10
240.157
 20
228.1343
  0
SEQEND
  0
POLYLINE
  8
LAYER_1
 40
0.1764
 41
0.1764
 66
1
 10
0
 20
0
 30
0
  0
VERTEX
  8
LAYER_1
 10
100.1183
 20
228.1343
  0
VERTEX
  8
LAYER_1
 10
240.157
 20
228.1343
  0
SEQEND
  0
POLYLINE
  8
LAYER_1
 40
0.1764
 41
0.1764
 66
1
 10
0
 20
0
 30
0
 70
1
  0
VERTEX
  8
LAYER_1
 10
100.3723
 20
228.1343
  0
VERTEX
  8
LAYER_1
 10
100.3723
 20
228.0497
  0
VERTEX
  8
LAYER_1
 10
100.3723
 20
227.965
  0
VERTEX
  8
LAYER_1
 10
100.2877
 20
227.965
  0
VERTEX
  8
LAYER_1
 10
100.2877
 20
227.8803
  0
VERTEX
  8
LAYER_1
 10
100.203
 20
227.8803
  0
VERTEX
  8
LAYER_1
 10
100.1183
 20
227.8803
  0
VERTEX
  8
LAYER_1
 10
100.0337
 20
227.8803
  0
VERTEX
  8
LAYER_1
 10
99.949
 20
227.8803
  0
VERTEX
  8
LAYER_1
 10
99.949
 20
227.965
  0
VERTEX
  8
LAYER_1
 10
99.949
 20
228.0497
  0
VERTEX
  8
LAYER_1
 10
99.8643
 20
228.0497
  0
VERTEX
  8
LAYER_1
 10
99.8643
 20
228.1343
  0
VERTEX
  8
LAYER_1
 10
99.8643
 20
228.219
  0
VERTEX
  8
LAYER_1
 10
99.949
 20
228.219
  0
VERTEX
  8
LAYER_1
 10
99.949
 20
228.3037
  0
VERTEX
  8
LAYER_1
 10
100.0337
 20
228.3037
  0
VERTEX
  8
LAYER_1
 10
100.0337
 20
228.3883
  0
VERTEX
  8
LAYER_1
 10
100.1183
 20
228.3883
  0
VERTEX
  8
LAYER_1
 10
100.203
 20
228.3883
  0
VERTEX
  8
LAYER_1
 10
100.203
 20
228.3037
  0
VERTEX
  8
LAYER_1
 10
100.2877
 20
228.3037
  0
VERTEX
  8
LAYER_1
 10
100.3723
 20
228.3037
  0
VERTEX
  8
LAYER_1
 10
100.3723
 20
228.219
  0
SEQEND
  0
POLYLINE
  8
LAYER_1
 40
0.05
 41
0.05
 66
1
 10
0
 20
0
 30
0
 70
1
  0
VERTEX
  8
LAYER_1
 10
100.3512
 20
228.1555
  0
VERTEX
  8
LAYER_1
 10
100.3512
 20
228.0708
  0
VERTEX
  8
LAYER_1
 10
100.3512
 20
227.9862
  0
VERTEX
  8
LAYER_1
 10
100.2665
 20
227.9862
  0
VERTEX
  8
LAYER_1
 10
100.2665
 20
227.9015
  0
VERTEX
  8
LAYER_1
 10
100.1818
 20
227.9015
  0
VERTEX
  8
LAYER_1
 10
100.0972
 20
227.9015
  0
VERTEX
  8
LAYER_1
 10
100.0125
 20
227.9015
  0
VERTEX
  8
LAYER_1
 10
99.9278
 20
227.9015
  0
VERTEX
  8
LAYER_1
 10
99.9278
 20
227.9862
  0
VERTEX
  8
LAYER_1
 10
99.9278
 20
228.0708
  0
VERTEX
  8
LAYER_1
 10
99.8432
 20
228.0708
  0
VERTEX
  8
LAYER_1
 10
99.8432
 20
228.1555
  0
VERTEX
  8
LAYER_1
 10
99.8432
 20
228.2402
  0
VERTEX
  8
LAYER_1
 10
99.9278
 20
228.2402
  0
VERTEX
  8
LAYER_1
 10
99.9278
 20
228.3248
  0
VERTEX
  8
LAYER_1
 10
100.0125
 20
228.3248
  0
VERTEX
  8
LAYER_1
 10
100.0125
 20
228.4095
  0
VERTEX
  8
LAYER_1
 10
100.0972
 20
228.4095
  0
VERTEX
  8
LAYER_1
 10
100.1818
 20
228.4095
  0
VERTEX
  8
LAYER_1
 10
100.1818
 20
228.3248
  0
VERTEX
  8
LAYER_1
 10
100.2665
 20
228.3248
  0
VERTEX
  8
LAYER_1
 10
100.3512
 20
228.3248
  0
VERTEX
  8
LAYER_1
 10
100.3512
 20
228.2402
  0
SEQEND
  0
POLYLINE
  8
LAYER_1
 40
0.0847
 41
0.0847
 66
1
 10
0
 20
0
 30
0
 70
1
  0
VERTEX
  8
LAYER_1
 10
100.3723
 20
228.1343
  0
VERTEX
  8
LAYER_1
 10
100.3723
 20
228.0497
  0
VERTEX
  8
LAYER_1
 10
100.3723
 20
227.965
  0
VERTEX
  8
LAYER_1
 10
100.2877
 20
227.965
  0
VERTEX
  8
LAYER_1
 10
100.2877
 20
227.8803
  0
VERTEX
  8
LAYER_1
 10
100.203
 20
227.8803
  0
VERTEX
  8
LAYER_1
 10
100.1183
 20
227.8803
  0
VERTEX
  8
LAYER_1
 10
100.0337
 20
227.8803
  0
VERTEX
  8
LAYER_1
 10
99.949
 20
227.8803
  0
VERTEX
  8
LAYER_1
 10
99.949
 20
227.965
  0
VERTEX
  8
LAYER_1
 10
99.949
 20
228.0497
  0
VERTEX
  8
LAYER_1
 10
99.8643
 20
228.0497
  0
VERTEX
  8
LAYER_1
 10
99.8643
 20
228.1343
  0
VERTEX
  8
LAYER_1
 10
99.8643
 20
228.219
  0
VERTEX
  8
LAYER_1
 10
99.949
 20
228.219
  0
VERTEX
  8
LAYER_1
 10
99.949
 20
228.3037
  0
VERTEX
  8
LAYER_1
 10
100.0337
 20
228.3037
  0
VERTEX
  8
LAYER_1
 10
100.0337
 20
228.3883
  0
VERTEX
  8
LAYER_1
 10
100.1183
 20
228.3883
  0
VERTEX
  8
LAYER_1
 10
100.203
 20
228.3883
  0
VERTEX
  8
LAYER_1
 10
100.203
 20
228.3037
  0
VERTEX
  8
LAYER_1
 10
100.2877
 20
228.3037
  0
VERTEX
  8
LAYER_1
 10
100.3723
 20
228.3037
  0
VERTEX
  8
LAYER_1
 10
100.3723
 20
228.219
  0
SEQEND
  0
POLYLINE
  8
LAYER_1
 40
0.1764
 41
0.1764
 66
1
 10
0
 20
0
 30
0
 70
1
  0
VERTEX
  8
LAYER_1
 10
239.903
 20
228.1343
  0
VERTEX
  8
LAYER_1
 10
239.903
 20
228.219
  0
VERTEX
  8
LAYER_1
 10
239.903
 20
228.3037
  0
VERTEX
  8
LAYER_1
 10
239.9877
 20
228.3037
  0
VERTEX
  8
LAYER_1
 10
240.0723
 20
228.3883
  0
VERTEX
  8
LAYER_1
 10
240.157
 20
228.3883
  0
VERTEX
  8
LAYER_1
 10
240.2417
 20
228.3883
  0
VERTEX
  8
LAYER_1
 10
240.2417
 20
228.3037
  0
VERTEX
  8
LAYER_1
 10
240.3263
 20
228.3037
  0
VERTEX
  8
LAYER_1
 10
240.3263
 20
228.219
  0
VERTEX
  8
LAYER_1
 10
240.411
 20
228.219
  0
VERTEX
  8
LAYER_1
 10
240.411
 20
228.1343
  0
VERTEX
  8
LAYER_1
 10
240.411
 20
228.0497
  0
VERTEX
  8
LAYER_1
 10
240.3263
 20
228.0497
  0
VERTEX
  8
LAYER_1
 10
240.3263
 20
227.965
  0
VERTEX
  8
LAYER_1
 10
240.3263
 20
227.8803
  0
VERTEX
  8
LAYER_1
 10
240.2417
 20
227.8803
  0
VERTEX
  8
LAYER_1
 10
240.157
 20
227.8803
  0
VERTEX
  8
LAYER_1
 10
240.0723
 20
227.8803
  0
VERTEX
  8
LAYER_1
 10
239.9877
 20
227.8803
  0
VERTEX
  8
LAYER_1
 10
239.9877
 20
227.965
  0
VERTEX
  8
LAYER_1
 10
239.903
 20
227.965
  0
VERTEX
  8
LAYER_1
 10
239.903
 20
228.0497
  0
SEQEND
  0
POLYLINE
  8
LAYER_1
 40
0.05
 41
0.05
 66
1
 10
0
 20
0
 30
0
 70
1
  0
VERTEX
  8
LAYER_1
 10
239.8818
 20
228.1555
  0
VERTEX
  8
LAYER_1
 10
239.8818
 20
228.2402
  0
VERTEX
  8
LAYER_1
 10
239.8818
 20
228.3248
  0
VERTEX
  8
LAYER_1
 10
239.9665
 20
228.3248
  0
VERTEX
  8
LAYER_1
 10
240.0512
 20
228.4095
  0
VERTEX
  8
LAYER_1
 10
240.1358
 20
228.4095
  0
VERTEX
  8
LAYER_1
 10
240.2205
 20
228.4095
  0
VERTEX
  8
LAYER_1
 10
240.2205
 20
228.3248
  0
VERTEX
  8
LAYER_1
 10
240.3052
 20
228.3248
  0
VERTEX
  8
LAYER_1
 10
240.3052
 20
228.2402
  0
VERTEX
  8
LAYER_1
 10
240.3898
 20
228.2402
  0
VERTEX
  8
LAYER_1
 10
240.3898
 20
228.1555
  0
VERTEX
  8
LAYER_1
 10
240.3898
 20
228.0708
  0
VERTEX
  8
LAYER_1
 10
240.3052
 20
228.0708
  0
VERTEX
  8
LAYER_1
 10
240.3052
 20
227.9862
  0
VERTEX
  8
LAYER_1
 10
240.3052
 20
227.9015
  0
VERTEX
  8
LAYER_1
 10
240.2205
 20
227.9015
  0
VERTEX
  8
LAYER_1
 10
240.1358
 20
227.9015
  0
VERTEX
  8
LAYER_1
 10
240.0512
 20
227.9015
  0
VERTEX
  8
LAYER_1
 10
239.9665
 20
227.9015
  0
VERTEX
  8
LAYER_1
 10
239.9665
 20
227.9862
  0
VERTEX
  8
LAYER_1
 10
239.8818
 20
227.9862
  0
VERTEX
  8
LAYER_1
 10
239.8818
 20
228.0708
  0
SEQEND
  0
POLYLINE
  8
LAYER_1
 40
0.0847
 41
0.0847
 66
1
 10
0
 20
0
 30
0
 70
1
  0
VERTEX
  8
LAYER_1
 10
239.903
 20
228.1343
  0
VERTEX
  8
LAYER_1
 10
239.903
 20
228.219
  0
VERTEX
  8
LAYER_1
 10
239.903
 20
228.3037
  0
VERTEX
  8
LAYER_1
 10
239.9877
 20
228.3037
  0
VERTEX
  8
LAYER_1
 10
240.0723
 20
228.3883
  0
VERTEX
  8
LAYER_1
 10
240.157
 20
228.3883
  0
VERTEX
  8
LAYER_1
 10
240.2417
 20
228.3883
  0
VERTEX
  8
LAYER_1
 10
240.2417
 20
228.3037
  0
VERTEX
  8
LAYER_1
 10
240.3263
 20
228.3037
  0
VERTEX
  8
LAYER_1
 10
240.3263
 20
228.219
  0
VERTEX
  8
LAYER_1
 10
240.411
 20
228.219
  0
VERTEX
  8
LAYER_1
 10
240.411
 20
228.1343
  0
VERTEX
  8
LAYER_1
 10
240.411
 20
228.0497
  0
VERTEX
  8
LAYER_1
 10
240.3263
 20
228.0497
  0
VERTEX
  8
LAYER_1
 10
240.3263
 20
227.965
  0
VERTEX
  8
LAYER_1
 10
240.3263
 20
227.8803
  0
VERTEX
  8
LAYER_1
 10
240.2417
 20
227.8803
  0
VERTEX
  8
LAYER_1
 10
240.157
 20
227.8803
  0
VERTEX
  8
LAYER_1
 10
240.0723
 20
227.8803
  0
VERTEX
  8
LAYER_1
 10
239.9877
 20
227.8803
  0
VERTEX
  8
LAYER_1
 10
239.9877
 20
227.965
  0
VERTEX
  8
LAYER_1
 10
239.903
 20
227.965
  0
VERTEX
  8
LAYER_1
 10
239.903
 20
228.0497
  0
SEQEND
  0
POLYLINE
  8
LAYER_1
 40
0.05
 41
0.05
 62
255
 66
1
 10
0
 20
0
 30
0
 70
1
  0
VERTEX
  8
LAYER_1
 10
167.7458
 20
232.5582
  0
VERTEX
  8
LAYER_1
 10
172.4872
 20
232.5582
  0
VERTEX
  8
LAYER_1
 10
172.4872
 20
229.3408
  0
VERTEX
  8
LAYER_1
 10
167.7458
 20
229.3408
  0
SEQEND
  0
TEXT
  8
LAYER_1
 10
167.767
 20
229.8852
 11
167.767
 21
229.8852
 40
3.4028
 41
0.5
  1
700
  0
POLYLINE
  8
LAYER_1
 40
0.1764
 41
0.1764
 66
1
 10
0
 20
0
 30
0
  0
VERTEX
  8
LAYER_1
 10
118.1523
 20
185.039
  0
VERTEX
  8
LAYER_1
 10
118.1523
 20
213.741
  0
SEQEND
  0
POLYLINE
  8
LAYER_1
 40
0.1764
 41
0.1764
 66
1
 10
0
 20
0
 30
0
  0
VERTEX
  8
LAYER_1
 10
222.123
 20
185.039
  0
VERTEX
  8
LAYER_1
 10
222.123
 20
213.741
  0
SEQEND
  0
POLYLINE
  8
LAYER_1
 40
0.1764
 41
0.1764
 66
1
 10
0
 20
0
 30
0
  0
VERTEX
  8
LAYER_1
 10
118.1523
 20
213.741
  0
VERTEX
  8
LAYER_1
 10
222.123
 20
213.741
  0
SEQEND
  0
POLYLINE
  8
LAYER_1
 40
0.1764
 41
0.1764
 66
1
 10
0
 20
0
 30
0
 70
1
  0
VERTEX
  8
LAYER_1
 10
118.4063
 20
213.741
  0
VERTEX
  8
LAYER_1
 10
118.4063
 20
213.6563
  0
VERTEX
  8
LAYER_1
 10
118.3217
 20
213.5717
  0
VERTEX
  8
LAYER_1
 10
118.3217
 20
213.487
  0
VERTEX
  8
LAYER_1
 10
118.237
 20
213.487
  0
VERTEX
  8
LAYER_1
 10
118.1523
 20
213.487
  0
VERTEX
  8
LAYER_1
 10
118.0677
 20
213.487
  0
VERTEX
  8
LAYER_1
 10
117.983
 20
213.487
  0
VERTEX
  8
LAYER_1
 10
117.983
 20
213.5717
  0
VERTEX
  8
LAYER_1
 10
117.8983
 20
213.5717
  0
VERTEX
  8
LAYER_1
 10
117.8983
 20
213.6563
  0
VERTEX
  8
LAYER_1
 10
117.8983
 20
213.741
  0
VERTEX
  8
LAYER_1
 10
117.8983
 20
213.8257
  0
VERTEX
  8
LAYER_1
 10
117.983
 20
213.9103
  0
VERTEX
  8
LAYER_1
 10
118.0677
 20
213.9103
  0
VERTEX
  8
LAYER_1
 10
118.0677
 20
213.995
  0
VERTEX
  8
LAYER_1
 10
118.1523
 20
213.995
  0
VERTEX
  8
LAYER_1
 10
118.237
 20
213.995
  0
VERTEX
  8
LAYER_1
 10
118.237
 20
213.9103
  0
VERTEX
  8
LAYER_1
 10
118.3217
 20
213.9103
  0
VERTEX
  8
LAYER_1
 10
118.3217
 20
213.8257
  0
VERTEX
  8
LAYER_1
 10
118.4063
 20
213.8257
  0
SEQEND
  0
POLYLINE
  8
LAYER_1
 40
0.05
 41
0.05
 66
1
 10
0
 20
0
 30
0
 70
1
  0
VERTEX
  8
LAYER_1
 10
118.3852
 20
213.7622
  0
VERTEX
  8
LAYER_1
 10
118.3852
 20
213.6775
  0
VERTEX
  8
LAYER_1
 10
118.3005
 20
213.5928
  0
VERTEX
  8
LAYER_1
 10
118.3005
 20
213.5082
  0
VERTEX
  8
LAYER_1
 10
118.2158
 20
213.5082
  0
VERTEX
  8
LAYER_1
 10
118.1312
 20
213.5082
  0
VERTEX
  8
LAYER_1
 10
118.0465
 20
213.5082
  0
VERTEX
  8
LAYER_1
 10
117.9618
 20
213.5082
  0
VERTEX
  8
LAYER_1
 10
117.9618
 20
213.5928
  0
VERTEX
  8
LAYER_1
 10
117.8772
 20
213.5928
  0
VERTEX
  8
LAYER_1
 10
117.8772
 20
213.6775
  0
VERTEX
  8
LAYER_1
 10
117.8772
 20
213.7622
  0
VERTEX
  8
LAYER_1
 10
117.8772
 20
213.8468
  0
VERTEX
  8
LAYER_1
 10
117.9618
 20
213.9315
  0
VERTEX
  8
LAYER_1
 10
118.0465
 20
213.9315
  0
VERTEX
  8
LAYER_1
 10
118.0465
 20
214.0162
  0
VERTEX
  8
LAYER_1
 10
118.1312
 20
214.0162
  0
VERTEX
  8
LAYER_1
 10
118.2158
 20
214.0162
  0
VERTEX
  8
LAYER_1
 10
118.2158
 20
213.9315
  0
VERTEX
  8
LAYER_1
 10
118.3005
 20
213.9315
  0
VERTEX
  8
LAYER_1
 10
118.3005
 20
213.8468
  0
VERTEX
  8
LAYER_1
 10
118.3852
 20
213.8468
  0
SEQEND
  0
POLYLINE
  8
LAYER_1
 40
0.0847
 41
0.0847
 66
1
 10
0
 20
0
 30
0
 70
1
  0
VERTEX
  8
LAYER_1
 10
118.4063
 20
213.741
  0
VERTEX
  8
LAYER_1
 10
118.4063
 20
213.6563
  0
VERTEX
  8
LAYER_1
 10
118.3217
 20
213.5717
  0
VERTEX
  8
LAYER_1
 10
118.3217
 20
213.487
  0
VERTEX
  8
LAYER_1
 10
118.237
 20
213.487
  0
VERTEX
  8
LAYER_1
 10
118.1523
 20
213.487
  0
VERTEX
  8
LAYER_1
 10
118.0677
 20
213.487
  0
VERTEX
  8
LAYER_1
 10
117.983
 20
213.487
  0
VERTEX
  8
LAYER_1
 10
117.983
 20
213.5717
  0
VERTEX
  8
LAYER_1
 10
117.8983
 20
213.5717
  0
VERTEX
  8
LAYER_1
 10
117.8983
 20
213.6563
  0
VERTEX
  8
LAYER_1
 10
117.8983
 20
213.741
  0
VERTEX
  8
LAYER_1
 10
117.8983
 20
213.8257
  0
VERTEX
  8
LAYER_1
 10
117.983
 20
213.9103
  0
VERTEX
  8
LAYER_1
 10
118.0677
 20
213.9103
  0
VERTEX
  8
LAYER_1
 10
118.0677
 20
213.995
  0
VERTEX
  8
LAYER_1
 10
118.1523
 20
213.995
  0
VERTEX
  8
LAYER_1
 10
118.237
 20
213.995
  0
VERTEX
  8
LAYER_1
 10
118.237
 20
213.9103
  0
VERTEX
  8
LAYER_1
 10
118.3217
 20
213.9103
  0
VERTEX
  8
LAYER_1
 10
118.3217
 20
213.8257
  0
VERTEX
  8
LAYER_1
 10
118.4063
 20
213.8257
  0
SEQEND
  0
POLYLINE
  8
LAYER_1
 40
0.1764
 41
0.1764
 66
1
 10
0
 20
0
 30
0
 70
1
  0
VERTEX
  8
LAYER_1
 10
221.869
 20
213.741
  0
VERTEX
  8
LAYER_1
 10
221.869
 20
213.8257
  0
VERTEX
  8
LAYER_1
 10
221.9537
 20
213.8257
  0
VERTEX
  8
LAYER_1
 10
221.9537
 20
213.9103
  0
VERTEX
  8
LAYER_1
 10
222.0383
 20
213.9103
  0
VERTEX
  8
LAYER_1
 10
222.0383
 20
213.995
  0
VERTEX
  8
LAYER_1
 10
222.123
 20
213.995
  0
VERTEX
  8
LAYER_1
 10
222.2077
 20
213.995
  0
VERTEX
  8
LAYER_1
 10
222.2077
 20
213.9103
  0
VERTEX
  8
LAYER_1
 10
222.2923
 20
213.9103
  0
VERTEX
  8
LAYER_1
 10
222.377
 20
213.8257
  0
VERTEX
  8
LAYER_1
 10
222.377
 20
213.741
  0
VERTEX
  8
LAYER_1
 10
222.377
 20
213.6563
  0
VERTEX
  8
LAYER_1
 10
222.377
 20
213.5717
  0
VERTEX
  8
LAYER_1
 10
222.2923
 20
213.5717
  0
VERTEX
  8
LAYER_1
 10
222.2923
 20
213.487
  0
VERTEX
  8
LAYER_1
 10
222.2077
 20
213.487
  0
VERTEX
  8
LAYER_1
 10
222.123
 20
213.487
  0
VERTEX
  8
LAYER_1
 10
222.0383
 20
213.487
  0
VERTEX
  8
LAYER_1
 10
221.9537
 20
213.487
  0
VERTEX
  8
LAYER_1
 10
221.9537
 20
213.5717
  0
VERTEX
  8
LAYER_1
 10
221.869
 20
213.5717
  0
VERTEX
  8
LAYER_1
 10
221.869
 20
213.6563
  0
SEQEND
  0
POLYLINE
  8
LAYER_1
 40
0.05
 41
0.05
 66
1
 10
0
 20
0
 30
0
 70
1
  0
VERTEX
  8
LAYER_1
 10
221.8478
 20
213.7622
  0
VERTEX
  8
LAYER_1
 10
221.8478
 20
213.8468
  0
VERTEX
  8
LAYER_1
 10
221.9325
 20
213.8468
  0
VERTEX
  8
LAYER_1
 10
221.9325
 20
213.9315
  0
VERTEX
  8
LAYER_1
 10
222.0172
 20
213.9315
  0
VERTEX
  8
LAYER_1
 10
222.0172
 20
214.0162
  0
VERTEX
  8
LAYER_1
 10
222.1018
 20
214.0162
  0
VERTEX
  8
LAYER_1
 10
222.1865
 20
214.0162
  0
VERTEX
  8
LAYER_1
 10
222.1865
 20
213.9315
  0
VERTEX
  8
LAYER_1
 10
222.2712
 20
213.9315
  0
VERTEX
  8
LAYER_1
 10
222.3558
 20
213.8468
  0
VERTEX
  8
LAYER_1
 10
222.3558
 20
213.7622
  0
VERTEX
  8
LAYER_1
 10
222.3558
 20
213.6775
  0
VERTEX
  8
LAYER_1
 10
222.3558
 20
213.5928
  0
VERTEX
  8
LAYER_1
 10
222.2712
 20
213.5928
  0
VERTEX
  8
LAYER_1
 10
222.2712
 20
213.5082
  0
VERTEX
  8
LAYER_1
 10
222.1865
 20
213.5082
  0
VERTEX
  8
LAYER_1
 10
222.1018
 20
213.5082
  0
VERTEX
  8
LAYER_1
 10
222.0172
 20
213.5082
  0
VERTEX
  8
LAYER_1
 10
221.9325
 20
213.5082
  0
VERTEX
  8
LAYER_1
 10
221.9325
 20
213.5928
  0
VERTEX
  8
LAYER_1
 10
221.8478
 20
213.5928
  0
VERTEX
  8
LAYER_1
 10
221.8478
 20
213.6775
  0
SEQEND
  0
POLYLINE
  8
LAYER_1
 40
0.0847
 41
0.0847
 66
1
 10
0
 20
0
 30
0
 70
1
  0
VERTEX
  8
LAYER_1
 10
221.869
 20
213.741
  0
VERTEX
  8
LAYER_1
 10
221.869
 20
213.8257
  0
VERTEX
  8
LAYER_1
 10
221.9537
 20
213.8257
  0
VERTEX
  8
LAYER_1
 10
221.9537
 20
213.9103
  0
VERTEX
  8
LAYER_1
 10
222.0383
 20
213.9103
  0
VERTEX
  8
LAYER_1
 10
222.0383
 20
213.995
  0
VERTEX
  8
LAYER_1
 10
222.123
 20
213.995
  0
VERTEX
  8
LAYER_1
 10
222.2077
 20
213.995
  0
VERTEX
  8
LAYER_1
 10
222.2077
 20
213.9103
  0
VERTEX
  8
LAYER_1
 10
222.2923
 20
213.9103
  0
VERTEX
  8
LAYER_1
 10
222.377
 20
213.8257
  0
VERTEX
  8
LAYER_1
 10
222.377
 20
213.741
  0
VERTEX
  8
LAYER_1
 10
222.377
 20
213.6563
  0
VERTEX
  8
LAYER_1
 10
222.377
 20
213.5717
  0
VERTEX
  8
LAYER_1
 10
222.2923
 20
213.5717
  0
VERTEX
  8
LAYER_1
 10
222.2923
 20
213.487
  0
VERTEX
  8
LAYER_1
 10
222.2077
 20
213.487
  0
VERTEX
  8
LAYER_1
 10
222.123
 20
213.487
  0
VERTEX
  8
LAYER_1
 10
222.0383
 20
213.487
  0
VERTEX
  8
LAYER_1
 10
221.9537
 20
213.487
  0
VERTEX
  8
LAYER_1
 10
221.9537
 20
213.5717
  0
VERTEX
  8
LAYER_1
 10
221.869
 20
213.5717
  0
VERTEX
  8
LAYER_1
 10
221.869
 20
213.6563
  0
SEQEND
  0
POLYLINE
  8
LAYER_1
 40
0.05
 41
0.05
 62
255
 66
1
 10
0
 20
0
 30
0
 70
1
  0
VERTEX
  8
LAYER_1
 10
167.7458
 20
218.1648
  0
VERTEX
  8
LAYER_1
 10
172.4872
 20
218.1648
  0
VERTEX
  8
LAYER_1
 10
172.4872
 20
214.9475
  0
VERTEX
  8
LAYER_1
 10
167.7458
 20
214.9475
  0
SEQEND
  0
TEXT
  8
LAYER_1
 10
167.767
 20
215.4919
 11
167.767
 21
215.4919
 40
3.4028
 41
0.5
  1
520
  0
POLYLINE
  8
LAYER_1
 40
0.1764
 41
0.1764
 66
1
 10
0
 20
0
 30
0
  0
VERTEX
  8
LAYER_1
 10
118.1523
 20
214.757
  0
VERTEX
  8
LAYER_1
 10
118.1523
 20
213.741
  0
SEQEND
  0
POLYLINE
  8
LAYER_1
 40
0.1764
 41
0.1764
 66
1
 10
0
 20
0
 30
0
  0
VERTEX
  8
LAYER_1
 10
100.1183
 20
214.757
  0
VERTEX
  8
LAYER_1
 10
100.1183
 20
213.741
  0
SEQEND
  0
POLYLINE
  8
LAYER_1
 40
0.1764
 41
0.1764
 66
1
 10
0
 20
0
 30
0
  0
VERTEX
  8
LAYER_1
 10
118.1523
 20
213.741
  0
VERTEX
  8
LAYER_1
 10
100.1183
 20
213.741
  0
SEQEND
  0
POLYLINE
  8
LAYER_1
 40
0.1764
 41
0.1764
 66
1
 10
0
 20
0
 30
0
 70
1
  0
VERTEX
  8
LAYER_1
 10
117.8983
 20
213.741
  0
VERTEX
  8
LAYER_1
 10
117.8983
 20
213.8257
  0
VERTEX
  8
LAYER_1
 10
117.983
 20
213.9103
  0
VERTEX
  8
LAYER_1
 10
118.0677
 20
213.9103
  0
VERTEX
  8
LAYER_1
 10
118.0677
 20
213.995
  0
VERTEX
  8
LAYER_1
 10
118.1523
 20
213.995
  0
VERTEX
  8
LAYER_1
 10
118.237
 20
213.995
  0
VERTEX
  8
LAYER_1
 10
118.237
 20
213.9103
  0
VERTEX
  8
LAYER_1
 10
118.3217
 20
213.9103
  0
VERTEX
  8
LAYER_1
 10
118.3217
 20
213.8257
  0
VERTEX
  8
LAYER_1
 10
118.4063
 20
213.8257
  0
VERTEX
  8
LAYER_1
 10
118.4063
 20
213.741
  0
VERTEX
  8
LAYER_1
 10
118.4063
 20
213.6563
  0
VERTEX
  8
LAYER_1
 10
118.3217
 20
213.5717
  0
VERTEX
  8
LAYER_1
 10
118.3217
 20
213.487
  0
VERTEX
  8
LAYER_1
 10
118.237
 20
213.487
  0
VERTEX
  8
LAYER_1
 10
118.1523
 20
213.487
  0
VERTEX
  8
LAYER_1
 10
118.0677
 20
213.487
  0
VERTEX
  8
LAYER_1
 10
117.983
 20
213.487
  0
VERTEX
  8
LAYER_1
 10
117.983
 20
213.5717
  0
VERTEX
  8
LAYER_1
 10
117.8983
 20
213.5717
  0
VERTEX
  8
LAYER_1
 10
117.8983
 20
213.6563
  0
SEQEND
  0
POLYLINE
  8
LAYER_1
 40
0.05
 41
0.05
 66
1
 10
0
 20
0
 30
0
 70
1
  0
VERTEX
  8
LAYER_1
 10
117.8772
 20
213.7622
  0
VERTEX
  8
LAYER_1
 10
117.8772
 20
213.8468
  0
VERTEX
  8
LAYER_1
 10
117.9618
 20
213.9315
  0
VERTEX
  8
LAYER_1
 10
118.0465
 20
213.9315
  0
VERTEX
  8
LAYER_1
 10
118.0465
 20
214.0162
  0
VERTEX
  8
LAYER_1
 10
118.1312
 20
214.0162
  0
VERTEX
  8
LAYER_1
 10
118.2158
 20
214.0162
  0
VERTEX
  8
LAYER_1
 10
118.2158
 20
213.9315
  0
VERTEX
  8
LAYER_1
 10
118.3005
 20
213.9315
  0
VERTEX
  8
LAYER_1
 10
118.3005
 20
213.8468
  0
VERTEX
  8
LAYER_1
 10
118.3852
 20
213.8468
  0
VERTEX
  8
LAYER_1
 10
118.3852
 20
213.7622
  0
VERTEX
  8
LAYER_1
 10
118.3852
 20
213.6775
  0
VERTEX
  8
LAYER_1
 10
118.3005
 20
213.5928
  0
VERTEX
  8
LAYER_1
 10
118.3005
 20
213.5082
  0
VERTEX
  8
LAYER_1
 10
118.2158
 20
213.5082
  0
VERTEX
  8
LAYER_1
 10
118.1312
 20
213.5082
  0
VERTEX
  8
LAYER_1
 10
118.0465
 20
213.5082
  0
VERTEX
  8
LAYER_1
 10
117.9618
 20
213.5082
  0
VERTEX
  8
LAYER_1
 10
117.9618
 20
213.5928
  0
VERTEX
  8
LAYER_1
 10
117.8772
 20
213.5928
  0
VERTEX
  8
LAYER_1
 10
117.8772
 20
213.6775
  0
SEQEND
  0
POLYLINE
  8
LAYER_1
 40
0.0847
 41
0.0847
 66
1
 10
0
 20
0
 30
0
 70
1
  0
VERTEX
  8
LAYER_1
 10
117.8983
 20
213.741
  0
VERTEX
  8
LAYER_1
 10
117.8983
 20
213.8257
  0
VERTEX
  8
LAYER_1
 10
117.983
 20
213.9103
  0
VERTEX
  8
LAYER_1
 10
118.0677
 20
213.9103
  0
VERTEX
  8
LAYER_1
 10
118.0677
 20
213.995
  0
VERTEX
  8
LAYER_1
 10
118.1523
 20
213.995
  0
VERTEX
  8
LAYER_1
 10
118.237
 20
213.995
  0
VERTEX
  8
LAYER_1
 10
118.237
 20
213.9103
  0
VERTEX
  8
LAYER_1
 10
118.3217
 20
213.9103
  0
VERTEX
  8
LAYER_1
 10
118.3217
 20
213.8257
  0
VERTEX
  8
LAYER_1
 10
118.4063
 20
213.8257
  0
VERTEX
  8
LAYER_1
 10
118.4063
 20
213.741
  0
VERTEX
  8
LAYER_1
 10
118.4063
 20
213.6563
  0
VERTEX
  8
LAYER_1
 10
118.3217
 20
213.5717
  0
VERTEX
  8
LAYER_1
 10
118.3217
 20
213.487
  0
VERTEX
  8
LAYER_1
 10
118.237
 20
213.487
  0
VERTEX
  8
LAYER_1
 10
118.1523
 20
213.487
  0
VERTEX
  8
LAYER_1
 10
118.0677
 20
213.487
  0
VERTEX
  8
LAYER_1
 10
117.983
 20
213.487
  0
VERTEX
  8
LAYER_1
 10
117.983
 20
213.5717
  0
VERTEX
  8
LAYER_1
 10
117.8983
 20
213.5717
  0
VERTEX
  8
LAYER_1
 10
117.8983
 20
213.6563
  0
SEQEND
  0
POLYLINE
  8
LAYER_1
 40
0.1764
 41
0.1764
 66
1
 10
0
 20
0
 30
0
 70
1
  0
VERTEX
  8
LAYER_1
 10
100.3723
 20
213.741
  0
VERTEX
  8
LAYER_1
 10
100.3723
 20
213.6563
  0
VERTEX
  8
LAYER_1
 10
100.3723
 20
213.5717
  0
VERTEX
  8
LAYER_1
 10
100.2877
 20
213.5717
  0
VERTEX
  8
LAYER_1
 10
100.2877
 20
213.487
  0
VERTEX
  8
LAYER_1
 10
100.203
 20
213.487
  0
VERTEX
  8
LAYER_1
 10
100.1183
 20
213.487
  0
VERTEX
  8
LAYER_1
 10
100.0337
 20
213.487
  0
VERTEX
  8
LAYER_1
 10
99.949
 20
213.487
  0
VERTEX
  8
LAYER_1
 10
99.949
 20
213.5717
  0
VERTEX
  8
LAYER_1
 10
99.8643
 20
213.6563
  0
VERTEX
  8
LAYER_1
 10
99.8643
 20
213.741
  0
VERTEX
  8
LAYER_1
 10
99.8643
 20
213.8257
  0
VERTEX
  8
LAYER_1
 10
99.949
 20
213.8257
  0
VERTEX
  8
LAYER_1
 10
99.949
 20
213.9103
  0
VERTEX
  8
LAYER_1
 10
100.0337
 20
213.9103
  0
VERTEX
  8
LAYER_1
 10
100.0337
 20
213.995
  0
VERTEX
  8
LAYER_1
 10
100.1183
 20
213.995
  0
VERTEX
  8
LAYER_1
 10
100.203
 20
213.995
  0
VERTEX
  8
LAYER_1
 10
100.203
 20
213.9103
  0
VERTEX
  8
LAYER_1
 10
100.2877
 20
213.9103
  0
VERTEX
  8
LAYER_1
 10
100.3723
 20
213.8257
  0
SEQEND
  0
POLYLINE
  8
LAYER_1
 40
0.05
 41
0.05
 66
1
 10
0
 20
0
 30
0
 70
1
  0
VERTEX
  8
LAYER_1
 10
100.3512
 20
213.7622
  0
VERTEX
  8
LAYER_1
 10
100.3512
 20
213.6775
  0
VERTEX
  8
LAYER_1
 10
100.3512
 20
213.5928
  0
VERTEX
  8
LAYER_1
 10
100.2665
 20
213.5928
  0
VERTEX
  8
LAYER_1
 10
100.2665
 20
213.5082
  0
VERTEX
  8
LAYER_1
 10
100.1818
 20
213.5082
  0
VERTEX
  8
LAYER_1
 10
100.0972
 20
213.5082
  0
VERTEX
  8
LAYER_1
 10
100.0125
 20
213.5082
  0
VERTEX
  8
LAYER_1
 10
99.9278
 20
213.5082
  0
VERTEX
  8
LAYER_1
 10
99.9278
 20
213.5928
  0
VERTEX
  8
LAYER_1
 10
99.8432
 20
213.6775
  0
VERTEX
  8
LAYER_1
 10
99.8432
 20
213.7622
  0
VERTEX
  8
LAYER_1
 10
99.8432
 20
213.8468
  0
VERTEX
  8
LAYER_1
 10
99.9278
 20
213.8468
  0
VERTEX
  8
LAYER_1
 10
99.9278
 20
213.9315
  0
VERTEX
  8
LAYER_1
 10
100.0125
 20
213.9315
  0
VERTEX
  8
LAYER_1
 10
100.0125
 20
214.0162
  0
VERTEX
  8
LAYER_1
 10
100.0972
 20
214.0162
  0
VERTEX
  8
LAYER_1
 10
100.1818
 20
214.0162
  0
VERTEX
  8
LAYER_1
 10
100.1818
 20
213.9315
  0
VERTEX
  8
LAYER_1
 10
100.2665
 20
213.9315
  0
VERTEX
  8
LAYER_1
 10
100.3512
 20
213.8468
  0
SEQEND
  0
POLYLINE
  8
LAYER_1
 40
0.0847
 41
0.0847
 66
1
 10
0
 20
0
 30
0
 70
1
  0
VERTEX
  8
LAYER_1
 10
100.3723
 20
213.741
  0
VERTEX
  8
LAYER_1
 10
100.3723
 20
213.6563
  0
VERTEX
  8
LAYER_1
 10
100.3723
 20
213.5717
  0
VERTEX
  8
LAYER_1
 10
100.2877
 20
213.5717
  0
VERTEX
  8
LAYER_1
 10
100.2877
 20
213.487
  0
VERTEX
  8
LAYER_1
 10
100.203
 20
213.487
  0
VERTEX
  8
LAYER_1
 10
100.1183
 20
213.487
  0
VERTEX
  8
LAYER_1
 10
100.0337
 20
213.487
  0
VERTEX
  8
LAYER_1
 10
99.949
 20
213.487
  0
VERTEX
  8
LAYER_1
 10
99.949
 20
213.5717
  0
VERTEX
  8
LAYER_1
 10
99.8643
 20
213.6563
  0
VERTEX
  8
LAYER_1
 10
99.8643
 20
213.741
  0
VERTEX
  8
LAYER_1
 10
99.8643
 20
213.8257
  0
VERTEX
  8
LAYER_1
 10
99.949
 20
213.8257
  0
VERTEX
  8
LAYER_1
 10
99.949
 20
213.9103
  0
VERTEX
  8
LAYER_1
 10
100.0337
 20
213.9103
  0
VERTEX
  8
LAYER_1
 10
100.0337
 20
213.995
  0
VERTEX
  8
LAYER_1
 10
100.1183
 20
213.995
  0
VERTEX
  8
LAYER_1
 10
100.203
 20
213.995
  0
VERTEX
  8
LAYER_1
 10
100.203
 20
213.9103
  0
VERTEX
  8
LAYER_1
 10
100.2877
 20
213.9103
  0
VERTEX
  8
LAYER_1
 10
100.3723
 20
213.8257
  0
SEQEND
  0
POLYLINE
  8
LAYER_1
 40
0.05
 41
0.05
 62
255
 66
1
 10
0
 20
0
 30
0
 70
1
  0
VERTEX
  8
LAYER_1
 10
107.5478
 20
218.1648
  0
VERTEX
  8
LAYER_1
 10
110.6805
 20
218.1648
  0
VERTEX
  8
LAYER_1
 10
110.6805
 20
214.9475
  0
VERTEX
  8
LAYER_1
 10
107.5478
 20
214.9475
  0
SEQEND
  0
TEXT
  8
LAYER_1
 10
107.569
 20
215.4919
 11
107.569
 21
215.4919
 40
3.4028
 41
0.5
  1
90
  0
POLYLINE
  8
LAYER_1
 40
0.1764
 41
0.1764
 66
1
 10
0
 20
0
 30
0
  0
VERTEX
  8
LAYER_1
 10
222.123
 20
214.757
  0
VERTEX
  8
LAYER_1
 10
222.123
 20
213.741
  0
SEQEND
  0
POLYLINE
  8
LAYER_1
 40
0.1764
 41
0.1764
 66
1
 10
0
 20
0
 30
0
  0
VERTEX
  8
LAYER_1
 10
240.157
 20
214.757
  0
VERTEX
  8
LAYER_1
 10
240.157
 20
213.741
  0
SEQEND
  0
POLYLINE
  8
LAYER_1
 40
0.1764
 41
0.1764
 66
1
 10
0
 20
0
 30
0
  0
VERTEX
  8
LAYER_1
 10
222.123
 20
213.741
  0
VERTEX
  8
LAYER_1
 10
240.157
 20
213.741
  0
SEQEND
  0
POLYLINE
  8
LAYER_1
 40
0.1764
 41
0.1764
 66
1
 10
0
 20
0
 30
0
 70
1
  0
VERTEX
  8
LAYER_1
 10
222.377
 20
213.741
  0
VERTEX
  8
LAYER_1
 10
222.377
 20
213.6563
  0
VERTEX
  8
LAYER_1
 10
222.377
 20
213.5717
  0
VERTEX
  8
LAYER_1
 10
222.2923
 20
213.5717
  0
VERTEX
  8
LAYER_1
 10
222.2923
 20
213.487
  0
VERTEX
  8
LAYER_1
 10
222.2077
 20
213.487
  0
VERTEX
  8
LAYER_1
 10
222.123
 20
213.487
  0
VERTEX
  8
LAYER_1
 10
222.0383
 20
213.487
  0
VERTEX
  8
LAYER_1
 10
221.9537
 20
213.487
  0
VERTEX
  8
LAYER_1
 10
221.9537
 20
213.5717
  0
VERTEX
  8
LAYER_1
 10
221.869
 20
213.5717
  0
VERTEX
  8
LAYER_1
 10
221.869
 20
213.6563
  0
VERTEX
  8
LAYER_1
 10
221.869
 20
213.741
  0
VERTEX
  8
LAYER_1
 10
221.869
 20
213.8257
  0
VERTEX
  8
LAYER_1
 10
221.9537
 20
213.8257
  0
VERTEX
  8
LAYER_1
 10
221.9537
 20
213.9103
  0
VERTEX
  8
LAYER_1
 10
222.0383
 20
213.9103
  0
VERTEX
  8
LAYER_1
 10
222.0383
 20
213.995
  0
VERTEX
  8
LAYER_1
 10
222.123
 20
213.995
  0
VERTEX
  8
LAYER_1
 10
222.2077
 20
213.995
  0
VERTEX
  8
LAYER_1
 10
222.2077
 20
213.9103
  0
VERTEX
  8
LAYER_1
 10
222.2923
 20
213.9103
  0
VERTEX
  8
LAYER_1
 10
222.377
 20
213.8257
  0
SEQEND
  0
POLYLINE
  8
LAYER_1
 40
0.05
 41
0.05
 66
1
 10
0
 20
0
 30
0
 70
1
  0
VERTEX
  8
LAYER_1
 10
222.3558
 20
213.7622
  0
VERTEX
  8
LAYER_1
 10
222.3558
 20
213.6775
  0
VERTEX
  8
LAYER_1
 10
222.3558
 20
213.5928
  0
VERTEX
  8
LAYER_1
 10
222.2712
 20
213.5928
  0
VERTEX
  8
LAYER_1
 10
222.2712
 20
213.5082
  0
VERTEX
  8
LAYER_1
 10
222.1865
 20
213.5082
  0
VERTEX
  8
LAYER_1
 10
222.1018
 20
213.5082
  0
VERTEX
  8
LAYER_1
 10
222.0172
 20
213.5082
  0
VERTEX
  8
LAYER_1
 10
221.9325
 20
213.5082
  0
VERTEX
  8
LAYER_1
 10
221.9325
 20
213.5928
  0
VERTEX
  8
LAYER_1
 10
221.8478
 20
213.5928
  0
VERTEX
  8
LAYER_1
 10
221.8478
 20
213.6775
  0
VERTEX
  8
LAYER_1
 10
221.8478
 20
213.7622
  0
VERTEX
  8
LAYER_1
 10
221.8478
 20
213.8468
  0
VERTEX
  8
LAYER_1
 10
221.9325
 20
213.8468
  0
VERTEX
  8
LAYER_1
 10
221.9325
 20
213.9315
  0
VERTEX
  8
LAYER_1
 10
222.0172
 20
213.9315
  0
VERTEX
  8
LAYER_1
 10
222.0172
 20
214.0162
  0
VERTEX
  8
LAYER_1
 10
222.1018
 20
214.0162
  0
VERTEX
  8
LAYER_1
 10
222.1865
 20
214.0162
  0
VERTEX
  8
LAYER_1
 10
222.1865
 20
213.9315
  0
VERTEX
  8
LAYER_1
 10
222.2712
 20
213.9315
  0
VERTEX
  8
LAYER_1
 10
222.3558
 20
213.8468
  0
SEQEND
  0
POLYLINE
  8
LAYER_1
 40
0.0847
 41
0.0847
 66
1
 10
0
 20
0
 30
0
 70
1
  0
VERTEX
  8
LAYER_1
 10
222.377
 20
213.741
  0
VERTEX
  8
LAYER_1
 10
222.377
 20
213.6563
  0
VERTEX
  8
LAYER_1
 10
222.377
 20
213.5717
  0
VERTEX
  8
LAYER_1
 10
222.2923
 20
213.5717
  0
VERTEX
  8
LAYER_1
 10
222.2923
 20
213.487
  0
VERTEX
  8
LAYER_1
 10
222.2077
 20
213.487
  0
VERTEX
  8
LAYER_1
 10
222.123
 20
213.487
  0
VERTEX
  8
LAYER_1
 10
222.0383
 20
213.487
  0
VERTEX
  8
LAYER_1
 10
221.9537
 20
213.487
  0
VERTEX
  8
LAYER_1
 10
221.9537
 20
213.5717
  0
VERTEX
  8
LAYER_1
 10
221.869
 20
213.5717
  0
VERTEX
  8
LAYER_1
 10
221.869
 20
213.6563
  0
VERTEX
  8
LAYER_1
 10
221.869
 20
213.741
  0
VERTEX
  8
LAYER_1
 10
221.869
 20
213.8257
  0
VERTEX
  8
LAYER_1
 10
221.9537
 20
213.8257
  0
VERTEX
  8
LAYER_1
 10
221.9537
 20
213.9103
  0
VERTEX
  8
LAYER_1
 10
222.0383
 20
213.9103
  0
VERTEX
  8
LAYER_1
 10
222.0383
 20
213.995
  0
VERTEX
  8
LAYER_1
 10
222.123
 20
213.995
  0
VERTEX
  8
LAYER_1
 10
222.2077
 20
213.995
  0
VERTEX
  8
LAYER_1
 10
222.2077
 20
213.9103
  0
VERTEX
  8
LAYER_1
 10
222.2923
 20
213.9103
  0
VERTEX
  8
LAYER_1
 10
222.377
 20
213.8257
  0
SEQEND
  0
POLYLINE
  8
LAYER_1
 40
0.1764
 41
0.1764
 66
1
 10
0
 20
0
 30
0
 70
1
  0
VERTEX
  8
LAYER_1
 10
239.903
 20
213.741
  0
VERTEX
  8
LAYER_1
 10
239.903
 20
213.8257
  0
VERTEX
  8
LAYER_1
 10
239.903
 20
213.9103
  0
VERTEX
  8
LAYER_1
 10
239.9877
 20
213.9103
  0
VERTEX
  8
LAYER_1
 10
240.0723
 20
213.9103
  0
VERTEX
  8
LAYER_1
 10
240.0723
 20
213.995
  0
VERTEX
  8
LAYER_1
 10
240.157
 20
213.995
  0
VERTEX
  8
LAYER_1
 10
240.2417
 20
213.995
  0
VERTEX
  8
LAYER_1
 10
240.2417
 20
213.9103
  0
VERTEX
  8
LAYER_1
 10
240.3263
 20
213.9103
  0
VERTEX
  8
LAYER_1
 10
240.3263
 20
213.8257
  0
VERTEX
  8
LAYER_1
 10
240.411
 20
213.8257
  0
VERTEX
  8
LAYER_1
 10
240.411
 20
213.741
  0
VERTEX
  8
LAYER_1
 10
240.411
 20
213.6563
  0
VERTEX
  8
LAYER_1
 10
240.3263
 20
213.6563
  0
VERTEX
  8
LAYER_1
 10
240.3263
 20
213.5717
  0
VERTEX
  8
LAYER_1
 10
240.3263
 20
213.487
  0
VERTEX
  8
LAYER_1
 10
240.2417
 20
213.487
  0
VERTEX
  8
LAYER_1
 10
240.157
 20
213.487
  0
VERTEX
  8
LAYER_1
 10
240.0723
 20
213.487
  0
VERTEX
  8
LAYER_1
 10
239.9877
 20
213.487
  0
VERTEX
  8
LAYER_1
 10
239.9877
 20
213.5717
  0
VERTEX
  8
LAYER_1
 10
239.903
 20
213.5717
  0
VERTEX
  8
LAYER_1
 10
239.903
 20
213.6563
  0
SEQEND
  0
POLYLINE
  8
LAYER_1
 40
0.05
 41
0.05
 66
1
 10
0
 20
0
 30
0
 70
1
  0
VERTEX
  8
LAYER_1
 10
239.8818
 20
213.7622
  0
VERTEX
  8
LAYER_1
 10
239.8818
 20
213.8468
  0
VERTEX
  8
LAYER_1
 10
239.8818
 20
213.9315
  0
VERTEX
  8
LAYER_1
 10
239.9665
 20
213.9315
  0
VERTEX
  8
LAYER_1
 10
240.0512
 20
213.9315
  0
VERTEX
  8
LAYER_1
 10
240.0512
 20
214.0162
  0
VERTEX
  8
LAYER_1
 10
240.1358
 20
214.0162
  0
VERTEX
  8
LAYER_1
 10
240.2205
 20
214.0162
  0
VERTEX
  8
LAYER_1
 10
240.2205
 20
213.9315
  0
VERTEX
  8
LAYER_1
 10
240.3052
 20
213.9315
  0
VERTEX
  8
LAYER_1
 10
240.3052
 20
213.8468
  0
VERTEX
  8
LAYER_1
 10
240.3898
 20
213.8468
  0
VERTEX
  8
LAYER_1
 10
240.3898
 20
213.7622
  0
VERTEX
  8
LAYER_1
 10
240.3898
 20
213.6775
  0
VERTEX
  8
LAYER_1
 10
240.3052
 20
213.6775
  0
VERTEX
  8
LAYER_1
 10
240.3052
 20
213.5928
  0
VERTEX
  8
LAYER_1
 10
240.3052
 20
213.5082
  0
VERTEX
  8
LAYER_1
 10
240.2205
 20
213.5082
  0
VERTEX
  8
LAYER_1
 10
240.1358
 20
213.5082
  0
VERTEX
  8
LAYER_1
 10
240.0512
 20
213.5082
  0
VERTEX
  8
LAYER_1
 10
239.9665
 20
213.5082
  0
VERTEX
  8
LAYER_1
 10
239.9665
 20
213.5928
  0
VERTEX
  8
LAYER_1
 10
239.8818
 20
213.5928
  0
VERTEX
  8
LAYER_1
 10
239.8818
 20
213.6775
  0
SEQEND
  0
POLYLINE
  8
LAYER_1
 40
0.0847
 41
0.0847
 66
1
 10
0
 20
0
 30
0
 70
1
  0
VERTEX
  8
LAYER_1
 10
239.903
 20
213.741
  0
VERTEX
  8
LAYER_1
 10
239.903
 20
213.8257
  0
VERTEX
  8
LAYER_1
 10
239.903
 20
213.9103
  0
VERTEX
  8
LAYER_1
 10
239.9877
 20
213.9103
  0
VERTEX
  8
LAYER_1
 10
240.0723
 20
213.9103
  0
VERTEX
  8
LAYER_1
 10
240.0723
 20
213.995
  0
VERTEX
  8
LAYER_1
 10
240.157
 20
213.995
  0
VERTEX
  8
LAYER_1
 10
240.2417
 20
213.995
  0
VERTEX
  8
LAYER_1
 10
240.2417
 20
213.9103
  0
VERTEX
  8
LAYER_1
 10
240.3263
 20
213.9103
  0
VERTEX
  8
LAYER_1
 10
240.3263
 20
213.8257
  0
VERTEX
  8
LAYER_1
 10
240.411
 20
213.8257
  0
VERTEX
  8
LAYER_1
 10
240.411
 20
213.741
  0
VERTEX
  8
LAYER_1
 10
240.411
 20
213.6563
  0
VERTEX
  8
LAYER_1
 10
240.3263
 20
213.6563
  0
VERTEX
  8
LAYER_1
 10
240.3263
 20
213.5717
  0
VERTEX
  8
LAYER_1
 10
240.3263
 20
213.487
  0
VERTEX
  8
LAYER_1
 10
240.2417
 20
213.487
  0
VERTEX
  8
LAYER_1
 10
240.157
 20
213.487
  0
VERTEX
  8
LAYER_1
 10
240.0723
 20
213.487
  0
VERTEX
  8
LAYER_1
 10
239.9877
 20
213.487
  0
VERTEX
  8
LAYER_1
 10
239.9877
 20
213.5717
  0
VERTEX
  8
LAYER_1
 10
239.903
 20
213.5717
  0
VERTEX
  8
LAYER_1
 10
239.903
 20
213.6563
  0
SEQEND
  0
POLYLINE
  8
LAYER_1
 40
0.05
 41
0.05
 62
255
 66
1
 10
0
 20
0
 30
0
 70
1
  0
VERTEX
  8
LAYER_1
 10
229.5525
 20
218.1648
  0
VERTEX
  8
LAYER_1
 10
232.6852
 20
218.1648
  0
VERTEX
  8
LAYER_1
 10
232.6852
 20
214.9475
  0
VERTEX
  8
LAYER_1
 10
229.5525
 20
214.9475
  0
SEQEND
  0
TEXT
  8
LAYER_1
 10
229.5736
 20
215.4919
 11
229.5736
 21
215.4919
 40
3.4028
 41
0.5
  1
90
  0
POLYLINE
  8
LAYER_1
 40
0.1764
 41
0.1764
 66
1
 10
0
 20
0
 30
0
  0
VERTEX
  8
LAYER_1
 10
300.101
 20
204.0043
  0
VERTEX
  8
LAYER_1
 10
300.101
 20
216.789
  0
SEQEND
  0
POLYLINE
  8
LAYER_1
 40
0.1764
 41
0.1764
 66
1
 10
0
 20
0
 30
0
  0
VERTEX
  8
LAYER_1
 10
304.3343
 20
202.9883
  0
VERTEX
  8
LAYER_1
 10
304.3343
 20
216.789
  0
SEQEND
  0
POLYLINE
  8
LAYER_1
 40
0.1764
 41
0.1764
 66
1
 10
0
 20
0
 30
0
  0
VERTEX
  8
LAYER_1
 10
300.101
 20
216.789
  0
VERTEX
  8
LAYER_1
 10
304.3343
 20
216.789
  0
SEQEND
  0
POLYLINE
  8
LAYER_1
 40
0.1764
 41
0.1764
 66
1
 10
0
 20
0
 30
0
 70
1
  0
VERTEX
  8
LAYER_1
 10
300.355
 20
216.789
  0
VERTEX
  8
LAYER_1
 10
300.355
 20
216.7043
  0
VERTEX
  8
LAYER_1
 10
300.2703
 20
216.7043
  0
VERTEX
  8
LAYER_1
 10
300.2703
 20
216.6197
  0
VERTEX
  8
LAYER_1
 10
300.1857
 20
216.6197
  0
VERTEX
  8
LAYER_1
 10
300.1857
 20
216.535
  0
VERTEX
  8
LAYER_1
 10
300.101
 20
216.535
  0
VERTEX
  8
LAYER_1
 10
300.0163
 20
216.535
  0
VERTEX
  8
LAYER_1
 10
300.0163
 20
216.6197
  0
VERTEX
  8
LAYER_1
 10
299.9316
 20
216.6197
  0
VERTEX
  8
LAYER_1
 10
299.9316
 20
216.7043
  0
VERTEX
  8
LAYER_1
 10
299.847
 20
216.7043
  0
VERTEX
  8
LAYER_1
 10
299.847
 20
216.789
  0
VERTEX
  8
LAYER_1
 10
299.847
 20
216.8737
  0
VERTEX
  8
LAYER_1
 10
299.847
 20
216.9583
  0
VERTEX
  8
LAYER_1
 10
299.9316
 20
216.9583
  0
VERTEX
  8
LAYER_1
 10
299.9316
 20
217.043
  0
VERTEX
  8
LAYER_1
 10
300.0163
 20
217.043
  0
VERTEX
  8
LAYER_1
 10
300.101
 20
217.043
  0
VERTEX
  8
LAYER_1
 10
300.1857
 20
217.043
  0
VERTEX
  8
LAYER_1
 10
300.2703
 20
217.043
  0
VERTEX
  8
LAYER_1
 10
300.2703
 20
216.9583
  0
VERTEX
  8
LAYER_1
 10
300.355
 20
216.9583
  0
VERTEX
  8
LAYER_1
 10
300.355
 20
216.8737
  0
SEQEND
  0
POLYLINE
  8
LAYER_1
 40
0.05
 41
0.05
 66
1
 10
0
 20
0
 30
0
 70
1
  0
VERTEX
  8
LAYER_1
 10
300.3338
 20
216.8102
  0
VERTEX
  8
LAYER_1
 10
300.3338
 20
216.7255
  0
VERTEX
  8
LAYER_1
 10
300.2492
 20
216.7255
  0
VERTEX
  8
LAYER_1
 10
300.2492
 20
216.6408
  0
VERTEX
  8
LAYER_1
 10
300.1645
 20
216.6408
  0
VERTEX
  8
LAYER_1
 10
300.1645
 20
216.5562
  0
VERTEX
  8
LAYER_1
 10
300.0798
 20
216.5562
  0
VERTEX
  8
LAYER_1
 10
299.9952
 20
216.5562
  0
VERTEX
  8
LAYER_1
 10
299.9952
 20
216.6408
  0
VERTEX
  8
LAYER_1
 10
299.9105
 20
216.6408
  0
VERTEX
  8
LAYER_1
 10
299.9105
 20
216.7255
  0
VERTEX
  8
LAYER_1
 10
299.8258
 20
216.7255
  0
VERTEX
  8
LAYER_1
 10
299.8258
 20
216.8102
  0
VERTEX
  8
LAYER_1
 10
299.8258
 20
216.8948
  0
VERTEX
  8
LAYER_1
 10
299.8258
 20
216.9795
  0
VERTEX
  8
LAYER_1
 10
299.9105
 20
216.9795
  0
VERTEX
  8
LAYER_1
 10
299.9105
 20
217.0642
  0
VERTEX
  8
LAYER_1
 10
299.9952
 20
217.0642
  0
VERTEX
  8
LAYER_1
 10
300.0798
 20
217.0642
  0
VERTEX
  8
LAYER_1
 10
300.1645
 20
217.0642
  0
VERTEX
  8
LAYER_1
 10
300.2492
 20
217.0642
  0
VERTEX
  8
LAYER_1
 10
300.2492
 20
216.9795
  0
VERTEX
  8
LAYER_1
 10
300.3338
 20
216.9795
  0
VERTEX
  8
LAYER_1
 10
300.3338
 20
216.8948
  0
SEQEND
  0
POLYLINE
  8
LAYER_1
 40
0.0847
 41
0.0847
 66
1
 10
0
 20
0
 30
0
 70
1
  0
VERTEX
  8
LAYER_1
 10
300.355
 20
216.789
  0
VERTEX
  8
LAYER_1
 10
300.355
 20
216.7043
  0
VERTEX
  8
LAYER_1
 10
300.2703
 20
216.7043
  0
VERTEX
  8
LAYER_1
 10
300.2703
 20
216.6197
  0
VERTEX
  8
LAYER_1
 10
300.1857
 20
216.6197
  0
VERTEX
  8
LAYER_1
 10
300.1857
 20
216.535
  0
VERTEX
  8
LAYER_1
 10
300.101
 20
216.535
  0
VERTEX
  8
LAYER_1
 10
300.0163
 20
216.535
  0
VERTEX
  8
LAYER_1
 10
300.0163
 20
216.6197
  0
VERTEX
  8
LAYER_1
 10
299.9316
 20
216.6197
  0
VERTEX
  8
LAYER_1
 10
299.9316
 20
216.7043
  0
VERTEX
  8
LAYER_1
 10
299.847
 20
216.7043
  0
VERTEX
  8
LAYER_1
 10
299.847
 20
216.789
  0
VERTEX
  8
LAYER_1
 10
299.847
 20
216.8737
  0
VERTEX
  8
LAYER_1
 10
299.847
 20
216.9583
  0
VERTEX
  8
LAYER_1
 10
299.9316
 20
216.9583
  0
VERTEX
  8
LAYER_1
 10
299.9316
 20
217.043
  0
VERTEX
  8
LAYER_1
 10
300.0163
 20
217.043
  0
VERTEX
  8
LAYER_1
 10
300.101
 20
217.043
  0
VERTEX
  8
LAYER_1
 10
300.1857
 20
217.043
  0
VERTEX
  8
LAYER_1
 10
300.2703
 20
217.043
  0
VERTEX
  8
LAYER_1
 10
300.2703
 20
216.9583
  0
VERTEX
  8
LAYER_1
 10
300.355
 20
216.9583
  0
VERTEX
  8
LAYER_1
 10
300.355
 20
216.8737
  0
SEQEND
  0
POLYLINE
  8
LAYER_1
 40
0.1764
 41
0.1764
 66
1
 10
0
 20
0
 30
0
 70
1
  0
VERTEX
  8
LAYER_1
 10
304.0803
 20
216.789
  0
VERTEX
  8
LAYER_1
 10
304.0803
 20
216.8737
  0
VERTEX
  8
LAYER_1
 10
304.0803
 20
216.9583
  0
VERTEX
  8
LAYER_1
 10
304.165
 20
216.9583
  0
VERTEX
  8
LAYER_1
 10
304.165
 20
217.043
  0
VERTEX
  8
LAYER_1
 10
304.2497
 20
217.043
  0
VERTEX
  8
LAYER_1
 10
304.3343
 20
217.043
  0
VERTEX
  8
LAYER_1
 10
304.419
 20
217.043
  0
VERTEX
  8
LAYER_1
 10
304.5037
 20
216.9583
  0
VERTEX
  8
LAYER_1
 10
304.5037
 20
216.8737
  0
VERTEX
  8
LAYER_1
 10
304.5883
 20
216.8737
  0
VERTEX
  8
LAYER_1
 10
304.5883
 20
216.789
  0
VERTEX
  8
LAYER_1
 10
304.5037
 20
216.789
  0
VERTEX
  8
LAYER_1
 10
304.5037
 20
216.7043
  0
VERTEX
  8
LAYER_1
 10
304.5037
 20
216.6197
  0
VERTEX
  8
LAYER_1
 10
304.419
 20
216.6197
  0
VERTEX
  8
LAYER_1
 10
304.419
 20
216.535
  0
VERTEX
  8
LAYER_1
 10
304.3343
 20
216.535
  0
VERTEX
  8
LAYER_1
 10
304.2497
 20
216.535
  0
VERTEX
  8
LAYER_1
 10
304.165
 20
216.6197
  0
VERTEX
  8
LAYER_1
 10
304.0803
 20
216.6197
  0
VERTEX
  8
LAYER_1
 10
304.0803
 20
216.7043
  0
SEQEND
  0
POLYLINE
  8
LAYER_1
 40
0.05
 41
0.05
 66
1
 10
0
 20
0
 30
0
 70
1
  0
VERTEX
  8
LAYER_1
 10
304.0592
 20
216.8102
  0
VERTEX
  8
LAYER_1
 10
304.0592
 20
216.8948
  0
VERTEX
  8
LAYER_1
 10
304.0592
 20
216.9795
  0
VERTEX
  8
LAYER_1
 10
304.1438
 20
216.9795
  0
VERTEX
  8
LAYER_1
 10
304.1438
 20
217.0642
  0
VERTEX
  8
LAYER_1
 10
304.2285
 20
217.0642
  0
VERTEX
  8
LAYER_1
 10
304.3132
 20
217.0642
  0
VERTEX
  8
LAYER_1
 10
304.3978
 20
217.0642
  0
VERTEX
  8
LAYER_1
 10
304.4825
 20
216.9795
  0
VERTEX
  8
LAYER_1
 10
304.4825
 20
216.8948
  0
VERTEX
  8
LAYER_1
 10
304.5672
 20
216.8948
  0
VERTEX
  8
LAYER_1
 10
304.5672
 20
216.8102
  0
VERTEX
  8
LAYER_1
 10
304.4825
 20
216.8102
  0
VERTEX
  8
LAYER_1
 10
304.4825
 20
216.7255
  0
VERTEX
  8
LAYER_1
 10
304.4825
 20
216.6408
  0
VERTEX
  8
LAYER_1
 10
304.3978
 20
216.6408
  0
VERTEX
  8
LAYER_1
 10
304.3978
 20
216.5562
  0
VERTEX
  8
LAYER_1
 10
304.3132
 20
216.5562
  0
VERTEX
  8
LAYER_1
 10
304.2285
 20
216.5562
  0
VERTEX
  8
LAYER_1
 10
304.1438
 20
216.6408
  0
VERTEX
  8
LAYER_1
 10
304.0592
 20
216.6408
  0
VERTEX
  8
LAYER_1
 10
304.0592
 20
216.7255
  0
SEQEND
  0
POLYLINE
  8
LAYER_1
 40
0.0847
 41
0.0847
 66
1
 10
0
 20
0
 30
0
 70
1
  0
VERTEX
  8
LAYER_1
 10
304.0803
 20
216.789
  0
VERTEX
  8
LAYER_1
 10
304.0803
 20
216.8737
  0
VERTEX
  8
LAYER_1
 10
304.0803
 20
216.9583
  0
VERTEX
  8
LAYER_1
 10
304.165
 20
216.9583
  0
VERTEX
  8
LAYER_1
 10
304.165
 20
217.043
  0
VERTEX
  8
LAYER_1
 10
304.2497
 20
217.043
  0
VERTEX
  8
LAYER_1
 10
304.3343
 20
217.043
  0
VERTEX
  8
LAYER_1
 10
304.419
 20
217.043
  0
VERTEX
  8
LAYER_1
 10
304.5037
 20
216.9583
  0
VERTEX
  8
LAYER_1
 10
304.5037
 20
216.8737
  0
VERTEX
  8
LAYER_1
 10
304.5883
 20
216.8737
  0
VERTEX
  8
LAYER_1
 10
304.5883
 20
216.789
  0
VERTEX
  8
LAYER_1
 10
304.5037
 20
216.789
  0
VERTEX
  8
LAYER_1
 10
304.5037
 20
216.7043
  0
VERTEX
  8
LAYER_1
 10
304.5037
 20
216.6197
  0
VERTEX
  8
LAYER_1
 10
304.419
 20
216.6197
  0
VERTEX
  8
LAYER_1
 10
304.419
 20
216.535
  0
VERTEX
  8
LAYER_1
 10
304.3343
 20
216.535
  0
VERTEX
  8
LAYER_1
 10
304.2497
 20
216.535
  0
VERTEX
  8
LAYER_1
 10
304.165
 20
216.6197
  0
VERTEX
  8
LAYER_1
 10
304.0803
 20
216.6197
  0
VERTEX
  8
LAYER_1
 10
304.0803
 20
216.7043
  0
SEQEND
  0
POLYLINE
  8
LAYER_1
 40
0.05
 41
0.05
 62
255
 66
1
 10
0
 20
0
 30
0
 70
1
  0
VERTEX
  8
LAYER_1
 10
300.5878
 20
221.2128
  0
VERTEX
  8
LAYER_1
 10
303.7205
 20
221.2128
  0
VERTEX
  8
LAYER_1
 10
303.7205
 20
217.9955
  0
VERTEX
  8
LAYER_1
 10
300.5878
 20
217.9955
  0
SEQEND
  0
TEXT
  8
LAYER_1
 10
300.609
 20
218.54
 11
300.609
 21
218.54
 40
3.4028
 41
0.5
  1
21
  0
POLYLINE
  8
LAYER_1
 40
0.1764
 41
0.1764
 66
1
 10
0
 20
0
 30
0
  0
VERTEX
  8
LAYER_1
 10
300.101
 20
204.0043
  0
VERTEX
  8
LAYER_1
 10
300.101
 20
211.1163
  0
SEQEND
  0
POLYLINE
  8
LAYER_1
 40
0.1764
 41
0.1764
 66
1
 10
0
 20
0
 30
0
  0
VERTEX
  8
LAYER_1
 10
302.4717
 20
204.0043
  0
VERTEX
  8
LAYER_1
 10
302.4717
 20
211.1163
  0
SEQEND
  0
POLYLINE
  8
LAYER_1
 40
0.1764
 41
0.1764
 66
1
 10
0
 20
0
 30
0
  0
VERTEX
  8
LAYER_1
 10
300.101
 20
211.1163
  0
VERTEX
  8
LAYER_1
 10
302.4717
 20
211.1163
  0
SEQEND
  0
POLYLINE
  8
LAYER_1
 40
0.1764
 41
0.1764
 66
1
 10
0
 20
0
 30
0
 70
1
  0
VERTEX
  8
LAYER_1
 10
300.355
 20
211.1163
  0
VERTEX
  8
LAYER_1
 10
300.355
 20
211.0317
  0
VERTEX
  8
LAYER_1
 10
300.2703
 20
211.0317
  0
VERTEX
  8
LAYER_1
 10
300.2703
 20
210.947
  0
VERTEX
  8
LAYER_1
 10
300.1857
 20
210.947
  0
VERTEX
  8
LAYER_1
 10
300.1857
 20
210.8623
  0
VERTEX
  8
LAYER_1
 10
300.101
 20
210.8623
  0
VERTEX
  8
LAYER_1
 10
300.0163
 20
210.8623
  0
VERTEX
  8
LAYER_1
 10
300.0163
 20
210.947
  0
VERTEX
  8
LAYER_1
 10
299.9316
 20
210.947
  0
VERTEX
  8
LAYER_1
 10
299.9316
 20
211.0317
  0
VERTEX
  8
LAYER_1
 10
299.847
 20
211.0317
  0
VERTEX
  8
LAYER_1
 10
299.847
 20
211.1163
  0
VERTEX
  8
LAYER_1
 10
299.847
 20
211.201
  0
VERTEX
  8
LAYER_1
 10
299.847
 20
211.2857
  0
VERTEX
  8
LAYER_1
 10
299.9316
 20
211.2857
  0
VERTEX
  8
LAYER_1
 10
299.9316
 20
211.3703
  0
VERTEX
  8
LAYER_1
 10
300.0163
 20
211.3703
  0
VERTEX
  8
LAYER_1
 10
300.101
 20
211.3703
  0
VERTEX
  8
LAYER_1
 10
300.1857
 20
211.3703
  0
VERTEX
  8
LAYER_1
 10
300.2703
 20
211.3703
  0
VERTEX
  8
LAYER_1
 10
300.2703
 20
211.2857
  0
VERTEX
  8
LAYER_1
 10
300.355
 20
211.2857
  0
VERTEX
  8
LAYER_1
 10
300.355
 20
211.201
  0
SEQEND
  0
POLYLINE
  8
LAYER_1
 40
0.05
 41
0.05
 66
1
 10
0
 20
0
 30
0
 70
1
  0
VERTEX
  8
LAYER_1
 10
300.3338
 20
211.1375
  0
VERTEX
  8
LAYER_1
 10
300.3338
 20
211.0528
  0
VERTEX
  8
LAYER_1
 10
300.2492
 20
211.0528
  0
VERTEX
  8
LAYER_1
 10
300.2492
 20
210.9682
  0
VERTEX
  8
LAYER_1
 10
300.1645
 20
210.9682
  0
VERTEX
  8
LAYER_1
 10
300.1645
 20
210.8835
  0
VERTEX
  8
LAYER_1
 10
300.0798
 20
210.8835
  0
VERTEX
  8
LAYER_1
 10
299.9952
 20
210.8835
  0
VERTEX
  8
LAYER_1
 10
299.9952
 20
210.9682
  0
VERTEX
  8
LAYER_1
 10
299.9105
 20
210.9682
  0
VERTEX
  8
LAYER_1
 10
299.9105
 20
211.0528
  0
VERTEX
  8
LAYER_1
 10
299.8258
 20
211.0528
  0
VERTEX
  8
LAYER_1
 10
299.8258
 20
211.1375
  0
VERTEX
  8
LAYER_1
 10
299.8258
 20
211.2222
  0
VERTEX
  8
LAYER_1
 10
299.8258
 20
211.3068
  0
VERTEX
  8
LAYER_1
 10
299.9105
 20
211.3068
  0
VERTEX
  8
LAYER_1
 10
299.9105
 20
211.3915
  0
VERTEX
  8
LAYER_1
 10
299.9952
 20
211.3915
  0
VERTEX
  8
LAYER_1
 10
300.0798
 20
211.3915
  0
VERTEX
  8
LAYER_1
 10
300.1645
 20
211.3915
  0
VERTEX
  8
LAYER_1
 10
300.2492
 20
211.3915
  0
VERTEX
  8
LAYER_1
 10
300.2492
 20
211.3068
  0
VERTEX
  8
LAYER_1
 10
300.3338
 20
211.3068
  0
VERTEX
  8
LAYER_1
 10
300.3338
 20
211.2222
  0
SEQEND
  0
POLYLINE
  8
LAYER_1
 40
0.0847
 41
0.0847
 66
1
 10
0
 20
0
 30
0
 70
1
  0
VERTEX
  8
LAYER_1
 10
300.355
 20
211.1163
  0
VERTEX
  8
LAYER_1
 10
300.355
 20
211.0317
  0
VERTEX
  8
LAYER_1
 10
300.2703
 20
211.0317
  0
VERTEX
  8
LAYER_1
 10
300.2703
 20
210.947
  0
VERTEX
  8
LAYER_1
 10
300.1857
 20
210.947
  0
VERTEX
  8
LAYER_1
 10
300.1857
 20
210.8623
  0
VERTEX
  8
LAYER_1
 10
300.101
 20
210.8623
  0
VERTEX
  8
LAYER_1
 10
300.0163
 20
210.8623
  0
VERTEX
  8
LAYER_1
 10
300.0163
 20
210.947
  0
VERTEX
  8
LAYER_1
 10
299.9316
 20
210.947
  0
VERTEX
  8
LAYER_1
 10
299.9316
 20
211.0317
  0
VERTEX
  8
LAYER_1
 10
299.847
 20
211.0317
  0
VERTEX
  8
LAYER_1
 10
299.847
 20
211.1163
  0
VERTEX
  8
LAYER_1
 10
299.847
 20
211.201
  0
VERTEX
  8
LAYER_1
 10
299.847
 20
211.2857
  0
VERTEX
  8
LAYER_1
 10
299.9316
 20
211.2857
  0
VERTEX
  8
LAYER_1
 10
299.9316
 20
211.3703
  0
VERTEX
  8
LAYER_1
 10
300.0163
 20
211.3703
  0
VERTEX
  8
LAYER_1
 10
300.101
 20
211.3703
  0
VERTEX
  8
LAYER_1
 10
300.1857
 20
211.3703
  0
VERTEX
  8
LAYER_1
 10
300.2703
 20
211.3703
  0
VERTEX
  8
LAYER_1
 10
300.2703
 20
211.2857
  0
VERTEX
  8
LAYER_1
 10
300.355
 20
211.2857
  0
VERTEX
  8
LAYER_1
 10
300.355
 20
211.201
  0
SEQEND
  0
POLYLINE
  8
LAYER_1
 40
0.1764
 41
0.1764
 66
1
 10
0
 20
0
 30
0
 70
1
  0
VERTEX
  8
LAYER_1
 10
302.2177
 20
211.1163
  0
VERTEX
  8
LAYER_1
 10
302.2177
 20
211.201
  0
VERTEX
  8
LAYER_1
 10
302.3023
 20
211.201
  0
VERTEX
  8
LAYER_1
 10
302.3023
 20
211.2857
  0
VERTEX
  8
LAYER_1
 10
302.3023
 20
211.3703
  0
VERTEX
  8
LAYER_1
 10
302.387
 20
211.3703
  0
VERTEX
  8
LAYER_1
 10
302.4717
 20
211.3703
  0
VERTEX
  8
LAYER_1
 10
302.5563
 20
211.3703
  0
VERTEX
  8
LAYER_1
 10
302.641
 20
211.3703
  0
VERTEX
  8
LAYER_1
 10
302.641
 20
211.2857
  0
VERTEX
  8
LAYER_1
 10
302.7257
 20
211.2857
  0
VERTEX
  8
LAYER_1
 10
302.7257
 20
211.201
  0
VERTEX
  8
LAYER_1
 10
302.7257
 20
211.1163
  0
VERTEX
  8
LAYER_1
 10
302.7257
 20
211.0317
  0
VERTEX
  8
LAYER_1
 10
302.7257
 20
210.947
  0
VERTEX
  8
LAYER_1
 10
302.641
 20
210.947
  0
VERTEX
  8
LAYER_1
 10
302.5563
 20
210.947
  0
VERTEX
  8
LAYER_1
 10
302.5563
 20
210.8623
  0
VERTEX
  8
LAYER_1
 10
302.4717
 20
210.8623
  0
VERTEX
  8
LAYER_1
 10
302.387
 20
210.8623
  0
VERTEX
  8
LAYER_1
 10
302.387
 20
210.947
  0
VERTEX
  8
LAYER_1
 10
302.3023
 20
210.947
  0
VERTEX
  8
LAYER_1
 10
302.3023
 20
211.0317
  0
SEQEND
  0
POLYLINE
  8
LAYER_1
 40
0.05
 41
0.05
 66
1
 10
0
 20
0
 30
0
 70
1
  0
VERTEX
  8
LAYER_1
 10
302.1965
 20
211.1375
  0
VERTEX
  8
LAYER_1
 10
302.1965
 20
211.2222
  0
VERTEX
  8
LAYER_1
 10
302.2812
 20
211.2222
  0
VERTEX
  8
LAYER_1
 10
302.2812
 20
211.3068
  0
VERTEX
  8
LAYER_1
 10
302.2812
 20
211.3915
  0
VERTEX
  8
LAYER_1
 10
302.3658
 20
211.3915
  0
VERTEX
  8
LAYER_1
 10
302.4505
 20
211.3915
  0
VERTEX
  8
LAYER_1
 10
302.5352
 20
211.3915
  0
VERTEX
  8
LAYER_1
 10
302.6198
 20
211.3915
  0
VERTEX
  8
LAYER_1
 10
302.6198
 20
211.3068
  0
VERTEX
  8
LAYER_1
 10
302.7045
 20
211.3068
  0
VERTEX
  8
LAYER_1
 10
302.7045
 20
211.2222
  0
VERTEX
  8
LAYER_1
 10
302.7045
 20
211.1375
  0
VERTEX
  8
LAYER_1
 10
302.7045
 20
211.0528
  0
VERTEX
  8
LAYER_1
 10
302.7045
 20
210.9682
  0
VERTEX
  8
LAYER_1
 10
302.6198
 20
210.9682
  0
VERTEX
  8
LAYER_1
 10
302.5352
 20
210.9682
  0
VERTEX
  8
LAYER_1
 10
302.5352
 20
210.8835
  0
VERTEX
  8
LAYER_1
 10
302.4505
 20
210.8835
  0
VERTEX
  8
LAYER_1
 10
302.3658
 20
210.8835
  0
VERTEX
  8
LAYER_1
 10
302.3658
 20
210.9682
  0
VERTEX
  8
LAYER_1
 10
302.2812
 20
210.9682
  0
VERTEX
  8
LAYER_1
 10
302.2812
 20
211.0528
  0
SEQEND
  0
POLYLINE
  8
LAYER_1
 40
0.0847
 41
0.0847
 66
1
 10
0
 20
0
 30
0
 70
1
  0
VERTEX
  8
LAYER_1
 10
302.2177
 20
211.1163
  0
VERTEX
  8
LAYER_1
 10
302.2177
 20
211.201
  0
VERTEX
  8
LAYER_1
 10
302.3023
 20
211.201
  0
VERTEX
  8
LAYER_1
 10
302.3023
 20
211.2857
  0
VERTEX
  8
LAYER_1
 10
302.3023
 20
211.3703
  0
VERTEX
  8
LAYER_1
 10
302.387
 20
211.3703
  0
VERTEX
  8
LAYER_1
 10
302.4717
 20
211.3703
  0
VERTEX
  8
LAYER_1
 10
302.5563
 20
211.3703
  0
VERTEX
  8
LAYER_1
 10
302.641
 20
211.3703
  0
VERTEX
  8
LAYER_1
 10
302.641
 20
211.2857
  0
VERTEX
  8
LAYER_1
 10
302.7257
 20
211.2857
  0
VERTEX
  8
LAYER_1
 10
302.7257
 20
211.201
  0
VERTEX
  8
LAYER_1
 10
302.7257
 20
211.1163
  0
VERTEX
  8
LAYER_1
 10
302.7257
 20
211.0317
  0
VERTEX
  8
LAYER_1
 10
302.7257
 20
210.947
  0
VERTEX
  8
LAYER_1
 10
302.641
 20
210.947
  0
VERTEX
  8
LAYER_1
 10
302.5563
 20
210.947
  0
VERTEX
  8
LAYER_1
 10
302.5563
 20
210.8623
  0
VERTEX
  8
LAYER_1
 10
302.4717
 20
210.8623
  0
VERTEX
  8
LAYER_1
 10
302.387
 20
210.8623
  0
VERTEX
  8
LAYER_1
 10
302.387
 20
210.947
  0
VERTEX
  8
LAYER_1
 10
302.3023
 20
210.947
  0
VERTEX
  8
LAYER_1
 10
302.3023
 20
211.0317
  0
SEQEND
  0
POLYLINE
  8
LAYER_1
 40
0.05
 41
0.05
 62
255
 66
1
 10
0
 20
0
 30
0
 70
1
  0
VERTEX
  8
LAYER_1
 10
299.7412
 20
215.5402
  0
VERTEX
  8
LAYER_1
 10
302.8738
 20
215.5402
  0
VERTEX
  8
LAYER_1
 10
302.8738
 20
212.3228
  0
VERTEX
  8
LAYER_1
 10
299.7412
 20
212.3228
  0
SEQEND
  0
TEXT
  8
LAYER_1
 10
299.7622
 20
212.8673
 11
299.7622
 21
212.8673
 40
3.4028
 41
0.5
  1
12
  0
POLYLINE
  8
LAYER_1
 40
0.1764
 41
0.1764
 66
1
 10
0
 20
0
 30
0
  0
VERTEX
  8
LAYER_1
 10
299.085
 20
202.9883
  0
VERTEX
  8
LAYER_1
 10
289.179
 20
202.9883
  0
SEQEND
  0
POLYLINE
  8
LAYER_1
 40
0.1764
 41
0.1764
 66
1
 10
0
 20
0
 30
0
  0
VERTEX
  8
LAYER_1
 10
299.085
 20
63.0343
  0
VERTEX
  8
LAYER_1
 10
289.179
 20
63.0343
  0
SEQEND
  0
POLYLINE
  8
LAYER_1
 40
0.1764
 41
0.1764
 66
1
 10
0
 20
0
 30
0
  0
VERTEX
  8
LAYER_1
 10
289.179
 20
202.9883
  0
VERTEX
  8
LAYER_1
 10
289.179
 20
63.0343
  0
SEQEND
  0
POLYLINE
  8
LAYER_1
 40
0.1764
 41
0.1764
 66
1
 10
0
 20
0
 30
0
 70
1
  0
VERTEX
  8
LAYER_1
 10
289.179
 20
202.819
  0
VERTEX
  8
LAYER_1
 10
289.0943
 20
202.819
  0
VERTEX
  8
LAYER_1
 10
289.0097
 20
202.819
  0
VERTEX
  8
LAYER_1
 10
289.0097
 20
202.9037
  0
VERTEX
  8
LAYER_1
 10
288.925
 20
202.9037
  0
VERTEX
  8
LAYER_1
 10
288.925
 20
202.9883
  0
VERTEX
  8
LAYER_1
 10
288.925
 20
203.073
  0
VERTEX
  8
LAYER_1
 10
288.925
 20
203.1577
  0
VERTEX
  8
LAYER_1
 10
289.0097
 20
203.1577
  0
VERTEX
  8
LAYER_1
 10
289.0097
 20
203.2423
  0
VERTEX
  8
LAYER_1
 10
289.0943
 20
203.2423
  0
VERTEX
  8
LAYER_1
 10
289.179
 20
203.2423
  0
VERTEX
  8
LAYER_1
 10
289.2637
 20
203.2423
  0
VERTEX
  8
LAYER_1
 10
289.3483
 20
203.2423
  0
VERTEX
  8
LAYER_1
 10
289.3483
 20
203.1577
  0
VERTEX
  8
LAYER_1
 10
289.433
 20
203.1577
  0
VERTEX
  8
LAYER_1
 10
289.433
 20
203.073
  0
VERTEX
  8
LAYER_1
 10
289.433
 20
202.9883
  0
VERTEX
  8
LAYER_1
 10
289.433
 20
202.9037
  0
VERTEX
  8
LAYER_1
 10
289.3483
 20
202.9037
  0
VERTEX
  8
LAYER_1
 10
289.3483
 20
202.819
  0
VERTEX
  8
LAYER_1
 10
289.2637
 20
202.819
  0
SEQEND
  0
POLYLINE
  8
LAYER_1
 40
0.05
 41
0.05
 66
1
 10
0
 20
0
 30
0
 70
1
  0
VERTEX
  8
LAYER_1
 10
289.1578
 20
202.8402
  0
VERTEX
  8
LAYER_1
 10
289.0732
 20
202.8402
  0
VERTEX
  8
LAYER_1
 10
288.9885
 20
202.8402
  0
VERTEX
  8
LAYER_1
 10
288.9885
 20
202.9248
  0
VERTEX
  8
LAYER_1
 10
288.9038
 20
202.9248
  0
VERTEX
  8
LAYER_1
 10
288.9038
 20
203.0095
  0
VERTEX
  8
LAYER_1
 10
288.9038
 20
203.0942
  0
VERTEX
  8
LAYER_1
 10
288.9038
 20
203.1788
  0
VERTEX
  8
LAYER_1
 10
288.9885
 20
203.1788
  0
VERTEX
  8
LAYER_1
 10
288.9885
 20
203.2635
  0
VERTEX
  8
LAYER_1
 10
289.0732
 20
203.2635
  0
VERTEX
  8
LAYER_1
 10
289.1578
 20
203.2635
  0
VERTEX
  8
LAYER_1
 10
289.2425
 20
203.2635
  0
VERTEX
  8
LAYER_1
 10
289.3272
 20
203.2635
  0
VERTEX
  8
LAYER_1
 10
289.3272
 20
203.1788
  0
VERTEX
  8
LAYER_1
 10
289.4118
 20
203.1788
  0
VERTEX
  8
LAYER_1
 10
289.4118
 20
203.0942
  0
VERTEX
  8
LAYER_1
 10
289.4118
 20
203.0095
  0
VERTEX
  8
LAYER_1
 10
289.4118
 20
202.9248
  0
VERTEX
  8
LAYER_1
 10
289.3272
 20
202.9248
  0
VERTEX
  8
LAYER_1
 10
289.3272
 20
202.8402
  0
VERTEX
  8
LAYER_1
 10
289.2425
 20
202.8402
  0
SEQEND
  0
POLYLINE
  8
LAYER_1
 40
0.0847
 41
0.0847
 66
1
 10
0
 20
0
 30
0
 70
1
  0
VERTEX
  8
LAYER_1
 10
289.179
 20
202.819
  0
VERTEX
  8
LAYER_1
 10
289.0943
 20
202.819
  0
VERTEX
  8
LAYER_1
 10
289.0097
 20
202.819
  0
VERTEX
  8
LAYER_1
 10
289.0097
 20
202.9037
  0
VERTEX
  8
LAYER_1
 10
288.925
 20
202.9037
  0
VERTEX
  8
LAYER_1
 10
288.925
 20
202.9883
  0
VERTEX
  8
LAYER_1
 10
288.925
 20
203.073
  0
VERTEX
  8
LAYER_1
 10
288.925
 20
203.1577
  0
VERTEX
  8
LAYER_1
 10
289.0097
 20
203.1577
  0
VERTEX
  8
LAYER_1
 10
289.0097
 20
203.2423
  0
VERTEX
  8
LAYER_1
 10
289.0943
 20
203.2423
  0
VERTEX
  8
LAYER_1
 10
289.179
 20
203.2423
  0
VERTEX
  8
LAYER_1
 10
289.2637
 20
203.2423
  0
VERTEX
  8
LAYER_1
 10
289.3483
 20
203.2423
  0
VERTEX
  8
LAYER_1
 10
289.3483
 20
203.1577
  0
VERTEX
  8
LAYER_1
 10
289.433
 20
203.1577
  0
VERTEX
  8
LAYER_1
 10
289.433
 20
203.073
  0
VERTEX
  8
LAYER_1
 10
289.433
 20
202.9883
  0
VERTEX
  8
LAYER_1
 10
289.433
 20
202.9037
  0
VERTEX
  8
LAYER_1
 10
289.3483
 20
202.9037
  0
VERTEX
  8
LAYER_1
 10
289.3483
 20
202.819
  0
VERTEX
  8
LAYER_1
 10
289.2637
 20
202.819
  0
SEQEND
  0
POLYLINE
  8
LAYER_1
 40
0.1764
 41
0.1764
 66
1
 10
0
 20
0
 30
0
 70
1
  0
VERTEX
  8
LAYER_1
 10
289.179
 20
63.2883
  0
VERTEX
  8
LAYER_1
 10
289.2637
 20
63.2883
  0
VERTEX
  8
LAYER_1
 10
289.3483
 20
63.2883
  0
VERTEX
  8
LAYER_1
 10
289.3483
 20
63.2037
  0
VERTEX
  8
LAYER_1
 10
289.433
 20
63.2037
  0
VERTEX
  8
LAYER_1
 10
289.433
 20
63.119
  0
VERTEX
  8
LAYER_1
 10
289.433
 20
63.0343
  0
VERTEX
  8
LAYER_1
 10
289.433
 20
62.9497
  0
VERTEX
  8
LAYER_1
 10
289.433
 20
62.865
  0
VERTEX
  8
LAYER_1
 10
289.3483
 20
62.865
  0
VERTEX
  8
LAYER_1
 10
289.3483
 20
62.7803
  0
VERTEX
  8
LAYER_1
 10
289.2637
 20
62.7803
  0
VERTEX
  8
LAYER_1
 10
289.179
 20
62.7803
  0
VERTEX
  8
LAYER_1
 10
289.0943
 20
62.7803
  0
VERTEX
  8
LAYER_1
 10
289.0097
 20
62.865
  0
VERTEX
  8
LAYER_1
 10
289.0097
 20
62.9497
  0
VERTEX
  8
LAYER_1
 10
288.925
 20
62.9497
  0
VERTEX
  8
LAYER_1
 10
288.925
 20
63.0343
  0
VERTEX
  8
LAYER_1
 10
288.925
 20
63.119
  0
VERTEX
  8
LAYER_1
 10
289.0097
 20
63.119
  0
VERTEX
  8
LAYER_1
 10
289.0097
 20
63.2037
  0
VERTEX
  8
LAYER_1
 10
289.0943
 20
63.2037
  0
VERTEX
  8
LAYER_1
 10
289.0943
 20
63.2883
  0
SEQEND
  0
POLYLINE
  8
LAYER_1
 40
0.05
 41
0.05
 66
1
 10
0
 20
0
 30
0
 70
1
  0
VERTEX
  8
LAYER_1
 10
289.1578
 20
63.3095
  0
VERTEX
  8
LAYER_1
 10
289.2425
 20
63.3095
  0
VERTEX
  8
LAYER_1
 10
289.3272
 20
63.3095
  0
VERTEX
  8
LAYER_1
 10
289.3272
 20
63.2248
  0
VERTEX
  8
LAYER_1
 10
289.4118
 20
63.2248
  0
VERTEX
  8
LAYER_1
 10
289.4118
 20
63.1402
  0
VERTEX
  8
LAYER_1
 10
289.4118
 20
63.0555
  0
VERTEX
  8
LAYER_1
 10
289.4118
 20
62.9708
  0
VERTEX
  8
LAYER_1
 10
289.4118
 20
62.8862
  0
VERTEX
  8
LAYER_1
 10
289.3272
 20
62.8862
  0
VERTEX
  8
LAYER_1
 10
289.3272
 20
62.8015
  0
VERTEX
  8
LAYER_1
 10
289.2425
 20
62.8015
  0
VERTEX
  8
LAYER_1
 10
289.1578
 20
62.8015
  0
VERTEX
  8
LAYER_1
 10
289.0732
 20
62.8015
  0
VERTEX
  8
LAYER_1
 10
288.9885
 20
62.8862
  0
VERTEX
  8
LAYER_1
 10
288.9885
 20
62.9708
  0
VERTEX
  8
LAYER_1
 10
288.9038
 20
62.9708
  0
VERTEX
  8
LAYER_1
 10
288.9038
 20
63.0555
  0
VERTEX
  8
LAYER_1
 10
288.9038
 20
63.1402
  0
VERTEX
  8
LAYER_1
 10
288.9885
 20
63.1402
  0
VERTEX
  8
LAYER_1
 10
288.9885
 20
63.2248
  0
VERTEX
  8
LAYER_1
 10
289.0732
 20
63.2248
  0
VERTEX
  8
LAYER_1
 10
289.0732
 20
63.3095
  0
SEQEND
  0
POLYLINE
  8
LAYER_1
 40
0.0847
 41
0.0847
 66
1
 10
0
 20
0
 30
0
 70
1
  0
VERTEX
  8
LAYER_1
 10
289.179
 20
63.2883
  0
VERTEX
  8
LAYER_1
 10
289.2637
 20
63.2883
  0
VERTEX
  8
LAYER_1
 10
289.3483
 20
63.2883
  0
VERTEX
  8
LAYER_1
 10
289.3483
 20
63.2037
  0
VERTEX
  8
LAYER_1
 10
289.433
 20
63.2037
  0
VERTEX
  8
LAYER_1
 10
289.433
 20
63.119
  0
VERTEX
  8
LAYER_1
 10
289.433
 20
63.0343
  0
VERTEX
  8
LAYER_1
 10
289.433
 20
62.9497
  0
VERTEX
  8
LAYER_1
 10
289.433
 20
62.865
  0
VERTEX
  8
LAYER_1
 10
289.3483
 20
62.865
  0
VERTEX
  8
LAYER_1
 10
289.3483
 20
62.7803
  0
VERTEX
  8
LAYER_1
 10
289.2637
 20
62.7803
  0
VERTEX
  8
LAYER_1
 10
289.179
 20
62.7803
  0
VERTEX
  8
LAYER_1
 10
289.0943
 20
62.7803
  0
VERTEX
  8
LAYER_1
 10
289.0097
 20
62.865
  0
VERTEX
  8
LAYER_1
 10
289.0097
 20
62.9497
  0
VERTEX
  8
LAYER_1
 10
288.925
 20
62.9497
  0
VERTEX
  8
LAYER_1
 10
288.925
 20
63.0343
  0
VERTEX
  8
LAYER_1
 10
288.925
 20
63.119
  0
VERTEX
  8
LAYER_1
 10
289.0097
 20
63.119
  0
VERTEX
  8
LAYER_1
 10
289.0097
 20
63.2037
  0
VERTEX
  8
LAYER_1
 10
289.0943
 20
63.2037
  0
VERTEX
  8
LAYER_1
 10
289.0943
 20
63.2883
  0
SEQEND
  0
POLYLINE
  8
LAYER_1
 40
0.05
 41
0.05
 62
255
 66
1
 10
0
 20
0
 30
0
 70
1
  0
VERTEX
  8
LAYER_1
 10
284.7552
 20
130.7042
  0
VERTEX
  8
LAYER_1
 10
284.7552
 20
135.4455
  0
VERTEX
  8
LAYER_1
 10
287.9725
 20
135.4455
  0
VERTEX
  8
LAYER_1
 10
287.9725
 20
130.7042
  0
SEQEND
  0
TEXT
  8
LAYER_1
 10
287.4278
 20
130.6832
 11
287.4278
 21
130.6832
 40
3.4028
 41
0.5
 50
89.99999999
  1
700
  0
POLYLINE
  8
LAYER_1
 40
0.1764
 41
0.1764
 66
1
 10
0
 20
0
 30
0
  0
VERTEX
  8
LAYER_1
 10
305.2656
 20
202.057
  0
VERTEX
  8
LAYER_1
 10
315.1717
 20
202.057
  0
SEQEND
  0
POLYLINE
  8
LAYER_1
 40
0.1764
 41
0.1764
 66
1
 10
0
 20
0
 30
0
  0
VERTEX
  8
LAYER_1
 10
305.2656
 20
64.0503
  0
VERTEX
  8
LAYER_1
 10
315.1717
 20
64.0503
  0
SEQEND
  0
POLYLINE
  8
LAYER_1
 40
0.1764
 41
0.1764
 66
1
 10
0
 20
0
 30
0
  0
VERTEX
  8
LAYER_1
 10
315.1717
 20
202.057
  0
VERTEX
  8
LAYER_1
 10
315.1717
 20
64.0503
  0
SEQEND
  0
POLYLINE
  8
LAYER_1
 40
0.1764
 41
0.1764
 66
1
 10
0
 20
0
 30
0
 70
1
  0
VERTEX
  8
LAYER_1
 10
315.1717
 20
201.803
  0
VERTEX
  8
LAYER_1
 10
315.087
 20
201.803
  0
VERTEX
  8
LAYER_1
 10
315.0023
 20
201.803
  0
VERTEX
  8
LAYER_1
 10
315.0023
 20
201.8877
  0
VERTEX
  8
LAYER_1
 10
315.0023
 20
201.9723
  0
VERTEX
  8
LAYER_1
 10
314.9177
 20
201.9723
  0
VERTEX
  8
LAYER_1
 10
314.9177
 20
202.057
  0
VERTEX
  8
LAYER_1
 10
314.9177
 20
202.1417
  0
VERTEX
  8
LAYER_1
 10
315.0023
 20
202.1417
  0
VERTEX
  8
LAYER_1
 10
315.0023
 20
202.2263
  0
VERTEX
  8
LAYER_1
 10
315.087
 20
202.2263
  0
VERTEX
  8
LAYER_1
 10
315.087
 20
202.311
  0
VERTEX
  8
LAYER_1
 10
315.1717
 20
202.311
  0
VERTEX
  8
LAYER_1
 10
315.2563
 20
202.311
  0
VERTEX
  8
LAYER_1
 10
315.2563
 20
202.2263
  0
VERTEX
  8
LAYER_1
 10
315.341
 20
202.2263
  0
VERTEX
  8
LAYER_1
 10
315.4257
 20
202.2263
  0
VERTEX
  8
LAYER_1
 10
315.4257
 20
202.1417
  0
VERTEX
  8
LAYER_1
 10
315.4257
 20
202.057
  0
VERTEX
  8
LAYER_1
 10
315.4257
 20
201.9723
  0
VERTEX
  8
LAYER_1
 10
315.4257
 20
201.8877
  0
VERTEX
  8
LAYER_1
 10
315.341
 20
201.8877
  0
VERTEX
  8
LAYER_1
 10
315.341
 20
201.803
  0
VERTEX
  8
LAYER_1
 10
315.2563
 20
201.803
  0
SEQEND
  0
POLYLINE
  8
LAYER_1
 40
0.05
 41
0.05
 66
1
 10
0
 20
0
 30
0
 70
1
  0
VERTEX
  8
LAYER_1
 10
315.1505
 20
201.8242
  0
VERTEX
  8
LAYER_1
 10
315.0658
 20
201.8242
  0
VERTEX
  8
LAYER_1
 10
314.9812
 20
201.8242
  0
VERTEX
  8
LAYER_1
 10
314.9812
 20
201.9088
  0
VERTEX
  8
LAYER_1
 10
314.9812
 20
201.9935
  0
VERTEX
  8
LAYER_1
 10
314.8965
 20
201.9935
  0
VERTEX
  8
LAYER_1
 10
314.8965
 20
202.0782
  0
VERTEX
  8
LAYER_1
 10
314.8965
 20
202.1628
  0
VERTEX
  8
LAYER_1
 10
314.9812
 20
202.1628
  0
VERTEX
  8
LAYER_1
 10
314.9812
 20
202.2475
  0
VERTEX
  8
LAYER_1
 10
315.0658
 20
202.2475
  0
VERTEX
  8
LAYER_1
 10
315.0658
 20
202.3322
  0
VERTEX
  8
LAYER_1
 10
315.1505
 20
202.3322
  0
VERTEX
  8
LAYER_1
 10
315.2352
 20
202.3322
  0
VERTEX
  8
LAYER_1
 10
315.2352
 20
202.2475
  0
VERTEX
  8
LAYER_1
 10
315.3198
 20
202.2475
  0
VERTEX
  8
LAYER_1
 10
315.4045
 20
202.2475
  0
VERTEX
  8
LAYER_1
 10
315.4045
 20
202.1628
  0
VERTEX
  8
LAYER_1
 10
315.4045
 20
202.0782
  0
VERTEX
  8
LAYER_1
 10
315.4045
 20
201.9935
  0
VERTEX
  8
LAYER_1
 10
315.4045
 20
201.9088
  0
VERTEX
  8
LAYER_1
 10
315.3198
 20
201.9088
  0
VERTEX
  8
LAYER_1
 10
315.3198
 20
201.8242
  0
VERTEX
  8
LAYER_1
 10
315.2352
 20
201.8242
  0
SEQEND
  0
POLYLINE
  8
LAYER_1
 40
0.0847
 41
0.0847
 66
1
 10
0
 20
0
 30
0
 70
1
  0
VERTEX
  8
LAYER_1
 10
315.1717
 20
201.803
  0
VERTEX
  8
LAYER_1
 10
315.087
 20
201.803
  0
VERTEX
  8
LAYER_1
 10
315.0023
 20
201.803
  0
VERTEX
  8
LAYER_1
 10
315.0023
 20
201.8877
  0
VERTEX
  8
LAYER_1
 10
315.0023
 20
201.9723
  0
VERTEX
  8
LAYER_1
 10
314.9177
 20
201.9723
  0
VERTEX
  8
LAYER_1
 10
314.9177
 20
202.057
  0
VERTEX
  8
LAYER_1
 10
314.9177
 20
202.1417
  0
VERTEX
  8
LAYER_1
 10
315.0023
 20
202.1417
  0
VERTEX
  8
LAYER_1
 10
315.0023
 20
202.2263
  0
VERTEX
  8
LAYER_1
 10
315.087
 20
202.2263
  0
VERTEX
  8
LAYER_1
 10
315.087
 20
202.311
  0
VERTEX
  8
LAYER_1
 10
315.1717
 20
202.311
  0
VERTEX
  8
LAYER_1
 10
315.2563
 20
202.311
  0
VERTEX
  8
LAYER_1
 10
315.2563
 20
202.2263
  0
VERTEX
  8
LAYER_1
 10
315.341
 20
202.2263
  0
VERTEX
  8
LAYER_1
 10
315.4257
 20
202.2263
  0
VERTEX
  8
LAYER_1
 10
315.4257
 20
202.1417
  0
VERTEX
  8
LAYER_1
 10
315.4257
 20
202.057
  0
VERTEX
  8
LAYER_1
 10
315.4257
 20
201.9723
  0
VERTEX
  8
LAYER_1
 10
315.4257
 20
201.8877
  0
VERTEX
  8
LAYER_1
 10
315.341
 20
201.8877
  0
VERTEX
  8
LAYER_1
 10
315.341
 20
201.803
  0
VERTEX
  8
LAYER_1
 10
315.2563
 20
201.803
  0
SEQEND
  0
POLYLINE
  8
LAYER_1
 40
0.1764
 41
0.1764
 66
1
 10
0
 20
0
 30
0
 70
1
  0
VERTEX
  8
LAYER_1
 10
315.1717
 20
64.3043
  0
VERTEX
  8
LAYER_1
 10
315.2563
 20
64.3043
  0
VERTEX
  8
LAYER_1
 10
315.2563
 20
64.2197
  0
VERTEX
  8
LAYER_1
 10
315.341
 20
64.2197
  0
VERTEX
  8
LAYER_1
 10
315.4257
 20
64.2197
  0
VERTEX
  8
LAYER_1
 10
315.4257
 20
64.135
  0
VERTEX
  8
LAYER_1
 10
315.4257
 20
64.0503
  0
VERTEX
  8
LAYER_1
 10
315.4257
 20
63.9657
  0
VERTEX
  8
LAYER_1
 10
315.4257
 20
63.881
  0
VERTEX
  8
LAYER_1
 10
315.341
 20
63.881
  0
VERTEX
  8
LAYER_1
 10
315.341
 20
63.7963
  0
VERTEX
  8
LAYER_1
 10
315.2563
 20
63.7963
  0
VERTEX
  8
LAYER_1
 10
315.1717
 20
63.7963
  0
VERTEX
  8
LAYER_1
 10
315.087
 20
63.7963
  0
VERTEX
  8
LAYER_1
 10
315.0023
 20
63.7963
  0
VERTEX
  8
LAYER_1
 10
315.0023
 20
63.881
  0
VERTEX
  8
LAYER_1
 10
315.0023
 20
63.9657
  0
VERTEX
  8
LAYER_1
 10
314.9177
 20
63.9657
  0
VERTEX
  8
LAYER_1
 10
314.9177
 20
64.0503
  0
VERTEX
  8
LAYER_1
 10
314.9177
 20
64.135
  0
VERTEX
  8
LAYER_1
 10
315.0023
 20
64.135
  0
VERTEX
  8
LAYER_1
 10
315.0023
 20
64.2197
  0
VERTEX
  8
LAYER_1
 10
315.087
 20
64.2197
  0
VERTEX
  8
LAYER_1
 10
315.087
 20
64.3043
  0
SEQEND
  0
POLYLINE
  8
LAYER_1
 40
0.05
 41
0.05
 66
1
 10
0
 20
0
 30
0
 70
1
  0
VERTEX
  8
LAYER_1
 10
315.1505
 20
64.3255
  0
VERTEX
  8
LAYER_1
 10
315.2352
 20
64.3255
  0
VERTEX
  8
LAYER_1
 10
315.2352
 20
64.2408
  0
VERTEX
  8
LAYER_1
 10
315.3198
 20
64.2408
  0
VERTEX
  8
LAYER_1
 10
315.4045
 20
64.2408
  0
VERTEX
  8
LAYER_1
 10
315.4045
 20
64.1562
  0
VERTEX
  8
LAYER_1
 10
315.4045
 20
64.0715
  0
VERTEX
  8
LAYER_1
 10
315.4045
 20
63.9868
  0
VERTEX
  8
LAYER_1
 10
315.4045
 20
63.9022
  0
VERTEX
  8
LAYER_1
 10
315.3198
 20
63.9022
  0
VERTEX
  8
LAYER_1
 10
315.3198
 20
63.8175
  0
VERTEX
  8
LAYER_1
 10
315.2352
 20
63.8175
  0
VERTEX
  8
LAYER_1
 10
315.1505
 20
63.8175
  0
VERTEX
  8
LAYER_1
 10
315.0658
 20
63.8175
  0
VERTEX
  8
LAYER_1
 10
314.9812
 20
63.8175
  0
VERTEX
  8
LAYER_1
 10
314.9812
 20
63.9022
  0
VERTEX
  8
LAYER_1
 10
314.9812
 20
63.9868
  0
VERTEX
  8
LAYER_1
 10
314.8965
 20
63.9868
  0
VERTEX
  8
LAYER_1
 10
314.8965
 20
64.0715
  0
VERTEX
  8
LAYER_1
 10
314.8965
 20
64.1562
  0
VERTEX
  8
LAYER_1
 10
314.9812
 20
64.1562
  0
VERTEX
  8
LAYER_1
 10
314.9812
 20
64.2408
  0
VERTEX
  8
LAYER_1
 10
315.0658
 20
64.2408
  0
VERTEX
  8
LAYER_1
 10
315.0658
 20
64.3255
  0
SEQEND
  0
POLYLINE
  8
LAYER_1
 40
0.0847
 41
0.0847
 66
1
 10
0
 20
0
 30
0
 70
1
  0
VERTEX
  8
LAYER_1
 10
315.1717
 20
64.3043
  0
VERTEX
  8
LAYER_1
 10
315.2563
 20
64.3043
  0
VERTEX
  8
LAYER_1
 10
315.2563
 20
64.2197
  0
VERTEX
  8
LAYER_1
 10
315.341
 20
64.2197
  0
VERTEX
  8
LAYER_1
 10
315.4257
 20
64.2197
  0
VERTEX
  8
LAYER_1
 10
315.4257
 20
64.135
  0
VERTEX
  8
LAYER_1
 10
315.4257
 20
64.0503
  0
VERTEX
  8
LAYER_1
 10
315.4257
 20
63.9657
  0
VERTEX
  8
LAYER_1
 10
315.4257
 20
63.881
  0
VERTEX
  8
LAYER_1
 10
315.341
 20
63.881
  0
VERTEX
  8
LAYER_1
 10
315.341
 20
63.7963
  0
VERTEX
  8
LAYER_1
 10
315.2563
 20
63.7963
  0
VERTEX
  8
LAYER_1
 10
315.1717
 20
63.7963
  0
VERTEX
  8
LAYER_1
 10
315.087
 20
63.7963
  0
VERTEX
  8
LAYER_1
 10
315.0023
 20
63.7963
  0
VERTEX
  8
LAYER_1
 10
315.0023
 20
63.881
  0
VERTEX
  8
LAYER_1
 10
315.0023
 20
63.9657
  0
VERTEX
  8
LAYER_1
 10
314.9177
 20
63.9657
  0
VERTEX
  8
LAYER_1
 10
314.9177
 20
64.0503
  0
VERTEX
  8
LAYER_1
 10
314.9177
 20
64.135
  0
VERTEX
  8
LAYER_1
 10
315.0023
 20
64.135
  0
VERTEX
  8
LAYER_1
 10
315.0023
 20
64.2197
  0
VERTEX
  8
LAYER_1
 10
315.087
 20
64.2197
  0
VERTEX
  8
LAYER_1
 10
315.087
 20
64.3043
  0
SEQEND
  0
POLYLINE
  8
LAYER_1
 40
0.05
 41
0.05
 62
255
 66
1
 10
0
 20
0
 30
0
 70
1
  0
VERTEX
  8
LAYER_1
 10
310.7478
 20
130.7042
  0
VERTEX
  8
LAYER_1
 10
310.7478
 20
135.4455
  0
VERTEX
  8
LAYER_1
 10
313.9652
 20
135.4455
  0
VERTEX
  8
LAYER_1
 10
313.9652
 20
130.7042
  0
SEQEND
  0
TEXT
  8
LAYER_1
 10
313.4207
 20
130.6832
 11
313.4207
 21
130.6832
 40
3.4028
 41
0.5
 50
89.99999999
  1
690
  0
POLYLINE
  8
LAYER_1
 40
0.1764
 41
0.1764
 66
1
 10
0
 20
0
 30
0
  0
VERTEX
  8
LAYER_1
 10
305.689
 20
202.9883
  0
VERTEX
  8
LAYER_1
 10
315.1717
 20
202.9883
  0
SEQEND
  0
POLYLINE
  8
LAYER_1
 40
0.1764
 41
0.1764
 66
1
 10
0
 20
0
 30
0
  0
VERTEX
  8
LAYER_1
 10
305.689
 20
202.057
  0
VERTEX
  8
LAYER_1
 10
315.1717
 20
202.057
  0
SEQEND
  0
POLYLINE
  8
LAYER_1
 40
0.1764
 41
0.1764
 66
1
 10
0
 20
0
 30
0
  0
VERTEX
  8
LAYER_1
 10
315.1717
 20
202.9883
  0
VERTEX
  8
LAYER_1
 10
315.1717
 20
202.057
  0
SEQEND
  0
POLYLINE
  8
LAYER_1
 40
0.1764
 41
0.1764
 66
1
 10
0
 20
0
 30
0
 70
1
  0
VERTEX
  8
LAYER_1
 10
315.1717
 20
202.819
  0
VERTEX
  8
LAYER_1
 10
315.087
 20
202.819
  0
VERTEX
  8
LAYER_1
 10
315.0023
 20
202.819
  0
VERTEX
  8
LAYER_1
 10
315.0023
 20
202.9037
  0
VERTEX
  8
LAYER_1
 10
314.9177
 20
202.9037
  0
VERTEX
  8
LAYER_1
 10
314.9177
 20
202.9883
  0
VERTEX
  8
LAYER_1
 10
314.9177
 20
203.073
  0
VERTEX
  8
LAYER_1
 10
315.0023
 20
203.1577
  0
VERTEX
  8
LAYER_1
 10
315.0023
 20
203.2423
  0
VERTEX
  8
LAYER_1
 10
315.087
 20
203.2423
  0
VERTEX
  8
LAYER_1
 10
315.1717
 20
203.2423
  0
VERTEX
  8
LAYER_1
 10
315.2563
 20
203.2423
  0
VERTEX
  8
LAYER_1
 10
315.341
 20
203.2423
  0
VERTEX
  8
LAYER_1
 10
315.341
 20
203.1577
  0
VERTEX
  8
LAYER_1
 10
315.4257
 20
203.1577
  0
VERTEX
  8
LAYER_1
 10
315.4257
 20
203.073
  0
VERTEX
  8
LAYER_1
 10
315.4257
 20
202.9883
  0
VERTEX
  8
LAYER_1
 10
315.4257
 20
202.9037
  0
VERTEX
  8
LAYER_1
 10
315.341
 20
202.9037
  0
VERTEX
  8
LAYER_1
 10
315.341
 20
202.819
  0
VERTEX
  8
LAYER_1
 10
315.2563
 20
202.819
  0
SEQEND
  0
POLYLINE
  8
LAYER_1
 40
0.05
 41
0.05
 66
1
 10
0
 20
0
 30
0
 70
1
  0
VERTEX
  8
LAYER_1
 10
315.1505
 20
202.8402
  0
VERTEX
  8
LAYER_1
 10
315.0658
 20
202.8402
  0
VERTEX
  8
LAYER_1
 10
314.9812
 20
202.8402
  0
VERTEX
  8
LAYER_1
 10
314.9812
 20
202.9248
  0
VERTEX
  8
LAYER_1
 10
314.8965
 20
202.9248
  0
VERTEX
  8
LAYER_1
 10
314.8965
 20
203.0095
  0
VERTEX
  8
LAYER_1
 10
314.8965
 20
203.0942
  0
VERTEX
  8
LAYER_1
 10
314.9812
 20
203.1788
  0
VERTEX
  8
LAYER_1
 10
314.9812
 20
203.2635
  0
VERTEX
  8
LAYER_1
 10
315.0658
 20
203.2635
  0
VERTEX
  8
LAYER_1
 10
315.1505
 20
203.2635
  0
VERTEX
  8
LAYER_1
 10
315.2352
 20
203.2635
  0
VERTEX
  8
LAYER_1
 10
315.3198
 20
203.2635
  0
VERTEX
  8
LAYER_1
 10
315.3198
 20
203.1788
  0
VERTEX
  8
LAYER_1
 10
315.4045
 20
203.1788
  0
VERTEX
  8
LAYER_1
 10
315.4045
 20
203.0942
  0
VERTEX
  8
LAYER_1
 10
315.4045
 20
203.0095
  0
VERTEX
  8
LAYER_1
 10
315.4045
 20
202.9248
  0
VERTEX
  8
LAYER_1
 10
315.3198
 20
202.9248
  0
VERTEX
  8
LAYER_1
 10
315.3198
 20
202.8402
  0
VERTEX
  8
LAYER_1
 10
315.2352
 20
202.8402
  0
SEQEND
  0
POLYLINE
  8
LAYER_1
 40
0.0847
 41
0.0847
 66
1
 10
0
 20
0
 30
0
 70
1
  0
VERTEX
  8
LAYER_1
 10
315.1717
 20
202.819
  0
VERTEX
  8
LAYER_1
 10
315.087
 20
202.819
  0
VERTEX
  8
LAYER_1
 10
315.0023
 20
202.819
  0
VERTEX
  8
LAYER_1
 10
315.0023
 20
202.9037
  0
VERTEX
  8
LAYER_1
 10
314.9177
 20
202.9037
  0
VERTEX
  8
LAYER_1
 10
314.9177
 20
202.9883
  0
VERTEX
  8
LAYER_1
 10
314.9177
 20
203.073
  0
VERTEX
  8
LAYER_1
 10
315.0023
 20
203.1577
  0
VERTEX
  8
LAYER_1
 10
315.0023
 20
203.2423
  0
VERTEX
  8
LAYER_1
 10
315.087
 20
203.2423
  0
VERTEX
  8
LAYER_1
 10
315.1717
 20
203.2423
  0
VERTEX
  8
LAYER_1
 10
315.2563
 20
203.2423
  0
VERTEX
  8
LAYER_1
 10
315.341
 20
203.2423
  0
VERTEX
  8
LAYER_1
 10
315.341
 20
203.1577
  0
VERTEX
  8
LAYER_1
 10
315.4257
 20
203.1577
  0
VERTEX
  8
LAYER_1
 10
315.4257
 20
203.073
  0
VERTEX
  8
LAYER_1
 10
315.4257
 20
202.9883
  0
VERTEX
  8
LAYER_1
 10
315.4257
 20
202.9037
  0
VERTEX
  8
LAYER_1
 10
315.341
 20
202.9037
  0
VERTEX
  8
LAYER_1
 10
315.341
 20
202.819
  0
VERTEX
  8
LAYER_1
 10
315.2563
 20
202.819
  0
SEQEND
  0
POLYLINE
  8
LAYER_1
 40
0.1764
 41
0.1764
 66
1
 10
0
 20
0
 30
0
 70
1
  0
VERTEX
  8
LAYER_1
 10
315.1717
 20
202.311
  0
VERTEX
  8
LAYER_1
 10
315.2563
 20
202.311
  0
VERTEX
  8
LAYER_1
 10
315.2563
 20
202.2263
  0
VERTEX
  8
LAYER_1
 10
315.341
 20
202.2263
  0
VERTEX
  8
LAYER_1
 10
315.4257
 20
202.2263
  0
VERTEX
  8
LAYER_1
 10
315.4257
 20
202.1417
  0
VERTEX
  8
LAYER_1
 10
315.4257
 20
202.057
  0
VERTEX
  8
LAYER_1
 10
315.4257
 20
201.9723
  0
VERTEX
  8
LAYER_1
 10
315.4257
 20
201.8877
  0
VERTEX
  8
LAYER_1
 10
315.341
 20
201.8877
  0
VERTEX
  8
LAYER_1
 10
315.341
 20
201.803
  0
VERTEX
  8
LAYER_1
 10
315.2563
 20
201.803
  0
VERTEX
  8
LAYER_1
 10
315.1717
 20
201.803
  0
VERTEX
  8
LAYER_1
 10
315.087
 20
201.803
  0
VERTEX
  8
LAYER_1
 10
315.0023
 20
201.803
  0
VERTEX
  8
LAYER_1
 10
315.0023
 20
201.8877
  0
VERTEX
  8
LAYER_1
 10
315.0023
 20
201.9723
  0
VERTEX
  8
LAYER_1
 10
314.9177
 20
201.9723
  0
VERTEX
  8
LAYER_1
 10
314.9177
 20
202.057
  0
VERTEX
  8
LAYER_1
 10
314.9177
 20
202.1417
  0
VERTEX
  8
LAYER_1
 10
315.0023
 20
202.1417
  0
VERTEX
  8
LAYER_1
 10
315.0023
 20
202.2263
  0
VERTEX
  8
LAYER_1
 10
315.087
 20
202.2263
  0
VERTEX
  8
LAYER_1
 10
315.087
 20
202.311
  0
SEQEND
  0
POLYLINE
  8
LAYER_1
 40
0.05
 41
0.05
 66
1
 10
0
 20
0
 30
0
 70
1
  0
VERTEX
  8
LAYER_1
 10
315.1505
 20
202.3322
  0
VERTEX
  8
LAYER_1
 10
315.2352
 20
202.3322
  0
VERTEX
  8
LAYER_1
 10
315.2352
 20
202.2475
  0
VERTEX
  8
LAYER_1
 10
315.3198
 20
202.2475
  0
VERTEX
  8
LAYER_1
 10
315.4045
 20
202.2475
  0
VERTEX
  8
LAYER_1
 10
315.4045
 20
202.1628
  0
VERTEX
  8
LAYER_1
 10
315.4045
 20
202.0782
  0
VERTEX
  8
LAYER_1
 10
315.4045
 20
201.9935
  0
VERTEX
  8
LAYER_1
 10
315.4045
 20
201.9088
  0
VERTEX
  8
LAYER_1
 10
315.3198
 20
201.9088
  0
VERTEX
  8
LAYER_1
 10
315.3198
 20
201.8242
  0
VERTEX
  8
LAYER_1
 10
315.2352
 20
201.8242
  0
VERTEX
  8
LAYER_1
 10
315.1505
 20
201.8242
  0
VERTEX
  8
LAYER_1
 10
315.0658
 20
201.8242
  0
VERTEX
  8
LAYER_1
 10
314.9812
 20
201.8242
  0
VERTEX
  8
LAYER_1
 10
314.9812
 20
201.9088
  0
VERTEX
  8
LAYER_1
 10
314.9812
 20
201.9935
  0
VERTEX
  8
LAYER_1
 10
314.8965
 20
201.9935
  0
VERTEX
  8
LAYER_1
 10
314.8965
 20
202.0782
  0
VERTEX
  8
LAYER_1
 10
314.8965
 20
202.1628
  0
VERTEX
  8
LAYER_1
 10
314.9812
 20
202.1628
  0
VERTEX
  8
LAYER_1
 10
314.9812
 20
202.2475
  0
VERTEX
  8
LAYER_1
 10
315.0658
 20
202.2475
  0
VERTEX
  8
LAYER_1
 10
315.0658
 20
202.3322
  0
SEQEND
  0
POLYLINE
  8
LAYER_1
 40
0.0847
 41
0.0847
 66
1
 10
0
 20
0
 30
0
 70
1
  0
VERTEX
  8
LAYER_1
 10
315.1717
 20
202.311
  0
VERTEX
  8
LAYER_1
 10
315.2563
 20
202.311
  0
VERTEX
  8
LAYER_1
 10
315.2563
 20
202.2263
  0
VERTEX
  8
LAYER_1
 10
315.341
 20
202.2263
  0
VERTEX
  8
LAYER_1
 10
315.4257
 20
202.2263
  0
VERTEX
  8
LAYER_1
 10
315.4257
 20
202.1417
  0
VERTEX
  8
LAYER_1
 10
315.4257
 20
202.057
  0
VERTEX
  8
LAYER_1
 10
315.4257
 20
201.9723
  0
VERTEX
  8
LAYER_1
 10
315.4257
 20
201.8877
  0
VERTEX
  8
LAYER_1
 10
315.341
 20
201.8877
  0
VERTEX
  8
LAYER_1
 10
315.341
 20
201.803
  0
VERTEX
  8
LAYER_1
 10
315.2563
 20
201.803
  0
VERTEX
  8
LAYER_1
 10
315.1717
 20
201.803
  0
VERTEX
  8
LAYER_1
 10
315.087
 20
201.803
  0
VERTEX
  8
LAYER_1
 10
315.0023
 20
201.803
  0
VERTEX
  8
LAYER_1
 10
315.0023
 20
201.8877
  0
VERTEX
  8
LAYER_1
 10
315.0023
 20
201.9723
  0
VERTEX
  8
LAYER_1
 10
314.9177
 20
201.9723
  0
VERTEX
  8
LAYER_1
 10
314.9177
 20
202.057
  0
VERTEX
  8
LAYER_1
 10
314.9177
 20
202.1417
  0
VERTEX
  8
LAYER_1
 10
315.0023
 20
202.1417
  0
VERTEX
  8
LAYER_1
 10
315.0023
 20
202.2263
  0
VERTEX
  8
LAYER_1
 10
315.087
 20
202.2263
  0
VERTEX
  8
LAYER_1
 10
315.087
 20
202.311
  0
SEQEND
  0
POLYLINE
  8
LAYER_1
 40
0.05
 41
0.05
 62
255
 66
1
 10
0
 20
0
 30
0
 70
1
  0
VERTEX
  8
LAYER_1
 10
310.7478
 20
201.7395
  0
VERTEX
  8
LAYER_1
 10
310.7478
 20
203.3482
  0
VERTEX
  8
LAYER_1
 10
313.9652
 20
203.3482
  0
VERTEX
  8
LAYER_1
 10
313.9652
 20
201.7395
  0
SEQEND
  0
TEXT
  8
LAYER_1
 10
313.4207
 20
201.7184
 11
313.4207
 21
201.7184
 40
3.4028
 41
0.5
 50
89.99999999
  1
5
  0
POLYLINE
  8
LAYER_1
 40
0.1764
 41
0.1764
 66
1
 10
0
 20
0
 30
0
  0
VERTEX
  8
LAYER_1
 10
302.4717
 20
204.0043
  0
VERTEX
  8
LAYER_1
 10
302.4717
 20
205.6977
  0
SEQEND
  0
POLYLINE
  8
LAYER_1
 40
0.1764
 41
0.1764
 66
1
 10
0
 20
0
 30
0
  0
VERTEX
  8
LAYER_1
 10
304.3343
 20
204.0043
  0
VERTEX
  8
LAYER_1
 10
304.3343
 20
205.6977
  0
SEQEND
  0
POLYLINE
  8
LAYER_1
 40
0.1764
 41
0.1764
 66
1
 10
0
 20
0
 30
0
  0
VERTEX
  8
LAYER_1
 10
302.4717
 20
205.6977
  0
VERTEX
  8
LAYER_1
 10
304.3343
 20
205.6977
  0
SEQEND
  0
POLYLINE
  8
LAYER_1
 40
0.1764
 41
0.1764
 66
1
 10
0
 20
0
 30
0
 70
1
  0
VERTEX
  8
LAYER_1
 10
302.7257
 20
205.6977
  0
VERTEX
  8
LAYER_1
 10
302.7257
 20
205.613
  0
VERTEX
  8
LAYER_1
 10
302.7257
 20
205.5283
  0
VERTEX
  8
LAYER_1
 10
302.641
 20
205.5283
  0
VERTEX
  8
LAYER_1
 10
302.641
 20
205.4437
  0
VERTEX
  8
LAYER_1
 10
302.5563
 20
205.4437
  0
VERTEX
  8
LAYER_1
 10
302.4717
 20
205.4437
  0
VERTEX
  8
LAYER_1
 10
302.387
 20
205.4437
  0
VERTEX
  8
LAYER_1
 10
302.387
 20
205.5283
  0
VERTEX
  8
LAYER_1
 10
302.3023
 20
205.5283
  0
VERTEX
  8
LAYER_1
 10
302.3023
 20
205.613
  0
VERTEX
  8
LAYER_1
 10
302.2177
 20
205.613
  0
VERTEX
  8
LAYER_1
 10
302.2177
 20
205.6977
  0
VERTEX
  8
LAYER_1
 10
302.2177
 20
205.7823
  0
VERTEX
  8
LAYER_1
 10
302.3023
 20
205.7823
  0
VERTEX
  8
LAYER_1
 10
302.3023
 20
205.867
  0
VERTEX
  8
LAYER_1
 10
302.387
 20
205.867
  0
VERTEX
  8
LAYER_1
 10
302.387
 20
205.9517
  0
VERTEX
  8
LAYER_1
 10
302.4717
 20
205.9517
  0
VERTEX
  8
LAYER_1
 10
302.5563
 20
205.9517
  0
VERTEX
  8
LAYER_1
 10
302.641
 20
205.9517
  0
VERTEX
  8
LAYER_1
 10
302.641
 20
205.867
  0
VERTEX
  8
LAYER_1
 10
302.7257
 20
205.867
  0
VERTEX
  8
LAYER_1
 10
302.7257
 20
205.7823
  0
SEQEND
  0
POLYLINE
  8
LAYER_1
 40
0.05
 41
0.05
 66
1
 10
0
 20
0
 30
0
 70
1
  0
VERTEX
  8
LAYER_1
 10
302.7045
 20
205.7188
  0
VERTEX
  8
LAYER_1
 10
302.7045
 20
205.6342
  0
VERTEX
  8
LAYER_1
 10
302.7045
 20
205.5495
  0
VERTEX
  8
LAYER_1
 10
302.6198
 20
205.5495
  0
VERTEX
  8
LAYER_1
 10
302.6198
 20
205.4648
  0
VERTEX
  8
LAYER_1
 10
302.5352
 20
205.4648
  0
VERTEX
  8
LAYER_1
 10
302.4505
 20
205.4648
  0
VERTEX
  8
LAYER_1
 10
302.3658
 20
205.4648
  0
VERTEX
  8
LAYER_1
 10
302.3658
 20
205.5495
  0
VERTEX
  8
LAYER_1
 10
302.2812
 20
205.5495
  0
VERTEX
  8
LAYER_1
 10
302.2812
 20
205.6342
  0
VERTEX
  8
LAYER_1
 10
302.1965
 20
205.6342
  0
VERTEX
  8
LAYER_1
 10
302.1965
 20
205.7188
  0
VERTEX
  8
LAYER_1
 10
302.1965
 20
205.8035
  0
VERTEX
  8
LAYER_1
 10
302.2812
 20
205.8035
  0
VERTEX
  8
LAYER_1
 10
302.2812
 20
205.8882
  0
VERTEX
  8
LAYER_1
 10
302.3658
 20
205.8882
  0
VERTEX
  8
LAYER_1
 10
302.3658
 20
205.9728
  0
VERTEX
  8
LAYER_1
 10
302.4505
 20
205.9728
  0
VERTEX
  8
LAYER_1
 10
302.5352
 20
205.9728
  0
VERTEX
  8
LAYER_1
 10
302.6198
 20
205.9728
  0
VERTEX
  8
LAYER_1
 10
302.6198
 20
205.8882
  0
VERTEX
  8
LAYER_1
 10
302.7045
 20
205.8882
  0
VERTEX
  8
LAYER_1
 10
302.7045
 20
205.8035
  0
SEQEND
  0
POLYLINE
  8
LAYER_1
 40
0.0847
 41
0.0847
 66
1
 10
0
 20
0
 30
0
 70
1
  0
VERTEX
  8
LAYER_1
 10
302.7257
 20
205.6977
  0
VERTEX
  8
LAYER_1
 10
302.7257
 20
205.613
  0
VERTEX
  8
LAYER_1
 10
302.7257
 20
205.5283
  0
VERTEX
  8
LAYER_1
 10
302.641
 20
205.5283
  0
VERTEX
  8
LAYER_1
 10
302.641
 20
205.4437
  0
VERTEX
  8
LAYER_1
 10
302.5563
 20
205.4437
  0
VERTEX
  8
LAYER_1
 10
302.4717
 20
205.4437
  0
VERTEX
  8
LAYER_1
 10
302.387
 20
205.4437
  0
VERTEX
  8
LAYER_1
 10
302.387
 20
205.5283
  0
VERTEX
  8
LAYER_1
 10
302.3023
 20
205.5283
  0
VERTEX
  8
LAYER_1
 10
302.3023
 20
205.613
  0
VERTEX
  8
LAYER_1
 10
302.2177
 20
205.613
  0
VERTEX
  8
LAYER_1
 10
302.2177
 20
205.6977
  0
VERTEX
  8
LAYER_1
 10
302.2177
 20
205.7823
  0
VERTEX
  8
LAYER_1
 10
302.3023
 20
205.7823
  0
VERTEX
  8
LAYER_1
 10
302.3023
 20
205.867
  0
VERTEX
  8
LAYER_1
 10
302.387
 20
205.867
  0
VERTEX
  8
LAYER_1
 10
302.387
 20
205.9517
  0
VERTEX
  8
LAYER_1
 10
302.4717
 20
205.9517
  0
VERTEX
  8
LAYER_1
 10
302.5563
 20
205.9517
  0
VERTEX
  8
LAYER_1
 10
302.641
 20
205.9517
  0
VERTEX
  8
LAYER_1
 10
302.641
 20
205.867
  0
VERTEX
  8
LAYER_1
 10
302.7257
 20
205.867
  0
VERTEX
  8
LAYER_1
 10
302.7257
 20
205.7823
  0
SEQEND
  0
POLYLINE
  8
LAYER_1
 40
0.1764
 41
0.1764
 66
1
 10
0
 20
0
 30
0
 70
1
  0
VERTEX
  8
LAYER_1
 10
304.0803
 20
205.6977
  0
VERTEX
  8
LAYER_1
 10
304.0803
 20
205.7823
  0
VERTEX
  8
LAYER_1
 10
304.0803
 20
205.867
  0
VERTEX
  8
LAYER_1
 10
304.165
 20
205.867
  0
VERTEX
  8
LAYER_1
 10
304.165
 20
205.9517
  0
VERTEX
  8
LAYER_1
 10
304.2497
 20
205.9517
  0
VERTEX
  8
LAYER_1
 10
304.3343
 20
205.9517
  0
VERTEX
  8
LAYER_1
 10
304.419
 20
205.9517
  0
VERTEX
  8
LAYER_1
 10
304.419
 20
205.867
  0
VERTEX
  8
LAYER_1
 10
304.5037
 20
205.867
  0
VERTEX
  8
LAYER_1
 10
304.5037
 20
205.7823
  0
VERTEX
  8
LAYER_1
 10
304.5883
 20
205.7823
  0
VERTEX
  8
LAYER_1
 10
304.5883
 20
205.6977
  0
VERTEX
  8
LAYER_1
 10
304.5883
 20
205.613
  0
VERTEX
  8
LAYER_1
 10
304.5037
 20
205.613
  0
VERTEX
  8
LAYER_1
 10
304.5037
 20
205.5283
  0
VERTEX
  8
LAYER_1
 10
304.419
 20
205.5283
  0
VERTEX
  8
LAYER_1
 10
304.419
 20
205.4437
  0
VERTEX
  8
LAYER_1
 10
304.3343
 20
205.4437
  0
VERTEX
  8
LAYER_1
 10
304.2497
 20
205.4437
  0
VERTEX
  8
LAYER_1
 10
304.165
 20
205.4437
  0
VERTEX
  8
LAYER_1
 10
304.165
 20
205.5283
  0
VERTEX
  8
LAYER_1
 10
304.0803
 20
205.5283
  0
VERTEX
  8
LAYER_1
 10
304.0803
 20
205.613
  0
SEQEND
  0
POLYLINE
  8
LAYER_1
 40
0.05
 41
0.05
 66
1
 10
0
 20
0
 30
0
 70
1
  0
VERTEX
  8
LAYER_1
 10
304.0592
 20
205.7188
  0
VERTEX
  8
LAYER_1
 10
304.0592
 20
205.8035
  0
VERTEX
  8
LAYER_1
 10
304.0592
 20
205.8882
  0
VERTEX
  8
LAYER_1
 10
304.1438
 20
205.8882
  0
VERTEX
  8
LAYER_1
 10
304.1438
 20
205.9728
  0
VERTEX
  8
LAYER_1
 10
304.2285
 20
205.9728
  0
VERTEX
  8
LAYER_1
 10
304.3132
 20
205.9728
  0
VERTEX
  8
LAYER_1
 10
304.3978
 20
205.9728
  0
VERTEX
  8
LAYER_1
 10
304.3978
 20
205.8882
  0
VERTEX
  8
LAYER_1
 10
304.4825
 20
205.8882
  0
VERTEX
  8
LAYER_1
 10
304.4825
 20
205.8035
  0
VERTEX
  8
LAYER_1
 10
304.5672
 20
205.8035
  0
VERTEX
  8
LAYER_1
 10
304.5672
 20
205.7188
  0
VERTEX
  8
LAYER_1
 10
304.5672
 20
205.6342
  0
VERTEX
  8
LAYER_1
 10
304.4825
 20
205.6342
  0
VERTEX
  8
LAYER_1
 10
304.4825
 20
205.5495
  0
VERTEX
  8
LAYER_1
 10
304.3978
 20
205.5495
  0
VERTEX
  8
LAYER_1
 10
304.3978
 20
205.4648
  0
VERTEX
  8
LAYER_1
 10
304.3132
 20
205.4648
  0
VERTEX
  8
LAYER_1
 10
304.2285
 20
205.4648
  0
VERTEX
  8
LAYER_1
 10
304.1438
 20
205.4648
  0
VERTEX
  8
LAYER_1
 10
304.1438
 20
205.5495
  0
VERTEX
  8
LAYER_1
 10
304.0592
 20
205.5495
  0
VERTEX
  8
LAYER_1
 10
304.0592
 20
205.6342
  0
SEQEND
  0
POLYLINE
  8
LAYER_1
 40
0.0847
 41
0.0847
 66
1
 10
0
 20
0
 30
0
 70
1
  0
VERTEX
  8
LAYER_1
 10
304.0803
 20
205.6977
  0
VERTEX
  8
LAYER_1
 10
304.0803
 20
205.7823
  0
VERTEX
  8
LAYER_1
 10
304.0803
 20
205.867
  0
VERTEX
  8
LAYER_1
 10
304.165
 20
205.867
  0
VERTEX
  8
LAYER_1
 10
304.165
 20
205.9517
  0
VERTEX
  8
LAYER_1
 10
304.2497
 20
205.9517
  0
VERTEX
  8
LAYER_1
 10
304.3343
 20
205.9517
  0
VERTEX
  8
LAYER_1
 10
304.419
 20
205.9517
  0
VERTEX
  8
LAYER_1
 10
304.419
 20
205.867
  0
VERTEX
  8
LAYER_1
 10
304.5037
 20
205.867
  0
VERTEX
  8
LAYER_1
 10
304.5037
 20
205.7823
  0
VERTEX
  8
LAYER_1
 10
304.5883
 20
205.7823
  0
VERTEX
  8
LAYER_1
 10
304.5883
 20
205.6977
  0
VERTEX
  8
LAYER_1
 10
304.5883
 20
205.613
  0
VERTEX
  8
LAYER_1
 10
304.5037
 20
205.613
  0
VERTEX
  8
LAYER_1
 10
304.5037
 20
205.5283
  0
VERTEX
  8
LAYER_1
 10
304.419
 20
205.5283
  0
VERTEX
  8
LAYER_1
 10
304.419
 20
205.4437
  0
VERTEX
  8
LAYER_1
 10
304.3343
 20
205.4437
  0
VERTEX
  8
LAYER_1
 10
304.2497
 20
205.4437
  0
VERTEX
  8
LAYER_1
 10
304.165
 20
205.4437
  0
VERTEX
  8
LAYER_1
 10
304.165
 20
205.5283
  0
VERTEX
  8
LAYER_1
 10
304.0803
 20
205.5283
  0
VERTEX
  8
LAYER_1
 10
304.0803
 20
205.613
  0
SEQEND
  0
POLYLINE
  8
LAYER_1
 40
0.05
 41
0.05
 62
255
 66
1
 10
0
 20
0
 30
0
 70
1
  0
VERTEX
  8
LAYER_1
 10
302.6198
 20
210.1215
  0
VERTEX
  8
LAYER_1
 10
304.1438
 20
210.1215
  0
VERTEX
  8
LAYER_1
 10
304.1438
 20
206.9042
  0
VERTEX
  8
LAYER_1
 10
302.6198
 20
206.9042
  0
SEQEND
  0
TEXT
  8
LAYER_1
 10
302.641
 20
207.4485
 11
302.641
 21
207.4485
 40
3.4028
 41
0.5
  1
9
  0
POLYLINE
  8
LAYER_1
 40
0.1764
 41
0.1764
 66
1
 10
0
 20
0
 30
0
 70
1
  0
VERTEX
  8
LAYER_1
 10
304.3343
 20
167.5977
  0
VERTEX
  8
LAYER_1
 10
306.1123
 20
164.8037
  0
VERTEX
  8
LAYER_1
 10
306.3663
 20
164.973
  0
VERTEX
  8
LAYER_1
 10
304.5883
 20
167.6823
  0
VERTEX
  8
LAYER_1
 10
304.5883
 20
171.069
  0
VERTEX
  8
LAYER_1
 10
304.3343
 20
171.069
  0
SEQEND
  0
TEXT
  8
LAYER_1
 10
320.5903
 20
182.6684
 11
320.5903
 21
182.6684
 40
2.8837
 41
0.5
  1
壁掛け金具
  0
POLYLINE
  8
LAYER_1
 40
0.1764
 41
0.1764
 66
1
 10
0
 20
0
 30
0
  0
VERTEX
  8
LAYER_1
 10
306.197
 20
167.5977
  0
VERTEX
  8
LAYER_1
 10
320.5903
 20
181.991
  0
SEQEND
  0
POLYLINE
  8
LAYER_1
 40
0.1764
 41
0.1764
 66
1
 10
0
 20
0
 30
0
  0
VERTEX
  8
LAYER_1
 10
320.5903
 20
181.991
  0
VERTEX
  8
LAYER_1
 10
334.645
 20
181.991
  0
SEQEND
  0
POLYLINE
  8
LAYER_1
  6
AIGENLINE001
 40
0.1764
 41
0.1764
 66
1
 10
0
 20
0
 30
0
 70
128
  0
VERTEX
  8
LAYER_1
 10
124.4177
 20
171.069
  0
VERTEX
  8
LAYER_1
 10
215.8577
 20
171.069
  0
SEQEND
  0
POLYLINE
  8
LAYER_1
  6
AIGENLINE001
 40
0.1764
 41
0.1764
 66
1
 10
0
 20
0
 30
0
 70
128
  0
VERTEX
  8
LAYER_1
 10
215.8577
 20
171.069
  0
VERTEX
  8
LAYER_1
 10
215.8577
 20
164.8037
  0
SEQEND
  0
POLYLINE
  8
LAYER_1
  6
AIGENLINE001
 40
0.1764
 41
0.1764
 66
1
 10
0
 20
0
 30
0
 70
128
  0
VERTEX
  8
LAYER_1
 10
215.8577
 20
164.8037
  0
VERTEX
  8
LAYER_1
 10
124.4177
 20
164.8037
  0
SEQEND
  0
POLYLINE
  8
LAYER_1
  6
AIGENLINE001
 40
0.1764
 41
0.1764
 66
1
 10
0
 20
0
 30
0
 70
128
  0
VERTEX
  8
LAYER_1
 10
124.4177
 20
164.8037
  0
VERTEX
  8
LAYER_1
 10
124.4177
 20
171.069
  0
SEQEND
  0
POLYLINE
  8
LAYER_1
 40
0.05
 41
0.05
 62
253
 66
1
 10
0
 20
0
 30
0
 70
1
  0
VERTEX
  8
LAYER_1
 10
304.3343
 20
97.8323
  0
VERTEX
  8
LAYER_1
 10
305.689
 20
97.8323
  0
VERTEX
  8
LAYER_1
 10
305.689
 20
95.0383
  0
VERTEX
  8
LAYER_1
 10
304.3343
 20
95.0383
  0
SEQEND
  0
POLYLINE
  8
LAYER_1
 40
0.1764
 41
0.1764
 66
1
 10
0
 20
0
 30
0
 70
1
  0
VERTEX
  8
LAYER_1
 10
304.3343
 20
97.8323
  0
VERTEX
  8
LAYER_1
 10
305.689
 20
97.8323
  0
VERTEX
  8
LAYER_1
 10
305.689
 20
95.0383
  0
VERTEX
  8
LAYER_1
 10
304.3343
 20
95.0383
  0
SEQEND
  0
TEXT
  8
LAYER_1
 10
320.1672
 20
112.0566
 11
320.1672
 21
112.0566
 40
2.8837
 41
0.5
  1
ウレタンパッド
  0
POLYLINE
  8
LAYER_1
 40
0.1764
 41
0.1764
 66
1
 10
0
 20
0
 30
0
  0
VERTEX
  8
LAYER_1
 10
306.1123
 20
97.2397
  0
VERTEX
  8
LAYER_1
 10
320.167
 20
111.379
  0
SEQEND
  0
POLYLINE
  8
LAYER_1
 40
0.1764
 41
0.1764
 66
1
 10
0
 20
0
 30
0
  0
VERTEX
  8
LAYER_1
 10
320.167
 20
111.379
  0
VERTEX
  8
LAYER_1
 10
339.8097
 20
111.379
  0
SEQEND
  0
POLYLINE
  8
LAYER_1
  6
AIGENLINE001
 40
0.1764
 41
0.1764
 66
1
 10
0
 20
0
 30
0
 70
128
  0
VERTEX
  8
LAYER_1
 10
125.095
 20
96.393
  0
VERTEX
  8
LAYER_1
 10
215.0957
 20
96.393
  0
SEQEND
  0
POLYLINE
  8
LAYER_1
  6
AIGENLINE001
 40
0.1764
 41
0.1764
 66
1
 10
0
 20
0
 30
0
 70
128
  0
VERTEX
  8
LAYER_1
 10
215.0957
 20
96.393
  0
VERTEX
  8
LAYER_1
 10
215.0957
 20
95.0383
  0
SEQEND
  0
POLYLINE
  8
LAYER_1
  6
AIGENLINE001
 40
0.1764
 41
0.1764
 66
1
 10
0
 20
0
 30
0
 70
128
  0
VERTEX
  8
LAYER_1
 10
215.0957
 20
95.0383
  0
VERTEX
  8
LAYER_1
 10
125.095
 20
95.0383
  0
SEQEND
  0
POLYLINE
  8
LAYER_1
  6
AIGENLINE001
 40
0.1764
 41
0.1764
 66
1
 10
0
 20
0
 30
0
 70
128
  0
VERTEX
  8
LAYER_1
 10
125.095
 20
95.0383
  0
VERTEX
  8
LAYER_1
 10
125.095
 20
96.393
  0
SEQEND
  0
POLYLINE
  8
LAYER_1
 40
0.1764
 41
0.1764
 66
1
 10
0
 20
0
 30
0
  0
VERTEX
  8
LAYER_1
 10
305.2656
 20
202.057
  0
VERTEX
  8
LAYER_1
 10
310.261
 20
202.057
  0
SEQEND
  0
POLYLINE
  8
LAYER_1
 40
0.1764
 41
0.1764
 66
1
 10
0
 20
0
 30
0
  0
VERTEX
  8
LAYER_1
 10
305.6043
 20
171.069
  0
VERTEX
  8
LAYER_1
 10
310.261
 20
171.069
  0
SEQEND
  0
POLYLINE
  8
LAYER_1
 40
0.1764
 41
0.1764
 66
1
 10
0
 20
0
 30
0
  0
VERTEX
  8
LAYER_1
 10
310.261
 20
202.057
  0
VERTEX
  8
LAYER_1
 10
310.261
 20
171.069
  0
SEQEND
  0
POLYLINE
  8
LAYER_1
 40
0.1764
 41
0.1764
 66
1
 10
0
 20
0
 30
0
 70
1
  0
VERTEX
  8
LAYER_1
 10
310.261
 20
201.803
  0
VERTEX
  8
LAYER_1
 10
310.1763
 20
201.803
  0
VERTEX
  8
LAYER_1
 10
310.0917
 20
201.803
  0
VERTEX
  8
LAYER_1
 10
310.007
 20
201.8877
  0
VERTEX
  8
LAYER_1
 10
310.007
 20
201.9723
  0
VERTEX
  8
LAYER_1
 10
310.007
 20
202.057
  0
VERTEX
  8
LAYER_1
 10
310.007
 20
202.1417
  0
VERTEX
  8
LAYER_1
 10
310.007
 20
202.2263
  0
VERTEX
  8
LAYER_1
 10
310.0917
 20
202.2263
  0
VERTEX
  8
LAYER_1
 10
310.1763
 20
202.2263
  0
VERTEX
  8
LAYER_1
 10
310.1763
 20
202.311
  0
VERTEX
  8
LAYER_1
 10
310.261
 20
202.311
  0
VERTEX
  8
LAYER_1
 10
310.3457
 20
202.2263
  0
VERTEX
  8
LAYER_1
 10
310.4303
 20
202.2263
  0
VERTEX
  8
LAYER_1
 10
310.4303
 20
202.1417
  0
VERTEX
  8
LAYER_1
 10
310.4303
 20
202.057
  0
VERTEX
  8
LAYER_1
 10
310.515
 20
202.057
  0
VERTEX
  8
LAYER_1
 10
310.515
 20
201.9723
  0
VERTEX
  8
LAYER_1
 10
310.4303
 20
201.9723
  0
VERTEX
  8
LAYER_1
 10
310.4303
 20
201.8877
  0
VERTEX
  8
LAYER_1
 10
310.4303
 20
201.803
  0
VERTEX
  8
LAYER_1
 10
310.3457
 20
201.803
  0
SEQEND
  0
POLYLINE
  8
LAYER_1
 40
0.05
 41
0.05
 66
1
 10
0
 20
0
 30
0
 70
1
  0
VERTEX
  8
LAYER_1
 10
310.2398
 20
201.8242
  0
VERTEX
  8
LAYER_1
 10
310.1552
 20
201.8242
  0
VERTEX
  8
LAYER_1
 10
310.0705
 20
201.8242
  0
VERTEX
  8
LAYER_1
 10
309.9858
 20
201.9088
  0
VERTEX
  8
LAYER_1
 10
309.9858
 20
201.9935
  0
VERTEX
  8
LAYER_1
 10
309.9858
 20
202.0782
  0
VERTEX
  8
LAYER_1
 10
309.9858
 20
202.1628
  0
VERTEX
  8
LAYER_1
 10
309.9858
 20
202.2475
  0
VERTEX
  8
LAYER_1
 10
310.0705
 20
202.2475
  0
VERTEX
  8
LAYER_1
 10
310.1552
 20
202.2475
  0
VERTEX
  8
LAYER_1
 10
310.1552
 20
202.3322
  0
VERTEX
  8
LAYER_1
 10
310.2398
 20
202.3322
  0
VERTEX
  8
LAYER_1
 10
310.3245
 20
202.2475
  0
VERTEX
  8
LAYER_1
 10
310.4092
 20
202.2475
  0
VERTEX
  8
LAYER_1
 10
310.4092
 20
202.1628
  0
VERTEX
  8
LAYER_1
 10
310.4092
 20
202.0782
  0
VERTEX
  8
LAYER_1
 10
310.4938
 20
202.0782
  0
VERTEX
  8
LAYER_1
 10
310.4938
 20
201.9935
  0
VERTEX
  8
LAYER_1
 10
310.4092
 20
201.9935
  0
VERTEX
  8
LAYER_1
 10
310.4092
 20
201.9088
  0
VERTEX
  8
LAYER_1
 10
310.4092
 20
201.8242
  0
VERTEX
  8
LAYER_1
 10
310.3245
 20
201.8242
  0
SEQEND
  0
POLYLINE
  8
LAYER_1
 40
0.0847
 41
0.0847
 66
1
 10
0
 20
0
 30
0
 70
1
  0
VERTEX
  8
LAYER_1
 10
310.261
 20
201.803
  0
VERTEX
  8
LAYER_1
 10
310.1763
 20
201.803
  0
VERTEX
  8
LAYER_1
 10
310.0917
 20
201.803
  0
VERTEX
  8
LAYER_1
 10
310.007
 20
201.8877
  0
VERTEX
  8
LAYER_1
 10
310.007
 20
201.9723
  0
VERTEX
  8
LAYER_1
 10
310.007
 20
202.057
  0
VERTEX
  8
LAYER_1
 10
310.007
 20
202.1417
  0
VERTEX
  8
LAYER_1
 10
310.007
 20
202.2263
  0
VERTEX
  8
LAYER_1
 10
310.0917
 20
202.2263
  0
VERTEX
  8
LAYER_1
 10
310.1763
 20
202.2263
  0
VERTEX
  8
LAYER_1
 10
310.1763
 20
202.311
  0
VERTEX
  8
LAYER_1
 10
310.261
 20
202.311
  0
VERTEX
  8
LAYER_1
 10
310.3457
 20
202.2263
  0
VERTEX
  8
LAYER_1
 10
310.4303
 20
202.2263
  0
VERTEX
  8
LAYER_1
 10
310.4303
 20
202.1417
  0
VERTEX
  8
LAYER_1
 10
310.4303
 20
202.057
  0
VERTEX
  8
LAYER_1
 10
310.515
 20
202.057
  0
VERTEX
  8
LAYER_1
 10
310.515
 20
201.9723
  0
VERTEX
  8
LAYER_1
 10
310.4303
 20
201.9723
  0
VERTEX
  8
LAYER_1
 10
310.4303
 20
201.8877
  0
VERTEX
  8
LAYER_1
 10
310.4303
 20
201.803
  0
VERTEX
  8
LAYER_1
 10
310.3457
 20
201.803
  0
SEQEND
  0
POLYLINE
  8
LAYER_1
 40
0.1764
 41
0.1764
 66
1
 10
0
 20
0
 30
0
 70
1
  0
VERTEX
  8
LAYER_1
 10
310.261
 20
171.2383
  0
VERTEX
  8
LAYER_1
 10
310.3457
 20
171.2383
  0
VERTEX
  8
LAYER_1
 10
310.4303
 20
171.2383
  0
VERTEX
  8
LAYER_1
 10
310.4303
 20
171.1537
  0
VERTEX
  8
LAYER_1
 10
310.4303
 20
171.069
  0
VERTEX
  8
LAYER_1
 10
310.515
 20
171.069
  0
VERTEX
  8
LAYER_1
 10
310.515
 20
170.9843
  0
VERTEX
  8
LAYER_1
 10
310.4303
 20
170.9843
  0
VERTEX
  8
LAYER_1
 10
310.4303
 20
170.8997
  0
VERTEX
  8
LAYER_1
 10
310.4303
 20
170.815
  0
VERTEX
  8
LAYER_1
 10
310.3457
 20
170.815
  0
VERTEX
  8
LAYER_1
 10
310.261
 20
170.815
  0
VERTEX
  8
LAYER_1
 10
310.1763
 20
170.815
  0
VERTEX
  8
LAYER_1
 10
310.0917
 20
170.815
  0
VERTEX
  8
LAYER_1
 10
310.007
 20
170.815
  0
VERTEX
  8
LAYER_1
 10
310.007
 20
170.8997
  0
VERTEX
  8
LAYER_1
 10
310.007
 20
170.9843
  0
VERTEX
  8
LAYER_1
 10
310.007
 20
171.069
  0
VERTEX
  8
LAYER_1
 10
310.007
 20
171.1537
  0
VERTEX
  8
LAYER_1
 10
310.007
 20
171.2383
  0
VERTEX
  8
LAYER_1
 10
310.0917
 20
171.2383
  0
VERTEX
  8
LAYER_1
 10
310.1763
 20
171.2383
  0
SEQEND
  0
POLYLINE
  8
LAYER_1
 40
0.05
 41
0.05
 66
1
 10
0
 20
0
 30
0
 70
1
  0
VERTEX
  8
LAYER_1
 10
310.2398
 20
171.2595
  0
VERTEX
  8
LAYER_1
 10
310.3245
 20
171.2595
  0
VERTEX
  8
LAYER_1
 10
310.4092
 20
171.2595
  0
VERTEX
  8
LAYER_1
 10
310.4092
 20
171.1748
  0
VERTEX
  8
LAYER_1
 10
310.4092
 20
171.0902
  0
VERTEX
  8
LAYER_1
 10
310.4938
 20
171.0902
  0
VERTEX
  8
LAYER_1
 10
310.4938
 20
171.0055
  0
VERTEX
  8
LAYER_1
 10
310.4092
 20
171.0055
  0
VERTEX
  8
LAYER_1
 10
310.4092
 20
170.9208
  0
VERTEX
  8
LAYER_1
 10
310.4092
 20
170.8362
  0
VERTEX
  8
LAYER_1
 10
310.3245
 20
170.8362
  0
VERTEX
  8
LAYER_1
 10
310.2398
 20
170.8362
  0
VERTEX
  8
LAYER_1
 10
310.1552
 20
170.8362
  0
VERTEX
  8
LAYER_1
 10
310.0705
 20
170.8362
  0
VERTEX
  8
LAYER_1
 10
309.9858
 20
170.8362
  0
VERTEX
  8
LAYER_1
 10
309.9858
 20
170.9208
  0
VERTEX
  8
LAYER_1
 10
309.9858
 20
171.0055
  0
VERTEX
  8
LAYER_1
 10
309.9858
 20
171.0902
  0
VERTEX
  8
LAYER_1
 10
309.9858
 20
171.1748
  0
VERTEX
  8
LAYER_1
 10
309.9858
 20
171.2595
  0
VERTEX
  8
LAYER_1
 10
310.0705
 20
171.2595
  0
VERTEX
  8
LAYER_1
 10
310.1552
 20
171.2595
  0
SEQEND
  0
POLYLINE
  8
LAYER_1
 40
0.0847
 41
0.0847
 66
1
 10
0
 20
0
 30
0
 70
1
  0
VERTEX
  8
LAYER_1
 10
310.261
 20
171.2383
  0
VERTEX
  8
LAYER_1
 10
310.3457
 20
171.2383
  0
VERTEX
  8
LAYER_1
 10
310.4303
 20
171.2383
  0
VERTEX
  8
LAYER_1
 10
310.4303
 20
171.1537
  0
VERTEX
  8
LAYER_1
 10
310.4303
 20
171.069
  0
VERTEX
  8
LAYER_1
 10
310.515
 20
171.069
  0
VERTEX
  8
LAYER_1
 10
310.515
 20
170.9843
  0
VERTEX
  8
LAYER_1
 10
310.4303
 20
170.9843
  0
VERTEX
  8
LAYER_1
 10
310.4303
 20
170.8997
  0
VERTEX
  8
LAYER_1
 10
310.4303
 20
170.815
  0
VERTEX
  8
LAYER_1
 10
310.3457
 20
170.815
  0
VERTEX
  8
LAYER_1
 10
310.261
 20
170.815
  0
VERTEX
  8
LAYER_1
 10
310.1763
 20
170.815
  0
VERTEX
  8
LAYER_1
 10
310.0917
 20
170.815
  0
VERTEX
  8
LAYER_1
 10
310.007
 20
170.815
  0
VERTEX
  8
LAYER_1
 10
310.007
 20
170.8997
  0
VERTEX
  8
LAYER_1
 10
310.007
 20
170.9843
  0
VERTEX
  8
LAYER_1
 10
310.007
 20
171.069
  0
VERTEX
  8
LAYER_1
 10
310.007
 20
171.1537
  0
VERTEX
  8
LAYER_1
 10
310.007
 20
171.2383
  0
VERTEX
  8
LAYER_1
 10
310.0917
 20
171.2383
  0
VERTEX
  8
LAYER_1
 10
310.1763
 20
171.2383
  0
SEQEND
  0
POLYLINE
  8
LAYER_1
 40
0.05
 41
0.05
 62
255
 66
1
 10
0
 20
0
 30
0
 70
1
  0
VERTEX
  8
LAYER_1
 10
305.7525
 20
184.2135
  0
VERTEX
  8
LAYER_1
 10
305.7525
 20
188.8702
  0
VERTEX
  8
LAYER_1
 10
308.9698
 20
188.8702
  0
VERTEX
  8
LAYER_1
 10
308.9698
 20
184.2135
  0
SEQEND
  0
TEXT
  8
LAYER_1
 10
308.4253
 20
184.1922
 11
308.4253
 21
184.1922
 40
3.4028
 41
0.5
 50
89.99999999
  1
155
  0
POLYLINE
  8
LAYER_1
 40
0.1764
 41
0.1764
 66
1
 10
0
 20
0
 30
0
  0
VERTEX
  8
LAYER_1
 10
306.705
 20
95.0383
  0
VERTEX
  8
LAYER_1
 10
310.261
 20
95.0383
  0
SEQEND
  0
POLYLINE
  8
LAYER_1
 40
0.1764
 41
0.1764
 66
1
 10
0
 20
0
 30
0
  0
VERTEX
  8
LAYER_1
 10
305.2656
 20
64.0503
  0
VERTEX
  8
LAYER_1
 10
310.261
 20
64.0503
  0
SEQEND
  0
POLYLINE
  8
LAYER_1
 40
0.1764
 41
0.1764
 66
1
 10
0
 20
0
 30
0
  0
VERTEX
  8
LAYER_1
 10
310.261
 20
95.0383
  0
VERTEX
  8
LAYER_1
 10
310.261
 20
64.0503
  0
SEQEND
  0
POLYLINE
  8
LAYER_1
 40
0.1764
 41
0.1764
 66
1
 10
0
 20
0
 30
0
 70
1
  0
VERTEX
  8
LAYER_1
 10
310.261
 20
94.7843
  0
VERTEX
  8
LAYER_1
 10
310.1763
 20
94.7843
  0
VERTEX
  8
LAYER_1
 10
310.0917
 20
94.7843
  0
VERTEX
  8
LAYER_1
 10
310.0917
 20
94.869
  0
VERTEX
  8
LAYER_1
 10
310.007
 20
94.869
  0
VERTEX
  8
LAYER_1
 10
310.007
 20
94.9537
  0
VERTEX
  8
LAYER_1
 10
310.007
 20
95.0383
  0
VERTEX
  8
LAYER_1
 10
310.007
 20
95.123
  0
VERTEX
  8
LAYER_1
 10
310.007
 20
95.2077
  0
VERTEX
  8
LAYER_1
 10
310.0917
 20
95.2077
  0
VERTEX
  8
LAYER_1
 10
310.0917
 20
95.2923
  0
VERTEX
  8
LAYER_1
 10
310.1763
 20
95.2923
  0
VERTEX
  8
LAYER_1
 10
310.261
 20
95.2923
  0
VERTEX
  8
LAYER_1
 10
310.3457
 20
95.2923
  0
VERTEX
  8
LAYER_1
 10
310.3457
 20
95.2077
  0
VERTEX
  8
LAYER_1
 10
310.4303
 20
95.2077
  0
VERTEX
  8
LAYER_1
 10
310.4303
 20
95.123
  0
VERTEX
  8
LAYER_1
 10
310.4303
 20
95.0383
  0
VERTEX
  8
LAYER_1
 10
310.515
 20
95.0383
  0
VERTEX
  8
LAYER_1
 10
310.4303
 20
94.9537
  0
VERTEX
  8
LAYER_1
 10
310.4303
 20
94.869
  0
VERTEX
  8
LAYER_1
 10
310.3457
 20
94.869
  0
VERTEX
  8
LAYER_1
 10
310.3457
 20
94.7843
  0
SEQEND
  0
POLYLINE
  8
LAYER_1
 40
0.05
 41
0.05
 66
1
 10
0
 20
0
 30
0
 70
1
  0
VERTEX
  8
LAYER_1
 10
310.2398
 20
94.8055
  0
VERTEX
  8
LAYER_1
 10
310.1552
 20
94.8055
  0
VERTEX
  8
LAYER_1
 10
310.0705
 20
94.8055
  0
VERTEX
  8
LAYER_1
 10
310.0705
 20
94.8902
  0
VERTEX
  8
LAYER_1
 10
309.9858
 20
94.8902
  0
VERTEX
  8
LAYER_1
 10
309.9858
 20
94.9748
  0
VERTEX
  8
LAYER_1
 10
309.9858
 20
95.0595
  0
VERTEX
  8
LAYER_1
 10
309.9858
 20
95.1442
  0
VERTEX
  8
LAYER_1
 10
309.9858
 20
95.2288
  0
VERTEX
  8
LAYER_1
 10
310.0705
 20
95.2288
  0
VERTEX
  8
LAYER_1
 10
310.0705
 20
95.3135
  0
VERTEX
  8
LAYER_1
 10
310.1552
 20
95.3135
  0
VERTEX
  8
LAYER_1
 10
310.2398
 20
95.3135
  0
VERTEX
  8
LAYER_1
 10
310.3245
 20
95.3135
  0
VERTEX
  8
LAYER_1
 10
310.3245
 20
95.2288
  0
VERTEX
  8
LAYER_1
 10
310.4092
 20
95.2288
  0
VERTEX
  8
LAYER_1
 10
310.4092
 20
95.1442
  0
VERTEX
  8
LAYER_1
 10
310.4092
 20
95.0595
  0
VERTEX
  8
LAYER_1
 10
310.4938
 20
95.0595
  0
VERTEX
  8
LAYER_1
 10
310.4092
 20
94.9748
  0
VERTEX
  8
LAYER_1
 10
310.4092
 20
94.8902
  0
VERTEX
  8
LAYER_1
 10
310.3245
 20
94.8902
  0
VERTEX
  8
LAYER_1
 10
310.3245
 20
94.8055
  0
SEQEND
  0
POLYLINE
  8
LAYER_1
 40
0.0847
 41
0.0847
 66
1
 10
0
 20
0
 30
0
 70
1
  0
VERTEX
  8
LAYER_1
 10
310.261
 20
94.7843
  0
VERTEX
  8
LAYER_1
 10
310.1763
 20
94.7843
  0
VERTEX
  8
LAYER_1
 10
310.0917
 20
94.7843
  0
VERTEX
  8
LAYER_1
 10
310.0917
 20
94.869
  0
VERTEX
  8
LAYER_1
 10
310.007
 20
94.869
  0
VERTEX
  8
LAYER_1
 10
310.007
 20
94.9537
  0
VERTEX
  8
LAYER_1
 10
310.007
 20
95.0383
  0
VERTEX
  8
LAYER_1
 10
310.007
 20
95.123
  0
VERTEX
  8
LAYER_1
 10
310.007
 20
95.2077
  0
VERTEX
  8
LAYER_1
 10
310.0917
 20
95.2077
  0
VERTEX
  8
LAYER_1
 10
310.0917
 20
95.2923
  0
VERTEX
  8
LAYER_1
 10
310.1763
 20
95.2923
  0
VERTEX
  8
LAYER_1
 10
310.261
 20
95.2923
  0
VERTEX
  8
LAYER_1
 10
310.3457
 20
95.2923
  0
VERTEX
  8
LAYER_1
 10
310.3457
 20
95.2077
  0
VERTEX
  8
LAYER_1
 10
310.4303
 20
95.2077
  0
VERTEX
  8
LAYER_1
 10
310.4303
 20
95.123
  0
VERTEX
  8
LAYER_1
 10
310.4303
 20
95.0383
  0
VERTEX
  8
LAYER_1
 10
310.515
 20
95.0383
  0
VERTEX
  8
LAYER_1
 10
310.4303
 20
94.9537
  0
VERTEX
  8
LAYER_1
 10
310.4303
 20
94.869
  0
VERTEX
  8
LAYER_1
 10
310.3457
 20
94.869
  0
VERTEX
  8
LAYER_1
 10
310.3457
 20
94.7843
  0
SEQEND
  0
POLYLINE
  8
LAYER_1
 40
0.1764
 41
0.1764
 66
1
 10
0
 20
0
 30
0
 70
1
  0
VERTEX
  8
LAYER_1
 10
310.261
 20
64.3043
  0
VERTEX
  8
LAYER_1
 10
310.3457
 20
64.3043
  0
VERTEX
  8
LAYER_1
 10
310.3457
 20
64.2197
  0
VERTEX
  8
LAYER_1
 10
310.4303
 20
64.2197
  0
VERTEX
  8
LAYER_1
 10
310.4303
 20
64.135
  0
VERTEX
  8
LAYER_1
 10
310.4303
 20
64.0503
  0
VERTEX
  8
LAYER_1
 10
310.515
 20
64.0503
  0
VERTEX
  8
LAYER_1
 10
310.515
 20
63.9657
  0
VERTEX
  8
LAYER_1
 10
310.4303
 20
63.9657
  0
VERTEX
  8
LAYER_1
 10
310.4303
 20
63.881
  0
VERTEX
  8
LAYER_1
 10
310.3457
 20
63.7963
  0
VERTEX
  8
LAYER_1
 10
310.261
 20
63.7963
  0
VERTEX
  8
LAYER_1
 10
310.1763
 20
63.7963
  0
VERTEX
  8
LAYER_1
 10
310.0917
 20
63.7963
  0
VERTEX
  8
LAYER_1
 10
310.0917
 20
63.881
  0
VERTEX
  8
LAYER_1
 10
310.007
 20
63.881
  0
VERTEX
  8
LAYER_1
 10
310.007
 20
63.9657
  0
VERTEX
  8
LAYER_1
 10
310.007
 20
64.0503
  0
VERTEX
  8
LAYER_1
 10
310.007
 20
64.135
  0
VERTEX
  8
LAYER_1
 10
310.007
 20
64.2197
  0
VERTEX
  8
LAYER_1
 10
310.0917
 20
64.2197
  0
VERTEX
  8
LAYER_1
 10
310.1763
 20
64.3043
  0
SEQEND
  0
POLYLINE
  8
LAYER_1
 40
0.05
 41
0.05
 66
1
 10
0
 20
0
 30
0
 70
1
  0
VERTEX
  8
LAYER_1
 10
310.2398
 20
64.3255
  0
VERTEX
  8
LAYER_1
 10
310.3245
 20
64.3255
  0
VERTEX
  8
LAYER_1
 10
310.3245
 20
64.2408
  0
VERTEX
  8
LAYER_1
 10
310.4092
 20
64.2408
  0
VERTEX
  8
LAYER_1
 10
310.4092
 20
64.1562
  0
VERTEX
  8
LAYER_1
 10
310.4092
 20
64.0715
  0
VERTEX
  8
LAYER_1
 10
310.4938
 20
64.0715
  0
VERTEX
  8
LAYER_1
 10
310.4938
 20
63.9868
  0
VERTEX
  8
LAYER_1
 10
310.4092
 20
63.9868
  0
VERTEX
  8
LAYER_1
 10
310.4092
 20
63.9022
  0
VERTEX
  8
LAYER_1
 10
310.3245
 20
63.8175
  0
VERTEX
  8
LAYER_1
 10
310.2398
 20
63.8175
  0
VERTEX
  8
LAYER_1
 10
310.1552
 20
63.8175
  0
VERTEX
  8
LAYER_1
 10
310.0705
 20
63.8175
  0
VERTEX
  8
LAYER_1
 10
310.0705
 20
63.9022
  0
VERTEX
  8
LAYER_1
 10
309.9858
 20
63.9022
  0
VERTEX
  8
LAYER_1
 10
309.9858
 20
63.9868
  0
VERTEX
  8
LAYER_1
 10
309.9858
 20
64.0715
  0
VERTEX
  8
LAYER_1
 10
309.9858
 20
64.1562
  0
VERTEX
  8
LAYER_1
 10
309.9858
 20
64.2408
  0
VERTEX
  8
LAYER_1
 10
310.0705
 20
64.2408
  0
VERTEX
  8
LAYER_1
 10
310.1552
 20
64.3255
  0
SEQEND
  0
POLYLINE
  8
LAYER_1
 40
0.0847
 41
0.0847
 66
1
 10
0
 20
0
 30
0
 70
1
  0
VERTEX
  8
LAYER_1
 10
310.261
 20
64.3043
  0
VERTEX
  8
LAYER_1
 10
310.3457
 20
64.3043
  0
VERTEX
  8
LAYER_1
 10
310.3457
 20
64.2197
  0
VERTEX
  8
LAYER_1
 10
310.4303
 20
64.2197
  0
VERTEX
  8
LAYER_1
 10
310.4303
 20
64.135
  0
VERTEX
  8
LAYER_1
 10
310.4303
 20
64.0503
  0
VERTEX
  8
LAYER_1
 10
310.515
 20
64.0503
  0
VERTEX
  8
LAYER_1
 10
310.515
 20
63.9657
  0
VERTEX
  8
LAYER_1
 10
310.4303
 20
63.9657
  0
VERTEX
  8
LAYER_1
 10
310.4303
 20
63.881
  0
VERTEX
  8
LAYER_1
 10
310.3457
 20
63.7963
  0
VERTEX
  8
LAYER_1
 10
310.261
 20
63.7963
  0
VERTEX
  8
LAYER_1
 10
310.1763
 20
63.7963
  0
VERTEX
  8
LAYER_1
 10
310.0917
 20
63.7963
  0
VERTEX
  8
LAYER_1
 10
310.0917
 20
63.881
  0
VERTEX
  8
LAYER_1
 10
310.007
 20
63.881
  0
VERTEX
  8
LAYER_1
 10
310.007
 20
63.9657
  0
VERTEX
  8
LAYER_1
 10
310.007
 20
64.0503
  0
VERTEX
  8
LAYER_1
 10
310.007
 20
64.135
  0
VERTEX
  8
LAYER_1
 10
310.007
 20
64.2197
  0
VERTEX
  8
LAYER_1
 10
310.0917
 20
64.2197
  0
VERTEX
  8
LAYER_1
 10
310.1763
 20
64.3043
  0
SEQEND
  0
POLYLINE
  8
LAYER_1
 40
0.05
 41
0.05
 62
255
 66
1
 10
0
 20
0
 30
0
 70
1
  0
VERTEX
  8
LAYER_1
 10
305.7525
 20
77.1948
  0
VERTEX
  8
LAYER_1
 10
305.7525
 20
81.9362
  0
VERTEX
  8
LAYER_1
 10
308.9698
 20
81.9362
  0
VERTEX
  8
LAYER_1
 10
308.9698
 20
77.1948
  0
SEQEND
  0
TEXT
  8
LAYER_1
 10
308.4253
 20
77.1739
 11
308.4253
 21
77.1739
 40
3.4028
 41
0.5
 50
89.99999999
  1
155
  0
POLYLINE
  8
LAYER_1
 40
0.1764
 41
0.1764
 66
1
 10
0
 20
0
 30
0
  0
VERTEX
  8
LAYER_1
 10
124.4177
 20
163.8723
  0
VERTEX
  8
LAYER_1
 10
124.4177
 20
150.495
  0
SEQEND
  0
POLYLINE
  8
LAYER_1
 40
0.1764
 41
0.1764
 66
1
 10
0
 20
0
 30
0
  0
VERTEX
  8
LAYER_1
 10
215.8577
 20
163.8723
  0
VERTEX
  8
LAYER_1
 10
215.8577
 20
150.495
  0
SEQEND
  0
POLYLINE
  8
LAYER_1
 40
0.1764
 41
0.1764
 66
1
 10
0
 20
0
 30
0
  0
VERTEX
  8
LAYER_1
 10
124.4177
 20
150.495
  0
VERTEX
  8
LAYER_1
 10
215.8577
 20
150.495
  0
SEQEND
  0
POLYLINE
  8
LAYER_1
 40
0.1764
 41
0.1764
 66
1
 10
0
 20
0
 30
0
 70
1
  0
VERTEX
  8
LAYER_1
 10
124.6717
 20
150.495
  0
VERTEX
  8
LAYER_1
 10
124.6717
 20
150.4103
  0
VERTEX
  8
LAYER_1
 10
124.6717
 20
150.3257
  0
VERTEX
  8
LAYER_1
 10
124.587
 20
150.3257
  0
VERTEX
  8
LAYER_1
 10
124.587
 20
150.241
  0
VERTEX
  8
LAYER_1
 10
124.5023
 20
150.241
  0
VERTEX
  8
LAYER_1
 10
124.4177
 20
150.241
  0
VERTEX
  8
LAYER_1
 10
124.333
 20
150.241
  0
VERTEX
  8
LAYER_1
 10
124.2483
 20
150.241
  0
VERTEX
  8
LAYER_1
 10
124.2483
 20
150.3257
  0
VERTEX
  8
LAYER_1
 10
124.1637
 20
150.3257
  0
VERTEX
  8
LAYER_1
 10
124.1637
 20
150.4103
  0
VERTEX
  8
LAYER_1
 10
124.1637
 20
150.495
  0
VERTEX
  8
LAYER_1
 10
124.1637
 20
150.5797
  0
VERTEX
  8
LAYER_1
 10
124.2483
 20
150.5797
  0
VERTEX
  8
LAYER_1
 10
124.2483
 20
150.6643
  0
VERTEX
  8
LAYER_1
 10
124.333
 20
150.6643
  0
VERTEX
  8
LAYER_1
 10
124.4177
 20
150.6643
  0
VERTEX
  8
LAYER_1
 10
124.5023
 20
150.6643
  0
VERTEX
  8
LAYER_1
 10
124.587
 20
150.6643
  0
VERTEX
  8
LAYER_1
 10
124.587
 20
150.5797
  0
VERTEX
  8
LAYER_1
 10
124.6717
 20
150.5797
  0
SEQEND
  0
POLYLINE
  8
LAYER_1
 40
0.05
 41
0.05
 66
1
 10
0
 20
0
 30
0
 70
1
  0
VERTEX
  8
LAYER_1
 10
124.6505
 20
150.5162
  0
VERTEX
  8
LAYER_1
 10
124.6505
 20
150.4315
  0
VERTEX
  8
LAYER_1
 10
124.6505
 20
150.3468
  0
VERTEX
  8
LAYER_1
 10
124.5658
 20
150.3468
  0
VERTEX
  8
LAYER_1
 10
124.5658
 20
150.2622
  0
VERTEX
  8
LAYER_1
 10
124.4812
 20
150.2622
  0
VERTEX
  8
LAYER_1
 10
124.3965
 20
150.2622
  0
VERTEX
  8
LAYER_1
 10
124.3118
 20
150.2622
  0
VERTEX
  8
LAYER_1
 10
124.2272
 20
150.2622
  0
VERTEX
  8
LAYER_1
 10
124.2272
 20
150.3468
  0
VERTEX
  8
LAYER_1
 10
124.1425
 20
150.3468
  0
VERTEX
  8
LAYER_1
 10
124.1425
 20
150.4315
  0
VERTEX
  8
LAYER_1
 10
124.1425
 20
150.5162
  0
VERTEX
  8
LAYER_1
 10
124.1425
 20
150.6008
  0
VERTEX
  8
LAYER_1
 10
124.2272
 20
150.6008
  0
VERTEX
  8
LAYER_1
 10
124.2272
 20
150.6855
  0
VERTEX
  8
LAYER_1
 10
124.3118
 20
150.6855
  0
VERTEX
  8
LAYER_1
 10
124.3965
 20
150.6855
  0
VERTEX
  8
LAYER_1
 10
124.4812
 20
150.6855
  0
VERTEX
  8
LAYER_1
 10
124.5658
 20
150.6855
  0
VERTEX
  8
LAYER_1
 10
124.5658
 20
150.6008
  0
VERTEX
  8
LAYER_1
 10
124.6505
 20
150.6008
  0
SEQEND
  0
POLYLINE
  8
LAYER_1
 40
0.0847
 41
0.0847
 66
1
 10
0
 20
0
 30
0
 70
1
  0
VERTEX
  8
LAYER_1
 10
124.6717
 20
150.495
  0
VERTEX
  8
LAYER_1
 10
124.6717
 20
150.4103
  0
VERTEX
  8
LAYER_1
 10
124.6717
 20
150.3257
  0
VERTEX
  8
LAYER_1
 10
124.587
 20
150.3257
  0
VERTEX
  8
LAYER_1
 10
124.587
 20
150.241
  0
VERTEX
  8
LAYER_1
 10
124.5023
 20
150.241
  0
VERTEX
  8
LAYER_1
 10
124.4177
 20
150.241
  0
VERTEX
  8
LAYER_1
 10
124.333
 20
150.241
  0
VERTEX
  8
LAYER_1
 10
124.2483
 20
150.241
  0
VERTEX
  8
LAYER_1
 10
124.2483
 20
150.3257
  0
VERTEX
  8
LAYER_1
 10
124.1637
 20
150.3257
  0
VERTEX
  8
LAYER_1
 10
124.1637
 20
150.4103
  0
VERTEX
  8
LAYER_1
 10
124.1637
 20
150.495
  0
VERTEX
  8
LAYER_1
 10
124.1637
 20
150.5797
  0
VERTEX
  8
LAYER_1
 10
124.2483
 20
150.5797
  0
VERTEX
  8
LAYER_1
 10
124.2483
 20
150.6643
  0
VERTEX
  8
LAYER_1
 10
124.333
 20
150.6643
  0
VERTEX
  8
LAYER_1
 10
124.4177
 20
150.6643
  0
VERTEX
  8
LAYER_1
 10
124.5023
 20
150.6643
  0
VERTEX
  8
LAYER_1
 10
124.587
 20
150.6643
  0
VERTEX
  8
LAYER_1
 10
124.587
 20
150.5797
  0
VERTEX
  8
LAYER_1
 10
124.6717
 20
150.5797
  0
SEQEND
  0
POLYLINE
  8
LAYER_1
 40
0.1764
 41
0.1764
 66
1
 10
0
 20
0
 30
0
 70
1
  0
VERTEX
  8
LAYER_1
 10
215.6037
 20
150.495
  0
VERTEX
  8
LAYER_1
 10
215.6037
 20
150.5797
  0
VERTEX
  8
LAYER_1
 10
215.6883
 20
150.6643
  0
VERTEX
  8
LAYER_1
 10
215.773
 20
150.6643
  0
VERTEX
  8
LAYER_1
 10
215.8577
 20
150.6643
  0
VERTEX
  8
LAYER_1
 10
215.9423
 20
150.6643
  0
VERTEX
  8
LAYER_1
 10
216.027
 20
150.6643
  0
VERTEX
  8
LAYER_1
 10
216.027
 20
150.5797
  0
VERTEX
  8
LAYER_1
 10
216.1117
 20
150.5797
  0
VERTEX
  8
LAYER_1
 10
216.1117
 20
150.495
  0
VERTEX
  8
LAYER_1
 10
216.1117
 20
150.4103
  0
VERTEX
  8
LAYER_1
 10
216.027
 20
150.3257
  0
VERTEX
  8
LAYER_1
 10
216.027
 20
150.241
  0
VERTEX
  8
LAYER_1
 10
215.9423
 20
150.241
  0
VERTEX
  8
LAYER_1
 10
215.8577
 20
150.241
  0
VERTEX
  8
LAYER_1
 10
215.773
 20
150.241
  0
VERTEX
  8
LAYER_1
 10
215.6883
 20
150.241
  0
VERTEX
  8
LAYER_1
 10
215.6883
 20
150.3257
  0
VERTEX
  8
LAYER_1
 10
215.6037
 20
150.3257
  0
VERTEX
  8
LAYER_1
 10
215.6037
 20
150.4103
  0
SEQEND
  0
POLYLINE
  8
LAYER_1
 40
0.05
 41
0.05
 66
1
 10
0
 20
0
 30
0
 70
1
  0
VERTEX
  8
LAYER_1
 10
215.5825
 20
150.5162
  0
VERTEX
  8
LAYER_1
 10
215.5825
 20
150.6008
  0
VERTEX
  8
LAYER_1
 10
215.6672
 20
150.6855
  0
VERTEX
  8
LAYER_1
 10
215.7518
 20
150.6855
  0
VERTEX
  8
LAYER_1
 10
215.8365
 20
150.6855
  0
VERTEX
  8
LAYER_1
 10
215.9212
 20
150.6855
  0
VERTEX
  8
LAYER_1
 10
216.0058
 20
150.6855
  0
VERTEX
  8
LAYER_1
 10
216.0058
 20
150.6008
  0
VERTEX
  8
LAYER_1
 10
216.0905
 20
150.6008
  0
VERTEX
  8
LAYER_1
 10
216.0905
 20
150.5162
  0
VERTEX
  8
LAYER_1
 10
216.0905
 20
150.4315
  0
VERTEX
  8
LAYER_1
 10
216.0058
 20
150.3468
  0
VERTEX
  8
LAYER_1
 10
216.0058
 20
150.2622
  0
VERTEX
  8
LAYER_1
 10
215.9212
 20
150.2622
  0
VERTEX
  8
LAYER_1
 10
215.8365
 20
150.2622
  0
VERTEX
  8
LAYER_1
 10
215.7518
 20
150.2622
  0
VERTEX
  8
LAYER_1
 10
215.6672
 20
150.2622
  0
VERTEX
  8
LAYER_1
 10
215.6672
 20
150.3468
  0
VERTEX
  8
LAYER_1
 10
215.5825
 20
150.3468
  0
VERTEX
  8
LAYER_1
 10
215.5825
 20
150.4315
  0
SEQEND
  0
POLYLINE
  8
LAYER_1
 40
0.0847
 41
0.0847
 66
1
 10
0
 20
0
 30
0
 70
1
  0
VERTEX
  8
LAYER_1
 10
215.6037
 20
150.495
  0
VERTEX
  8
LAYER_1
 10
215.6037
 20
150.5797
  0
VERTEX
  8
LAYER_1
 10
215.6883
 20
150.6643
  0
VERTEX
  8
LAYER_1
 10
215.773
 20
150.6643
  0
VERTEX
  8
LAYER_1
 10
215.8577
 20
150.6643
  0
VERTEX
  8
LAYER_1
 10
215.9423
 20
150.6643
  0
VERTEX
  8
LAYER_1
 10
216.027
 20
150.6643
  0
VERTEX
  8
LAYER_1
 10
216.027
 20
150.5797
  0
VERTEX
  8
LAYER_1
 10
216.1117
 20
150.5797
  0
VERTEX
  8
LAYER_1
 10
216.1117
 20
150.495
  0
VERTEX
  8
LAYER_1
 10
216.1117
 20
150.4103
  0
VERTEX
  8
LAYER_1
 10
216.027
 20
150.3257
  0
VERTEX
  8
LAYER_1
 10
216.027
 20
150.241
  0
VERTEX
  8
LAYER_1
 10
215.9423
 20
150.241
  0
VERTEX
  8
LAYER_1
 10
215.8577
 20
150.241
  0
VERTEX
  8
LAYER_1
 10
215.773
 20
150.241
  0
VERTEX
  8
LAYER_1
 10
215.6883
 20
150.241
  0
VERTEX
  8
LAYER_1
 10
215.6883
 20
150.3257
  0
VERTEX
  8
LAYER_1
 10
215.6037
 20
150.3257
  0
VERTEX
  8
LAYER_1
 10
215.6037
 20
150.4103
  0
SEQEND
  0
POLYLINE
  8
LAYER_1
 40
0.05
 41
0.05
 62
255
 66
1
 10
0
 20
0
 30
0
 70
1
  0
VERTEX
  8
LAYER_1
 10
167.7458
 20
154.9188
  0
VERTEX
  8
LAYER_1
 10
172.4872
 20
154.9188
  0
VERTEX
  8
LAYER_1
 10
172.4872
 20
151.7015
  0
VERTEX
  8
LAYER_1
 10
167.7458
 20
151.7015
  0
SEQEND
  0
TEXT
  8
LAYER_1
 10
167.767
 20
152.2458
 11
167.767
 21
152.2458
 40
3.4028
 41
0.5
  1
457
  0
POLYLINE
  8
LAYER_1
 40
0.1764
 41
0.1764
 66
1
 10
0
 20
0
 30
0
  0
VERTEX
  8
LAYER_1
 10
125.095
 20
97.409
  0
VERTEX
  8
LAYER_1
 10
125.095
 20
110.0243
  0
SEQEND
  0
POLYLINE
  8
LAYER_1
 40
0.1764
 41
0.1764
 66
1
 10
0
 20
0
 30
0
  0
VERTEX
  8
LAYER_1
 10
215.0957
 20
97.409
  0
VERTEX
  8
LAYER_1
 10
215.0957
 20
110.0243
  0
SEQEND
  0
POLYLINE
  8
LAYER_1
 40
0.1764
 41
0.1764
 66
1
 10
0
 20
0
 30
0
  0
VERTEX
  8
LAYER_1
 10
125.095
 20
110.0243
  0
VERTEX
  8
LAYER_1
 10
215.0957
 20
110.0243
  0
SEQEND
  0
POLYLINE
  8
LAYER_1
 40
0.1764
 41
0.1764
 66
1
 10
0
 20
0
 30
0
 70
1
  0
VERTEX
  8
LAYER_1
 10
125.349
 20
110.0243
  0
VERTEX
  8
LAYER_1
 10
125.349
 20
109.9397
  0
VERTEX
  8
LAYER_1
 10
125.349
 20
109.855
  0
VERTEX
  8
LAYER_1
 10
125.2643
 20
109.855
  0
VERTEX
  8
LAYER_1
 10
125.1797
 20
109.855
  0
VERTEX
  8
LAYER_1
 10
125.1797
 20
109.7703
  0
VERTEX
  8
LAYER_1
 10
125.095
 20
109.7703
  0
VERTEX
  8
LAYER_1
 10
125.095
 20
109.855
  0
VERTEX
  8
LAYER_1
 10
125.0103
 20
109.855
  0
VERTEX
  8
LAYER_1
 10
124.9257
 20
109.855
  0
VERTEX
  8
LAYER_1
 10
124.9257
 20
109.9397
  0
VERTEX
  8
LAYER_1
 10
124.9257
 20
110.0243
  0
VERTEX
  8
LAYER_1
 10
124.9257
 20
110.109
  0
VERTEX
  8
LAYER_1
 10
124.9257
 20
110.1937
  0
VERTEX
  8
LAYER_1
 10
124.9257
 20
110.2783
  0
VERTEX
  8
LAYER_1
 10
125.0103
 20
110.2783
  0
VERTEX
  8
LAYER_1
 10
125.095
 20
110.2783
  0
VERTEX
  8
LAYER_1
 10
125.1797
 20
110.2783
  0
VERTEX
  8
LAYER_1
 10
125.2643
 20
110.2783
  0
VERTEX
  8
LAYER_1
 10
125.349
 20
110.1937
  0
VERTEX
  8
LAYER_1
 10
125.349
 20
110.109
  0
SEQEND
  0
POLYLINE
  8
LAYER_1
 40
0.05
 41
0.05
 66
1
 10
0
 20
0
 30
0
 70
1
  0
VERTEX
  8
LAYER_1
 10
125.3278
 20
110.0455
  0
VERTEX
  8
LAYER_1
 10
125.3278
 20
109.9608
  0
VERTEX
  8
LAYER_1
 10
125.3278
 20
109.8762
  0
VERTEX
  8
LAYER_1
 10
125.2432
 20
109.8762
  0
VERTEX
  8
LAYER_1
 10
125.1585
 20
109.8762
  0
VERTEX
  8
LAYER_1
 10
125.1585
 20
109.7915
  0
VERTEX
  8
LAYER_1
 10
125.0738
 20
109.7915
  0
VERTEX
  8
LAYER_1
 10
125.0738
 20
109.8762
  0
VERTEX
  8
LAYER_1
 10
124.9892
 20
109.8762
  0
VERTEX
  8
LAYER_1
 10
124.9045
 20
109.8762
  0
VERTEX
  8
LAYER_1
 10
124.9045
 20
109.9608
  0
VERTEX
  8
LAYER_1
 10
124.9045
 20
110.0455
  0
VERTEX
  8
LAYER_1
 10
124.9045
 20
110.1302
  0
VERTEX
  8
LAYER_1
 10
124.9045
 20
110.2148
  0
VERTEX
  8
LAYER_1
 10
124.9045
 20
110.2995
  0
VERTEX
  8
LAYER_1
 10
124.9892
 20
110.2995
  0
VERTEX
  8
LAYER_1
 10
125.0738
 20
110.2995
  0
VERTEX
  8
LAYER_1
 10
125.1585
 20
110.2995
  0
VERTEX
  8
LAYER_1
 10
125.2432
 20
110.2995
  0
VERTEX
  8
LAYER_1
 10
125.3278
 20
110.2148
  0
VERTEX
  8
LAYER_1
 10
125.3278
 20
110.1302
  0
SEQEND
  0
POLYLINE
  8
LAYER_1
 40
0.0847
 41
0.0847
 66
1
 10
0
 20
0
 30
0
 70
1
  0
VERTEX
  8
LAYER_1
 10
125.349
 20
110.0243
  0
VERTEX
  8
LAYER_1
 10
125.349
 20
109.9397
  0
VERTEX
  8
LAYER_1
 10
125.349
 20
109.855
  0
VERTEX
  8
LAYER_1
 10
125.2643
 20
109.855
  0
VERTEX
  8
LAYER_1
 10
125.1797
 20
109.855
  0
VERTEX
  8
LAYER_1
 10
125.1797
 20
109.7703
  0
VERTEX
  8
LAYER_1
 10
125.095
 20
109.7703
  0
VERTEX
  8
LAYER_1
 10
125.095
 20
109.855
  0
VERTEX
  8
LAYER_1
 10
125.0103
 20
109.855
  0
VERTEX
  8
LAYER_1
 10
124.9257
 20
109.855
  0
VERTEX
  8
LAYER_1
 10
124.9257
 20
109.9397
  0
VERTEX
  8
LAYER_1
 10
124.9257
 20
110.0243
  0
VERTEX
  8
LAYER_1
 10
124.9257
 20
110.109
  0
VERTEX
  8
LAYER_1
 10
124.9257
 20
110.1937
  0
VERTEX
  8
LAYER_1
 10
124.9257
 20
110.2783
  0
VERTEX
  8
LAYER_1
 10
125.0103
 20
110.2783
  0
VERTEX
  8
LAYER_1
 10
125.095
 20
110.2783
  0
VERTEX
  8
LAYER_1
 10
125.1797
 20
110.2783
  0
VERTEX
  8
LAYER_1
 10
125.2643
 20
110.2783
  0
VERTEX
  8
LAYER_1
 10
125.349
 20
110.1937
  0
VERTEX
  8
LAYER_1
 10
125.349
 20
110.109
  0
SEQEND
  0
POLYLINE
  8
LAYER_1
 40
0.1764
 41
0.1764
 66
1
 10
0
 20
0
 30
0
 70
1
  0
VERTEX
  8
LAYER_1
 10
214.9263
 20
110.0243
  0
VERTEX
  8
LAYER_1
 10
214.9263
 20
110.109
  0
VERTEX
  8
LAYER_1
 10
214.9263
 20
110.1937
  0
VERTEX
  8
LAYER_1
 10
214.9263
 20
110.2783
  0
VERTEX
  8
LAYER_1
 10
215.011
 20
110.2783
  0
VERTEX
  8
LAYER_1
 10
215.0957
 20
110.2783
  0
VERTEX
  8
LAYER_1
 10
215.1803
 20
110.2783
  0
VERTEX
  8
LAYER_1
 10
215.265
 20
110.2783
  0
VERTEX
  8
LAYER_1
 10
215.3497
 20
110.1937
  0
VERTEX
  8
LAYER_1
 10
215.3497
 20
110.109
  0
VERTEX
  8
LAYER_1
 10
215.3497
 20
110.0243
  0
VERTEX
  8
LAYER_1
 10
215.3497
 20
109.9397
  0
VERTEX
  8
LAYER_1
 10
215.3497
 20
109.855
  0
VERTEX
  8
LAYER_1
 10
215.265
 20
109.855
  0
VERTEX
  8
LAYER_1
 10
215.1803
 20
109.855
  0
VERTEX
  8
LAYER_1
 10
215.1803
 20
109.7703
  0
VERTEX
  8
LAYER_1
 10
215.0957
 20
109.7703
  0
VERTEX
  8
LAYER_1
 10
215.0957
 20
109.855
  0
VERTEX
  8
LAYER_1
 10
215.011
 20
109.855
  0
VERTEX
  8
LAYER_1
 10
214.9263
 20
109.855
  0
VERTEX
  8
LAYER_1
 10
214.9263
 20
109.9397
  0
SEQEND
  0
POLYLINE
  8
LAYER_1
 40
0.05
 41
0.05
 66
1
 10
0
 20
0
 30
0
 70
1
  0
VERTEX
  8
LAYER_1
 10
214.9052
 20
110.0455
  0
VERTEX
  8
LAYER_1
 10
214.9052
 20
110.1302
  0
VERTEX
  8
LAYER_1
 10
214.9052
 20
110.2148
  0
VERTEX
  8
LAYER_1
 10
214.9052
 20
110.2995
  0
VERTEX
  8
LAYER_1
 10
214.9898
 20
110.2995
  0
VERTEX
  8
LAYER_1
 10
215.0745
 20
110.2995
  0
VERTEX
  8
LAYER_1
 10
215.1592
 20
110.2995
  0
VERTEX
  8
LAYER_1
 10
215.2438
 20
110.2995
  0
VERTEX
  8
LAYER_1
 10
215.3285
 20
110.2148
  0
VERTEX
  8
LAYER_1
 10
215.3285
 20
110.1302
  0
VERTEX
  8
LAYER_1
 10
215.3285
 20
110.0455
  0
VERTEX
  8
LAYER_1
 10
215.3285
 20
109.9608
  0
VERTEX
  8
LAYER_1
 10
215.3285
 20
109.8762
  0
VERTEX
  8
LAYER_1
 10
215.2438
 20
109.8762
  0
VERTEX
  8
LAYER_1
 10
215.1592
 20
109.8762
  0
VERTEX
  8
LAYER_1
 10
215.1592
 20
109.7915
  0
VERTEX
  8
LAYER_1
 10
215.0745
 20
109.7915
  0
VERTEX
  8
LAYER_1
 10
215.0745
 20
109.8762
  0
VERTEX
  8
LAYER_1
 10
214.9898
 20
109.8762
  0
VERTEX
  8
LAYER_1
 10
214.9052
 20
109.8762
  0
VERTEX
  8
LAYER_1
 10
214.9052
 20
109.9608
  0
SEQEND
  0
POLYLINE
  8
LAYER_1
 40
0.0847
 41
0.0847
 66
1
 10
0
 20
0
 30
0
 70
1
  0
VERTEX
  8
LAYER_1
 10
214.9263
 20
110.0243
  0
VERTEX
  8
LAYER_1
 10
214.9263
 20
110.109
  0
VERTEX
  8
LAYER_1
 10
214.9263
 20
110.1937
  0
VERTEX
  8
LAYER_1
 10
214.9263
 20
110.2783
  0
VERTEX
  8
LAYER_1
 10
215.011
 20
110.2783
  0
VERTEX
  8
LAYER_1
 10
215.0957
 20
110.2783
  0
VERTEX
  8
LAYER_1
 10
215.1803
 20
110.2783
  0
VERTEX
  8
LAYER_1
 10
215.265
 20
110.2783
  0
VERTEX
  8
LAYER_1
 10
215.3497
 20
110.1937
  0
VERTEX
  8
LAYER_1
 10
215.3497
 20
110.109
  0
VERTEX
  8
LAYER_1
 10
215.3497
 20
110.0243
  0
VERTEX
  8
LAYER_1
 10
215.3497
 20
109.9397
  0
VERTEX
  8
LAYER_1
 10
215.3497
 20
109.855
  0
VERTEX
  8
LAYER_1
 10
215.265
 20
109.855
  0
VERTEX
  8
LAYER_1
 10
215.1803
 20
109.855
  0
VERTEX
  8
LAYER_1
 10
215.1803
 20
109.7703
  0
VERTEX
  8
LAYER_1
 10
215.0957
 20
109.7703
  0
VERTEX
  8
LAYER_1
 10
215.0957
 20
109.855
  0
VERTEX
  8
LAYER_1
 10
215.011
 20
109.855
  0
VERTEX
  8
LAYER_1
 10
214.9263
 20
109.855
  0
VERTEX
  8
LAYER_1
 10
214.9263
 20
109.9397
  0
SEQEND
  0
POLYLINE
  8
LAYER_1
 40
0.05
 41
0.05
 62
255
 66
1
 10
0
 20
0
 30
0
 70
1
  0
VERTEX
  8
LAYER_1
 10
167.7458
 20
114.5328
  0
VERTEX
  8
LAYER_1
 10
172.4872
 20
114.5328
  0
VERTEX
  8
LAYER_1
 10
172.4872
 20
111.3155
  0
VERTEX
  8
LAYER_1
 10
167.7458
 20
111.3155
  0
SEQEND
  0
TEXT
  8
LAYER_1
 10
167.767
 20
111.8602
 11
167.767
 21
111.8602
 40
3.4028
 41
0.5
  1
450
  0
POLYLINE
  8
LAYER_1
 40
0.1764
 41
0.1764
 66
1
 10
0
 20
0
 30
0
  0
VERTEX
  8
LAYER_1
 10
216.8737
 20
171.069
  0
VERTEX
  8
LAYER_1
 10
223.4777
 20
171.069
  0
SEQEND
  0
POLYLINE
  8
LAYER_1
 40
0.1764
 41
0.1764
 66
1
 10
0
 20
0
 30
0
  0
VERTEX
  8
LAYER_1
 10
216.8737
 20
164.8037
  0
VERTEX
  8
LAYER_1
 10
223.4777
 20
164.8037
  0
SEQEND
  0
POLYLINE
  8
LAYER_1
 40
0.1764
 41
0.1764
 66
1
 10
0
 20
0
 30
0
  0
VERTEX
  8
LAYER_1
 10
223.4777
 20
171.069
  0
VERTEX
  8
LAYER_1
 10
223.4777
 20
164.8037
  0
SEQEND
  0
POLYLINE
  8
LAYER_1
 40
0.1764
 41
0.1764
 66
1
 10
0
 20
0
 30
0
 70
1
  0
VERTEX
  8
LAYER_1
 10
223.4777
 20
170.815
  0
VERTEX
  8
LAYER_1
 10
223.393
 20
170.815
  0
VERTEX
  8
LAYER_1
 10
223.3083
 20
170.815
  0
VERTEX
  8
LAYER_1
 10
223.3083
 20
170.8997
  0
VERTEX
  8
LAYER_1
 10
223.2237
 20
170.8997
  0
VERTEX
  8
LAYER_1
 10
223.2237
 20
170.9843
  0
VERTEX
  8
LAYER_1
 10
223.2237
 20
171.069
  0
VERTEX
  8
LAYER_1
 10
223.2237
 20
171.1537
  0
VERTEX
  8
LAYER_1
 10
223.3083
 20
171.1537
  0
VERTEX
  8
LAYER_1
 10
223.3083
 20
171.2383
  0
VERTEX
  8
LAYER_1
 10
223.393
 20
171.2383
  0
VERTEX
  8
LAYER_1
 10
223.4777
 20
171.2383
  0
VERTEX
  8
LAYER_1
 10
223.5623
 20
171.2383
  0
VERTEX
  8
LAYER_1
 10
223.647
 20
171.2383
  0
VERTEX
  8
LAYER_1
 10
223.647
 20
171.1537
  0
VERTEX
  8
LAYER_1
 10
223.7316
 20
171.1537
  0
VERTEX
  8
LAYER_1
 10
223.7316
 20
171.069
  0
VERTEX
  8
LAYER_1
 10
223.7316
 20
170.9843
  0
VERTEX
  8
LAYER_1
 10
223.7316
 20
170.8997
  0
VERTEX
  8
LAYER_1
 10
223.647
 20
170.8997
  0
VERTEX
  8
LAYER_1
 10
223.647
 20
170.815
  0
VERTEX
  8
LAYER_1
 10
223.5623
 20
170.815
  0
SEQEND
  0
POLYLINE
  8
LAYER_1
 40
0.05
 41
0.05
 66
1
 10
0
 20
0
 30
0
 70
1
  0
VERTEX
  8
LAYER_1
 10
223.4565
 20
170.8362
  0
VERTEX
  8
LAYER_1
 10
223.3718
 20
170.8362
  0
VERTEX
  8
LAYER_1
 10
223.2872
 20
170.8362
  0
VERTEX
  8
LAYER_1
 10
223.2872
 20
170.9208
  0
VERTEX
  8
LAYER_1
 10
223.2025
 20
170.9208
  0
VERTEX
  8
LAYER_1
 10
223.2025
 20
171.0055
  0
VERTEX
  8
LAYER_1
 10
223.2025
 20
171.0902
  0
VERTEX
  8
LAYER_1
 10
223.2025
 20
171.1748
  0
VERTEX
  8
LAYER_1
 10
223.2872
 20
171.1748
  0
VERTEX
  8
LAYER_1
 10
223.2872
 20
171.2595
  0
VERTEX
  8
LAYER_1
 10
223.3718
 20
171.2595
  0
VERTEX
  8
LAYER_1
 10
223.4565
 20
171.2595
  0
VERTEX
  8
LAYER_1
 10
223.5412
 20
171.2595
  0
VERTEX
  8
LAYER_1
 10
223.6258
 20
171.2595
  0
VERTEX
  8
LAYER_1
 10
223.6258
 20
171.1748
  0
VERTEX
  8
LAYER_1
 10
223.7105
 20
171.1748
  0
VERTEX
  8
LAYER_1
 10
223.7105
 20
171.0902
  0
VERTEX
  8
LAYER_1
 10
223.7105
 20
171.0055
  0
VERTEX
  8
LAYER_1
 10
223.7105
 20
170.9208
  0
VERTEX
  8
LAYER_1
 10
223.6258
 20
170.9208
  0
VERTEX
  8
LAYER_1
 10
223.6258
 20
170.8362
  0
VERTEX
  8
LAYER_1
 10
223.5412
 20
170.8362
  0
SEQEND
  0
POLYLINE
  8
LAYER_1
 40
0.0847
 41
0.0847
 66
1
 10
0
 20
0
 30
0
 70
1
  0
VERTEX
  8
LAYER_1
 10
223.4777
 20
170.815
  0
VERTEX
  8
LAYER_1
 10
223.393
 20
170.815
  0
VERTEX
  8
LAYER_1
 10
223.3083
 20
170.815
  0
VERTEX
  8
LAYER_1
 10
223.3083
 20
170.8997
  0
VERTEX
  8
LAYER_1
 10
223.2237
 20
170.8997
  0
VERTEX
  8
LAYER_1
 10
223.2237
 20
170.9843
  0
VERTEX
  8
LAYER_1
 10
223.2237
 20
171.069
  0
VERTEX
  8
LAYER_1
 10
223.2237
 20
171.1537
  0
VERTEX
  8
LAYER_1
 10
223.3083
 20
171.1537
  0
VERTEX
  8
LAYER_1
 10
223.3083
 20
171.2383
  0
VERTEX
  8
LAYER_1
 10
223.393
 20
171.2383
  0
VERTEX
  8
LAYER_1
 10
223.4777
 20
171.2383
  0
VERTEX
  8
LAYER_1
 10
223.5623
 20
171.2383
  0
VERTEX
  8
LAYER_1
 10
223.647
 20
171.2383
  0
VERTEX
  8
LAYER_1
 10
223.647
 20
171.1537
  0
VERTEX
  8
LAYER_1
 10
223.7316
 20
171.1537
  0
VERTEX
  8
LAYER_1
 10
223.7316
 20
171.069
  0
VERTEX
  8
LAYER_1
 10
223.7316
 20
170.9843
  0
VERTEX
  8
LAYER_1
 10
223.7316
 20
170.8997
  0
VERTEX
  8
LAYER_1
 10
223.647
 20
170.8997
  0
VERTEX
  8
LAYER_1
 10
223.647
 20
170.815
  0
VERTEX
  8
LAYER_1
 10
223.5623
 20
170.815
  0
SEQEND
  0
POLYLINE
  8
LAYER_1
 40
0.1764
 41
0.1764
 66
1
 10
0
 20
0
 30
0
 70
1
  0
VERTEX
  8
LAYER_1
 10
223.4777
 20
165.0577
  0
VERTEX
  8
LAYER_1
 10
223.5623
 20
165.0577
  0
VERTEX
  8
LAYER_1
 10
223.647
 20
165.0577
  0
VERTEX
  8
LAYER_1
 10
223.647
 20
164.973
  0
VERTEX
  8
LAYER_1
 10
223.7316
 20
164.973
  0
VERTEX
  8
LAYER_1
 10
223.7316
 20
164.8883
  0
VERTEX
  8
LAYER_1
 10
223.7316
 20
164.8037
  0
VERTEX
  8
LAYER_1
 10
223.7316
 20
164.719
  0
VERTEX
  8
LAYER_1
 10
223.647
 20
164.6343
  0
VERTEX
  8
LAYER_1
 10
223.5623
 20
164.6343
  0
VERTEX
  8
LAYER_1
 10
223.5623
 20
164.5497
  0
VERTEX
  8
LAYER_1
 10
223.4777
 20
164.5497
  0
VERTEX
  8
LAYER_1
 10
223.393
 20
164.5497
  0
VERTEX
  8
LAYER_1
 10
223.393
 20
164.6343
  0
VERTEX
  8
LAYER_1
 10
223.3083
 20
164.6343
  0
VERTEX
  8
LAYER_1
 10
223.3083
 20
164.719
  0
VERTEX
  8
LAYER_1
 10
223.2237
 20
164.719
  0
VERTEX
  8
LAYER_1
 10
223.2237
 20
164.8037
  0
VERTEX
  8
LAYER_1
 10
223.2237
 20
164.8883
  0
VERTEX
  8
LAYER_1
 10
223.2237
 20
164.973
  0
VERTEX
  8
LAYER_1
 10
223.3083
 20
164.973
  0
VERTEX
  8
LAYER_1
 10
223.3083
 20
165.0577
  0
VERTEX
  8
LAYER_1
 10
223.393
 20
165.0577
  0
SEQEND
  0
POLYLINE
  8
LAYER_1
 40
0.05
 41
0.05
 66
1
 10
0
 20
0
 30
0
 70
1
  0
VERTEX
  8
LAYER_1
 10
223.4565
 20
165.0788
  0
VERTEX
  8
LAYER_1
 10
223.5412
 20
165.0788
  0
VERTEX
  8
LAYER_1
 10
223.6258
 20
165.0788
  0
VERTEX
  8
LAYER_1
 10
223.6258
 20
164.9942
  0
VERTEX
  8
LAYER_1
 10
223.7105
 20
164.9942
  0
VERTEX
  8
LAYER_1
 10
223.7105
 20
164.9095
  0
VERTEX
  8
LAYER_1
 10
223.7105
 20
164.8248
  0
VERTEX
  8
LAYER_1
 10
223.7105
 20
164.7402
  0
VERTEX
  8
LAYER_1
 10
223.6258
 20
164.6555
  0
VERTEX
  8
LAYER_1
 10
223.5412
 20
164.6555
  0
VERTEX
  8
LAYER_1
 10
223.5412
 20
164.5708
  0
VERTEX
  8
LAYER_1
 10
223.4565
 20
164.5708
  0
VERTEX
  8
LAYER_1
 10
223.3718
 20
164.5708
  0
VERTEX
  8
LAYER_1
 10
223.3718
 20
164.6555
  0
VERTEX
  8
LAYER_1
 10
223.2872
 20
164.6555
  0
VERTEX
  8
LAYER_1
 10
223.2872
 20
164.7402
  0
VERTEX
  8
LAYER_1
 10
223.2025
 20
164.7402
  0
VERTEX
  8
LAYER_1
 10
223.2025
 20
164.8248
  0
VERTEX
  8
LAYER_1
 10
223.2025
 20
164.9095
  0
VERTEX
  8
LAYER_1
 10
223.2025
 20
164.9942
  0
VERTEX
  8
LAYER_1
 10
223.2872
 20
164.9942
  0
VERTEX
  8
LAYER_1
 10
223.2872
 20
165.0788
  0
VERTEX
  8
LAYER_1
 10
223.3718
 20
165.0788
  0
SEQEND
  0
POLYLINE
  8
LAYER_1
 40
0.0847
 41
0.0847
 66
1
 10
0
 20
0
 30
0
 70
1
  0
VERTEX
  8
LAYER_1
 10
223.4777
 20
165.0577
  0
VERTEX
  8
LAYER_1
 10
223.5623
 20
165.0577
  0
VERTEX
  8
LAYER_1
 10
223.647
 20
165.0577
  0
VERTEX
  8
LAYER_1
 10
223.647
 20
164.973
  0
VERTEX
  8
LAYER_1
 10
223.7316
 20
164.973
  0
VERTEX
  8
LAYER_1
 10
223.7316
 20
164.8883
  0
VERTEX
  8
LAYER_1
 10
223.7316
 20
164.8037
  0
VERTEX
  8
LAYER_1
 10
223.7316
 20
164.719
  0
VERTEX
  8
LAYER_1
 10
223.647
 20
164.6343
  0
VERTEX
  8
LAYER_1
 10
223.5623
 20
164.6343
  0
VERTEX
  8
LAYER_1
 10
223.5623
 20
164.5497
  0
VERTEX
  8
LAYER_1
 10
223.4777
 20
164.5497
  0
VERTEX
  8
LAYER_1
 10
223.393
 20
164.5497
  0
VERTEX
  8
LAYER_1
 10
223.393
 20
164.6343
  0
VERTEX
  8
LAYER_1
 10
223.3083
 20
164.6343
  0
VERTEX
  8
LAYER_1
 10
223.3083
 20
164.719
  0
VERTEX
  8
LAYER_1
 10
223.2237
 20
164.719
  0
VERTEX
  8
LAYER_1
 10
223.2237
 20
164.8037
  0
VERTEX
  8
LAYER_1
 10
223.2237
 20
164.8883
  0
VERTEX
  8
LAYER_1
 10
223.2237
 20
164.973
  0
VERTEX
  8
LAYER_1
 10
223.3083
 20
164.973
  0
VERTEX
  8
LAYER_1
 10
223.3083
 20
165.0577
  0
VERTEX
  8
LAYER_1
 10
223.393
 20
165.0577
  0
SEQEND
  0
POLYLINE
  8
LAYER_1
 40
0.05
 41
0.05
 62
255
 66
1
 10
0
 20
0
 30
0
 70
1
  0
VERTEX
  8
LAYER_1
 10
219.0538
 20
166.3488
  0
VERTEX
  8
LAYER_1
 10
219.0538
 20
169.4815
  0
VERTEX
  8
LAYER_1
 10
222.2712
 20
169.4815
  0
VERTEX
  8
LAYER_1
 10
222.2712
 20
166.3488
  0
SEQEND
  0
TEXT
  8
LAYER_1
 10
221.7263
 20
166.3277
 11
221.7263
 21
166.3277
 40
3.4028
 41
0.5
 50
89.99999999
  1
31
  0
POLYLINE
  8
LAYER_1
 40
0.1764
 41
0.1764
 66
1
 10
0
 20
0
 30
0
  0
VERTEX
  8
LAYER_1
 10
216.1117
 20
96.393
  0
VERTEX
  8
LAYER_1
 10
223.4777
 20
96.393
  0
SEQEND
  0
POLYLINE
  8
LAYER_1
 40
0.1764
 41
0.1764
 66
1
 10
0
 20
0
 30
0
  0
VERTEX
  8
LAYER_1
 10
216.1117
 20
95.0383
  0
VERTEX
  8
LAYER_1
 10
223.4777
 20
95.0383
  0
SEQEND
  0
POLYLINE
  8
LAYER_1
 40
0.1764
 41
0.1764
 66
1
 10
0
 20
0
 30
0
  0
VERTEX
  8
LAYER_1
 10
223.4777
 20
96.393
  0
VERTEX
  8
LAYER_1
 10
223.4777
 20
95.0383
  0
SEQEND
  0
POLYLINE
  8
LAYER_1
 40
0.1764
 41
0.1764
 66
1
 10
0
 20
0
 30
0
 70
1
  0
VERTEX
  8
LAYER_1
 10
223.4777
 20
96.139
  0
VERTEX
  8
LAYER_1
 10
223.4777
 20
96.2237
  0
VERTEX
  8
LAYER_1
 10
223.393
 20
96.2237
  0
VERTEX
  8
LAYER_1
 10
223.3083
 20
96.2237
  0
VERTEX
  8
LAYER_1
 10
223.3083
 20
96.3083
  0
VERTEX
  8
LAYER_1
 10
223.2237
 20
96.3083
  0
VERTEX
  8
LAYER_1
 10
223.2237
 20
96.393
  0
VERTEX
  8
LAYER_1
 10
223.2237
 20
96.4777
  0
VERTEX
  8
LAYER_1
 10
223.2237
 20
96.5623
  0
VERTEX
  8
LAYER_1
 10
223.3083
 20
96.5623
  0
VERTEX
  8
LAYER_1
 10
223.3083
 20
96.647
  0
VERTEX
  8
LAYER_1
 10
223.393
 20
96.647
  0
VERTEX
  8
LAYER_1
 10
223.4777
 20
96.647
  0
VERTEX
  8
LAYER_1
 10
223.5623
 20
96.647
  0
VERTEX
  8
LAYER_1
 10
223.647
 20
96.647
  0
VERTEX
  8
LAYER_1
 10
223.647
 20
96.5623
  0
VERTEX
  8
LAYER_1
 10
223.7316
 20
96.5623
  0
VERTEX
  8
LAYER_1
 10
223.7316
 20
96.4777
  0
VERTEX
  8
LAYER_1
 10
223.7316
 20
96.393
  0
VERTEX
  8
LAYER_1
 10
223.7316
 20
96.3083
  0
VERTEX
  8
LAYER_1
 10
223.647
 20
96.3083
  0
VERTEX
  8
LAYER_1
 10
223.647
 20
96.2237
  0
VERTEX
  8
LAYER_1
 10
223.5623
 20
96.2237
  0
SEQEND
  0
POLYLINE
  8
LAYER_1
 40
0.05
 41
0.05
 66
1
 10
0
 20
0
 30
0
 70
1
  0
VERTEX
  8
LAYER_1
 10
223.4565
 20
96.1602
  0
VERTEX
  8
LAYER_1
 10
223.4565
 20
96.2448
  0
VERTEX
  8
LAYER_1
 10
223.3718
 20
96.2448
  0
VERTEX
  8
LAYER_1
 10
223.2872
 20
96.2448
  0
VERTEX
  8
LAYER_1
 10
223.2872
 20
96.3295
  0
VERTEX
  8
LAYER_1
 10
223.2025
 20
96.3295
  0
VERTEX
  8
LAYER_1
 10
223.2025
 20
96.4142
  0
VERTEX
  8
LAYER_1
 10
223.2025
 20
96.4988
  0
VERTEX
  8
LAYER_1
 10
223.2025
 20
96.5835
  0
VERTEX
  8
LAYER_1
 10
223.2872
 20
96.5835
  0
VERTEX
  8
LAYER_1
 10
223.2872
 20
96.6682
  0
VERTEX
  8
LAYER_1
 10
223.3718
 20
96.6682
  0
VERTEX
  8
LAYER_1
 10
223.4565
 20
96.6682
  0
VERTEX
  8
LAYER_1
 10
223.5412
 20
96.6682
  0
VERTEX
  8
LAYER_1
 10
223.6258
 20
96.6682
  0
VERTEX
  8
LAYER_1
 10
223.6258
 20
96.5835
  0
VERTEX
  8
LAYER_1
 10
223.7105
 20
96.5835
  0
VERTEX
  8
LAYER_1
 10
223.7105
 20
96.4988
  0
VERTEX
  8
LAYER_1
 10
223.7105
 20
96.4142
  0
VERTEX
  8
LAYER_1
 10
223.7105
 20
96.3295
  0
VERTEX
  8
LAYER_1
 10
223.6258
 20
96.3295
  0
VERTEX
  8
LAYER_1
 10
223.6258
 20
96.2448
  0
VERTEX
  8
LAYER_1
 10
223.5412
 20
96.2448
  0
SEQEND
  0
POLYLINE
  8
LAYER_1
 40
0.0847
 41
0.0847
 66
1
 10
0
 20
0
 30
0
 70
1
  0
VERTEX
  8
LAYER_1
 10
223.4777
 20
96.139
  0
VERTEX
  8
LAYER_1
 10
223.4777
 20
96.2237
  0
VERTEX
  8
LAYER_1
 10
223.393
 20
96.2237
  0
VERTEX
  8
LAYER_1
 10
223.3083
 20
96.2237
  0
VERTEX
  8
LAYER_1
 10
223.3083
 20
96.3083
  0
VERTEX
  8
LAYER_1
 10
223.2237
 20
96.3083
  0
VERTEX
  8
LAYER_1
 10
223.2237
 20
96.393
  0
VERTEX
  8
LAYER_1
 10
223.2237
 20
96.4777
  0
VERTEX
  8
LAYER_1
 10
223.2237
 20
96.5623
  0
VERTEX
  8
LAYER_1
 10
223.3083
 20
96.5623
  0
VERTEX
  8
LAYER_1
 10
223.3083
 20
96.647
  0
VERTEX
  8
LAYER_1
 10
223.393
 20
96.647
  0
VERTEX
  8
LAYER_1
 10
223.4777
 20
96.647
  0
VERTEX
  8
LAYER_1
 10
223.5623
 20
96.647
  0
VERTEX
  8
LAYER_1
 10
223.647
 20
96.647
  0
VERTEX
  8
LAYER_1
 10
223.647
 20
96.5623
  0
VERTEX
  8
LAYER_1
 10
223.7316
 20
96.5623
  0
VERTEX
  8
LAYER_1
 10
223.7316
 20
96.4777
  0
VERTEX
  8
LAYER_1
 10
223.7316
 20
96.393
  0
VERTEX
  8
LAYER_1
 10
223.7316
 20
96.3083
  0
VERTEX
  8
LAYER_1
 10
223.647
 20
96.3083
  0
VERTEX
  8
LAYER_1
 10
223.647
 20
96.2237
  0
VERTEX
  8
LAYER_1
 10
223.5623
 20
96.2237
  0
SEQEND
  0
POLYLINE
  8
LAYER_1
 40
0.1764
 41
0.1764
 66
1
 10
0
 20
0
 30
0
 70
1
  0
VERTEX
  8
LAYER_1
 10
223.4777
 20
95.2923
  0
VERTEX
  8
LAYER_1
 10
223.5623
 20
95.2923
  0
VERTEX
  8
LAYER_1
 10
223.647
 20
95.2923
  0
VERTEX
  8
LAYER_1
 10
223.647
 20
95.2077
  0
VERTEX
  8
LAYER_1
 10
223.7316
 20
95.2077
  0
VERTEX
  8
LAYER_1
 10
223.7316
 20
95.123
  0
VERTEX
  8
LAYER_1
 10
223.7316
 20
95.0383
  0
VERTEX
  8
LAYER_1
 10
223.7316
 20
94.9537
  0
VERTEX
  8
LAYER_1
 10
223.7316
 20
94.869
  0
VERTEX
  8
LAYER_1
 10
223.647
 20
94.869
  0
VERTEX
  8
LAYER_1
 10
223.647
 20
94.7843
  0
VERTEX
  8
LAYER_1
 10
223.5623
 20
94.7843
  0
VERTEX
  8
LAYER_1
 10
223.4777
 20
94.7843
  0
VERTEX
  8
LAYER_1
 10
223.393
 20
94.7843
  0
VERTEX
  8
LAYER_1
 10
223.3083
 20
94.869
  0
VERTEX
  8
LAYER_1
 10
223.3083
 20
94.9537
  0
VERTEX
  8
LAYER_1
 10
223.2237
 20
94.9537
  0
VERTEX
  8
LAYER_1
 10
223.2237
 20
95.0383
  0
VERTEX
  8
LAYER_1
 10
223.2237
 20
95.123
  0
VERTEX
  8
LAYER_1
 10
223.3083
 20
95.123
  0
VERTEX
  8
LAYER_1
 10
223.3083
 20
95.2077
  0
VERTEX
  8
LAYER_1
 10
223.393
 20
95.2077
  0
VERTEX
  8
LAYER_1
 10
223.393
 20
95.2923
  0
SEQEND
  0
POLYLINE
  8
LAYER_1
 40
0.05
 41
0.05
 66
1
 10
0
 20
0
 30
0
 70
1
  0
VERTEX
  8
LAYER_1
 10
223.4565
 20
95.3135
  0
VERTEX
  8
LAYER_1
 10
223.5412
 20
95.3135
  0
VERTEX
  8
LAYER_1
 10
223.6258
 20
95.3135
  0
VERTEX
  8
LAYER_1
 10
223.6258
 20
95.2288
  0
VERTEX
  8
LAYER_1
 10
223.7105
 20
95.2288
  0
VERTEX
  8
LAYER_1
 10
223.7105
 20
95.1442
  0
VERTEX
  8
LAYER_1
 10
223.7105
 20
95.0595
  0
VERTEX
  8
LAYER_1
 10
223.7105
 20
94.9748
  0
VERTEX
  8
LAYER_1
 10
223.7105
 20
94.8902
  0
VERTEX
  8
LAYER_1
 10
223.6258
 20
94.8902
  0
VERTEX
  8
LAYER_1
 10
223.6258
 20
94.8055
  0
VERTEX
  8
LAYER_1
 10
223.5412
 20
94.8055
  0
VERTEX
  8
LAYER_1
 10
223.4565
 20
94.8055
  0
VERTEX
  8
LAYER_1
 10
223.3718
 20
94.8055
  0
VERTEX
  8
LAYER_1
 10
223.2872
 20
94.8902
  0
VERTEX
  8
LAYER_1
 10
223.2872
 20
94.9748
  0
VERTEX
  8
LAYER_1
 10
223.2025
 20
94.9748
  0
VERTEX
  8
LAYER_1
 10
223.2025
 20
95.0595
  0
VERTEX
  8
LAYER_1
 10
223.2025
 20
95.1442
  0
VERTEX
  8
LAYER_1
 10
223.2872
 20
95.1442
  0
VERTEX
  8
LAYER_1
 10
223.2872
 20
95.2288
  0
VERTEX
  8
LAYER_1
 10
223.3718
 20
95.2288
  0
VERTEX
  8
LAYER_1
 10
223.3718
 20
95.3135
  0
SEQEND
  0
POLYLINE
  8
LAYER_1
 40
0.0847
 41
0.0847
 66
1
 10
0
 20
0
 30
0
 70
1
  0
VERTEX
  8
LAYER_1
 10
223.4777
 20
95.2923
  0
VERTEX
  8
LAYER_1
 10
223.5623
 20
95.2923
  0
VERTEX
  8
LAYER_1
 10
223.647
 20
95.2923
  0
VERTEX
  8
LAYER_1
 10
223.647
 20
95.2077
  0
VERTEX
  8
LAYER_1
 10
223.7316
 20
95.2077
  0
VERTEX
  8
LAYER_1
 10
223.7316
 20
95.123
  0
VERTEX
  8
LAYER_1
 10
223.7316
 20
95.0383
  0
VERTEX
  8
LAYER_1
 10
223.7316
 20
94.9537
  0
VERTEX
  8
LAYER_1
 10
223.7316
 20
94.869
  0
VERTEX
  8
LAYER_1
 10
223.647
 20
94.869
  0
VERTEX
  8
LAYER_1
 10
223.647
 20
94.7843
  0
VERTEX
  8
LAYER_1
 10
223.5623
 20
94.7843
  0
VERTEX
  8
LAYER_1
 10
223.4777
 20
94.7843
  0
VERTEX
  8
LAYER_1
 10
223.393
 20
94.7843
  0
VERTEX
  8
LAYER_1
 10
223.3083
 20
94.869
  0
VERTEX
  8
LAYER_1
 10
223.3083
 20
94.9537
  0
VERTEX
  8
LAYER_1
 10
223.2237
 20
94.9537
  0
VERTEX
  8
LAYER_1
 10
223.2237
 20
95.0383
  0
VERTEX
  8
LAYER_1
 10
223.2237
 20
95.123
  0
VERTEX
  8
LAYER_1
 10
223.3083
 20
95.123
  0
VERTEX
  8
LAYER_1
 10
223.3083
 20
95.2077
  0
VERTEX
  8
LAYER_1
 10
223.393
 20
95.2077
  0
VERTEX
  8
LAYER_1
 10
223.393
 20
95.2923
  0
SEQEND
  0
POLYLINE
  8
LAYER_1
 40
0.05
 41
0.05
 62
255
 66
1
 10
0
 20
0
 30
0
 70
1
  0
VERTEX
  8
LAYER_1
 10
219.0538
 20
94.9748
  0
VERTEX
  8
LAYER_1
 10
219.0538
 20
96.4988
  0
VERTEX
  8
LAYER_1
 10
222.2712
 20
96.4988
  0
VERTEX
  8
LAYER_1
 10
222.2712
 20
94.9748
  0
SEQEND
  0
TEXT
  8
LAYER_1
 10
221.7263
 20
94.9537
 11
221.7263
 21
94.9537
 40
3.4028
 41
0.5
 50
89.99999999
  1
7
  0
POLYLINE
  8
LAYER_1
 40
0.254
 41
0.254
 66
1
 10
0
 20
0
 30
0
  0
VERTEX
  8
LAYER_1
 10
3.1173
 20
26.564
  0
VERTEX
  8
LAYER_1
 10
417.095
 20
26.564
  0
SEQEND
  0
TEXT
  8
LAYER_1
 10
50.2808
 20
15.2382
 11
50.2808
 21
15.2382
 40
4.5833
 41
0.5
  1
ボヘミアンクリスタルミラー%%c700mm
  0
TEXT
  8
LAYER_1
 10
349.7475
 20
16.2496
 11
349.7475
 21
16.2496
 40
3.3848
 41
0.5
 62
29
  1
●TEL 0120-65-1232●FAX 06-6532-1580
  0
TEXT
  8
LAYER_1
 10
349.7475
 20
12.735
 11
349.7475
 21
12.735
 40
3.3848
 41
0.5
 62
29
  1
hits@hiratatile.co.jp
  0
INSERT
  8
LAYER_1
  2
AIGNBL01010002
 10
0
 20
0
 30
0
  0
TEXT
  8
LAYER_1
 10
50.3859
 20
8.4635
 11
50.3859
 21
8.4635
 40
4.6883
 41
0.5
 62
29
  1
SC-BMR-01
  0
ENDSEC
  0
EOF
