  0
SECTION
  2
HEADER
  9
$ACADVER
  1
AC1009
  9
$LUNITS
 70
2
  9
$LUPREC
 70
4
  9
$LTSCALE
 40
1.0
  9
$EXTMIN
 10
3.1173
 20
6.8623
 30
0
  9
$EXTMAX
 10
417.095
 20
245.3428
 30
0
  0
ENDSEC
  0
SECTION
  2
TABLES
  0
TABLE
  2
LTYPE
 70
256
  0
LTYPE
  2
AIGENLINE001
 70
64
  3
generate AI->DXF Converter
 72
65
 73
2
 40
2.032
 49
1.016
 49
-1.016
  0
ENDTAB
  0
TABLE
  2
LAYER
 70
1
  0
LAYER
  2
LAYER_1
 70
64
 62
7
  6
CONTINUOUS
  0
ENDTAB
  0
TABLE
  2
STYLE
 70
6
  0
STYLE
  2
STANDARD
 70
0
 40
0
 50
0
 71
0
 41
0
 42
0
  3
TXT
  4
BIGFONT
  0
ENDTAB
  0
ENDSEC
  0
SECTION
  2
BLOCKS
  0
BLOCK
  8
LAYER_1
  2
AIGNBL01040005
 70
64
 10
0
 20
0
 30
0
  3
AIGNBL01040005
  0
POLYLINE
  8
LAYER_1
 40
0.05
 41
0.05
 62
29
 66
1
 10
0
 20
0
 30
0
 70
1
  0
VERTEX
  8
LAYER_1
 10
320.4766
 20
15.8555
  0
VERTEX
  8
LAYER_1
 10
319.9877
 20
14.6704
  0
VERTEX
  8
LAYER_1
 10
319.3597
 20
14.6704
  0
VERTEX
  8
LAYER_1
 10
320.9592
 20
18.4363
  0
VERTEX
  8
LAYER_1
 10
321.6924
 20
18.4363
  0
VERTEX
  8
LAYER_1
 10
323.2988
 20
14.6704
  0
VERTEX
  8
LAYER_1
 10
322.6487
 20
14.6704
  0
VERTEX
  8
LAYER_1
 10
322.1461
 20
15.8555
  0
SEQEND
  0
POLYLINE
  8
LAYER_1
 40
0.05
 41
0.05
 62
29
 66
1
 10
0
 20
0
 30
0
 70
1
  0
VERTEX
  8
LAYER_1
 10
322.0203
 20
16.2345
  0
VERTEX
  8
LAYER_1
 10
321.5594
 20
17.3193
  0
VERTEX
  8
LAYER_1
 10
321.3147
 20
18.0063
  0
VERTEX
  8
LAYER_1
 10
321.301
 20
18.0063
  0
VERTEX
  8
LAYER_1
 10
321.0633
 20
17.3238
  0
VERTEX
  8
LAYER_1
 10
320.6027
 20
16.2345
  0
SEQEND
  0
ENDBLK
  0
BLOCK
  8
LAYER_1
  2
AIGNBL01040006
 70
64
 10
0
 20
0
 30
0
  3
AIGNBL01040006
  0
POLYLINE
  8
LAYER_1
 40
0.05
 41
0.05
 62
29
 66
1
 10
0
 20
0
 30
0
 70
1
  0
VERTEX
  8
LAYER_1
 10
327.6641
 20
14.1171
 42
-0.01562387181
  0
VERTEX
  8
LAYER_1
 10
325.8619
 20
14.5533
  0
VERTEX
  8
LAYER_1
 10
325.5753
 20
14.6087
 42
-0.08357116773
  0
VERTEX
  8
LAYER_1
 10
324.7113
 20
14.7749
 42
-0.09750805853
  0
VERTEX
  8
LAYER_1
 10
324.0501
 20
15.1809
 42
-0.2129055397
  0
VERTEX
  8
LAYER_1
 10
323.5014
 20
16.5136
 42
-0.09685143224
  0
VERTEX
  8
LAYER_1
 10
323.646
 20
17.287
 42
-0.2046325641
  0
VERTEX
  8
LAYER_1
 10
324.6935
 20
18.3112
 42
-0.09825434011
  0
VERTEX
  8
LAYER_1
 10
325.6945
 20
18.4976
 42
-0.08554836282
  0
VERTEX
  8
LAYER_1
 10
326.5631
 20
18.3563
 42
-0.1004347897
  0
VERTEX
  8
LAYER_1
 10
327.2282
 20
17.962
 42
-0.2140895568
  0
VERTEX
  8
LAYER_1
 10
327.8036
 20
16.5921
 42
-0.09540761417
  0
VERTEX
  8
LAYER_1
 10
327.6647
 20
15.8243
 42
-0.2143180113
  0
VERTEX
  8
LAYER_1
 10
326.6419
 20
14.8459
 42
-0.02339684384
  0
VERTEX
  8
LAYER_1
 10
326.4628
 20
14.7876
  0
VERTEX
  8
LAYER_1
 10
326.4628
 20
14.7652
 42
0.01715381139
  0
VERTEX
  8
LAYER_1
 10
327.8391
 20
14.525
  0
SEQEND
  0
POLYLINE
  8
LAYER_1
 40
0.05
 41
0.05
 62
29
 66
1
 10
0
 20
0
 30
0
 70
1
  0
VERTEX
  8
LAYER_1
 10
327.1614
 20
16.5707
 42
0.1071478063
  0
VERTEX
  8
LAYER_1
 10
327.0101
 20
17.2755
 42
0.29764763
  0
VERTEX
  8
LAYER_1
 10
325.6731
 20
18.1011
 42
0.1072381498
  0
VERTEX
  8
LAYER_1
 10
324.9833
 20
17.9616
 42
0.2386128144
  0
VERTEX
  8
LAYER_1
 10
324.1964
 20
16.9559
 42
0.05752200415
  0
VERTEX
  8
LAYER_1
 10
324.1508
 20
16.5259
 42
0.218096749
  0
VERTEX
  8
LAYER_1
 10
324.6814
 20
15.3305
 42
0.1772796408
  0
VERTEX
  8
LAYER_1
 10
325.6452
 20
15.0049
 42
0.1075185771
  0
VERTEX
  8
LAYER_1
 10
326.3266
 20
15.1439
 42
0.2370926009
  0
VERTEX
  8
LAYER_1
 10
327.1137
 20
16.1435
 42
0.05601310134
  0
SEQEND
  0
ENDBLK
  0
BLOCK
  8
LAYER_1
  2
AIGNBL01040007
 70
64
 10
0
 20
0
 30
0
  3
AIGNBL01040007
  0
POLYLINE
  8
LAYER_1
 40
0.05
 41
0.05
 62
29
 66
1
 10
0
 20
0
 30
0
 70
1
  0
VERTEX
  8
LAYER_1
 10
329.131
 20
18.4363
  0
VERTEX
  8
LAYER_1
 10
329.131
 20
16.2069
 42
0.1145199457
  0
VERTEX
  8
LAYER_1
 10
329.2649
 20
15.5411
 42
0.1464896694
  0
VERTEX
  8
LAYER_1
 10
329.6152
 20
15.1559
 42
0.1362580474
  0
VERTEX
  8
LAYER_1
 10
330.2276
 20
15.0049
 42
0.1219437831
  0
VERTEX
  8
LAYER_1
 10
330.8507
 20
15.1397
 42
0.1502873274
  0
VERTEX
  8
LAYER_1
 10
331.2225
 20
15.5087
 42
0.1256234729
  0
VERTEX
  8
LAYER_1
 10
331.3731
 20
16.2069
  0
VERTEX
  8
LAYER_1
 10
331.3731
 20
18.4363
  0
VERTEX
  8
LAYER_1
 10
331.9877
 20
18.4363
  0
VERTEX
  8
LAYER_1
 10
331.9877
 20
16.2403
 42
-0.09997895241
  0
VERTEX
  8
LAYER_1
 10
331.8528
 20
15.4976
 42
-0.1214934275
  0
VERTEX
  8
LAYER_1
 10
331.4795
 20
14.991
 42
-0.110620524
  0
VERTEX
  8
LAYER_1
 10
330.854
 20
14.6843
 42
-0.06129362553
  0
VERTEX
  8
LAYER_1
 10
330.2065
 20
14.6087
 42
-0.09420005614
  0
VERTEX
  8
LAYER_1
 10
329.3874
 20
14.7469
 42
-0.24315236
  0
VERTEX
  8
LAYER_1
 10
328.5839
 20
15.6576
 42
-0.0632033471
  0
VERTEX
  8
LAYER_1
 10
328.5164
 20
16.2183
  0
VERTEX
  8
LAYER_1
 10
328.5164
 20
18.4363
  0
SEQEND
  0
ENDBLK
  0
BLOCK
  8
LAYER_1
  2
AIGNBL01040008
 70
64
 10
0
 20
0
 30
0
  3
AIGNBL01040008
  0
POLYLINE
  8
LAYER_1
 40
0.05
 41
0.05
 62
29
 66
1
 10
0
 20
0
 30
0
 70
1
  0
VERTEX
  8
LAYER_1
 10
333.734
 20
15.8555
  0
VERTEX
  8
LAYER_1
 10
333.2448
 20
14.6704
  0
VERTEX
  8
LAYER_1
 10
332.6167
 20
14.6704
  0
VERTEX
  8
LAYER_1
 10
334.216
 20
18.4363
  0
VERTEX
  8
LAYER_1
 10
334.9491
 20
18.4363
  0
VERTEX
  8
LAYER_1
 10
336.5555
 20
14.6704
  0
VERTEX
  8
LAYER_1
 10
335.9061
 20
14.6704
  0
VERTEX
  8
LAYER_1
 10
335.4035
 20
15.8555
  0
SEQEND
  0
POLYLINE
  8
LAYER_1
 40
0.05
 41
0.05
 62
29
 66
1
 10
0
 20
0
 30
0
 70
1
  0
VERTEX
  8
LAYER_1
 10
335.2774
 20
16.2345
  0
VERTEX
  8
LAYER_1
 10
334.8161
 20
17.3193
  0
VERTEX
  8
LAYER_1
 10
334.5715
 20
18.0063
  0
VERTEX
  8
LAYER_1
 10
334.5577
 20
18.0063
  0
VERTEX
  8
LAYER_1
 10
334.3203
 20
17.3238
  0
VERTEX
  8
LAYER_1
 10
333.8594
 20
16.2345
  0
SEQEND
  0
ENDBLK
  0
BLOCK
  8
LAYER_1
  2
AIGNBL01040009
 70
64
 10
0
 20
0
 30
0
  3
AIGNBL01040009
  0
POLYLINE
  8
LAYER_1
 40
0.05
 41
0.05
 62
29
 66
1
 10
0
 20
0
 30
0
 70
1
  0
VERTEX
  8
LAYER_1
 10
337.5963
 20
18.3915
 42
-0.03240300255
  0
VERTEX
  8
LAYER_1
 10
338.7631
 20
18.4645
 42
-0.08082287254
  0
VERTEX
  8
LAYER_1
 10
339.7196
 20
18.3327
 42
-0.07816212749
  0
VERTEX
  8
LAYER_1
 10
340.0829
 20
18.1517
 42
-0.2483921074
  0
VERTEX
  8
LAYER_1
 10
340.4946
 20
17.3634
 42
-0.226147
  0
VERTEX
  8
LAYER_1
 10
340.1315
 20
16.5593
 42
-0.1097235065
  0
VERTEX
  8
LAYER_1
 10
339.5032
 20
16.246
 42
-0.06565761462
  0
VERTEX
  8
LAYER_1
 10
338.6929
 20
16.1456
 42
-0.06238970687
  0
VERTEX
  8
LAYER_1
 10
338.2043
 20
16.179
  0
VERTEX
  8
LAYER_1
 10
338.2043
 20
14.6704
  0
VERTEX
  8
LAYER_1
 10
337.5963
 20
14.6704
  0
SEQEND
  0
POLYLINE
  8
LAYER_1
 40
0.05
 41
0.05
 62
29
 66
1
 10
0
 20
0
 30
0
 70
1
  0
VERTEX
  8
LAYER_1
 10
338.2043
 20
16.5759
 42
0.04202964651
  0
VERTEX
  8
LAYER_1
 10
338.7066
 20
16.5366
 42
0.1032325703
  0
VERTEX
  8
LAYER_1
 10
339.4258
 20
16.6639
 42
0.1555838345
  0
VERTEX
  8
LAYER_1
 10
339.7906
 20
16.9684
 42
0.1352564048
  0
VERTEX
  8
LAYER_1
 10
339.8876
 20
17.3411
 42
0.1737047371
  0
VERTEX
  8
LAYER_1
 10
339.7528
 20
17.7484
 42
0.1517050813
  0
VERTEX
  8
LAYER_1
 10
339.3317
 20
18.0079
 42
0.06879756253
  0
VERTEX
  8
LAYER_1
 10
338.7772
 20
18.0787
 42
0.06317907604
  0
VERTEX
  8
LAYER_1
 10
338.2043
 20
18.0394
  0
SEQEND
  0
ENDBLK
  0
BLOCK
  8
LAYER_1
  2
AIGNBL0104000A
 70
64
 10
0
 20
0
 30
0
  3
AIGNBL0104000A
  0
POLYLINE
  8
LAYER_1
 40
0.05
 41
0.05
 62
29
 66
1
 10
0
 20
0
 30
0
 70
1
  0
VERTEX
  8
LAYER_1
 10
342.0466
 20
18.1345
 42
-0.2767830485
  0
VERTEX
  8
LAYER_1
 10
341.9071
 20
17.8944
 42
-0.1265113161
  0
VERTEX
  8
LAYER_1
 10
341.655
 20
17.8327
 42
-0.2237303387
  0
VERTEX
  8
LAYER_1
 10
341.3446
 20
17.9651
 42
-0.1708347924
  0
VERTEX
  8
LAYER_1
 10
341.2846
 20
18.1345
 42
-0.2643957951
  0
VERTEX
  8
LAYER_1
 10
341.434
 20
18.3815
 42
-0.1289907874
  0
VERTEX
  8
LAYER_1
 10
341.6687
 20
18.4414
 42
-0.2252979244
  0
VERTEX
  8
LAYER_1
 10
341.9855
 20
18.3108
 42
-0.1691669651
  0
SEQEND
  0
POLYLINE
  8
LAYER_1
 40
0.05
 41
0.05
 62
29
 66
1
 10
0
 20
0
 30
0
 70
1
  0
VERTEX
  8
LAYER_1
 10
341.3611
 20
14.6704
  0
VERTEX
  8
LAYER_1
 10
341.3611
 20
17.3745
  0
VERTEX
  8
LAYER_1
 10
341.9757
 20
17.3745
  0
VERTEX
  8
LAYER_1
 10
341.9757
 20
14.6704
  0
SEQEND
  0
ENDBLK
  0
BLOCK
  8
LAYER_1
  2
AIGNBL0104000B
 70
64
 10
0
 20
0
 30
0
  3
AIGNBL0104000B
  0
POLYLINE
  8
LAYER_1
 40
0.05
 41
0.05
 62
29
 66
1
 10
0
 20
0
 30
0
 70
1
  0
VERTEX
  8
LAYER_1
 10
343.8474
 20
15.8555
  0
VERTEX
  8
LAYER_1
 10
343.3592
 20
14.6704
  0
VERTEX
  8
LAYER_1
 10
342.7301
 20
14.6704
  0
VERTEX
  8
LAYER_1
 10
344.3297
 20
18.4363
  0
VERTEX
  8
LAYER_1
 10
345.0635
 20
18.4363
  0
VERTEX
  8
LAYER_1
 10
346.67
 20
14.6704
  0
VERTEX
  8
LAYER_1
 10
346.0202
 20
14.6704
  0
VERTEX
  8
LAYER_1
 10
345.5176
 20
15.8555
  0
SEQEND
  0
POLYLINE
  8
LAYER_1
 40
0.05
 41
0.05
 62
29
 66
1
 10
0
 20
0
 30
0
 70
1
  0
VERTEX
  8
LAYER_1
 10
345.3915
 20
16.2345
  0
VERTEX
  8
LAYER_1
 10
344.9305
 20
17.3193
  0
VERTEX
  8
LAYER_1
 10
344.6866
 20
18.0063
  0
VERTEX
  8
LAYER_1
 10
344.6718
 20
18.0063
  0
VERTEX
  8
LAYER_1
 10
344.4348
 20
17.3238
  0
VERTEX
  8
LAYER_1
 10
343.9738
 20
16.2345
  0
SEQEND
  0
ENDBLK
  0
BLOCK
  8
LAYER_1
  2
AIGNBL01030004
 70
64
 10
0
 20
0
 30
0
  3
AIGNBL01030004
  0
INSERT
  8
LAYER_1
  2
AIGNBL01040005
 10
0
 20
0
 30
0
  0
INSERT
  8
LAYER_1
  2
AIGNBL01040006
 10
0
 20
0
 30
0
  0
INSERT
  8
LAYER_1
  2
AIGNBL01040007
 10
0
 20
0
 30
0
  0
INSERT
  8
LAYER_1
  2
AIGNBL01040008
 10
0
 20
0
 30
0
  0
INSERT
  8
LAYER_1
  2
AIGNBL01040009
 10
0
 20
0
 30
0
  0
INSERT
  8
LAYER_1
  2
AIGNBL0104000A
 10
0
 20
0
 30
0
  0
INSERT
  8
LAYER_1
  2
AIGNBL0104000B
 10
0
 20
0
 30
0
  0
ENDBLK
  0
BLOCK
  8
LAYER_1
  2
AIGNBL0103000D
 70
64
 10
0
 20
0
 30
0
  3
AIGNBL0103000D
  0
POLYLINE
  8
LAYER_1
 40
0.05
 41
0.05
 62
29
 66
1
 10
0
 20
0
 30
0
 70
1
  0
VERTEX
  8
LAYER_1
 10
319.4696
 20
12.7711
  0
VERTEX
  8
LAYER_1
 10
320.0228
 20
12.7711
  0
VERTEX
  8
LAYER_1
 10
320.0228
 20
12.6774
  0
VERTEX
  8
LAYER_1
 10
319.3645
 20
12.6774
  0
VERTEX
  8
LAYER_1
 10
319.3645
 20
13.7106
  0
VERTEX
  8
LAYER_1
 10
320.0053
 20
13.7106
  0
VERTEX
  8
LAYER_1
 10
320.0053
 20
13.6172
  0
VERTEX
  8
LAYER_1
 10
319.4696
 20
13.6172
  0
VERTEX
  8
LAYER_1
 10
319.4696
 20
13.2627
  0
VERTEX
  8
LAYER_1
 10
319.9701
 20
13.2627
  0
VERTEX
  8
LAYER_1
 10
319.9701
 20
13.1694
  0
VERTEX
  8
LAYER_1
 10
319.4696
 20
13.1694
  0
SEQEND
  0
ENDBLK
  0
BLOCK
  8
LAYER_1
  2
AIGNBL0103000E
 70
64
 10
0
 20
0
 30
0
  3
AIGNBL0103000E
  0
POLYLINE
  8
LAYER_1
 40
0.05
 41
0.05
 62
29
 66
1
 10
0
 20
0
 30
0
 70
1
  0
VERTEX
  8
LAYER_1
 10
321.1625
 20
12.8307
  0
VERTEX
  8
LAYER_1
 10
321.1652
 20
12.8307
  0
VERTEX
  8
LAYER_1
 10
321.1652
 20
13.7106
  0
VERTEX
  8
LAYER_1
 10
321.2703
 20
13.7106
  0
VERTEX
  8
LAYER_1
 10
321.2703
 20
12.6774
  0
VERTEX
  8
LAYER_1
 10
321.1394
 20
12.6774
  0
VERTEX
  8
LAYER_1
 10
320.5382
 20
13.5663
  0
VERTEX
  8
LAYER_1
 10
320.5348
 20
13.5663
  0
VERTEX
  8
LAYER_1
 10
320.5348
 20
12.6774
  0
VERTEX
  8
LAYER_1
 10
320.43
 20
12.6774
  0
VERTEX
  8
LAYER_1
 10
320.43
 20
13.7106
  0
VERTEX
  8
LAYER_1
 10
320.5613
 20
13.7106
  0
SEQEND
  0
ENDBLK
  0
BLOCK
  8
LAYER_1
  2
AIGNBL0103000F
 70
64
 10
0
 20
0
 30
0
  3
AIGNBL0103000F
  0
POLYLINE
  8
LAYER_1
 40
0.05
 41
0.05
 62
29
 66
1
 10
0
 20
0
 30
0
 70
1
  0
VERTEX
  8
LAYER_1
 10
321.7433
 20
12.8893
  0
VERTEX
  8
LAYER_1
 10
321.7978
 20
12.7863
 42
0.1809219053
  0
VERTEX
  8
LAYER_1
 10
321.9111
 20
12.7446
  0
VERTEX
  8
LAYER_1
 10
322.0003
 20
12.7642
  0
VERTEX
  8
LAYER_1
 10
322.0565
 20
12.8176
  0
VERTEX
  8
LAYER_1
 10
322.0854
 20
12.8941
  0
VERTEX
  8
LAYER_1
 10
322.0937
 20
12.9837
  0
VERTEX
  8
LAYER_1
 10
322.0937
 20
13.7106
  0
VERTEX
  8
LAYER_1
 10
322.1988
 20
13.7106
  0
VERTEX
  8
LAYER_1
 10
322.1988
 20
12.9751
  0
VERTEX
  8
LAYER_1
 10
322.1874
 20
12.8672
  0
VERTEX
  8
LAYER_1
 10
322.1461
 20
12.7622
  0
VERTEX
  8
LAYER_1
 10
322.0613
 20
12.6826
  0
VERTEX
  8
LAYER_1
 10
321.9225
 20
12.6512
 42
-0.1846674817
  0
VERTEX
  8
LAYER_1
 10
321.7378
 20
12.7112
 42
-0.1765293084
  0
VERTEX
  8
LAYER_1
 10
321.6455
 20
12.8628
  0
SEQEND
  0
ENDBLK
  0
BLOCK
  8
LAYER_1
  2
AIGNBL01030010
 70
64
 10
0
 20
0
 30
0
  3
AIGNBL01030010
  0
POLYLINE
  8
LAYER_1
 40
0.05
 41
0.05
 62
29
 66
1
 10
0
 20
0
 30
0
 70
1
  0
VERTEX
  8
LAYER_1
 10
323.6871
 20
13.1942
 42
-0.1037038216
  0
VERTEX
  8
LAYER_1
 10
323.646
 20
12.9768
 42
-0.1002458474
  0
VERTEX
  8
LAYER_1
 10
323.5334
 20
12.8052
  0
VERTEX
  8
LAYER_1
 10
323.3625
 20
12.6922
 42
-0.09506675375
  0
VERTEX
  8
LAYER_1
 10
323.1486
 20
12.6512
 42
-0.1010866674
  0
VERTEX
  8
LAYER_1
 10
322.935
 20
12.6922
 42
-0.1000561267
  0
VERTEX
  8
LAYER_1
 10
322.7641
 20
12.8052
 42
-0.09479293922
  0
VERTEX
  8
LAYER_1
 10
322.6508
 20
12.9768
 42
-0.09316534225
  0
VERTEX
  8
LAYER_1
 10
322.6101
 20
13.1942
 42
-0.1027149125
  0
VERTEX
  8
LAYER_1
 10
322.6508
 20
13.4116
 42
-0.1007559602
  0
VERTEX
  8
LAYER_1
 10
322.7641
 20
13.5831
 42
-0.09634037191
  0
VERTEX
  8
LAYER_1
 10
322.935
 20
13.6961
 42
-0.09532420784
  0
VERTEX
  8
LAYER_1
 10
323.1486
 20
13.7371
 42
-0.1018017754
  0
VERTEX
  8
LAYER_1
 10
323.3625
 20
13.6961
 42
-0.09904976341
  0
VERTEX
  8
LAYER_1
 10
323.5334
 20
13.5831
 42
-0.09543199427
  0
VERTEX
  8
LAYER_1
 10
323.646
 20
13.4116
 42
-0.09417236148
  0
SEQEND
  0
POLYLINE
  8
LAYER_1
 40
0.05
 41
0.05
 62
29
 66
1
 10
0
 20
0
 30
0
 70
1
  0
VERTEX
  8
LAYER_1
 10
323.5761
 20
13.1935
  0
VERTEX
  8
LAYER_1
 10
323.5472
 20
13.3654
  0
VERTEX
  8
LAYER_1
 10
323.4624
 20
13.5087
  0
VERTEX
  8
LAYER_1
 10
323.3274
 20
13.6069
  0
VERTEX
  8
LAYER_1
 10
323.1486
 20
13.6438
 42
0.1146758138
  0
VERTEX
  8
LAYER_1
 10
322.9698
 20
13.6069
  0
VERTEX
  8
LAYER_1
 10
322.8351
 20
13.5087
  0
VERTEX
  8
LAYER_1
 10
322.7503
 20
13.3654
  0
VERTEX
  8
LAYER_1
 10
322.7211
 20
13.1935
  0
VERTEX
  8
LAYER_1
 10
322.7503
 20
13.0216
  0
VERTEX
  8
LAYER_1
 10
322.8351
 20
12.8786
  0
VERTEX
  8
LAYER_1
 10
322.9698
 20
12.7811
 42
0.1008280473
  0
VERTEX
  8
LAYER_1
 10
323.1486
 20
12.7446
  0
VERTEX
  8
LAYER_1
 10
323.3274
 20
12.7811
  0
VERTEX
  8
LAYER_1
 10
323.4624
 20
12.8786
  0
VERTEX
  8
LAYER_1
 10
323.5472
 20
13.0216
  0
SEQEND
  0
ENDBLK
  0
BLOCK
  8
LAYER_1
  2
AIGNBL01030011
 70
64
 10
0
 20
0
 30
0
  3
AIGNBL01030011
  0
POLYLINE
  8
LAYER_1
 40
0.05
 41
0.05
 62
29
 66
1
 10
0
 20
0
 30
0
 70
1
  0
VERTEX
  8
LAYER_1
 10
324.4618
 20
12.6774
  0
VERTEX
  8
LAYER_1
 10
324.3571
 20
12.6774
  0
VERTEX
  8
LAYER_1
 10
324.3571
 20
13.1229
  0
VERTEX
  8
LAYER_1
 10
323.9702
 20
13.7106
  0
VERTEX
  8
LAYER_1
 10
324.1015
 20
13.7106
  0
VERTEX
  8
LAYER_1
 10
324.4126
 20
13.2104
  0
VERTEX
  8
LAYER_1
 10
324.7261
 20
13.7106
  0
VERTEX
  8
LAYER_1
 10
324.8484
 20
13.7106
  0
VERTEX
  8
LAYER_1
 10
324.4618
 20
13.1229
  0
SEQEND
  0
ENDBLK
  0
BLOCK
  8
LAYER_1
  2
AIGNBL01030012
 70
64
 10
0
 20
0
 30
0
  3
AIGNBL01030012
  0
POLYLINE
  8
LAYER_1
 40
0.05
 41
0.05
 62
29
 66
1
 10
0
 20
0
 30
0
 70
1
  0
VERTEX
  8
LAYER_1
 10
325.7534
 20
13.7106
  0
VERTEX
  8
LAYER_1
 10
326.061
 20
13.7106
  0
VERTEX
  8
LAYER_1
 10
326.1796
 20
13.6982
  0
VERTEX
  8
LAYER_1
 10
326.2864
 20
13.6558
  0
VERTEX
  8
LAYER_1
 10
326.3642
 20
13.5749
  0
VERTEX
  8
LAYER_1
 10
326.3939
 20
13.4467
 42
-0.1787887146
  0
VERTEX
  8
LAYER_1
 10
326.3439
 20
13.3044
 42
-0.1639171028
  0
VERTEX
  8
LAYER_1
 10
326.2106
 20
13.2249
  0
VERTEX
  8
LAYER_1
 10
326.2106
 20
13.2221
 42
-0.1735745096
  0
VERTEX
  8
LAYER_1
 10
326.3773
 20
13.1439
 42
-0.1923137572
  0
VERTEX
  8
LAYER_1
 10
326.4435
 20
12.9634
  0
VERTEX
  8
LAYER_1
 10
326.4163
 20
12.8463
  0
VERTEX
  8
LAYER_1
 10
326.3401
 20
12.7556
  0
VERTEX
  8
LAYER_1
 10
326.2192
 20
12.6981
  0
VERTEX
  8
LAYER_1
 10
326.0594
 20
12.6774
  0
VERTEX
  8
LAYER_1
 10
325.7534
 20
12.6774
  0
SEQEND
  0
POLYLINE
  8
LAYER_1
 40
0.05
 41
0.05
 62
29
 66
1
 10
0
 20
0
 30
0
 70
1
  0
VERTEX
  8
LAYER_1
 10
325.8585
 20
13.2583
  0
VERTEX
  8
LAYER_1
 10
326.07
 20
13.2583
  0
VERTEX
  8
LAYER_1
 10
326.1468
 20
13.2672
  0
VERTEX
  8
LAYER_1
 10
326.2171
 20
13.2969
  0
VERTEX
  8
LAYER_1
 10
326.2692
 20
13.3534
  0
VERTEX
  8
LAYER_1
 10
326.2888
 20
13.4395
  0
VERTEX
  8
LAYER_1
 10
326.2692
 20
13.5232
  0
VERTEX
  8
LAYER_1
 10
326.2161
 20
13.5794
  0
VERTEX
  8
LAYER_1
 10
326.1372
 20
13.6107
  0
VERTEX
  8
LAYER_1
 10
326.0407
 20
13.6204
  0
VERTEX
  8
LAYER_1
 10
325.8585
 20
13.6204
  0
SEQEND
  0
POLYLINE
  8
LAYER_1
 40
0.05
 41
0.05
 62
29
 66
1
 10
0
 20
0
 30
0
 70
1
  0
VERTEX
  8
LAYER_1
 10
325.8585
 20
12.768
  0
VERTEX
  8
LAYER_1
 10
326.0542
 20
12.768
  0
VERTEX
  8
LAYER_1
 10
326.1627
 20
12.779
  0
VERTEX
  8
LAYER_1
 10
326.2533
 20
12.8139
  0
VERTEX
  8
LAYER_1
 10
326.315
 20
12.8769
  0
VERTEX
  8
LAYER_1
 10
326.3384
 20
12.9696
 42
0.2554060681
  0
VERTEX
  8
LAYER_1
 10
326.2692
 20
13.1218
 42
0.1380642909
  0
VERTEX
  8
LAYER_1
 10
326.0731
 20
13.1721
  0
VERTEX
  8
LAYER_1
 10
325.8585
 20
13.1721
  0
SEQEND
  0
ENDBLK
  0
BLOCK
  8
LAYER_1
  2
AIGNBL01030013
 70
64
 10
0
 20
0
 30
0
  3
AIGNBL01030013
  0
POLYLINE
  8
LAYER_1
 40
0.05
 41
0.05
 62
29
 66
1
 10
0
 20
0
 30
0
 70
1
  0
VERTEX
  8
LAYER_1
 10
326.8755
 20
12.6774
  0
VERTEX
  8
LAYER_1
 10
326.7601
 20
12.6774
  0
VERTEX
  8
LAYER_1
 10
327.2069
 20
13.7106
  0
VERTEX
  8
LAYER_1
 10
327.3092
 20
13.7106
  0
VERTEX
  8
LAYER_1
 10
327.7526
 20
12.6774
  0
VERTEX
  8
LAYER_1
 10
327.6358
 20
12.6774
  0
VERTEX
  8
LAYER_1
 10
327.5218
 20
12.9489
  0
VERTEX
  8
LAYER_1
 10
326.9878
 20
12.9489
  0
SEQEND
  0
POLYLINE
  8
LAYER_1
 40
0.05
 41
0.05
 62
29
 66
1
 10
0
 20
0
 30
0
 70
1
  0
VERTEX
  8
LAYER_1
 10
327.0271
 20
13.0454
  0
VERTEX
  8
LAYER_1
 10
327.4825
 20
13.0454
  0
VERTEX
  8
LAYER_1
 10
327.2548
 20
13.5942
  0
SEQEND
  0
ENDBLK
  0
BLOCK
  8
LAYER_1
  2
AIGNBL01030014
 70
64
 10
0
 20
0
 30
0
  3
AIGNBL01030014
  0
POLYLINE
  8
LAYER_1
 40
0.05
 41
0.05
 62
29
 66
1
 10
0
 20
0
 30
0
 70
1
  0
VERTEX
  8
LAYER_1
 10
328.4371
 20
12.6774
  0
VERTEX
  8
LAYER_1
 10
328.3321
 20
12.6774
  0
VERTEX
  8
LAYER_1
 10
328.3321
 20
13.6172
  0
VERTEX
  8
LAYER_1
 10
327.9858
 20
13.6172
  0
VERTEX
  8
LAYER_1
 10
327.9858
 20
13.7106
  0
VERTEX
  8
LAYER_1
 10
328.7827
 20
13.7106
  0
VERTEX
  8
LAYER_1
 10
328.7827
 20
13.6172
  0
VERTEX
  8
LAYER_1
 10
328.4371
 20
13.6172
  0
SEQEND
  0
ENDBLK
  0
BLOCK
  8
LAYER_1
  2
AIGNBL01030015
 70
64
 10
0
 20
0
 30
0
  3
AIGNBL01030015
  0
POLYLINE
  8
LAYER_1
 40
0.05
 41
0.05
 62
29
 66
1
 10
0
 20
0
 30
0
 70
1
  0
VERTEX
  8
LAYER_1
 10
329.1389
 20
13.7106
  0
VERTEX
  8
LAYER_1
 10
329.2436
 20
13.7106
  0
VERTEX
  8
LAYER_1
 10
329.2436
 20
13.2627
  0
VERTEX
  8
LAYER_1
 10
329.8073
 20
13.2627
  0
VERTEX
  8
LAYER_1
 10
329.8073
 20
13.7106
  0
VERTEX
  8
LAYER_1
 10
329.9123
 20
13.7106
  0
VERTEX
  8
LAYER_1
 10
329.9123
 20
12.6774
  0
VERTEX
  8
LAYER_1
 10
329.8073
 20
12.6774
  0
VERTEX
  8
LAYER_1
 10
329.8073
 20
13.1666
  0
VERTEX
  8
LAYER_1
 10
329.2436
 20
13.1666
  0
VERTEX
  8
LAYER_1
 10
329.2436
 20
12.6774
  0
VERTEX
  8
LAYER_1
 10
329.1389
 20
12.6774
  0
SEQEND
  0
ENDBLK
  0
BLOCK
  8
LAYER_1
  2
AIGNBL01030016
 70
64
 10
0
 20
0
 30
0
  3
AIGNBL01030016
  0
POLYLINE
  8
LAYER_1
 40
0.05
 41
0.05
 62
29
 66
1
 10
0
 20
0
 30
0
 70
1
  0
VERTEX
  8
LAYER_1
 10
330.4928
 20
12.6774
  0
VERTEX
  8
LAYER_1
 10
330.3878
 20
12.6774
  0
VERTEX
  8
LAYER_1
 10
330.3878
 20
13.7106
  0
VERTEX
  8
LAYER_1
 10
330.6916
 20
13.7106
  0
VERTEX
  8
LAYER_1
 10
330.8322
 20
13.6961
  0
VERTEX
  8
LAYER_1
 10
330.9448
 20
13.6486
  0
VERTEX
  8
LAYER_1
 10
331.0182
 20
13.5632
  0
VERTEX
  8
LAYER_1
 10
331.0444
 20
13.435
  0
VERTEX
  8
LAYER_1
 10
331.0244
 20
13.3313
  0
VERTEX
  8
LAYER_1
 10
330.969
 20
13.2504
  0
VERTEX
  8
LAYER_1
 10
330.8856
 20
13.1956
  0
VERTEX
  8
LAYER_1
 10
330.7805
 20
13.1694
  0
VERTEX
  8
LAYER_1
 10
331.0826
 20
12.6774
  0
VERTEX
  8
LAYER_1
 10
330.9541
 20
12.6774
  0
VERTEX
  8
LAYER_1
 10
330.6682
 20
13.1604
  0
VERTEX
  8
LAYER_1
 10
330.4928
 20
13.1604
  0
SEQEND
  0
POLYLINE
  8
LAYER_1
 40
0.05
 41
0.05
 62
29
 66
1
 10
0
 20
0
 30
0
 70
1
  0
VERTEX
  8
LAYER_1
 10
330.4928
 20
13.251
  0
VERTEX
  8
LAYER_1
 10
330.6754
 20
13.251
 42
0.1656263988
  0
VERTEX
  8
LAYER_1
 10
330.8711
 20
13.2969
 42
0.250658542
  0
VERTEX
  8
LAYER_1
 10
330.9397
 20
13.435
  0
VERTEX
  8
LAYER_1
 10
330.9204
 20
13.5208
  0
VERTEX
  8
LAYER_1
 10
330.868
 20
13.578
  0
VERTEX
  8
LAYER_1
 10
330.7864
 20
13.61
  0
VERTEX
  8
LAYER_1
 10
330.6799
 20
13.6204
  0
VERTEX
  8
LAYER_1
 10
330.4928
 20
13.6204
  0
SEQEND
  0
ENDBLK
  0
BLOCK
  8
LAYER_1
  2
AIGNBL01030017
 70
64
 10
0
 20
0
 30
0
  3
AIGNBL01030017
  0
POLYLINE
  8
LAYER_1
 40
0.05
 41
0.05
 62
29
 66
1
 10
0
 20
0
 30
0
 70
1
  0
VERTEX
  8
LAYER_1
 10
332.4848
 20
13.1942
 42
-0.1002731409
  0
VERTEX
  8
LAYER_1
 10
332.4441
 20
12.9768
 42
-0.1003765801
  0
VERTEX
  8
LAYER_1
 10
332.3308
 20
12.8052
 42
-0.09507020048
  0
VERTEX
  8
LAYER_1
 10
332.1603
 20
12.6922
 42
-0.09502028874
  0
VERTEX
  8
LAYER_1
 10
331.9463
 20
12.6512
 42
-0.101175466
  0
VERTEX
  8
LAYER_1
 10
331.7324
 20
12.6922
 42
-0.09966682099
  0
VERTEX
  8
LAYER_1
 10
331.5618
 20
12.8052
 42
-0.09547486106
  0
VERTEX
  8
LAYER_1
 10
331.4488
 20
12.9768
 42
-0.09293253763
  0
VERTEX
  8
LAYER_1
 10
331.4082
 20
13.1942
 42
-0.1022983043
  0
VERTEX
  8
LAYER_1
 10
331.4488
 20
13.4116
 42
-0.1013677539
  0
VERTEX
  8
LAYER_1
 10
331.5618
 20
13.5831
 42
-0.09584066826
  0
VERTEX
  8
LAYER_1
 10
331.7324
 20
13.6961
 42
-0.09517167486
  0
VERTEX
  8
LAYER_1
 10
331.9463
 20
13.7371
 42
-0.1018346168
  0
VERTEX
  8
LAYER_1
 10
332.1603
 20
13.6961
 42
-0.10208105
  0
VERTEX
  8
LAYER_1
 10
332.3308
 20
13.5831
 42
-0.09492976366
  0
VERTEX
  8
LAYER_1
 10
332.4441
 20
13.4116
 42
-0.09296145325
  0
SEQEND
  0
POLYLINE
  8
LAYER_1
 40
0.05
 41
0.05
 62
29
 66
1
 10
0
 20
0
 30
0
 70
1
  0
VERTEX
  8
LAYER_1
 10
332.3739
 20
13.1935
  0
VERTEX
  8
LAYER_1
 10
332.3446
 20
13.3654
  0
VERTEX
  8
LAYER_1
 10
332.2598
 20
13.5087
  0
VERTEX
  8
LAYER_1
 10
332.1251
 20
13.6069
 42
0.1018863245
  0
VERTEX
  8
LAYER_1
 10
331.9463
 20
13.6438
  0
VERTEX
  8
LAYER_1
 10
331.7675
 20
13.6069
  0
VERTEX
  8
LAYER_1
 10
331.6325
 20
13.5087
  0
VERTEX
  8
LAYER_1
 10
331.5477
 20
13.3654
  0
VERTEX
  8
LAYER_1
 10
331.5188
 20
13.1935
  0
VERTEX
  8
LAYER_1
 10
331.5477
 20
13.0216
  0
VERTEX
  8
LAYER_1
 10
331.6325
 20
12.8786
  0
VERTEX
  8
LAYER_1
 10
331.7675
 20
12.7811
  0
VERTEX
  8
LAYER_1
 10
331.9463
 20
12.7446
 42
0.1157330551
  0
VERTEX
  8
LAYER_1
 10
332.1251
 20
12.7811
  0
VERTEX
  8
LAYER_1
 10
332.2598
 20
12.8786
  0
VERTEX
  8
LAYER_1
 10
332.3446
 20
13.0216
  0
SEQEND
  0
ENDBLK
  0
BLOCK
  8
LAYER_1
  2
AIGNBL01030018
 70
64
 10
0
 20
0
 30
0
  3
AIGNBL01030018
  0
POLYLINE
  8
LAYER_1
 40
0.05
 41
0.05
 62
29
 66
1
 10
0
 20
0
 30
0
 70
1
  0
VERTEX
  8
LAYER_1
 10
333.9265
 20
13.1942
 42
-0.1035463774
  0
VERTEX
  8
LAYER_1
 10
333.8856
 20
12.9768
 42
-0.1000469042
  0
VERTEX
  8
LAYER_1
 10
333.7729
 20
12.8052
 42
-0.09471741496
  0
VERTEX
  8
LAYER_1
 10
333.602
 20
12.6922
 42
-0.09506675375
  0
VERTEX
  8
LAYER_1
 10
333.3881
 20
12.6512
 42
-0.101822328
  0
VERTEX
  8
LAYER_1
 10
333.1745
 20
12.6922
 42
-0.1021045144
  0
VERTEX
  8
LAYER_1
 10
333.0036
 20
12.8052
 42
-0.09479293922
  0
VERTEX
  8
LAYER_1
 10
332.8903
 20
12.9768
 42
-0.09313545426
  0
VERTEX
  8
LAYER_1
 10
332.8496
 20
13.1942
 42
-0.1020962526
  0
VERTEX
  8
LAYER_1
 10
332.8903
 20
13.4116
 42
-0.1007559602
  0
VERTEX
  8
LAYER_1
 10
333.0036
 20
13.5831
 42
-0.09634037191
  0
VERTEX
  8
LAYER_1
 10
333.1745
 20
13.6961
 42
-0.0953147657
  0
VERTEX
  8
LAYER_1
 10
333.3881
 20
13.7371
 42
-0.1018017754
  0
VERTEX
  8
LAYER_1
 10
333.602
 20
13.6961
 42
-0.09904976342
  0
VERTEX
  8
LAYER_1
 10
333.7729
 20
13.5831
 42
-0.09562840933
  0
VERTEX
  8
LAYER_1
 10
333.8856
 20
13.4116
 42
-0.09373843258
  0
SEQEND
  0
POLYLINE
  8
LAYER_1
 40
0.05
 41
0.05
 62
29
 66
1
 10
0
 20
0
 30
0
 70
1
  0
VERTEX
  8
LAYER_1
 10
333.8156
 20
13.1935
  0
VERTEX
  8
LAYER_1
 10
333.7867
 20
13.3654
  0
VERTEX
  8
LAYER_1
 10
333.7019
 20
13.5087
  0
VERTEX
  8
LAYER_1
 10
333.5669
 20
13.6069
  0
VERTEX
  8
LAYER_1
 10
333.3881
 20
13.6438
 42
0.11467303
  0
VERTEX
  8
LAYER_1
 10
333.2093
 20
13.6069
  0
VERTEX
  8
LAYER_1
 10
333.0746
 20
13.5087
  0
VERTEX
  8
LAYER_1
 10
332.9898
 20
13.3654
  0
VERTEX
  8
LAYER_1
 10
332.9606
 20
13.1935
  0
VERTEX
  8
LAYER_1
 10
332.9898
 20
13.0216
  0
VERTEX
  8
LAYER_1
 10
333.0746
 20
12.8786
  0
VERTEX
  8
LAYER_1
 10
333.2093
 20
12.7811
 42
0.1008257054
  0
VERTEX
  8
LAYER_1
 10
333.3881
 20
12.7446
  0
VERTEX
  8
LAYER_1
 10
333.5669
 20
12.7811
  0
VERTEX
  8
LAYER_1
 10
333.7019
 20
12.8786
  0
VERTEX
  8
LAYER_1
 10
333.7867
 20
13.0216
  0
SEQEND
  0
ENDBLK
  0
BLOCK
  8
LAYER_1
  2
AIGNBL01030019
 70
64
 10
0
 20
0
 30
0
  3
AIGNBL01030019
  0
POLYLINE
  8
LAYER_1
 40
0.05
 41
0.05
 62
29
 66
1
 10
0
 20
0
 30
0
 70
1
  0
VERTEX
  8
LAYER_1
 10
334.8574
 20
12.8555
  0
VERTEX
  8
LAYER_1
 10
334.8591
 20
12.8555
  0
VERTEX
  8
LAYER_1
 10
335.2047
 20
13.7106
  0
VERTEX
  8
LAYER_1
 10
335.3656
 20
13.7106
  0
VERTEX
  8
LAYER_1
 10
335.3656
 20
12.6774
  0
VERTEX
  8
LAYER_1
 10
335.2601
 20
12.6774
  0
VERTEX
  8
LAYER_1
 10
335.2601
 20
13.5749
  0
VERTEX
  8
LAYER_1
 10
335.2574
 20
13.5749
  0
VERTEX
  8
LAYER_1
 10
334.8839
 20
12.6774
  0
VERTEX
  8
LAYER_1
 10
334.8285
 20
12.6774
  0
VERTEX
  8
LAYER_1
 10
334.4547
 20
13.5749
  0
VERTEX
  8
LAYER_1
 10
334.4519
 20
13.5749
  0
VERTEX
  8
LAYER_1
 10
334.4519
 20
12.6774
  0
VERTEX
  8
LAYER_1
 10
334.3469
 20
12.6774
  0
VERTEX
  8
LAYER_1
 10
334.3469
 20
13.7106
  0
VERTEX
  8
LAYER_1
 10
334.5074
 20
13.7106
  0
SEQEND
  0
ENDBLK
  0
BLOCK
  8
LAYER_1
  2
AIGNBL0103001A
 70
64
 10
0
 20
0
 30
0
  3
AIGNBL0103001A
  0
POLYLINE
  8
LAYER_1
 40
0.05
 41
0.05
 62
29
 66
1
 10
0
 20
0
 30
0
 70
1
  0
VERTEX
  8
LAYER_1
 10
336.5121
 20
12.7711
  0
VERTEX
  8
LAYER_1
 10
337.0654
 20
12.7711
  0
VERTEX
  8
LAYER_1
 10
337.0654
 20
12.6774
  0
VERTEX
  8
LAYER_1
 10
336.407
 20
12.6774
  0
VERTEX
  8
LAYER_1
 10
336.407
 20
13.7106
  0
VERTEX
  8
LAYER_1
 10
337.0478
 20
13.7106
  0
VERTEX
  8
LAYER_1
 10
337.0478
 20
13.6172
  0
VERTEX
  8
LAYER_1
 10
336.5121
 20
13.6172
  0
VERTEX
  8
LAYER_1
 10
336.5121
 20
13.2627
  0
VERTEX
  8
LAYER_1
 10
337.0127
 20
13.2627
  0
VERTEX
  8
LAYER_1
 10
337.0127
 20
13.1694
  0
VERTEX
  8
LAYER_1
 10
336.5121
 20
13.1694
  0
SEQEND
  0
ENDBLK
  0
BLOCK
  8
LAYER_1
  2
AIGNBL0103001B
 70
64
 10
0
 20
0
 30
0
  3
AIGNBL0103001B
  0
POLYLINE
  8
LAYER_1
 40
0.05
 41
0.05
 62
29
 66
1
 10
0
 20
0
 30
0
 70
1
  0
VERTEX
  8
LAYER_1
 10
337.8106
 20
13.2934
  0
VERTEX
  8
LAYER_1
 10
338.0927
 20
13.7106
  0
VERTEX
  8
LAYER_1
 10
338.2178
 20
13.7106
  0
VERTEX
  8
LAYER_1
 10
337.8753
 20
13.219
  0
VERTEX
  8
LAYER_1
 10
338.2546
 20
12.6774
  0
VERTEX
  8
LAYER_1
 10
338.1234
 20
12.6774
  0
VERTEX
  8
LAYER_1
 10
337.8078
 20
13.1432
  0
VERTEX
  8
LAYER_1
 10
337.4943
 20
12.6774
  0
VERTEX
  8
LAYER_1
 10
337.3627
 20
12.6774
  0
VERTEX
  8
LAYER_1
 10
337.7424
 20
13.2204
  0
VERTEX
  8
LAYER_1
 10
337.3965
 20
13.7106
  0
VERTEX
  8
LAYER_1
 10
337.5281
 20
13.7106
  0
SEQEND
  0
ENDBLK
  0
BLOCK
  8
LAYER_1
  2
AIGNBL0103001C
 70
64
 10
0
 20
0
 30
0
  3
AIGNBL0103001C
  0
POLYLINE
  8
LAYER_1
 40
0.05
 41
0.05
 62
29
 66
1
 10
0
 20
0
 30
0
 70
1
  0
VERTEX
  8
LAYER_1
 10
338.6209
 20
13.7106
  0
VERTEX
  8
LAYER_1
 10
338.913
 20
13.7106
  0
VERTEX
  8
LAYER_1
 10
339.056
 20
13.6941
  0
VERTEX
  8
LAYER_1
 10
339.1659
 20
13.6428
  0
VERTEX
  8
LAYER_1
 10
339.2368
 20
13.5566
  0
VERTEX
  8
LAYER_1
 10
339.2613
 20
13.435
  0
VERTEX
  8
LAYER_1
 10
339.2361
 20
13.313
  0
VERTEX
  8
LAYER_1
 10
339.1645
 20
13.2269
  0
VERTEX
  8
LAYER_1
 10
339.0536
 20
13.1753
  0
VERTEX
  8
LAYER_1
 10
338.9099
 20
13.1577
  0
VERTEX
  8
LAYER_1
 10
338.7259
 20
13.1577
  0
VERTEX
  8
LAYER_1
 10
338.7259
 20
12.6774
  0
VERTEX
  8
LAYER_1
 10
338.6209
 20
12.6774
  0
SEQEND
  0
POLYLINE
  8
LAYER_1
 40
0.05
 41
0.05
 62
29
 66
1
 10
0
 20
0
 30
0
 70
1
  0
VERTEX
  8
LAYER_1
 10
338.7259
 20
13.2465
  0
VERTEX
  8
LAYER_1
 10
338.9037
 20
13.2465
 42
0.1834000512
  0
VERTEX
  8
LAYER_1
 10
339.0921
 20
13.2948
 42
0.2348377208
  0
VERTEX
  8
LAYER_1
 10
339.1565
 20
13.435
 42
0.2656295013
  0
VERTEX
  8
LAYER_1
 10
339.0901
 20
13.5759
 42
0.1265933612
  0
VERTEX
  8
LAYER_1
 10
338.9037
 20
13.6204
  0
VERTEX
  8
LAYER_1
 10
338.7259
 20
13.6204
  0
SEQEND
  0
ENDBLK
  0
BLOCK
  8
LAYER_1
  2
AIGNBL0103001D
 70
64
 10
0
 20
0
 30
0
  3
AIGNBL0103001D
  0
POLYLINE
  8
LAYER_1
 40
0.05
 41
0.05
 62
29
 66
1
 10
0
 20
0
 30
0
 70
1
  0
VERTEX
  8
LAYER_1
 10
339.7736
 20
12.7711
  0
VERTEX
  8
LAYER_1
 10
340.3268
 20
12.7711
  0
VERTEX
  8
LAYER_1
 10
340.3268
 20
12.6774
  0
VERTEX
  8
LAYER_1
 10
339.6685
 20
12.6774
  0
VERTEX
  8
LAYER_1
 10
339.6685
 20
13.7106
  0
VERTEX
  8
LAYER_1
 10
340.3093
 20
13.7106
  0
VERTEX
  8
LAYER_1
 10
340.3093
 20
13.6172
  0
VERTEX
  8
LAYER_1
 10
339.7736
 20
13.6172
  0
VERTEX
  8
LAYER_1
 10
339.7736
 20
13.2627
  0
VERTEX
  8
LAYER_1
 10
340.2741
 20
13.2627
  0
VERTEX
  8
LAYER_1
 10
340.2741
 20
13.1694
  0
VERTEX
  8
LAYER_1
 10
339.7736
 20
13.1694
  0
SEQEND
  0
ENDBLK
  0
BLOCK
  8
LAYER_1
  2
AIGNBL0103001E
 70
64
 10
0
 20
0
 30
0
  3
AIGNBL0103001E
  0
POLYLINE
  8
LAYER_1
 40
0.05
 41
0.05
 62
29
 66
1
 10
0
 20
0
 30
0
 70
1
  0
VERTEX
  8
LAYER_1
 10
340.8388
 20
12.6774
  0
VERTEX
  8
LAYER_1
 10
340.7337
 20
12.6774
  0
VERTEX
  8
LAYER_1
 10
340.7337
 20
13.7106
  0
VERTEX
  8
LAYER_1
 10
341.0376
 20
13.7106
  0
VERTEX
  8
LAYER_1
 10
341.1781
 20
13.6961
  0
VERTEX
  8
LAYER_1
 10
341.2908
 20
13.6486
  0
VERTEX
  8
LAYER_1
 10
341.3645
 20
13.5632
  0
VERTEX
  8
LAYER_1
 10
341.3904
 20
13.435
  0
VERTEX
  8
LAYER_1
 10
341.3704
 20
13.3313
  0
VERTEX
  8
LAYER_1
 10
341.3149
 20
13.2504
  0
VERTEX
  8
LAYER_1
 10
341.2315
 20
13.1956
  0
VERTEX
  8
LAYER_1
 10
341.1265
 20
13.1694
  0
VERTEX
  8
LAYER_1
 10
341.4286
 20
12.6774
  0
VERTEX
  8
LAYER_1
 10
341.3001
 20
12.6774
  0
VERTEX
  8
LAYER_1
 10
341.0142
 20
13.1604
  0
VERTEX
  8
LAYER_1
 10
340.8388
 20
13.1604
  0
SEQEND
  0
POLYLINE
  8
LAYER_1
 40
0.05
 41
0.05
 62
29
 66
1
 10
0
 20
0
 30
0
 70
1
  0
VERTEX
  8
LAYER_1
 10
340.8388
 20
13.251
  0
VERTEX
  8
LAYER_1
 10
341.0214
 20
13.251
 42
0.166558795
  0
VERTEX
  8
LAYER_1
 10
341.2171
 20
13.2969
 42
0.2505726271
  0
VERTEX
  8
LAYER_1
 10
341.2856
 20
13.435
  0
VERTEX
  8
LAYER_1
 10
341.2667
 20
13.5208
  0
VERTEX
  8
LAYER_1
 10
341.214
 20
13.578
  0
VERTEX
  8
LAYER_1
 10
341.1323
 20
13.61
  0
VERTEX
  8
LAYER_1
 10
341.0259
 20
13.6204
  0
VERTEX
  8
LAYER_1
 10
340.8388
 20
13.6204
  0
SEQEND
  0
ENDBLK
  0
BLOCK
  8
LAYER_1
  2
AIGNBL0103001F
 70
64
 10
0
 20
0
 30
0
  3
AIGNBL0103001F
  0
POLYLINE
  8
LAYER_1
 40
0.05
 41
0.05
 62
29
 66
1
 10
0
 20
0
 30
0
 70
1
  0
VERTEX
  8
LAYER_1
 10
341.9143
 20
12.6774
  0
VERTEX
  8
LAYER_1
 10
341.8096
 20
12.6774
  0
VERTEX
  8
LAYER_1
 10
341.8096
 20
13.7106
  0
VERTEX
  8
LAYER_1
 10
341.9143
 20
13.7106
  0
SEQEND
  0
ENDBLK
  0
BLOCK
  8
LAYER_1
  2
AIGNBL01030020
 70
64
 10
0
 20
0
 30
0
  3
AIGNBL01030020
  0
POLYLINE
  8
LAYER_1
 40
0.05
 41
0.05
 62
29
 66
1
 10
0
 20
0
 30
0
 70
1
  0
VERTEX
  8
LAYER_1
 10
342.4952
 20
12.7711
  0
VERTEX
  8
LAYER_1
 10
343.0481
 20
12.7711
  0
VERTEX
  8
LAYER_1
 10
343.0481
 20
12.6774
  0
VERTEX
  8
LAYER_1
 10
342.3901
 20
12.6774
  0
VERTEX
  8
LAYER_1
 10
342.3901
 20
13.7106
  0
VERTEX
  8
LAYER_1
 10
343.0309
 20
13.7106
  0
VERTEX
  8
LAYER_1
 10
343.0309
 20
13.6172
  0
VERTEX
  8
LAYER_1
 10
342.4952
 20
13.6172
  0
VERTEX
  8
LAYER_1
 10
342.4952
 20
13.2627
  0
VERTEX
  8
LAYER_1
 10
342.9958
 20
13.2627
  0
VERTEX
  8
LAYER_1
 10
342.9958
 20
13.1694
  0
VERTEX
  8
LAYER_1
 10
342.4952
 20
13.1694
  0
SEQEND
  0
ENDBLK
  0
BLOCK
  8
LAYER_1
  2
AIGNBL01030021
 70
64
 10
0
 20
0
 30
0
  3
AIGNBL01030021
  0
POLYLINE
  8
LAYER_1
 40
0.05
 41
0.05
 62
29
 66
1
 10
0
 20
0
 30
0
 70
1
  0
VERTEX
  8
LAYER_1
 10
344.1881
 20
12.8307
  0
VERTEX
  8
LAYER_1
 10
344.1909
 20
12.8307
  0
VERTEX
  8
LAYER_1
 10
344.1909
 20
13.7106
  0
VERTEX
  8
LAYER_1
 10
344.296
 20
13.7106
  0
VERTEX
  8
LAYER_1
 10
344.296
 20
12.6774
  0
VERTEX
  8
LAYER_1
 10
344.1647
 20
12.6774
  0
VERTEX
  8
LAYER_1
 10
343.5635
 20
13.5663
  0
VERTEX
  8
LAYER_1
 10
343.5604
 20
13.5663
  0
VERTEX
  8
LAYER_1
 10
343.5604
 20
12.6774
  0
VERTEX
  8
LAYER_1
 10
343.4554
 20
12.6774
  0
VERTEX
  8
LAYER_1
 10
343.4554
 20
13.7106
  0
VERTEX
  8
LAYER_1
 10
343.5869
 20
13.7106
  0
SEQEND
  0
ENDBLK
  0
BLOCK
  8
LAYER_1
  2
AIGNBL01030022
 70
64
 10
0
 20
0
 30
0
  3
AIGNBL01030022
  0
POLYLINE
  8
LAYER_1
 40
0.05
 41
0.05
 62
29
 66
1
 10
0
 20
0
 30
0
 70
1
  0
VERTEX
  8
LAYER_1
 10
345.6416
 20
12.8452
  0
VERTEX
  8
LAYER_1
 10
345.5779
 20
12.7708
  0
VERTEX
  8
LAYER_1
 10
345.4918
 20
12.7091
  0
VERTEX
  8
LAYER_1
 10
345.3836
 20
12.6668
  0
VERTEX
  8
LAYER_1
 10
345.2547
 20
12.6512
 42
-0.1009408553
  0
VERTEX
  8
LAYER_1
 10
345.0387
 20
12.6922
 42
-0.1036436467
  0
VERTEX
  8
LAYER_1
 10
344.8682
 20
12.8052
 42
-0.09785904176
  0
VERTEX
  8
LAYER_1
 10
344.7566
 20
12.9768
 42
-0.09235342416
  0
VERTEX
  8
LAYER_1
 10
344.7163
 20
13.1942
 42
-0.1035463776
  0
VERTEX
  8
LAYER_1
 10
344.7572
 20
13.4116
 42
-0.1004334688
  0
VERTEX
  8
LAYER_1
 10
344.8699
 20
13.5831
 42
-0.09536773851
  0
VERTEX
  8
LAYER_1
 10
345.0408
 20
13.6961
 42
-0.09517167486
  0
VERTEX
  8
LAYER_1
 10
345.2547
 20
13.7371
  0
VERTEX
  8
LAYER_1
 10
345.3663
 20
13.7251
  0
VERTEX
  8
LAYER_1
 10
345.4694
 20
13.6916
  0
VERTEX
  8
LAYER_1
 10
345.5568
 20
13.64
  0
VERTEX
  8
LAYER_1
 10
345.6226
 20
13.5721
  0
VERTEX
  8
LAYER_1
 10
345.5352
 20
13.5077
  0
VERTEX
  8
LAYER_1
 10
345.4918
 20
13.5577
  0
VERTEX
  8
LAYER_1
 10
345.4284
 20
13.6014
  0
VERTEX
  8
LAYER_1
 10
345.3488
 20
13.6321
  0
VERTEX
  8
LAYER_1
 10
345.2561
 20
13.6438
  0
VERTEX
  8
LAYER_1
 10
345.0759
 20
13.6073
  0
VERTEX
  8
LAYER_1
 10
344.9409
 20
13.5091
  0
VERTEX
  8
LAYER_1
 10
344.8561
 20
13.3658
  0
VERTEX
  8
LAYER_1
 10
344.8272
 20
13.1942
  0
VERTEX
  8
LAYER_1
 10
344.8572
 20
13.0226
  0
VERTEX
  8
LAYER_1
 10
344.9426
 20
12.8793
  0
VERTEX
  8
LAYER_1
 10
345.0776
 20
12.7811
 42
0.1009931409
  0
VERTEX
  8
LAYER_1
 10
345.2561
 20
12.7446
  0
VERTEX
  8
LAYER_1
 10
345.4253
 20
12.7811
 42
0.1318558246
  0
VERTEX
  8
LAYER_1
 10
345.5596
 20
12.8979
  0
SEQEND
  0
ENDBLK
  0
BLOCK
  8
LAYER_1
  2
AIGNBL01030023
 70
64
 10
0
 20
0
 30
0
  3
AIGNBL01030023
  0
POLYLINE
  8
LAYER_1
 40
0.05
 41
0.05
 62
29
 66
1
 10
0
 20
0
 30
0
 70
1
  0
VERTEX
  8
LAYER_1
 10
346.1287
 20
12.7711
  0
VERTEX
  8
LAYER_1
 10
346.682
 20
12.7711
  0
VERTEX
  8
LAYER_1
 10
346.682
 20
12.6774
  0
VERTEX
  8
LAYER_1
 10
346.0237
 20
12.6774
  0
VERTEX
  8
LAYER_1
 10
346.0237
 20
13.7106
  0
VERTEX
  8
LAYER_1
 10
346.6645
 20
13.7106
  0
VERTEX
  8
LAYER_1
 10
346.6645
 20
13.6172
  0
VERTEX
  8
LAYER_1
 10
346.1287
 20
13.6172
  0
VERTEX
  8
LAYER_1
 10
346.1287
 20
13.2627
  0
VERTEX
  8
LAYER_1
 10
346.6293
 20
13.2627
  0
VERTEX
  8
LAYER_1
 10
346.6293
 20
13.1694
  0
VERTEX
  8
LAYER_1
 10
346.1287
 20
13.1694
  0
SEQEND
  0
ENDBLK
  0
BLOCK
  8
LAYER_1
  2
AIGNBL01020003
 70
64
 10
0
 20
0
 30
0
  3
AIGNBL01020003
  0
INSERT
  8
LAYER_1
  2
AIGNBL01030004
 10
0
 20
0
 30
0
  0
ENDBLK
  0
BLOCK
  8
LAYER_1
  2
AIGNBL0102000C
 70
64
 10
0
 20
0
 30
0
  3
AIGNBL0102000C
  0
INSERT
  8
LAYER_1
  2
AIGNBL0103000D
 10
0
 20
0
 30
0
  0
INSERT
  8
LAYER_1
  2
AIGNBL0103000E
 10
0
 20
0
 30
0
  0
INSERT
  8
LAYER_1
  2
AIGNBL0103000F
 10
0
 20
0
 30
0
  0
INSERT
  8
LAYER_1
  2
AIGNBL01030010
 10
0
 20
0
 30
0
  0
INSERT
  8
LAYER_1
  2
AIGNBL01030011
 10
0
 20
0
 30
0
  0
INSERT
  8
LAYER_1
  2
AIGNBL01030012
 10
0
 20
0
 30
0
  0
INSERT
  8
LAYER_1
  2
AIGNBL01030013
 10
0
 20
0
 30
0
  0
INSERT
  8
LAYER_1
  2
AIGNBL01030014
 10
0
 20
0
 30
0
  0
INSERT
  8
LAYER_1
  2
AIGNBL01030015
 10
0
 20
0
 30
0
  0
INSERT
  8
LAYER_1
  2
AIGNBL01030016
 10
0
 20
0
 30
0
  0
INSERT
  8
LAYER_1
  2
AIGNBL01030017
 10
0
 20
0
 30
0
  0
INSERT
  8
LAYER_1
  2
AIGNBL01030018
 10
0
 20
0
 30
0
  0
INSERT
  8
LAYER_1
  2
AIGNBL01030019
 10
0
 20
0
 30
0
  0
INSERT
  8
LAYER_1
  2
AIGNBL0103001A
 10
0
 20
0
 30
0
  0
INSERT
  8
LAYER_1
  2
AIGNBL0103001B
 10
0
 20
0
 30
0
  0
INSERT
  8
LAYER_1
  2
AIGNBL0103001C
 10
0
 20
0
 30
0
  0
INSERT
  8
LAYER_1
  2
AIGNBL0103001D
 10
0
 20
0
 30
0
  0
INSERT
  8
LAYER_1
  2
AIGNBL0103001E
 10
0
 20
0
 30
0
  0
INSERT
  8
LAYER_1
  2
AIGNBL0103001F
 10
0
 20
0
 30
0
  0
INSERT
  8
LAYER_1
  2
AIGNBL01030020
 10
0
 20
0
 30
0
  0
INSERT
  8
LAYER_1
  2
AIGNBL01030021
 10
0
 20
0
 30
0
  0
INSERT
  8
LAYER_1
  2
AIGNBL01030022
 10
0
 20
0
 30
0
  0
INSERT
  8
LAYER_1
  2
AIGNBL01030023
 10
0
 20
0
 30
0
  0
ENDBLK
  0
BLOCK
  8
LAYER_1
  2
AIGNBL01010002
 70
64
 10
0
 20
0
 30
0
  3
AIGNBL01010002
  0
INSERT
  8
LAYER_1
  2
AIGNBL01020003
 10
0
 20
0
 30
0
  0
INSERT
  8
LAYER_1
  2
AIGNBL0102000C
 10
0
 20
0
 30
0
  0
ENDBLK
  0
ENDSEC
  0
SECTION
  2
ENTITIES
  0
POLYLINE
  8
LAYER_1
 40
0.05
 41
0.05
 62
253
 66
1
 10
0
 20
0
 30
0
 70
1
  0
VERTEX
  8
LAYER_1
 10
320.3363
 20
84.201
  0
VERTEX
  8
LAYER_1
 10
321.691
 20
84.201
  0
VERTEX
  8
LAYER_1
 10
321.691
 20
81.407
  0
VERTEX
  8
LAYER_1
 10
320.3363
 20
81.407
  0
SEQEND
  0
POLYLINE
  8
LAYER_1
 40
0.1764
 41
0.1764
 66
1
 10
0
 20
0
 30
0
 70
1
  0
VERTEX
  8
LAYER_1
 10
320.3363
 20
84.201
  0
VERTEX
  8
LAYER_1
 10
321.691
 20
84.201
  0
VERTEX
  8
LAYER_1
 10
321.691
 20
81.407
  0
VERTEX
  8
LAYER_1
 10
320.3363
 20
81.407
  0
SEQEND
  0
POLYLINE
  8
LAYER_1
 40
0.1764
 41
0.1764
 66
1
 10
0
 20
0
 30
0
 70
1
  0
VERTEX
  8
LAYER_1
 10
86.4023
 20
201.9723
  0
VERTEX
  8
LAYER_1
 10
226.3563
 20
201.9723
  0
VERTEX
  8
LAYER_1
 10
226.3563
 20
61.9337
  0
VERTEX
  8
LAYER_1
 10
86.4023
 20
61.9337
  0
SEQEND
  0
POLYLINE
  8
LAYER_1
 40
0.1764
 41
0.1764
 66
1
 10
0
 20
0
 30
0
 70
1
  0
VERTEX
  8
LAYER_1
 10
86.4023
 20
201.9723
  0
VERTEX
  8
LAYER_1
 10
226.3563
 20
201.9723
  0
VERTEX
  8
LAYER_1
 10
210.3543
 20
185.9703
  0
VERTEX
  8
LAYER_1
 10
102.4043
 20
185.9703
  0
SEQEND
  0
POLYLINE
  8
LAYER_1
 40
0.1764
 41
0.1764
 66
1
 10
0
 20
0
 30
0
 70
1
  0
VERTEX
  8
LAYER_1
 10
86.4023
 20
61.9337
  0
VERTEX
  8
LAYER_1
 10
226.3563
 20
61.9337
  0
VERTEX
  8
LAYER_1
 10
210.3543
 20
77.9357
  0
VERTEX
  8
LAYER_1
 10
102.4043
 20
77.9357
  0
SEQEND
  0
POLYLINE
  8
LAYER_1
 40
0.1764
 41
0.1764
 66
1
 10
0
 20
0
 30
0
 70
1
  0
VERTEX
  8
LAYER_1
 10
86.4023
 20
61.9337
  0
VERTEX
  8
LAYER_1
 10
86.4023
 20
201.9723
  0
VERTEX
  8
LAYER_1
 10
102.4043
 20
185.9703
  0
VERTEX
  8
LAYER_1
 10
102.4043
 20
77.9357
  0
SEQEND
  0
POLYLINE
  8
LAYER_1
 40
0.1764
 41
0.1764
 66
1
 10
0
 20
0
 30
0
 70
1
  0
VERTEX
  8
LAYER_1
 10
226.3563
 20
61.9337
  0
VERTEX
  8
LAYER_1
 10
226.3563
 20
201.9723
  0
VERTEX
  8
LAYER_1
 10
210.3543
 20
185.9703
  0
VERTEX
  8
LAYER_1
 10
210.3543
 20
77.9357
  0
SEQEND
  0
POLYLINE
  8
LAYER_1
 40
0.254
 41
0.254
 66
1
 10
0
 20
0
 30
0
  0
VERTEX
  8
LAYER_1
 10
3.1173
 20
26.564
  0
VERTEX
  8
LAYER_1
 10
417.095
 20
26.564
  0
SEQEND
  0
TEXT
  8
LAYER_1
 10
50.2808
 20
15.2382
 11
50.2808
 21
15.2382
 40
4.5833
 41
0.5
  1
ボヘミアンクリスタルミラー700mm
  0
TEXT
  8
LAYER_1
 10
349.7475
 20
16.2496
 11
349.7475
 21
16.2496
 40
3.3848
 41
0.5
 62
29
  1
●TEL 0120-65-1232●FAX 06-6532-1580
  0
TEXT
  8
LAYER_1
 10
349.7475
 20
12.735
 11
349.7475
 21
12.735
 40
3.3848
 41
0.5
 62
29
  1
hits@hiratatile.co.jp
  0
INSERT
  8
LAYER_1
  2
AIGNBL01010002
 10
0
 20
0
 30
0
  0
TEXT
  8
LAYER_1
 10
50.3859
 20
8.4635
 11
50.3859
 21
8.4635
 40
4.6883
 41
0.5
 62
29
  1
SC-BMS-01
  0
POLYLINE
  8
LAYER_1
 40
0.1764
 41
0.1764
 66
1
 10
0
 20
0
 30
0
 70
1
  0
VERTEX
  8
LAYER_1
 10
316.103
 20
201.3796
  0
VERTEX
  8
LAYER_1
 10
318.4736
 20
201.3796
  0
VERTEX
  8
LAYER_1
 10
318.4736
 20
61.4257
  0
VERTEX
  8
LAYER_1
 10
316.103
 20
61.4257
  0
SEQEND
  0
POLYLINE
  8
LAYER_1
 40
0.1764
 41
0.1764
 66
1
 10
0
 20
0
 30
0
 70
1
  0
VERTEX
  8
LAYER_1
 10
318.4736
 20
200.4483
  0
VERTEX
  8
LAYER_1
 10
320.3363
 20
200.4483
  0
VERTEX
  8
LAYER_1
 10
320.3363
 20
62.4417
  0
VERTEX
  8
LAYER_1
 10
318.4736
 20
62.4417
  0
SEQEND
  0
POLYLINE
  8
LAYER_1
 40
0.1764
 41
0.1764
 66
1
 10
0
 20
0
 30
0
  0
VERTEX
  8
LAYER_1
 10
86.4023
 20
205.867
  0
VERTEX
  8
LAYER_1
 10
86.4023
 20
240.919
  0
SEQEND
  0
POLYLINE
  8
LAYER_1
 40
0.1764
 41
0.1764
 66
1
 10
0
 20
0
 30
0
  0
VERTEX
  8
LAYER_1
 10
226.3563
 20
205.867
  0
VERTEX
  8
LAYER_1
 10
226.3563
 20
240.919
  0
SEQEND
  0
POLYLINE
  8
LAYER_1
 40
0.1764
 41
0.1764
 66
1
 10
0
 20
0
 30
0
  0
VERTEX
  8
LAYER_1
 10
86.4023
 20
240.919
  0
VERTEX
  8
LAYER_1
 10
226.3563
 20
240.919
  0
SEQEND
  0
POLYLINE
  8
LAYER_1
 40
0.1764
 41
0.1764
 66
1
 10
0
 20
0
 30
0
 70
1
  0
VERTEX
  8
LAYER_1
 10
86.6563
 20
240.919
  0
VERTEX
  8
LAYER_1
 10
86.6563
 20
240.8343
  0
VERTEX
  8
LAYER_1
 10
86.5717
 20
240.8343
  0
VERTEX
  8
LAYER_1
 10
86.5717
 20
240.7496
  0
VERTEX
  8
LAYER_1
 10
86.487
 20
240.665
  0
VERTEX
  8
LAYER_1
 10
86.4023
 20
240.665
  0
VERTEX
  8
LAYER_1
 10
86.3177
 20
240.665
  0
VERTEX
  8
LAYER_1
 10
86.233
 20
240.665
  0
VERTEX
  8
LAYER_1
 10
86.233
 20
240.7496
  0
VERTEX
  8
LAYER_1
 10
86.1483
 20
240.7496
  0
VERTEX
  8
LAYER_1
 10
86.1483
 20
240.8343
  0
VERTEX
  8
LAYER_1
 10
86.1483
 20
240.919
  0
VERTEX
  8
LAYER_1
 10
86.1483
 20
241.0036
  0
VERTEX
  8
LAYER_1
 10
86.1483
 20
241.0883
  0
VERTEX
  8
LAYER_1
 10
86.233
 20
241.0883
  0
VERTEX
  8
LAYER_1
 10
86.233
 20
241.173
  0
VERTEX
  8
LAYER_1
 10
86.3177
 20
241.173
  0
VERTEX
  8
LAYER_1
 10
86.4023
 20
241.173
  0
VERTEX
  8
LAYER_1
 10
86.487
 20
241.173
  0
VERTEX
  8
LAYER_1
 10
86.5717
 20
241.0883
  0
VERTEX
  8
LAYER_1
 10
86.5717
 20
241.0036
  0
VERTEX
  8
LAYER_1
 10
86.6563
 20
241.0036
  0
SEQEND
  0
POLYLINE
  8
LAYER_1
 40
0.05
 41
0.05
 66
1
 10
0
 20
0
 30
0
 70
1
  0
VERTEX
  8
LAYER_1
 10
86.6352
 20
240.9401
  0
VERTEX
  8
LAYER_1
 10
86.6352
 20
240.8555
  0
VERTEX
  8
LAYER_1
 10
86.5505
 20
240.8555
  0
VERTEX
  8
LAYER_1
 10
86.5505
 20
240.7708
  0
VERTEX
  8
LAYER_1
 10
86.4659
 20
240.6861
  0
VERTEX
  8
LAYER_1
 10
86.3812
 20
240.6861
  0
VERTEX
  8
LAYER_1
 10
86.2965
 20
240.6861
  0
VERTEX
  8
LAYER_1
 10
86.2119
 20
240.6861
  0
VERTEX
  8
LAYER_1
 10
86.2119
 20
240.7708
  0
VERTEX
  8
LAYER_1
 10
86.1272
 20
240.7708
  0
VERTEX
  8
LAYER_1
 10
86.1272
 20
240.8555
  0
VERTEX
  8
LAYER_1
 10
86.1272
 20
240.9401
  0
VERTEX
  8
LAYER_1
 10
86.1272
 20
241.0248
  0
VERTEX
  8
LAYER_1
 10
86.1272
 20
241.1095
  0
VERTEX
  8
LAYER_1
 10
86.2119
 20
241.1095
  0
VERTEX
  8
LAYER_1
 10
86.2119
 20
241.1941
  0
VERTEX
  8
LAYER_1
 10
86.2965
 20
241.1941
  0
VERTEX
  8
LAYER_1
 10
86.3812
 20
241.1941
  0
VERTEX
  8
LAYER_1
 10
86.4659
 20
241.1941
  0
VERTEX
  8
LAYER_1
 10
86.5505
 20
241.1095
  0
VERTEX
  8
LAYER_1
 10
86.5505
 20
241.0248
  0
VERTEX
  8
LAYER_1
 10
86.6352
 20
241.0248
  0
SEQEND
  0
POLYLINE
  8
LAYER_1
 40
0.0811
 41
0.0811
 66
1
 10
0
 20
0
 30
0
 70
1
  0
VERTEX
  8
LAYER_1
 10
86.6563
 20
240.919
  0
VERTEX
  8
LAYER_1
 10
86.6563
 20
240.8343
  0
VERTEX
  8
LAYER_1
 10
86.5717
 20
240.8343
  0
VERTEX
  8
LAYER_1
 10
86.5717
 20
240.7496
  0
VERTEX
  8
LAYER_1
 10
86.487
 20
240.665
  0
VERTEX
  8
LAYER_1
 10
86.4023
 20
240.665
  0
VERTEX
  8
LAYER_1
 10
86.3177
 20
240.665
  0
VERTEX
  8
LAYER_1
 10
86.233
 20
240.665
  0
VERTEX
  8
LAYER_1
 10
86.233
 20
240.7496
  0
VERTEX
  8
LAYER_1
 10
86.1483
 20
240.7496
  0
VERTEX
  8
LAYER_1
 10
86.1483
 20
240.8343
  0
VERTEX
  8
LAYER_1
 10
86.1483
 20
240.919
  0
VERTEX
  8
LAYER_1
 10
86.1483
 20
241.0036
  0
VERTEX
  8
LAYER_1
 10
86.1483
 20
241.0883
  0
VERTEX
  8
LAYER_1
 10
86.233
 20
241.0883
  0
VERTEX
  8
LAYER_1
 10
86.233
 20
241.173
  0
VERTEX
  8
LAYER_1
 10
86.3177
 20
241.173
  0
VERTEX
  8
LAYER_1
 10
86.4023
 20
241.173
  0
VERTEX
  8
LAYER_1
 10
86.487
 20
241.173
  0
VERTEX
  8
LAYER_1
 10
86.5717
 20
241.0883
  0
VERTEX
  8
LAYER_1
 10
86.5717
 20
241.0036
  0
VERTEX
  8
LAYER_1
 10
86.6563
 20
241.0036
  0
SEQEND
  0
POLYLINE
  8
LAYER_1
 40
0.1764
 41
0.1764
 66
1
 10
0
 20
0
 30
0
 70
1
  0
VERTEX
  8
LAYER_1
 10
226.1023
 20
240.919
  0
VERTEX
  8
LAYER_1
 10
226.187
 20
240.919
  0
VERTEX
  8
LAYER_1
 10
226.187
 20
241.0036
  0
VERTEX
  8
LAYER_1
 10
226.187
 20
241.0883
  0
VERTEX
  8
LAYER_1
 10
226.2717
 20
241.0883
  0
VERTEX
  8
LAYER_1
 10
226.2717
 20
241.173
  0
VERTEX
  8
LAYER_1
 10
226.3563
 20
241.173
  0
VERTEX
  8
LAYER_1
 10
226.441
 20
241.173
  0
VERTEX
  8
LAYER_1
 10
226.5257
 20
241.173
  0
VERTEX
  8
LAYER_1
 10
226.5257
 20
241.0883
  0
VERTEX
  8
LAYER_1
 10
226.6103
 20
241.0883
  0
VERTEX
  8
LAYER_1
 10
226.6103
 20
241.0036
  0
VERTEX
  8
LAYER_1
 10
226.6103
 20
240.919
  0
VERTEX
  8
LAYER_1
 10
226.6103
 20
240.8343
  0
VERTEX
  8
LAYER_1
 10
226.6103
 20
240.7496
  0
VERTEX
  8
LAYER_1
 10
226.5257
 20
240.7496
  0
VERTEX
  8
LAYER_1
 10
226.5257
 20
240.665
  0
VERTEX
  8
LAYER_1
 10
226.441
 20
240.665
  0
VERTEX
  8
LAYER_1
 10
226.3563
 20
240.665
  0
VERTEX
  8
LAYER_1
 10
226.2717
 20
240.665
  0
VERTEX
  8
LAYER_1
 10
226.2717
 20
240.7496
  0
VERTEX
  8
LAYER_1
 10
226.187
 20
240.7496
  0
VERTEX
  8
LAYER_1
 10
226.187
 20
240.8343
  0
VERTEX
  8
LAYER_1
 10
226.187
 20
240.919
  0
SEQEND
  0
POLYLINE
  8
LAYER_1
 40
0.05
 41
0.05
 66
1
 10
0
 20
0
 30
0
 70
1
  0
VERTEX
  8
LAYER_1
 10
226.0812
 20
240.9401
  0
VERTEX
  8
LAYER_1
 10
226.1658
 20
240.9401
  0
VERTEX
  8
LAYER_1
 10
226.1658
 20
241.0248
  0
VERTEX
  8
LAYER_1
 10
226.1658
 20
241.1095
  0
VERTEX
  8
LAYER_1
 10
226.2505
 20
241.1095
  0
VERTEX
  8
LAYER_1
 10
226.2505
 20
241.1941
  0
VERTEX
  8
LAYER_1
 10
226.3352
 20
241.1941
  0
VERTEX
  8
LAYER_1
 10
226.4198
 20
241.1941
  0
VERTEX
  8
LAYER_1
 10
226.5045
 20
241.1941
  0
VERTEX
  8
LAYER_1
 10
226.5045
 20
241.1095
  0
VERTEX
  8
LAYER_1
 10
226.5892
 20
241.1095
  0
VERTEX
  8
LAYER_1
 10
226.5892
 20
241.0248
  0
VERTEX
  8
LAYER_1
 10
226.5892
 20
240.9401
  0
VERTEX
  8
LAYER_1
 10
226.5892
 20
240.8555
  0
VERTEX
  8
LAYER_1
 10
226.5892
 20
240.7708
  0
VERTEX
  8
LAYER_1
 10
226.5045
 20
240.7708
  0
VERTEX
  8
LAYER_1
 10
226.5045
 20
240.6861
  0
VERTEX
  8
LAYER_1
 10
226.4198
 20
240.6861
  0
VERTEX
  8
LAYER_1
 10
226.3352
 20
240.6861
  0
VERTEX
  8
LAYER_1
 10
226.2505
 20
240.6861
  0
VERTEX
  8
LAYER_1
 10
226.2505
 20
240.7708
  0
VERTEX
  8
LAYER_1
 10
226.1658
 20
240.7708
  0
VERTEX
  8
LAYER_1
 10
226.1658
 20
240.8555
  0
VERTEX
  8
LAYER_1
 10
226.1658
 20
240.9401
  0
SEQEND
  0
POLYLINE
  8
LAYER_1
 40
0.0811
 41
0.0811
 66
1
 10
0
 20
0
 30
0
 70
1
  0
VERTEX
  8
LAYER_1
 10
226.1023
 20
240.919
  0
VERTEX
  8
LAYER_1
 10
226.187
 20
240.919
  0
VERTEX
  8
LAYER_1
 10
226.187
 20
241.0036
  0
VERTEX
  8
LAYER_1
 10
226.187
 20
241.0883
  0
VERTEX
  8
LAYER_1
 10
226.2717
 20
241.0883
  0
VERTEX
  8
LAYER_1
 10
226.2717
 20
241.173
  0
VERTEX
  8
LAYER_1
 10
226.3563
 20
241.173
  0
VERTEX
  8
LAYER_1
 10
226.441
 20
241.173
  0
VERTEX
  8
LAYER_1
 10
226.5257
 20
241.173
  0
VERTEX
  8
LAYER_1
 10
226.5257
 20
241.0883
  0
VERTEX
  8
LAYER_1
 10
226.6103
 20
241.0883
  0
VERTEX
  8
LAYER_1
 10
226.6103
 20
241.0036
  0
VERTEX
  8
LAYER_1
 10
226.6103
 20
240.919
  0
VERTEX
  8
LAYER_1
 10
226.6103
 20
240.8343
  0
VERTEX
  8
LAYER_1
 10
226.6103
 20
240.7496
  0
VERTEX
  8
LAYER_1
 10
226.5257
 20
240.7496
  0
VERTEX
  8
LAYER_1
 10
226.5257
 20
240.665
  0
VERTEX
  8
LAYER_1
 10
226.441
 20
240.665
  0
VERTEX
  8
LAYER_1
 10
226.3563
 20
240.665
  0
VERTEX
  8
LAYER_1
 10
226.2717
 20
240.665
  0
VERTEX
  8
LAYER_1
 10
226.2717
 20
240.7496
  0
VERTEX
  8
LAYER_1
 10
226.187
 20
240.7496
  0
VERTEX
  8
LAYER_1
 10
226.187
 20
240.8343
  0
VERTEX
  8
LAYER_1
 10
226.187
 20
240.919
  0
SEQEND
  0
POLYLINE
  8
LAYER_1
 40
0.05
 41
0.05
 62
255
 66
1
 10
0
 20
0
 30
0
 70
1
  0
VERTEX
  8
LAYER_1
 10
154.0298
 20
245.3428
  0
VERTEX
  8
LAYER_1
 10
158.6865
 20
245.3428
  0
VERTEX
  8
LAYER_1
 10
158.6865
 20
242.1255
  0
VERTEX
  8
LAYER_1
 10
154.0298
 20
242.1255
  0
SEQEND
  0
TEXT
  8
LAYER_1
 10
154.0511
 20
242.6698
 11
154.0511
 21
242.6698
 40
3.4028
 41
0.5
  1
700
  0
POLYLINE
  8
LAYER_1
 40
0.1764
 41
0.1764
 66
1
 10
0
 20
0
 30
0
  0
VERTEX
  8
LAYER_1
 10
230.1663
 20
201.9723
  0
VERTEX
  8
LAYER_1
 10
257.7677
 20
201.9723
  0
SEQEND
  0
POLYLINE
  8
LAYER_1
 40
0.1764
 41
0.1764
 66
1
 10
0
 20
0
 30
0
  0
VERTEX
  8
LAYER_1
 10
230.1663
 20
61.9337
  0
VERTEX
  8
LAYER_1
 10
257.7677
 20
61.9337
  0
SEQEND
  0
POLYLINE
  8
LAYER_1
 40
0.1764
 41
0.1764
 66
1
 10
0
 20
0
 30
0
  0
VERTEX
  8
LAYER_1
 10
257.7677
 20
201.9723
  0
VERTEX
  8
LAYER_1
 10
257.7677
 20
61.9337
  0
SEQEND
  0
POLYLINE
  8
LAYER_1
 40
0.1764
 41
0.1764
 66
1
 10
0
 20
0
 30
0
 70
1
  0
VERTEX
  8
LAYER_1
 10
257.7677
 20
201.7183
  0
VERTEX
  8
LAYER_1
 10
257.683
 20
201.7183
  0
VERTEX
  8
LAYER_1
 10
257.5983
 20
201.7183
  0
VERTEX
  8
LAYER_1
 10
257.5983
 20
201.803
  0
VERTEX
  8
LAYER_1
 10
257.5983
 20
201.8877
  0
VERTEX
  8
LAYER_1
 10
257.5137
 20
201.8877
  0
VERTEX
  8
LAYER_1
 10
257.5137
 20
201.9723
  0
VERTEX
  8
LAYER_1
 10
257.5983
 20
202.057
  0
VERTEX
  8
LAYER_1
 10
257.5983
 20
202.1416
  0
VERTEX
  8
LAYER_1
 10
257.683
 20
202.1416
  0
VERTEX
  8
LAYER_1
 10
257.7677
 20
202.1416
  0
VERTEX
  8
LAYER_1
 10
257.7677
 20
202.2263
  0
VERTEX
  8
LAYER_1
 10
257.8523
 20
202.2263
  0
VERTEX
  8
LAYER_1
 10
257.8523
 20
202.1416
  0
VERTEX
  8
LAYER_1
 10
257.937
 20
202.1416
  0
VERTEX
  8
LAYER_1
 10
258.0217
 20
202.057
  0
VERTEX
  8
LAYER_1
 10
258.0217
 20
201.9723
  0
VERTEX
  8
LAYER_1
 10
258.0217
 20
201.8877
  0
VERTEX
  8
LAYER_1
 10
258.0217
 20
201.803
  0
VERTEX
  8
LAYER_1
 10
257.937
 20
201.803
  0
VERTEX
  8
LAYER_1
 10
257.937
 20
201.7183
  0
VERTEX
  8
LAYER_1
 10
257.8523
 20
201.7183
  0
SEQEND
  0
POLYLINE
  8
LAYER_1
 40
0.05
 41
0.05
 66
1
 10
0
 20
0
 30
0
 70
1
  0
VERTEX
  8
LAYER_1
 10
257.7465
 20
201.7395
  0
VERTEX
  8
LAYER_1
 10
257.6618
 20
201.7395
  0
VERTEX
  8
LAYER_1
 10
257.5772
 20
201.7395
  0
VERTEX
  8
LAYER_1
 10
257.5772
 20
201.8241
  0
VERTEX
  8
LAYER_1
 10
257.5772
 20
201.9088
  0
VERTEX
  8
LAYER_1
 10
257.4925
 20
201.9088
  0
VERTEX
  8
LAYER_1
 10
257.4925
 20
201.9935
  0
VERTEX
  8
LAYER_1
 10
257.5772
 20
202.0781
  0
VERTEX
  8
LAYER_1
 10
257.5772
 20
202.1628
  0
VERTEX
  8
LAYER_1
 10
257.6618
 20
202.1628
  0
VERTEX
  8
LAYER_1
 10
257.7465
 20
202.1628
  0
VERTEX
  8
LAYER_1
 10
257.7465
 20
202.2475
  0
VERTEX
  8
LAYER_1
 10
257.8312
 20
202.2475
  0
VERTEX
  8
LAYER_1
 10
257.8312
 20
202.1628
  0
VERTEX
  8
LAYER_1
 10
257.9158
 20
202.1628
  0
VERTEX
  8
LAYER_1
 10
258.0005
 20
202.0781
  0
VERTEX
  8
LAYER_1
 10
258.0005
 20
201.9935
  0
VERTEX
  8
LAYER_1
 10
258.0005
 20
201.9088
  0
VERTEX
  8
LAYER_1
 10
258.0005
 20
201.8241
  0
VERTEX
  8
LAYER_1
 10
257.9158
 20
201.8241
  0
VERTEX
  8
LAYER_1
 10
257.9158
 20
201.7395
  0
VERTEX
  8
LAYER_1
 10
257.8312
 20
201.7395
  0
SEQEND
  0
POLYLINE
  8
LAYER_1
 40
0.0811
 41
0.0811
 66
1
 10
0
 20
0
 30
0
 70
1
  0
VERTEX
  8
LAYER_1
 10
257.7677
 20
201.7183
  0
VERTEX
  8
LAYER_1
 10
257.683
 20
201.7183
  0
VERTEX
  8
LAYER_1
 10
257.5983
 20
201.7183
  0
VERTEX
  8
LAYER_1
 10
257.5983
 20
201.803
  0
VERTEX
  8
LAYER_1
 10
257.5983
 20
201.8877
  0
VERTEX
  8
LAYER_1
 10
257.5137
 20
201.8877
  0
VERTEX
  8
LAYER_1
 10
257.5137
 20
201.9723
  0
VERTEX
  8
LAYER_1
 10
257.5983
 20
202.057
  0
VERTEX
  8
LAYER_1
 10
257.5983
 20
202.1416
  0
VERTEX
  8
LAYER_1
 10
257.683
 20
202.1416
  0
VERTEX
  8
LAYER_1
 10
257.7677
 20
202.1416
  0
VERTEX
  8
LAYER_1
 10
257.7677
 20
202.2263
  0
VERTEX
  8
LAYER_1
 10
257.8523
 20
202.2263
  0
VERTEX
  8
LAYER_1
 10
257.8523
 20
202.1416
  0
VERTEX
  8
LAYER_1
 10
257.937
 20
202.1416
  0
VERTEX
  8
LAYER_1
 10
258.0217
 20
202.057
  0
VERTEX
  8
LAYER_1
 10
258.0217
 20
201.9723
  0
VERTEX
  8
LAYER_1
 10
258.0217
 20
201.8877
  0
VERTEX
  8
LAYER_1
 10
258.0217
 20
201.803
  0
VERTEX
  8
LAYER_1
 10
257.937
 20
201.803
  0
VERTEX
  8
LAYER_1
 10
257.937
 20
201.7183
  0
VERTEX
  8
LAYER_1
 10
257.8523
 20
201.7183
  0
SEQEND
  0
POLYLINE
  8
LAYER_1
 40
0.1764
 41
0.1764
 66
1
 10
0
 20
0
 30
0
 70
1
  0
VERTEX
  8
LAYER_1
 10
257.7677
 20
62.1877
  0
VERTEX
  8
LAYER_1
 10
257.8523
 20
62.1877
  0
VERTEX
  8
LAYER_1
 10
257.937
 20
62.1877
  0
VERTEX
  8
LAYER_1
 10
257.937
 20
62.103
  0
VERTEX
  8
LAYER_1
 10
258.0217
 20
62.103
  0
VERTEX
  8
LAYER_1
 10
258.0217
 20
62.0183
  0
VERTEX
  8
LAYER_1
 10
258.0217
 20
61.9337
  0
VERTEX
  8
LAYER_1
 10
258.0217
 20
61.849
  0
VERTEX
  8
LAYER_1
 10
258.0217
 20
61.7643
  0
VERTEX
  8
LAYER_1
 10
257.937
 20
61.7643
  0
VERTEX
  8
LAYER_1
 10
257.937
 20
61.6797
  0
VERTEX
  8
LAYER_1
 10
257.8523
 20
61.6797
  0
VERTEX
  8
LAYER_1
 10
257.7677
 20
61.6797
  0
VERTEX
  8
LAYER_1
 10
257.683
 20
61.6797
  0
VERTEX
  8
LAYER_1
 10
257.683
 20
61.7643
  0
VERTEX
  8
LAYER_1
 10
257.5983
 20
61.7643
  0
VERTEX
  8
LAYER_1
 10
257.5983
 20
61.849
  0
VERTEX
  8
LAYER_1
 10
257.5137
 20
61.849
  0
VERTEX
  8
LAYER_1
 10
257.5137
 20
61.9337
  0
VERTEX
  8
LAYER_1
 10
257.5137
 20
62.0183
  0
VERTEX
  8
LAYER_1
 10
257.5983
 20
62.0183
  0
VERTEX
  8
LAYER_1
 10
257.5983
 20
62.103
  0
VERTEX
  8
LAYER_1
 10
257.683
 20
62.103
  0
VERTEX
  8
LAYER_1
 10
257.683
 20
62.1877
  0
SEQEND
  0
POLYLINE
  8
LAYER_1
 40
0.05
 41
0.05
 66
1
 10
0
 20
0
 30
0
 70
1
  0
VERTEX
  8
LAYER_1
 10
257.7465
 20
62.2088
  0
VERTEX
  8
LAYER_1
 10
257.8312
 20
62.2088
  0
VERTEX
  8
LAYER_1
 10
257.9158
 20
62.2088
  0
VERTEX
  8
LAYER_1
 10
257.9158
 20
62.1242
  0
VERTEX
  8
LAYER_1
 10
258.0005
 20
62.1242
  0
VERTEX
  8
LAYER_1
 10
258.0005
 20
62.0395
  0
VERTEX
  8
LAYER_1
 10
258.0005
 20
61.9548
  0
VERTEX
  8
LAYER_1
 10
258.0005
 20
61.8702
  0
VERTEX
  8
LAYER_1
 10
258.0005
 20
61.7855
  0
VERTEX
  8
LAYER_1
 10
257.9158
 20
61.7855
  0
VERTEX
  8
LAYER_1
 10
257.9158
 20
61.7008
  0
VERTEX
  8
LAYER_1
 10
257.8312
 20
61.7008
  0
VERTEX
  8
LAYER_1
 10
257.7465
 20
61.7008
  0
VERTEX
  8
LAYER_1
 10
257.6618
 20
61.7008
  0
VERTEX
  8
LAYER_1
 10
257.6618
 20
61.7855
  0
VERTEX
  8
LAYER_1
 10
257.5772
 20
61.7855
  0
VERTEX
  8
LAYER_1
 10
257.5772
 20
61.8702
  0
VERTEX
  8
LAYER_1
 10
257.4925
 20
61.8702
  0
VERTEX
  8
LAYER_1
 10
257.4925
 20
61.9548
  0
VERTEX
  8
LAYER_1
 10
257.4925
 20
62.0395
  0
VERTEX
  8
LAYER_1
 10
257.5772
 20
62.0395
  0
VERTEX
  8
LAYER_1
 10
257.5772
 20
62.1242
  0
VERTEX
  8
LAYER_1
 10
257.6618
 20
62.1242
  0
VERTEX
  8
LAYER_1
 10
257.6618
 20
62.2088
  0
SEQEND
  0
POLYLINE
  8
LAYER_1
 40
0.0811
 41
0.0811
 66
1
 10
0
 20
0
 30
0
 70
1
  0
VERTEX
  8
LAYER_1
 10
257.7677
 20
62.1877
  0
VERTEX
  8
LAYER_1
 10
257.8523
 20
62.1877
  0
VERTEX
  8
LAYER_1
 10
257.937
 20
62.1877
  0
VERTEX
  8
LAYER_1
 10
257.937
 20
62.103
  0
VERTEX
  8
LAYER_1
 10
258.0217
 20
62.103
  0
VERTEX
  8
LAYER_1
 10
258.0217
 20
62.0183
  0
VERTEX
  8
LAYER_1
 10
258.0217
 20
61.9337
  0
VERTEX
  8
LAYER_1
 10
258.0217
 20
61.849
  0
VERTEX
  8
LAYER_1
 10
258.0217
 20
61.7643
  0
VERTEX
  8
LAYER_1
 10
257.937
 20
61.7643
  0
VERTEX
  8
LAYER_1
 10
257.937
 20
61.6797
  0
VERTEX
  8
LAYER_1
 10
257.8523
 20
61.6797
  0
VERTEX
  8
LAYER_1
 10
257.7677
 20
61.6797
  0
VERTEX
  8
LAYER_1
 10
257.683
 20
61.6797
  0
VERTEX
  8
LAYER_1
 10
257.683
 20
61.7643
  0
VERTEX
  8
LAYER_1
 10
257.5983
 20
61.7643
  0
VERTEX
  8
LAYER_1
 10
257.5983
 20
61.849
  0
VERTEX
  8
LAYER_1
 10
257.5137
 20
61.849
  0
VERTEX
  8
LAYER_1
 10
257.5137
 20
61.9337
  0
VERTEX
  8
LAYER_1
 10
257.5137
 20
62.0183
  0
VERTEX
  8
LAYER_1
 10
257.5983
 20
62.0183
  0
VERTEX
  8
LAYER_1
 10
257.5983
 20
62.103
  0
VERTEX
  8
LAYER_1
 10
257.683
 20
62.103
  0
VERTEX
  8
LAYER_1
 10
257.683
 20
62.1877
  0
SEQEND
  0
POLYLINE
  8
LAYER_1
 40
0.05
 41
0.05
 62
255
 66
1
 10
0
 20
0
 30
0
 70
1
  0
VERTEX
  8
LAYER_1
 10
253.3438
 20
129.6035
  0
VERTEX
  8
LAYER_1
 10
253.3438
 20
134.3448
  0
VERTEX
  8
LAYER_1
 10
256.5612
 20
134.3448
  0
VERTEX
  8
LAYER_1
 10
256.5612
 20
129.6035
  0
SEQEND
  0
TEXT
  8
LAYER_1
 10
256.0168
 20
129.5824
 11
256.0168
 21
129.5824
 40
3.4028
 41
0.5
 50
89.99999999
  1
700
  0
POLYLINE
  8
LAYER_1
 40
0.1764
 41
0.1764
 66
1
 10
0
 20
0
 30
0
  0
VERTEX
  8
LAYER_1
 10
230.1663
 20
185.9703
  0
VERTEX
  8
LAYER_1
 10
244.5597
 20
185.9703
  0
SEQEND
  0
POLYLINE
  8
LAYER_1
 40
0.1764
 41
0.1764
 66
1
 10
0
 20
0
 30
0
  0
VERTEX
  8
LAYER_1
 10
230.1663
 20
77.9357
  0
VERTEX
  8
LAYER_1
 10
244.5597
 20
77.9357
  0
SEQEND
  0
POLYLINE
  8
LAYER_1
 40
0.1764
 41
0.1764
 66
1
 10
0
 20
0
 30
0
  0
VERTEX
  8
LAYER_1
 10
244.5597
 20
185.9703
  0
VERTEX
  8
LAYER_1
 10
244.5597
 20
77.9357
  0
SEQEND
  0
POLYLINE
  8
LAYER_1
 40
0.1764
 41
0.1764
 66
1
 10
0
 20
0
 30
0
 70
1
  0
VERTEX
  8
LAYER_1
 10
244.5597
 20
185.7163
  0
VERTEX
  8
LAYER_1
 10
244.475
 20
185.7163
  0
VERTEX
  8
LAYER_1
 10
244.3903
 20
185.7163
  0
VERTEX
  8
LAYER_1
 10
244.3903
 20
185.801
  0
VERTEX
  8
LAYER_1
 10
244.3903
 20
185.8856
  0
VERTEX
  8
LAYER_1
 10
244.3057
 20
185.8856
  0
VERTEX
  8
LAYER_1
 10
244.3057
 20
185.9703
  0
VERTEX
  8
LAYER_1
 10
244.3903
 20
185.9703
  0
VERTEX
  8
LAYER_1
 10
244.3903
 20
186.055
  0
VERTEX
  8
LAYER_1
 10
244.3903
 20
186.1397
  0
VERTEX
  8
LAYER_1
 10
244.475
 20
186.1397
  0
VERTEX
  8
LAYER_1
 10
244.5597
 20
186.1397
  0
VERTEX
  8
LAYER_1
 10
244.5597
 20
186.2243
  0
VERTEX
  8
LAYER_1
 10
244.6443
 20
186.2243
  0
VERTEX
  8
LAYER_1
 10
244.6443
 20
186.1397
  0
VERTEX
  8
LAYER_1
 10
244.729
 20
186.1397
  0
VERTEX
  8
LAYER_1
 10
244.8137
 20
186.1397
  0
VERTEX
  8
LAYER_1
 10
244.8137
 20
186.055
  0
VERTEX
  8
LAYER_1
 10
244.8137
 20
185.9703
  0
VERTEX
  8
LAYER_1
 10
244.8137
 20
185.8856
  0
VERTEX
  8
LAYER_1
 10
244.8137
 20
185.801
  0
VERTEX
  8
LAYER_1
 10
244.729
 20
185.801
  0
VERTEX
  8
LAYER_1
 10
244.729
 20
185.7163
  0
VERTEX
  8
LAYER_1
 10
244.6443
 20
185.7163
  0
SEQEND
  0
POLYLINE
  8
LAYER_1
 40
0.05
 41
0.05
 66
1
 10
0
 20
0
 30
0
 70
1
  0
VERTEX
  8
LAYER_1
 10
244.5385
 20
185.7375
  0
VERTEX
  8
LAYER_1
 10
244.4538
 20
185.7375
  0
VERTEX
  8
LAYER_1
 10
244.3692
 20
185.7375
  0
VERTEX
  8
LAYER_1
 10
244.3692
 20
185.8221
  0
VERTEX
  8
LAYER_1
 10
244.3692
 20
185.9068
  0
VERTEX
  8
LAYER_1
 10
244.2845
 20
185.9068
  0
VERTEX
  8
LAYER_1
 10
244.2845
 20
185.9915
  0
VERTEX
  8
LAYER_1
 10
244.3692
 20
185.9915
  0
VERTEX
  8
LAYER_1
 10
244.3692
 20
186.0762
  0
VERTEX
  8
LAYER_1
 10
244.3692
 20
186.1608
  0
VERTEX
  8
LAYER_1
 10
244.4538
 20
186.1608
  0
VERTEX
  8
LAYER_1
 10
244.5385
 20
186.1608
  0
VERTEX
  8
LAYER_1
 10
244.5385
 20
186.2455
  0
VERTEX
  8
LAYER_1
 10
244.6232
 20
186.2455
  0
VERTEX
  8
LAYER_1
 10
244.6232
 20
186.1608
  0
VERTEX
  8
LAYER_1
 10
244.7078
 20
186.1608
  0
VERTEX
  8
LAYER_1
 10
244.7925
 20
186.1608
  0
VERTEX
  8
LAYER_1
 10
244.7925
 20
186.0762
  0
VERTEX
  8
LAYER_1
 10
244.7925
 20
185.9915
  0
VERTEX
  8
LAYER_1
 10
244.7925
 20
185.9068
  0
VERTEX
  8
LAYER_1
 10
244.7925
 20
185.8221
  0
VERTEX
  8
LAYER_1
 10
244.7078
 20
185.8221
  0
VERTEX
  8
LAYER_1
 10
244.7078
 20
185.7375
  0
VERTEX
  8
LAYER_1
 10
244.6232
 20
185.7375
  0
SEQEND
  0
POLYLINE
  8
LAYER_1
 40
0.0811
 41
0.0811
 66
1
 10
0
 20
0
 30
0
 70
1
  0
VERTEX
  8
LAYER_1
 10
244.5597
 20
185.7163
  0
VERTEX
  8
LAYER_1
 10
244.475
 20
185.7163
  0
VERTEX
  8
LAYER_1
 10
244.3903
 20
185.7163
  0
VERTEX
  8
LAYER_1
 10
244.3903
 20
185.801
  0
VERTEX
  8
LAYER_1
 10
244.3903
 20
185.8856
  0
VERTEX
  8
LAYER_1
 10
244.3057
 20
185.8856
  0
VERTEX
  8
LAYER_1
 10
244.3057
 20
185.9703
  0
VERTEX
  8
LAYER_1
 10
244.3903
 20
185.9703
  0
VERTEX
  8
LAYER_1
 10
244.3903
 20
186.055
  0
VERTEX
  8
LAYER_1
 10
244.3903
 20
186.1397
  0
VERTEX
  8
LAYER_1
 10
244.475
 20
186.1397
  0
VERTEX
  8
LAYER_1
 10
244.5597
 20
186.1397
  0
VERTEX
  8
LAYER_1
 10
244.5597
 20
186.2243
  0
VERTEX
  8
LAYER_1
 10
244.6443
 20
186.2243
  0
VERTEX
  8
LAYER_1
 10
244.6443
 20
186.1397
  0
VERTEX
  8
LAYER_1
 10
244.729
 20
186.1397
  0
VERTEX
  8
LAYER_1
 10
244.8137
 20
186.1397
  0
VERTEX
  8
LAYER_1
 10
244.8137
 20
186.055
  0
VERTEX
  8
LAYER_1
 10
244.8137
 20
185.9703
  0
VERTEX
  8
LAYER_1
 10
244.8137
 20
185.8856
  0
VERTEX
  8
LAYER_1
 10
244.8137
 20
185.801
  0
VERTEX
  8
LAYER_1
 10
244.729
 20
185.801
  0
VERTEX
  8
LAYER_1
 10
244.729
 20
185.7163
  0
VERTEX
  8
LAYER_1
 10
244.6443
 20
185.7163
  0
SEQEND
  0
POLYLINE
  8
LAYER_1
 40
0.1764
 41
0.1764
 66
1
 10
0
 20
0
 30
0
 70
1
  0
VERTEX
  8
LAYER_1
 10
244.5597
 20
78.1897
  0
VERTEX
  8
LAYER_1
 10
244.6443
 20
78.1897
  0
VERTEX
  8
LAYER_1
 10
244.729
 20
78.1897
  0
VERTEX
  8
LAYER_1
 10
244.729
 20
78.105
  0
VERTEX
  8
LAYER_1
 10
244.8137
 20
78.105
  0
VERTEX
  8
LAYER_1
 10
244.8137
 20
78.0203
  0
VERTEX
  8
LAYER_1
 10
244.8137
 20
77.9357
  0
VERTEX
  8
LAYER_1
 10
244.8137
 20
77.851
  0
VERTEX
  8
LAYER_1
 10
244.8137
 20
77.7663
  0
VERTEX
  8
LAYER_1
 10
244.729
 20
77.7663
  0
VERTEX
  8
LAYER_1
 10
244.729
 20
77.6817
  0
VERTEX
  8
LAYER_1
 10
244.6443
 20
77.6817
  0
VERTEX
  8
LAYER_1
 10
244.5597
 20
77.6817
  0
VERTEX
  8
LAYER_1
 10
244.475
 20
77.6817
  0
VERTEX
  8
LAYER_1
 10
244.475
 20
77.7663
  0
VERTEX
  8
LAYER_1
 10
244.3903
 20
77.7663
  0
VERTEX
  8
LAYER_1
 10
244.3903
 20
77.851
  0
VERTEX
  8
LAYER_1
 10
244.3057
 20
77.851
  0
VERTEX
  8
LAYER_1
 10
244.3057
 20
77.9357
  0
VERTEX
  8
LAYER_1
 10
244.3057
 20
78.0203
  0
VERTEX
  8
LAYER_1
 10
244.3903
 20
78.0203
  0
VERTEX
  8
LAYER_1
 10
244.3903
 20
78.105
  0
VERTEX
  8
LAYER_1
 10
244.475
 20
78.105
  0
VERTEX
  8
LAYER_1
 10
244.475
 20
78.1897
  0
SEQEND
  0
POLYLINE
  8
LAYER_1
 40
0.05
 41
0.05
 66
1
 10
0
 20
0
 30
0
 70
1
  0
VERTEX
  8
LAYER_1
 10
244.5385
 20
78.2108
  0
VERTEX
  8
LAYER_1
 10
244.6232
 20
78.2108
  0
VERTEX
  8
LAYER_1
 10
244.7078
 20
78.2108
  0
VERTEX
  8
LAYER_1
 10
244.7078
 20
78.1262
  0
VERTEX
  8
LAYER_1
 10
244.7925
 20
78.1262
  0
VERTEX
  8
LAYER_1
 10
244.7925
 20
78.0415
  0
VERTEX
  8
LAYER_1
 10
244.7925
 20
77.9568
  0
VERTEX
  8
LAYER_1
 10
244.7925
 20
77.8722
  0
VERTEX
  8
LAYER_1
 10
244.7925
 20
77.7875
  0
VERTEX
  8
LAYER_1
 10
244.7078
 20
77.7875
  0
VERTEX
  8
LAYER_1
 10
244.7078
 20
77.7028
  0
VERTEX
  8
LAYER_1
 10
244.6232
 20
77.7028
  0
VERTEX
  8
LAYER_1
 10
244.5385
 20
77.7028
  0
VERTEX
  8
LAYER_1
 10
244.4538
 20
77.7028
  0
VERTEX
  8
LAYER_1
 10
244.4538
 20
77.7875
  0
VERTEX
  8
LAYER_1
 10
244.3692
 20
77.7875
  0
VERTEX
  8
LAYER_1
 10
244.3692
 20
77.8722
  0
VERTEX
  8
LAYER_1
 10
244.2845
 20
77.8722
  0
VERTEX
  8
LAYER_1
 10
244.2845
 20
77.9568
  0
VERTEX
  8
LAYER_1
 10
244.2845
 20
78.0415
  0
VERTEX
  8
LAYER_1
 10
244.3692
 20
78.0415
  0
VERTEX
  8
LAYER_1
 10
244.3692
 20
78.1262
  0
VERTEX
  8
LAYER_1
 10
244.4538
 20
78.1262
  0
VERTEX
  8
LAYER_1
 10
244.4538
 20
78.2108
  0
SEQEND
  0
POLYLINE
  8
LAYER_1
 40
0.0811
 41
0.0811
 66
1
 10
0
 20
0
 30
0
 70
1
  0
VERTEX
  8
LAYER_1
 10
244.5597
 20
78.1897
  0
VERTEX
  8
LAYER_1
 10
244.6443
 20
78.1897
  0
VERTEX
  8
LAYER_1
 10
244.729
 20
78.1897
  0
VERTEX
  8
LAYER_1
 10
244.729
 20
78.105
  0
VERTEX
  8
LAYER_1
 10
244.8137
 20
78.105
  0
VERTEX
  8
LAYER_1
 10
244.8137
 20
78.0203
  0
VERTEX
  8
LAYER_1
 10
244.8137
 20
77.9357
  0
VERTEX
  8
LAYER_1
 10
244.8137
 20
77.851
  0
VERTEX
  8
LAYER_1
 10
244.8137
 20
77.7663
  0
VERTEX
  8
LAYER_1
 10
244.729
 20
77.7663
  0
VERTEX
  8
LAYER_1
 10
244.729
 20
77.6817
  0
VERTEX
  8
LAYER_1
 10
244.6443
 20
77.6817
  0
VERTEX
  8
LAYER_1
 10
244.5597
 20
77.6817
  0
VERTEX
  8
LAYER_1
 10
244.475
 20
77.6817
  0
VERTEX
  8
LAYER_1
 10
244.475
 20
77.7663
  0
VERTEX
  8
LAYER_1
 10
244.3903
 20
77.7663
  0
VERTEX
  8
LAYER_1
 10
244.3903
 20
77.851
  0
VERTEX
  8
LAYER_1
 10
244.3057
 20
77.851
  0
VERTEX
  8
LAYER_1
 10
244.3057
 20
77.9357
  0
VERTEX
  8
LAYER_1
 10
244.3057
 20
78.0203
  0
VERTEX
  8
LAYER_1
 10
244.3903
 20
78.0203
  0
VERTEX
  8
LAYER_1
 10
244.3903
 20
78.105
  0
VERTEX
  8
LAYER_1
 10
244.475
 20
78.105
  0
VERTEX
  8
LAYER_1
 10
244.475
 20
78.1897
  0
SEQEND
  0
POLYLINE
  8
LAYER_1
 40
0.05
 41
0.05
 62
255
 66
1
 10
0
 20
0
 30
0
 70
1
  0
VERTEX
  8
LAYER_1
 10
240.1358
 20
129.6035
  0
VERTEX
  8
LAYER_1
 10
240.1358
 20
134.3448
  0
VERTEX
  8
LAYER_1
 10
243.3532
 20
134.3448
  0
VERTEX
  8
LAYER_1
 10
243.3532
 20
129.6035
  0
SEQEND
  0
TEXT
  8
LAYER_1
 10
242.8086
 20
129.5824
 11
242.8086
 21
129.5824
 40
3.4028
 41
0.5
 50
89.99999999
  1
540
  0
POLYLINE
  8
LAYER_1
 40
0.1764
 41
0.1764
 66
1
 10
0
 20
0
 30
0
  0
VERTEX
  8
LAYER_1
 10
102.4043
 20
205.867
  0
VERTEX
  8
LAYER_1
 10
102.4043
 20
226.949
  0
SEQEND
  0
POLYLINE
  8
LAYER_1
 40
0.1764
 41
0.1764
 66
1
 10
0
 20
0
 30
0
  0
VERTEX
  8
LAYER_1
 10
210.3543
 20
205.867
  0
VERTEX
  8
LAYER_1
 10
210.3543
 20
226.949
  0
SEQEND
  0
POLYLINE
  8
LAYER_1
 40
0.1764
 41
0.1764
 66
1
 10
0
 20
0
 30
0
  0
VERTEX
  8
LAYER_1
 10
102.4043
 20
226.949
  0
VERTEX
  8
LAYER_1
 10
210.3543
 20
226.949
  0
SEQEND
  0
POLYLINE
  8
LAYER_1
 40
0.1764
 41
0.1764
 66
1
 10
0
 20
0
 30
0
 70
1
  0
VERTEX
  8
LAYER_1
 10
102.6583
 20
226.949
  0
VERTEX
  8
LAYER_1
 10
102.6583
 20
226.8643
  0
VERTEX
  8
LAYER_1
 10
102.6583
 20
226.7796
  0
VERTEX
  8
LAYER_1
 10
102.5737
 20
226.7796
  0
VERTEX
  8
LAYER_1
 10
102.5737
 20
226.695
  0
VERTEX
  8
LAYER_1
 10
102.489
 20
226.695
  0
VERTEX
  8
LAYER_1
 10
102.4043
 20
226.695
  0
VERTEX
  8
LAYER_1
 10
102.3197
 20
226.695
  0
VERTEX
  8
LAYER_1
 10
102.235
 20
226.695
  0
VERTEX
  8
LAYER_1
 10
102.235
 20
226.7796
  0
VERTEX
  8
LAYER_1
 10
102.1503
 20
226.7796
  0
VERTEX
  8
LAYER_1
 10
102.1503
 20
226.8643
  0
VERTEX
  8
LAYER_1
 10
102.1503
 20
226.949
  0
VERTEX
  8
LAYER_1
 10
102.1503
 20
227.0336
  0
VERTEX
  8
LAYER_1
 10
102.235
 20
227.1183
  0
VERTEX
  8
LAYER_1
 10
102.3197
 20
227.1183
  0
VERTEX
  8
LAYER_1
 10
102.3197
 20
227.203
  0
VERTEX
  8
LAYER_1
 10
102.4043
 20
227.203
  0
VERTEX
  8
LAYER_1
 10
102.489
 20
227.203
  0
VERTEX
  8
LAYER_1
 10
102.489
 20
227.1183
  0
VERTEX
  8
LAYER_1
 10
102.5737
 20
227.1183
  0
VERTEX
  8
LAYER_1
 10
102.5737
 20
227.0336
  0
VERTEX
  8
LAYER_1
 10
102.6583
 20
227.0336
  0
SEQEND
  0
POLYLINE
  8
LAYER_1
 40
0.05
 41
0.05
 66
1
 10
0
 20
0
 30
0
 70
1
  0
VERTEX
  8
LAYER_1
 10
102.6372
 20
226.9701
  0
VERTEX
  8
LAYER_1
 10
102.6372
 20
226.8855
  0
VERTEX
  8
LAYER_1
 10
102.6372
 20
226.8008
  0
VERTEX
  8
LAYER_1
 10
102.5525
 20
226.8008
  0
VERTEX
  8
LAYER_1
 10
102.5525
 20
226.7161
  0
VERTEX
  8
LAYER_1
 10
102.4678
 20
226.7161
  0
VERTEX
  8
LAYER_1
 10
102.3832
 20
226.7161
  0
VERTEX
  8
LAYER_1
 10
102.2985
 20
226.7161
  0
VERTEX
  8
LAYER_1
 10
102.2138
 20
226.7161
  0
VERTEX
  8
LAYER_1
 10
102.2138
 20
226.8008
  0
VERTEX
  8
LAYER_1
 10
102.1292
 20
226.8008
  0
VERTEX
  8
LAYER_1
 10
102.1292
 20
226.8855
  0
VERTEX
  8
LAYER_1
 10
102.1292
 20
226.9701
  0
VERTEX
  8
LAYER_1
 10
102.1292
 20
227.0548
  0
VERTEX
  8
LAYER_1
 10
102.2138
 20
227.1395
  0
VERTEX
  8
LAYER_1
 10
102.2985
 20
227.1395
  0
VERTEX
  8
LAYER_1
 10
102.2985
 20
227.2241
  0
VERTEX
  8
LAYER_1
 10
102.3832
 20
227.2241
  0
VERTEX
  8
LAYER_1
 10
102.4678
 20
227.2241
  0
VERTEX
  8
LAYER_1
 10
102.4678
 20
227.1395
  0
VERTEX
  8
LAYER_1
 10
102.5525
 20
227.1395
  0
VERTEX
  8
LAYER_1
 10
102.5525
 20
227.0548
  0
VERTEX
  8
LAYER_1
 10
102.6372
 20
227.0548
  0
SEQEND
  0
POLYLINE
  8
LAYER_1
 40
0.0811
 41
0.0811
 66
1
 10
0
 20
0
 30
0
 70
1
  0
VERTEX
  8
LAYER_1
 10
102.6583
 20
226.949
  0
VERTEX
  8
LAYER_1
 10
102.6583
 20
226.8643
  0
VERTEX
  8
LAYER_1
 10
102.6583
 20
226.7796
  0
VERTEX
  8
LAYER_1
 10
102.5737
 20
226.7796
  0
VERTEX
  8
LAYER_1
 10
102.5737
 20
226.695
  0
VERTEX
  8
LAYER_1
 10
102.489
 20
226.695
  0
VERTEX
  8
LAYER_1
 10
102.4043
 20
226.695
  0
VERTEX
  8
LAYER_1
 10
102.3197
 20
226.695
  0
VERTEX
  8
LAYER_1
 10
102.235
 20
226.695
  0
VERTEX
  8
LAYER_1
 10
102.235
 20
226.7796
  0
VERTEX
  8
LAYER_1
 10
102.1503
 20
226.7796
  0
VERTEX
  8
LAYER_1
 10
102.1503
 20
226.8643
  0
VERTEX
  8
LAYER_1
 10
102.1503
 20
226.949
  0
VERTEX
  8
LAYER_1
 10
102.1503
 20
227.0336
  0
VERTEX
  8
LAYER_1
 10
102.235
 20
227.1183
  0
VERTEX
  8
LAYER_1
 10
102.3197
 20
227.1183
  0
VERTEX
  8
LAYER_1
 10
102.3197
 20
227.203
  0
VERTEX
  8
LAYER_1
 10
102.4043
 20
227.203
  0
VERTEX
  8
LAYER_1
 10
102.489
 20
227.203
  0
VERTEX
  8
LAYER_1
 10
102.489
 20
227.1183
  0
VERTEX
  8
LAYER_1
 10
102.5737
 20
227.1183
  0
VERTEX
  8
LAYER_1
 10
102.5737
 20
227.0336
  0
VERTEX
  8
LAYER_1
 10
102.6583
 20
227.0336
  0
SEQEND
  0
POLYLINE
  8
LAYER_1
 40
0.1764
 41
0.1764
 66
1
 10
0
 20
0
 30
0
 70
1
  0
VERTEX
  8
LAYER_1
 10
210.1003
 20
226.949
  0
VERTEX
  8
LAYER_1
 10
210.185
 20
226.949
  0
VERTEX
  8
LAYER_1
 10
210.185
 20
227.0336
  0
VERTEX
  8
LAYER_1
 10
210.185
 20
227.1183
  0
VERTEX
  8
LAYER_1
 10
210.2697
 20
227.1183
  0
VERTEX
  8
LAYER_1
 10
210.3543
 20
227.1183
  0
VERTEX
  8
LAYER_1
 10
210.3543
 20
227.203
  0
VERTEX
  8
LAYER_1
 10
210.439
 20
227.203
  0
VERTEX
  8
LAYER_1
 10
210.439
 20
227.1183
  0
VERTEX
  8
LAYER_1
 10
210.5237
 20
227.1183
  0
VERTEX
  8
LAYER_1
 10
210.6083
 20
227.1183
  0
VERTEX
  8
LAYER_1
 10
210.6083
 20
227.0336
  0
VERTEX
  8
LAYER_1
 10
210.6083
 20
226.949
  0
VERTEX
  8
LAYER_1
 10
210.6083
 20
226.8643
  0
VERTEX
  8
LAYER_1
 10
210.6083
 20
226.7796
  0
VERTEX
  8
LAYER_1
 10
210.5237
 20
226.695
  0
VERTEX
  8
LAYER_1
 10
210.439
 20
226.695
  0
VERTEX
  8
LAYER_1
 10
210.3543
 20
226.695
  0
VERTEX
  8
LAYER_1
 10
210.2697
 20
226.695
  0
VERTEX
  8
LAYER_1
 10
210.185
 20
226.695
  0
VERTEX
  8
LAYER_1
 10
210.185
 20
226.7796
  0
VERTEX
  8
LAYER_1
 10
210.185
 20
226.8643
  0
VERTEX
  8
LAYER_1
 10
210.1003
 20
226.8643
  0
SEQEND
  0
POLYLINE
  8
LAYER_1
 40
0.05
 41
0.05
 66
1
 10
0
 20
0
 30
0
 70
1
  0
VERTEX
  8
LAYER_1
 10
210.0792
 20
226.9701
  0
VERTEX
  8
LAYER_1
 10
210.1638
 20
226.9701
  0
VERTEX
  8
LAYER_1
 10
210.1638
 20
227.0548
  0
VERTEX
  8
LAYER_1
 10
210.1638
 20
227.1395
  0
VERTEX
  8
LAYER_1
 10
210.2485
 20
227.1395
  0
VERTEX
  8
LAYER_1
 10
210.3332
 20
227.1395
  0
VERTEX
  8
LAYER_1
 10
210.3332
 20
227.2241
  0
VERTEX
  8
LAYER_1
 10
210.4178
 20
227.2241
  0
VERTEX
  8
LAYER_1
 10
210.4178
 20
227.1395
  0
VERTEX
  8
LAYER_1
 10
210.5025
 20
227.1395
  0
VERTEX
  8
LAYER_1
 10
210.5872
 20
227.1395
  0
VERTEX
  8
LAYER_1
 10
210.5872
 20
227.0548
  0
VERTEX
  8
LAYER_1
 10
210.5872
 20
226.9701
  0
VERTEX
  8
LAYER_1
 10
210.5872
 20
226.8855
  0
VERTEX
  8
LAYER_1
 10
210.5872
 20
226.8008
  0
VERTEX
  8
LAYER_1
 10
210.5025
 20
226.7161
  0
VERTEX
  8
LAYER_1
 10
210.4178
 20
226.7161
  0
VERTEX
  8
LAYER_1
 10
210.3332
 20
226.7161
  0
VERTEX
  8
LAYER_1
 10
210.2485
 20
226.7161
  0
VERTEX
  8
LAYER_1
 10
210.1638
 20
226.7161
  0
VERTEX
  8
LAYER_1
 10
210.1638
 20
226.8008
  0
VERTEX
  8
LAYER_1
 10
210.1638
 20
226.8855
  0
VERTEX
  8
LAYER_1
 10
210.0792
 20
226.8855
  0
SEQEND
  0
POLYLINE
  8
LAYER_1
 40
0.0811
 41
0.0811
 66
1
 10
0
 20
0
 30
0
 70
1
  0
VERTEX
  8
LAYER_1
 10
210.1003
 20
226.949
  0
VERTEX
  8
LAYER_1
 10
210.185
 20
226.949
  0
VERTEX
  8
LAYER_1
 10
210.185
 20
227.0336
  0
VERTEX
  8
LAYER_1
 10
210.185
 20
227.1183
  0
VERTEX
  8
LAYER_1
 10
210.2697
 20
227.1183
  0
VERTEX
  8
LAYER_1
 10
210.3543
 20
227.1183
  0
VERTEX
  8
LAYER_1
 10
210.3543
 20
227.203
  0
VERTEX
  8
LAYER_1
 10
210.439
 20
227.203
  0
VERTEX
  8
LAYER_1
 10
210.439
 20
227.1183
  0
VERTEX
  8
LAYER_1
 10
210.5237
 20
227.1183
  0
VERTEX
  8
LAYER_1
 10
210.6083
 20
227.1183
  0
VERTEX
  8
LAYER_1
 10
210.6083
 20
227.0336
  0
VERTEX
  8
LAYER_1
 10
210.6083
 20
226.949
  0
VERTEX
  8
LAYER_1
 10
210.6083
 20
226.8643
  0
VERTEX
  8
LAYER_1
 10
210.6083
 20
226.7796
  0
VERTEX
  8
LAYER_1
 10
210.5237
 20
226.695
  0
VERTEX
  8
LAYER_1
 10
210.439
 20
226.695
  0
VERTEX
  8
LAYER_1
 10
210.3543
 20
226.695
  0
VERTEX
  8
LAYER_1
 10
210.2697
 20
226.695
  0
VERTEX
  8
LAYER_1
 10
210.185
 20
226.695
  0
VERTEX
  8
LAYER_1
 10
210.185
 20
226.7796
  0
VERTEX
  8
LAYER_1
 10
210.185
 20
226.8643
  0
VERTEX
  8
LAYER_1
 10
210.1003
 20
226.8643
  0
SEQEND
  0
POLYLINE
  8
LAYER_1
 40
0.05
 41
0.05
 62
255
 66
1
 10
0
 20
0
 30
0
 70
1
  0
VERTEX
  8
LAYER_1
 10
154.0298
 20
231.3728
  0
VERTEX
  8
LAYER_1
 10
158.6865
 20
231.3728
  0
VERTEX
  8
LAYER_1
 10
158.6865
 20
228.1555
  0
VERTEX
  8
LAYER_1
 10
154.0298
 20
228.1555
  0
SEQEND
  0
TEXT
  8
LAYER_1
 10
154.0511
 20
228.6999
 11
154.0511
 21
228.6999
 40
3.4028
 41
0.5
  1
540
  0
POLYLINE
  8
LAYER_1
 40
0.1764
 41
0.1764
 66
1
 10
0
 20
0
 30
0
  0
VERTEX
  8
LAYER_1
 10
316.103
 20
202.3956
  0
VERTEX
  8
LAYER_1
 10
316.103
 20
214.757
  0
SEQEND
  0
POLYLINE
  8
LAYER_1
 40
0.1764
 41
0.1764
 66
1
 10
0
 20
0
 30
0
  0
VERTEX
  8
LAYER_1
 10
320.3363
 20
201.3796
  0
VERTEX
  8
LAYER_1
 10
320.3363
 20
214.757
  0
SEQEND
  0
POLYLINE
  8
LAYER_1
 40
0.1764
 41
0.1764
 66
1
 10
0
 20
0
 30
0
  0
VERTEX
  8
LAYER_1
 10
316.103
 20
214.757
  0
VERTEX
  8
LAYER_1
 10
320.3363
 20
214.757
  0
SEQEND
  0
POLYLINE
  8
LAYER_1
 40
0.1764
 41
0.1764
 66
1
 10
0
 20
0
 30
0
 70
1
  0
VERTEX
  8
LAYER_1
 10
316.357
 20
214.757
  0
VERTEX
  8
LAYER_1
 10
316.357
 20
214.6723
  0
VERTEX
  8
LAYER_1
 10
316.357
 20
214.5877
  0
VERTEX
  8
LAYER_1
 10
316.2723
 20
214.5877
  0
VERTEX
  8
LAYER_1
 10
316.2723
 20
214.503
  0
VERTEX
  8
LAYER_1
 10
316.1877
 20
214.503
  0
VERTEX
  8
LAYER_1
 10
316.103
 20
214.503
  0
VERTEX
  8
LAYER_1
 10
316.0183
 20
214.503
  0
VERTEX
  8
LAYER_1
 10
315.9337
 20
214.503
  0
VERTEX
  8
LAYER_1
 10
315.9337
 20
214.5877
  0
VERTEX
  8
LAYER_1
 10
315.849
 20
214.5877
  0
VERTEX
  8
LAYER_1
 10
315.849
 20
214.6723
  0
VERTEX
  8
LAYER_1
 10
315.849
 20
214.757
  0
VERTEX
  8
LAYER_1
 10
315.849
 20
214.8416
  0
VERTEX
  8
LAYER_1
 10
315.9337
 20
214.8416
  0
VERTEX
  8
LAYER_1
 10
315.9337
 20
214.9263
  0
VERTEX
  8
LAYER_1
 10
316.0183
 20
214.9263
  0
VERTEX
  8
LAYER_1
 10
316.103
 20
215.011
  0
VERTEX
  8
LAYER_1
 10
316.1877
 20
214.9263
  0
VERTEX
  8
LAYER_1
 10
316.2723
 20
214.9263
  0
VERTEX
  8
LAYER_1
 10
316.2723
 20
214.8416
  0
VERTEX
  8
LAYER_1
 10
316.357
 20
214.8416
  0
SEQEND
  0
POLYLINE
  8
LAYER_1
 40
0.05
 41
0.05
 66
1
 10
0
 20
0
 30
0
 70
1
  0
VERTEX
  8
LAYER_1
 10
316.3358
 20
214.7781
  0
VERTEX
  8
LAYER_1
 10
316.3358
 20
214.6935
  0
VERTEX
  8
LAYER_1
 10
316.3358
 20
214.6088
  0
VERTEX
  8
LAYER_1
 10
316.2512
 20
214.6088
  0
VERTEX
  8
LAYER_1
 10
316.2512
 20
214.5241
  0
VERTEX
  8
LAYER_1
 10
316.1665
 20
214.5241
  0
VERTEX
  8
LAYER_1
 10
316.0818
 20
214.5241
  0
VERTEX
  8
LAYER_1
 10
315.9972
 20
214.5241
  0
VERTEX
  8
LAYER_1
 10
315.9125
 20
214.5241
  0
VERTEX
  8
LAYER_1
 10
315.9125
 20
214.6088
  0
VERTEX
  8
LAYER_1
 10
315.8278
 20
214.6088
  0
VERTEX
  8
LAYER_1
 10
315.8278
 20
214.6935
  0
VERTEX
  8
LAYER_1
 10
315.8278
 20
214.7781
  0
VERTEX
  8
LAYER_1
 10
315.8278
 20
214.8628
  0
VERTEX
  8
LAYER_1
 10
315.9125
 20
214.8628
  0
VERTEX
  8
LAYER_1
 10
315.9125
 20
214.9475
  0
VERTEX
  8
LAYER_1
 10
315.9972
 20
214.9475
  0
VERTEX
  8
LAYER_1
 10
316.0818
 20
215.0321
  0
VERTEX
  8
LAYER_1
 10
316.1665
 20
214.9475
  0
VERTEX
  8
LAYER_1
 10
316.2512
 20
214.9475
  0
VERTEX
  8
LAYER_1
 10
316.2512
 20
214.8628
  0
VERTEX
  8
LAYER_1
 10
316.3358
 20
214.8628
  0
SEQEND
  0
POLYLINE
  8
LAYER_1
 40
0.0811
 41
0.0811
 66
1
 10
0
 20
0
 30
0
 70
1
  0
VERTEX
  8
LAYER_1
 10
316.357
 20
214.757
  0
VERTEX
  8
LAYER_1
 10
316.357
 20
214.6723
  0
VERTEX
  8
LAYER_1
 10
316.357
 20
214.5877
  0
VERTEX
  8
LAYER_1
 10
316.2723
 20
214.5877
  0
VERTEX
  8
LAYER_1
 10
316.2723
 20
214.503
  0
VERTEX
  8
LAYER_1
 10
316.1877
 20
214.503
  0
VERTEX
  8
LAYER_1
 10
316.103
 20
214.503
  0
VERTEX
  8
LAYER_1
 10
316.0183
 20
214.503
  0
VERTEX
  8
LAYER_1
 10
315.9337
 20
214.503
  0
VERTEX
  8
LAYER_1
 10
315.9337
 20
214.5877
  0
VERTEX
  8
LAYER_1
 10
315.849
 20
214.5877
  0
VERTEX
  8
LAYER_1
 10
315.849
 20
214.6723
  0
VERTEX
  8
LAYER_1
 10
315.849
 20
214.757
  0
VERTEX
  8
LAYER_1
 10
315.849
 20
214.8416
  0
VERTEX
  8
LAYER_1
 10
315.9337
 20
214.8416
  0
VERTEX
  8
LAYER_1
 10
315.9337
 20
214.9263
  0
VERTEX
  8
LAYER_1
 10
316.0183
 20
214.9263
  0
VERTEX
  8
LAYER_1
 10
316.103
 20
215.011
  0
VERTEX
  8
LAYER_1
 10
316.1877
 20
214.9263
  0
VERTEX
  8
LAYER_1
 10
316.2723
 20
214.9263
  0
VERTEX
  8
LAYER_1
 10
316.2723
 20
214.8416
  0
VERTEX
  8
LAYER_1
 10
316.357
 20
214.8416
  0
SEQEND
  0
POLYLINE
  8
LAYER_1
 40
0.1764
 41
0.1764
 66
1
 10
0
 20
0
 30
0
 70
1
  0
VERTEX
  8
LAYER_1
 10
320.0823
 20
214.757
  0
VERTEX
  8
LAYER_1
 10
320.0823
 20
214.8416
  0
VERTEX
  8
LAYER_1
 10
320.0823
 20
214.9263
  0
VERTEX
  8
LAYER_1
 10
320.167
 20
214.9263
  0
VERTEX
  8
LAYER_1
 10
320.2517
 20
214.9263
  0
VERTEX
  8
LAYER_1
 10
320.2517
 20
215.011
  0
VERTEX
  8
LAYER_1
 10
320.3363
 20
215.011
  0
VERTEX
  8
LAYER_1
 10
320.3363
 20
214.9263
  0
VERTEX
  8
LAYER_1
 10
320.421
 20
214.9263
  0
VERTEX
  8
LAYER_1
 10
320.5057
 20
214.9263
  0
VERTEX
  8
LAYER_1
 10
320.5057
 20
214.8416
  0
VERTEX
  8
LAYER_1
 10
320.5057
 20
214.757
  0
VERTEX
  8
LAYER_1
 10
320.5903
 20
214.757
  0
VERTEX
  8
LAYER_1
 10
320.5903
 20
214.6723
  0
VERTEX
  8
LAYER_1
 10
320.5057
 20
214.6723
  0
VERTEX
  8
LAYER_1
 10
320.5057
 20
214.5877
  0
VERTEX
  8
LAYER_1
 10
320.5057
 20
214.503
  0
VERTEX
  8
LAYER_1
 10
320.421
 20
214.503
  0
VERTEX
  8
LAYER_1
 10
320.3363
 20
214.503
  0
VERTEX
  8
LAYER_1
 10
320.2517
 20
214.503
  0
VERTEX
  8
LAYER_1
 10
320.167
 20
214.503
  0
VERTEX
  8
LAYER_1
 10
320.0823
 20
214.503
  0
VERTEX
  8
LAYER_1
 10
320.0823
 20
214.5877
  0
VERTEX
  8
LAYER_1
 10
320.0823
 20
214.6723
  0
SEQEND
  0
POLYLINE
  8
LAYER_1
 40
0.05
 41
0.05
 66
1
 10
0
 20
0
 30
0
 70
1
  0
VERTEX
  8
LAYER_1
 10
320.0612
 20
214.7781
  0
VERTEX
  8
LAYER_1
 10
320.0612
 20
214.8628
  0
VERTEX
  8
LAYER_1
 10
320.0612
 20
214.9475
  0
VERTEX
  8
LAYER_1
 10
320.1458
 20
214.9475
  0
VERTEX
  8
LAYER_1
 10
320.2305
 20
214.9475
  0
VERTEX
  8
LAYER_1
 10
320.2305
 20
215.0321
  0
VERTEX
  8
LAYER_1
 10
320.3152
 20
215.0321
  0
VERTEX
  8
LAYER_1
 10
320.3152
 20
214.9475
  0
VERTEX
  8
LAYER_1
 10
320.3998
 20
214.9475
  0
VERTEX
  8
LAYER_1
 10
320.4845
 20
214.9475
  0
VERTEX
  8
LAYER_1
 10
320.4845
 20
214.8628
  0
VERTEX
  8
LAYER_1
 10
320.4845
 20
214.7781
  0
VERTEX
  8
LAYER_1
 10
320.5692
 20
214.7781
  0
VERTEX
  8
LAYER_1
 10
320.5692
 20
214.6935
  0
VERTEX
  8
LAYER_1
 10
320.4845
 20
214.6935
  0
VERTEX
  8
LAYER_1
 10
320.4845
 20
214.6088
  0
VERTEX
  8
LAYER_1
 10
320.4845
 20
214.5241
  0
VERTEX
  8
LAYER_1
 10
320.3998
 20
214.5241
  0
VERTEX
  8
LAYER_1
 10
320.3152
 20
214.5241
  0
VERTEX
  8
LAYER_1
 10
320.2305
 20
214.5241
  0
VERTEX
  8
LAYER_1
 10
320.1458
 20
214.5241
  0
VERTEX
  8
LAYER_1
 10
320.0612
 20
214.5241
  0
VERTEX
  8
LAYER_1
 10
320.0612
 20
214.6088
  0
VERTEX
  8
LAYER_1
 10
320.0612
 20
214.6935
  0
SEQEND
  0
POLYLINE
  8
LAYER_1
 40
0.0811
 41
0.0811
 66
1
 10
0
 20
0
 30
0
 70
1
  0
VERTEX
  8
LAYER_1
 10
320.0823
 20
214.757
  0
VERTEX
  8
LAYER_1
 10
320.0823
 20
214.8416
  0
VERTEX
  8
LAYER_1
 10
320.0823
 20
214.9263
  0
VERTEX
  8
LAYER_1
 10
320.167
 20
214.9263
  0
VERTEX
  8
LAYER_1
 10
320.2517
 20
214.9263
  0
VERTEX
  8
LAYER_1
 10
320.2517
 20
215.011
  0
VERTEX
  8
LAYER_1
 10
320.3363
 20
215.011
  0
VERTEX
  8
LAYER_1
 10
320.3363
 20
214.9263
  0
VERTEX
  8
LAYER_1
 10
320.421
 20
214.9263
  0
VERTEX
  8
LAYER_1
 10
320.5057
 20
214.9263
  0
VERTEX
  8
LAYER_1
 10
320.5057
 20
214.8416
  0
VERTEX
  8
LAYER_1
 10
320.5057
 20
214.757
  0
VERTEX
  8
LAYER_1
 10
320.5903
 20
214.757
  0
VERTEX
  8
LAYER_1
 10
320.5903
 20
214.6723
  0
VERTEX
  8
LAYER_1
 10
320.5057
 20
214.6723
  0
VERTEX
  8
LAYER_1
 10
320.5057
 20
214.5877
  0
VERTEX
  8
LAYER_1
 10
320.5057
 20
214.503
  0
VERTEX
  8
LAYER_1
 10
320.421
 20
214.503
  0
VERTEX
  8
LAYER_1
 10
320.3363
 20
214.503
  0
VERTEX
  8
LAYER_1
 10
320.2517
 20
214.503
  0
VERTEX
  8
LAYER_1
 10
320.167
 20
214.503
  0
VERTEX
  8
LAYER_1
 10
320.0823
 20
214.503
  0
VERTEX
  8
LAYER_1
 10
320.0823
 20
214.5877
  0
VERTEX
  8
LAYER_1
 10
320.0823
 20
214.6723
  0
SEQEND
  0
POLYLINE
  8
LAYER_1
 40
0.05
 41
0.05
 62
255
 66
1
 10
0
 20
0
 30
0
 70
1
  0
VERTEX
  8
LAYER_1
 10
316.5898
 20
219.1808
  0
VERTEX
  8
LAYER_1
 10
319.7225
 20
219.1808
  0
VERTEX
  8
LAYER_1
 10
319.7225
 20
215.9635
  0
VERTEX
  8
LAYER_1
 10
316.5898
 20
215.9635
  0
SEQEND
  0
TEXT
  8
LAYER_1
 10
316.6112
 20
216.5079
 11
316.6112
 21
216.5079
 40
3.4028
 41
0.5
  1
21
  0
POLYLINE
  8
LAYER_1
 40
0.1764
 41
0.1764
 66
1
 10
0
 20
0
 30
0
  0
VERTEX
  8
LAYER_1
 10
316.103
 20
202.3956
  0
VERTEX
  8
LAYER_1
 10
316.103
 20
209.0843
  0
SEQEND
  0
POLYLINE
  8
LAYER_1
 40
0.1764
 41
0.1764
 66
1
 10
0
 20
0
 30
0
  0
VERTEX
  8
LAYER_1
 10
318.4736
 20
202.3956
  0
VERTEX
  8
LAYER_1
 10
318.4736
 20
209.0843
  0
SEQEND
  0
POLYLINE
  8
LAYER_1
 40
0.1764
 41
0.1764
 66
1
 10
0
 20
0
 30
0
  0
VERTEX
  8
LAYER_1
 10
316.103
 20
209.0843
  0
VERTEX
  8
LAYER_1
 10
318.4736
 20
209.0843
  0
SEQEND
  0
POLYLINE
  8
LAYER_1
 40
0.1764
 41
0.1764
 66
1
 10
0
 20
0
 30
0
 70
1
  0
VERTEX
  8
LAYER_1
 10
316.357
 20
209.0843
  0
VERTEX
  8
LAYER_1
 10
316.357
 20
208.9996
  0
VERTEX
  8
LAYER_1
 10
316.357
 20
208.915
  0
VERTEX
  8
LAYER_1
 10
316.2723
 20
208.915
  0
VERTEX
  8
LAYER_1
 10
316.2723
 20
208.8303
  0
VERTEX
  8
LAYER_1
 10
316.1877
 20
208.8303
  0
VERTEX
  8
LAYER_1
 10
316.103
 20
208.8303
  0
VERTEX
  8
LAYER_1
 10
316.0183
 20
208.8303
  0
VERTEX
  8
LAYER_1
 10
315.9337
 20
208.8303
  0
VERTEX
  8
LAYER_1
 10
315.9337
 20
208.915
  0
VERTEX
  8
LAYER_1
 10
315.849
 20
208.915
  0
VERTEX
  8
LAYER_1
 10
315.849
 20
208.9996
  0
VERTEX
  8
LAYER_1
 10
315.849
 20
209.0843
  0
VERTEX
  8
LAYER_1
 10
315.849
 20
209.169
  0
VERTEX
  8
LAYER_1
 10
315.9337
 20
209.2536
  0
VERTEX
  8
LAYER_1
 10
316.0183
 20
209.3383
  0
VERTEX
  8
LAYER_1
 10
316.103
 20
209.3383
  0
VERTEX
  8
LAYER_1
 10
316.1877
 20
209.3383
  0
VERTEX
  8
LAYER_1
 10
316.2723
 20
209.2536
  0
VERTEX
  8
LAYER_1
 10
316.357
 20
209.169
  0
SEQEND
  0
POLYLINE
  8
LAYER_1
 40
0.05
 41
0.05
 66
1
 10
0
 20
0
 30
0
 70
1
  0
VERTEX
  8
LAYER_1
 10
316.3358
 20
209.1055
  0
VERTEX
  8
LAYER_1
 10
316.3358
 20
209.0208
  0
VERTEX
  8
LAYER_1
 10
316.3358
 20
208.9361
  0
VERTEX
  8
LAYER_1
 10
316.2512
 20
208.9361
  0
VERTEX
  8
LAYER_1
 10
316.2512
 20
208.8515
  0
VERTEX
  8
LAYER_1
 10
316.1665
 20
208.8515
  0
VERTEX
  8
LAYER_1
 10
316.0818
 20
208.8515
  0
VERTEX
  8
LAYER_1
 10
315.9972
 20
208.8515
  0
VERTEX
  8
LAYER_1
 10
315.9125
 20
208.8515
  0
VERTEX
  8
LAYER_1
 10
315.9125
 20
208.9361
  0
VERTEX
  8
LAYER_1
 10
315.8278
 20
208.9361
  0
VERTEX
  8
LAYER_1
 10
315.8278
 20
209.0208
  0
VERTEX
  8
LAYER_1
 10
315.8278
 20
209.1055
  0
VERTEX
  8
LAYER_1
 10
315.8278
 20
209.1901
  0
VERTEX
  8
LAYER_1
 10
315.9125
 20
209.2748
  0
VERTEX
  8
LAYER_1
 10
315.9972
 20
209.3595
  0
VERTEX
  8
LAYER_1
 10
316.0818
 20
209.3595
  0
VERTEX
  8
LAYER_1
 10
316.1665
 20
209.3595
  0
VERTEX
  8
LAYER_1
 10
316.2512
 20
209.2748
  0
VERTEX
  8
LAYER_1
 10
316.3358
 20
209.1901
  0
SEQEND
  0
POLYLINE
  8
LAYER_1
 40
0.0811
 41
0.0811
 66
1
 10
0
 20
0
 30
0
 70
1
  0
VERTEX
  8
LAYER_1
 10
316.357
 20
209.0843
  0
VERTEX
  8
LAYER_1
 10
316.357
 20
208.9996
  0
VERTEX
  8
LAYER_1
 10
316.357
 20
208.915
  0
VERTEX
  8
LAYER_1
 10
316.2723
 20
208.915
  0
VERTEX
  8
LAYER_1
 10
316.2723
 20
208.8303
  0
VERTEX
  8
LAYER_1
 10
316.1877
 20
208.8303
  0
VERTEX
  8
LAYER_1
 10
316.103
 20
208.8303
  0
VERTEX
  8
LAYER_1
 10
316.0183
 20
208.8303
  0
VERTEX
  8
LAYER_1
 10
315.9337
 20
208.8303
  0
VERTEX
  8
LAYER_1
 10
315.9337
 20
208.915
  0
VERTEX
  8
LAYER_1
 10
315.849
 20
208.915
  0
VERTEX
  8
LAYER_1
 10
315.849
 20
208.9996
  0
VERTEX
  8
LAYER_1
 10
315.849
 20
209.0843
  0
VERTEX
  8
LAYER_1
 10
315.849
 20
209.169
  0
VERTEX
  8
LAYER_1
 10
315.9337
 20
209.2536
  0
VERTEX
  8
LAYER_1
 10
316.0183
 20
209.3383
  0
VERTEX
  8
LAYER_1
 10
316.103
 20
209.3383
  0
VERTEX
  8
LAYER_1
 10
316.1877
 20
209.3383
  0
VERTEX
  8
LAYER_1
 10
316.2723
 20
209.2536
  0
VERTEX
  8
LAYER_1
 10
316.357
 20
209.169
  0
SEQEND
  0
POLYLINE
  8
LAYER_1
 40
0.1764
 41
0.1764
 66
1
 10
0
 20
0
 30
0
 70
1
  0
VERTEX
  8
LAYER_1
 10
318.2197
 20
209.0843
  0
VERTEX
  8
LAYER_1
 10
318.2197
 20
209.169
  0
VERTEX
  8
LAYER_1
 10
318.3043
 20
209.169
  0
VERTEX
  8
LAYER_1
 10
318.3043
 20
209.2536
  0
VERTEX
  8
LAYER_1
 10
318.389
 20
209.2536
  0
VERTEX
  8
LAYER_1
 10
318.389
 20
209.3383
  0
VERTEX
  8
LAYER_1
 10
318.4736
 20
209.3383
  0
VERTEX
  8
LAYER_1
 10
318.5583
 20
209.3383
  0
VERTEX
  8
LAYER_1
 10
318.643
 20
209.3383
  0
VERTEX
  8
LAYER_1
 10
318.643
 20
209.2536
  0
VERTEX
  8
LAYER_1
 10
318.7277
 20
209.2536
  0
VERTEX
  8
LAYER_1
 10
318.7277
 20
209.169
  0
VERTEX
  8
LAYER_1
 10
318.7277
 20
209.0843
  0
VERTEX
  8
LAYER_1
 10
318.7277
 20
208.9996
  0
VERTEX
  8
LAYER_1
 10
318.7277
 20
208.915
  0
VERTEX
  8
LAYER_1
 10
318.643
 20
208.915
  0
VERTEX
  8
LAYER_1
 10
318.643
 20
208.8303
  0
VERTEX
  8
LAYER_1
 10
318.5583
 20
208.8303
  0
VERTEX
  8
LAYER_1
 10
318.4736
 20
208.8303
  0
VERTEX
  8
LAYER_1
 10
318.389
 20
208.8303
  0
VERTEX
  8
LAYER_1
 10
318.389
 20
208.915
  0
VERTEX
  8
LAYER_1
 10
318.3043
 20
208.915
  0
VERTEX
  8
LAYER_1
 10
318.3043
 20
208.9996
  0
VERTEX
  8
LAYER_1
 10
318.2197
 20
208.9996
  0
SEQEND
  0
POLYLINE
  8
LAYER_1
 40
0.05
 41
0.05
 66
1
 10
0
 20
0
 30
0
 70
1
  0
VERTEX
  8
LAYER_1
 10
318.1985
 20
209.1055
  0
VERTEX
  8
LAYER_1
 10
318.1985
 20
209.1901
  0
VERTEX
  8
LAYER_1
 10
318.2832
 20
209.1901
  0
VERTEX
  8
LAYER_1
 10
318.2832
 20
209.2748
  0
VERTEX
  8
LAYER_1
 10
318.3678
 20
209.2748
  0
VERTEX
  8
LAYER_1
 10
318.3678
 20
209.3595
  0
VERTEX
  8
LAYER_1
 10
318.4525
 20
209.3595
  0
VERTEX
  8
LAYER_1
 10
318.5372
 20
209.3595
  0
VERTEX
  8
LAYER_1
 10
318.6218
 20
209.3595
  0
VERTEX
  8
LAYER_1
 10
318.6218
 20
209.2748
  0
VERTEX
  8
LAYER_1
 10
318.7065
 20
209.2748
  0
VERTEX
  8
LAYER_1
 10
318.7065
 20
209.1901
  0
VERTEX
  8
LAYER_1
 10
318.7065
 20
209.1055
  0
VERTEX
  8
LAYER_1
 10
318.7065
 20
209.0208
  0
VERTEX
  8
LAYER_1
 10
318.7065
 20
208.9361
  0
VERTEX
  8
LAYER_1
 10
318.6218
 20
208.9361
  0
VERTEX
  8
LAYER_1
 10
318.6218
 20
208.8515
  0
VERTEX
  8
LAYER_1
 10
318.5372
 20
208.8515
  0
VERTEX
  8
LAYER_1
 10
318.4525
 20
208.8515
  0
VERTEX
  8
LAYER_1
 10
318.3678
 20
208.8515
  0
VERTEX
  8
LAYER_1
 10
318.3678
 20
208.9361
  0
VERTEX
  8
LAYER_1
 10
318.2832
 20
208.9361
  0
VERTEX
  8
LAYER_1
 10
318.2832
 20
209.0208
  0
VERTEX
  8
LAYER_1
 10
318.1985
 20
209.0208
  0
SEQEND
  0
POLYLINE
  8
LAYER_1
 40
0.0811
 41
0.0811
 66
1
 10
0
 20
0
 30
0
 70
1
  0
VERTEX
  8
LAYER_1
 10
318.2197
 20
209.0843
  0
VERTEX
  8
LAYER_1
 10
318.2197
 20
209.169
  0
VERTEX
  8
LAYER_1
 10
318.3043
 20
209.169
  0
VERTEX
  8
LAYER_1
 10
318.3043
 20
209.2536
  0
VERTEX
  8
LAYER_1
 10
318.389
 20
209.2536
  0
VERTEX
  8
LAYER_1
 10
318.389
 20
209.3383
  0
VERTEX
  8
LAYER_1
 10
318.4736
 20
209.3383
  0
VERTEX
  8
LAYER_1
 10
318.5583
 20
209.3383
  0
VERTEX
  8
LAYER_1
 10
318.643
 20
209.3383
  0
VERTEX
  8
LAYER_1
 10
318.643
 20
209.2536
  0
VERTEX
  8
LAYER_1
 10
318.7277
 20
209.2536
  0
VERTEX
  8
LAYER_1
 10
318.7277
 20
209.169
  0
VERTEX
  8
LAYER_1
 10
318.7277
 20
209.0843
  0
VERTEX
  8
LAYER_1
 10
318.7277
 20
208.9996
  0
VERTEX
  8
LAYER_1
 10
318.7277
 20
208.915
  0
VERTEX
  8
LAYER_1
 10
318.643
 20
208.915
  0
VERTEX
  8
LAYER_1
 10
318.643
 20
208.8303
  0
VERTEX
  8
LAYER_1
 10
318.5583
 20
208.8303
  0
VERTEX
  8
LAYER_1
 10
318.4736
 20
208.8303
  0
VERTEX
  8
LAYER_1
 10
318.389
 20
208.8303
  0
VERTEX
  8
LAYER_1
 10
318.389
 20
208.915
  0
VERTEX
  8
LAYER_1
 10
318.3043
 20
208.915
  0
VERTEX
  8
LAYER_1
 10
318.3043
 20
208.9996
  0
VERTEX
  8
LAYER_1
 10
318.2197
 20
208.9996
  0
SEQEND
  0
POLYLINE
  8
LAYER_1
 40
0.05
 41
0.05
 62
255
 66
1
 10
0
 20
0
 30
0
 70
1
  0
VERTEX
  8
LAYER_1
 10
315.7432
 20
213.5081
  0
VERTEX
  8
LAYER_1
 10
318.8758
 20
213.5081
  0
VERTEX
  8
LAYER_1
 10
318.8758
 20
210.2908
  0
VERTEX
  8
LAYER_1
 10
315.7432
 20
210.2908
  0
SEQEND
  0
TEXT
  8
LAYER_1
 10
315.7644
 20
210.8352
 11
315.7644
 21
210.8352
 40
3.4028
 41
0.5
  1
12
  0
POLYLINE
  8
LAYER_1
 40
0.1764
 41
0.1764
 66
1
 10
0
 20
0
 30
0
  0
VERTEX
  8
LAYER_1
 10
321.2677
 20
200.4483
  0
VERTEX
  8
LAYER_1
 10
333.2057
 20
200.4483
  0
SEQEND
  0
POLYLINE
  8
LAYER_1
 40
0.1764
 41
0.1764
 66
1
 10
0
 20
0
 30
0
  0
VERTEX
  8
LAYER_1
 10
321.2677
 20
62.4417
  0
VERTEX
  8
LAYER_1
 10
333.2057
 20
62.4417
  0
SEQEND
  0
POLYLINE
  8
LAYER_1
 40
0.1764
 41
0.1764
 66
1
 10
0
 20
0
 30
0
  0
VERTEX
  8
LAYER_1
 10
333.2057
 20
200.4483
  0
VERTEX
  8
LAYER_1
 10
333.2057
 20
62.4417
  0
SEQEND
  0
POLYLINE
  8
LAYER_1
 40
0.1764
 41
0.1764
 66
1
 10
0
 20
0
 30
0
 70
1
  0
VERTEX
  8
LAYER_1
 10
333.2057
 20
200.1943
  0
VERTEX
  8
LAYER_1
 10
333.121
 20
200.1943
  0
VERTEX
  8
LAYER_1
 10
333.0363
 20
200.1943
  0
VERTEX
  8
LAYER_1
 10
333.0363
 20
200.279
  0
VERTEX
  8
LAYER_1
 10
332.9517
 20
200.279
  0
VERTEX
  8
LAYER_1
 10
332.9517
 20
200.3636
  0
VERTEX
  8
LAYER_1
 10
332.9517
 20
200.4483
  0
VERTEX
  8
LAYER_1
 10
332.9517
 20
200.533
  0
VERTEX
  8
LAYER_1
 10
333.0363
 20
200.6176
  0
VERTEX
  8
LAYER_1
 10
333.121
 20
200.6176
  0
VERTEX
  8
LAYER_1
 10
333.121
 20
200.7023
  0
VERTEX
  8
LAYER_1
 10
333.2057
 20
200.7023
  0
VERTEX
  8
LAYER_1
 10
333.2903
 20
200.7023
  0
VERTEX
  8
LAYER_1
 10
333.2903
 20
200.6176
  0
VERTEX
  8
LAYER_1
 10
333.375
 20
200.6176
  0
VERTEX
  8
LAYER_1
 10
333.375
 20
200.533
  0
VERTEX
  8
LAYER_1
 10
333.4597
 20
200.533
  0
VERTEX
  8
LAYER_1
 10
333.4597
 20
200.4483
  0
VERTEX
  8
LAYER_1
 10
333.4597
 20
200.3636
  0
VERTEX
  8
LAYER_1
 10
333.4597
 20
200.279
  0
VERTEX
  8
LAYER_1
 10
333.375
 20
200.279
  0
VERTEX
  8
LAYER_1
 10
333.375
 20
200.1943
  0
VERTEX
  8
LAYER_1
 10
333.2903
 20
200.1943
  0
SEQEND
  0
POLYLINE
  8
LAYER_1
 40
0.05
 41
0.05
 66
1
 10
0
 20
0
 30
0
 70
1
  0
VERTEX
  8
LAYER_1
 10
333.1845
 20
200.2155
  0
VERTEX
  8
LAYER_1
 10
333.0998
 20
200.2155
  0
VERTEX
  8
LAYER_1
 10
333.0152
 20
200.2155
  0
VERTEX
  8
LAYER_1
 10
333.0152
 20
200.3002
  0
VERTEX
  8
LAYER_1
 10
332.9305
 20
200.3002
  0
VERTEX
  8
LAYER_1
 10
332.9305
 20
200.3848
  0
VERTEX
  8
LAYER_1
 10
332.9305
 20
200.4695
  0
VERTEX
  8
LAYER_1
 10
332.9305
 20
200.5541
  0
VERTEX
  8
LAYER_1
 10
333.0152
 20
200.6388
  0
VERTEX
  8
LAYER_1
 10
333.0998
 20
200.6388
  0
VERTEX
  8
LAYER_1
 10
333.0998
 20
200.7235
  0
VERTEX
  8
LAYER_1
 10
333.1845
 20
200.7235
  0
VERTEX
  8
LAYER_1
 10
333.2692
 20
200.7235
  0
VERTEX
  8
LAYER_1
 10
333.2692
 20
200.6388
  0
VERTEX
  8
LAYER_1
 10
333.3538
 20
200.6388
  0
VERTEX
  8
LAYER_1
 10
333.3538
 20
200.5541
  0
VERTEX
  8
LAYER_1
 10
333.4385
 20
200.5541
  0
VERTEX
  8
LAYER_1
 10
333.4385
 20
200.4695
  0
VERTEX
  8
LAYER_1
 10
333.4385
 20
200.3848
  0
VERTEX
  8
LAYER_1
 10
333.4385
 20
200.3002
  0
VERTEX
  8
LAYER_1
 10
333.3538
 20
200.3002
  0
VERTEX
  8
LAYER_1
 10
333.3538
 20
200.2155
  0
VERTEX
  8
LAYER_1
 10
333.2692
 20
200.2155
  0
SEQEND
  0
POLYLINE
  8
LAYER_1
 40
0.0811
 41
0.0811
 66
1
 10
0
 20
0
 30
0
 70
1
  0
VERTEX
  8
LAYER_1
 10
333.2057
 20
200.1943
  0
VERTEX
  8
LAYER_1
 10
333.121
 20
200.1943
  0
VERTEX
  8
LAYER_1
 10
333.0363
 20
200.1943
  0
VERTEX
  8
LAYER_1
 10
333.0363
 20
200.279
  0
VERTEX
  8
LAYER_1
 10
332.9517
 20
200.279
  0
VERTEX
  8
LAYER_1
 10
332.9517
 20
200.3636
  0
VERTEX
  8
LAYER_1
 10
332.9517
 20
200.4483
  0
VERTEX
  8
LAYER_1
 10
332.9517
 20
200.533
  0
VERTEX
  8
LAYER_1
 10
333.0363
 20
200.6176
  0
VERTEX
  8
LAYER_1
 10
333.121
 20
200.6176
  0
VERTEX
  8
LAYER_1
 10
333.121
 20
200.7023
  0
VERTEX
  8
LAYER_1
 10
333.2057
 20
200.7023
  0
VERTEX
  8
LAYER_1
 10
333.2903
 20
200.7023
  0
VERTEX
  8
LAYER_1
 10
333.2903
 20
200.6176
  0
VERTEX
  8
LAYER_1
 10
333.375
 20
200.6176
  0
VERTEX
  8
LAYER_1
 10
333.375
 20
200.533
  0
VERTEX
  8
LAYER_1
 10
333.4597
 20
200.533
  0
VERTEX
  8
LAYER_1
 10
333.4597
 20
200.4483
  0
VERTEX
  8
LAYER_1
 10
333.4597
 20
200.3636
  0
VERTEX
  8
LAYER_1
 10
333.4597
 20
200.279
  0
VERTEX
  8
LAYER_1
 10
333.375
 20
200.279
  0
VERTEX
  8
LAYER_1
 10
333.375
 20
200.1943
  0
VERTEX
  8
LAYER_1
 10
333.2903
 20
200.1943
  0
SEQEND
  0
POLYLINE
  8
LAYER_1
 40
0.1764
 41
0.1764
 66
1
 10
0
 20
0
 30
0
 70
1
  0
VERTEX
  8
LAYER_1
 10
333.2057
 20
62.6957
  0
VERTEX
  8
LAYER_1
 10
333.2903
 20
62.6957
  0
VERTEX
  8
LAYER_1
 10
333.2903
 20
62.611
  0
VERTEX
  8
LAYER_1
 10
333.375
 20
62.611
  0
VERTEX
  8
LAYER_1
 10
333.375
 20
62.5263
  0
VERTEX
  8
LAYER_1
 10
333.4597
 20
62.5263
  0
VERTEX
  8
LAYER_1
 10
333.4597
 20
62.4417
  0
VERTEX
  8
LAYER_1
 10
333.4597
 20
62.357
  0
VERTEX
  8
LAYER_1
 10
333.4597
 20
62.2723
  0
VERTEX
  8
LAYER_1
 10
333.375
 20
62.2723
  0
VERTEX
  8
LAYER_1
 10
333.375
 20
62.1877
  0
VERTEX
  8
LAYER_1
 10
333.2903
 20
62.1877
  0
VERTEX
  8
LAYER_1
 10
333.2057
 20
62.1877
  0
VERTEX
  8
LAYER_1
 10
333.121
 20
62.1877
  0
VERTEX
  8
LAYER_1
 10
333.0363
 20
62.1877
  0
VERTEX
  8
LAYER_1
 10
333.0363
 20
62.2723
  0
VERTEX
  8
LAYER_1
 10
332.9517
 20
62.2723
  0
VERTEX
  8
LAYER_1
 10
332.9517
 20
62.357
  0
VERTEX
  8
LAYER_1
 10
332.9517
 20
62.4417
  0
VERTEX
  8
LAYER_1
 10
332.9517
 20
62.5263
  0
VERTEX
  8
LAYER_1
 10
332.9517
 20
62.611
  0
VERTEX
  8
LAYER_1
 10
333.0363
 20
62.611
  0
VERTEX
  8
LAYER_1
 10
333.121
 20
62.611
  0
VERTEX
  8
LAYER_1
 10
333.121
 20
62.6957
  0
SEQEND
  0
POLYLINE
  8
LAYER_1
 40
0.05
 41
0.05
 66
1
 10
0
 20
0
 30
0
 70
1
  0
VERTEX
  8
LAYER_1
 10
333.1845
 20
62.7168
  0
VERTEX
  8
LAYER_1
 10
333.2692
 20
62.7168
  0
VERTEX
  8
LAYER_1
 10
333.2692
 20
62.6322
  0
VERTEX
  8
LAYER_1
 10
333.3538
 20
62.6322
  0
VERTEX
  8
LAYER_1
 10
333.3538
 20
62.5475
  0
VERTEX
  8
LAYER_1
 10
333.4385
 20
62.5475
  0
VERTEX
  8
LAYER_1
 10
333.4385
 20
62.4628
  0
VERTEX
  8
LAYER_1
 10
333.4385
 20
62.3782
  0
VERTEX
  8
LAYER_1
 10
333.4385
 20
62.2935
  0
VERTEX
  8
LAYER_1
 10
333.3538
 20
62.2935
  0
VERTEX
  8
LAYER_1
 10
333.3538
 20
62.2088
  0
VERTEX
  8
LAYER_1
 10
333.2692
 20
62.2088
  0
VERTEX
  8
LAYER_1
 10
333.1845
 20
62.2088
  0
VERTEX
  8
LAYER_1
 10
333.0998
 20
62.2088
  0
VERTEX
  8
LAYER_1
 10
333.0152
 20
62.2088
  0
VERTEX
  8
LAYER_1
 10
333.0152
 20
62.2935
  0
VERTEX
  8
LAYER_1
 10
332.9305
 20
62.2935
  0
VERTEX
  8
LAYER_1
 10
332.9305
 20
62.3782
  0
VERTEX
  8
LAYER_1
 10
332.9305
 20
62.4628
  0
VERTEX
  8
LAYER_1
 10
332.9305
 20
62.5475
  0
VERTEX
  8
LAYER_1
 10
332.9305
 20
62.6322
  0
VERTEX
  8
LAYER_1
 10
333.0152
 20
62.6322
  0
VERTEX
  8
LAYER_1
 10
333.0998
 20
62.6322
  0
VERTEX
  8
LAYER_1
 10
333.0998
 20
62.7168
  0
SEQEND
  0
POLYLINE
  8
LAYER_1
 40
0.0811
 41
0.0811
 66
1
 10
0
 20
0
 30
0
 70
1
  0
VERTEX
  8
LAYER_1
 10
333.2057
 20
62.6957
  0
VERTEX
  8
LAYER_1
 10
333.2903
 20
62.6957
  0
VERTEX
  8
LAYER_1
 10
333.2903
 20
62.611
  0
VERTEX
  8
LAYER_1
 10
333.375
 20
62.611
  0
VERTEX
  8
LAYER_1
 10
333.375
 20
62.5263
  0
VERTEX
  8
LAYER_1
 10
333.4597
 20
62.5263
  0
VERTEX
  8
LAYER_1
 10
333.4597
 20
62.4417
  0
VERTEX
  8
LAYER_1
 10
333.4597
 20
62.357
  0
VERTEX
  8
LAYER_1
 10
333.4597
 20
62.2723
  0
VERTEX
  8
LAYER_1
 10
333.375
 20
62.2723
  0
VERTEX
  8
LAYER_1
 10
333.375
 20
62.1877
  0
VERTEX
  8
LAYER_1
 10
333.2903
 20
62.1877
  0
VERTEX
  8
LAYER_1
 10
333.2057
 20
62.1877
  0
VERTEX
  8
LAYER_1
 10
333.121
 20
62.1877
  0
VERTEX
  8
LAYER_1
 10
333.0363
 20
62.1877
  0
VERTEX
  8
LAYER_1
 10
333.0363
 20
62.2723
  0
VERTEX
  8
LAYER_1
 10
332.9517
 20
62.2723
  0
VERTEX
  8
LAYER_1
 10
332.9517
 20
62.357
  0
VERTEX
  8
LAYER_1
 10
332.9517
 20
62.4417
  0
VERTEX
  8
LAYER_1
 10
332.9517
 20
62.5263
  0
VERTEX
  8
LAYER_1
 10
332.9517
 20
62.611
  0
VERTEX
  8
LAYER_1
 10
333.0363
 20
62.611
  0
VERTEX
  8
LAYER_1
 10
333.121
 20
62.611
  0
VERTEX
  8
LAYER_1
 10
333.121
 20
62.6957
  0
SEQEND
  0
POLYLINE
  8
LAYER_1
 40
0.05
 41
0.05
 62
255
 66
1
 10
0
 20
0
 30
0
 70
1
  0
VERTEX
  8
LAYER_1
 10
328.7818
 20
129.0955
  0
VERTEX
  8
LAYER_1
 10
328.7818
 20
133.8368
  0
VERTEX
  8
LAYER_1
 10
331.9992
 20
133.8368
  0
VERTEX
  8
LAYER_1
 10
331.9992
 20
129.0955
  0
SEQEND
  0
TEXT
  8
LAYER_1
 10
331.4547
 20
129.0746
 11
331.4547
 21
129.0746
 40
3.4028
 41
0.5
 50
89.99999999
  1
690
  0
POLYLINE
  8
LAYER_1
 40
0.1764
 41
0.1764
 66
1
 10
0
 20
0
 30
0
  0
VERTEX
  8
LAYER_1
 10
319.4897
 20
201.3796
  0
VERTEX
  8
LAYER_1
 10
333.2057
 20
201.3796
  0
SEQEND
  0
POLYLINE
  8
LAYER_1
 40
0.1764
 41
0.1764
 66
1
 10
0
 20
0
 30
0
  0
VERTEX
  8
LAYER_1
 10
321.2677
 20
200.4483
  0
VERTEX
  8
LAYER_1
 10
333.2057
 20
200.4483
  0
SEQEND
  0
POLYLINE
  8
LAYER_1
 40
0.1764
 41
0.1764
 66
1
 10
0
 20
0
 30
0
  0
VERTEX
  8
LAYER_1
 10
333.2057
 20
201.3796
  0
VERTEX
  8
LAYER_1
 10
333.2057
 20
200.4483
  0
SEQEND
  0
POLYLINE
  8
LAYER_1
 40
0.1764
 41
0.1764
 66
1
 10
0
 20
0
 30
0
 70
1
  0
VERTEX
  8
LAYER_1
 10
333.2057
 20
201.2103
  0
VERTEX
  8
LAYER_1
 10
333.121
 20
201.2103
  0
VERTEX
  8
LAYER_1
 10
333.0363
 20
201.2103
  0
VERTEX
  8
LAYER_1
 10
333.0363
 20
201.295
  0
VERTEX
  8
LAYER_1
 10
332.9517
 20
201.295
  0
VERTEX
  8
LAYER_1
 10
332.9517
 20
201.3796
  0
VERTEX
  8
LAYER_1
 10
332.9517
 20
201.4643
  0
VERTEX
  8
LAYER_1
 10
332.9517
 20
201.549
  0
VERTEX
  8
LAYER_1
 10
333.0363
 20
201.549
  0
VERTEX
  8
LAYER_1
 10
333.0363
 20
201.6336
  0
VERTEX
  8
LAYER_1
 10
333.121
 20
201.6336
  0
VERTEX
  8
LAYER_1
 10
333.2057
 20
201.6336
  0
VERTEX
  8
LAYER_1
 10
333.2903
 20
201.6336
  0
VERTEX
  8
LAYER_1
 10
333.375
 20
201.6336
  0
VERTEX
  8
LAYER_1
 10
333.375
 20
201.549
  0
VERTEX
  8
LAYER_1
 10
333.4597
 20
201.549
  0
VERTEX
  8
LAYER_1
 10
333.4597
 20
201.4643
  0
VERTEX
  8
LAYER_1
 10
333.4597
 20
201.3796
  0
VERTEX
  8
LAYER_1
 10
333.4597
 20
201.295
  0
VERTEX
  8
LAYER_1
 10
333.375
 20
201.295
  0
VERTEX
  8
LAYER_1
 10
333.375
 20
201.2103
  0
VERTEX
  8
LAYER_1
 10
333.2903
 20
201.2103
  0
SEQEND
  0
POLYLINE
  8
LAYER_1
 40
0.05
 41
0.05
 66
1
 10
0
 20
0
 30
0
 70
1
  0
VERTEX
  8
LAYER_1
 10
333.1845
 20
201.2315
  0
VERTEX
  8
LAYER_1
 10
333.0998
 20
201.2315
  0
VERTEX
  8
LAYER_1
 10
333.0152
 20
201.2315
  0
VERTEX
  8
LAYER_1
 10
333.0152
 20
201.3161
  0
VERTEX
  8
LAYER_1
 10
332.9305
 20
201.3161
  0
VERTEX
  8
LAYER_1
 10
332.9305
 20
201.4008
  0
VERTEX
  8
LAYER_1
 10
332.9305
 20
201.4855
  0
VERTEX
  8
LAYER_1
 10
332.9305
 20
201.5701
  0
VERTEX
  8
LAYER_1
 10
333.0152
 20
201.5701
  0
VERTEX
  8
LAYER_1
 10
333.0152
 20
201.6548
  0
VERTEX
  8
LAYER_1
 10
333.0998
 20
201.6548
  0
VERTEX
  8
LAYER_1
 10
333.1845
 20
201.6548
  0
VERTEX
  8
LAYER_1
 10
333.2692
 20
201.6548
  0
VERTEX
  8
LAYER_1
 10
333.3538
 20
201.6548
  0
VERTEX
  8
LAYER_1
 10
333.3538
 20
201.5701
  0
VERTEX
  8
LAYER_1
 10
333.4385
 20
201.5701
  0
VERTEX
  8
LAYER_1
 10
333.4385
 20
201.4855
  0
VERTEX
  8
LAYER_1
 10
333.4385
 20
201.4008
  0
VERTEX
  8
LAYER_1
 10
333.4385
 20
201.3161
  0
VERTEX
  8
LAYER_1
 10
333.3538
 20
201.3161
  0
VERTEX
  8
LAYER_1
 10
333.3538
 20
201.2315
  0
VERTEX
  8
LAYER_1
 10
333.2692
 20
201.2315
  0
SEQEND
  0
POLYLINE
  8
LAYER_1
 40
0.0811
 41
0.0811
 66
1
 10
0
 20
0
 30
0
 70
1
  0
VERTEX
  8
LAYER_1
 10
333.2057
 20
201.2103
  0
VERTEX
  8
LAYER_1
 10
333.121
 20
201.2103
  0
VERTEX
  8
LAYER_1
 10
333.0363
 20
201.2103
  0
VERTEX
  8
LAYER_1
 10
333.0363
 20
201.295
  0
VERTEX
  8
LAYER_1
 10
332.9517
 20
201.295
  0
VERTEX
  8
LAYER_1
 10
332.9517
 20
201.3796
  0
VERTEX
  8
LAYER_1
 10
332.9517
 20
201.4643
  0
VERTEX
  8
LAYER_1
 10
332.9517
 20
201.549
  0
VERTEX
  8
LAYER_1
 10
333.0363
 20
201.549
  0
VERTEX
  8
LAYER_1
 10
333.0363
 20
201.6336
  0
VERTEX
  8
LAYER_1
 10
333.121
 20
201.6336
  0
VERTEX
  8
LAYER_1
 10
333.2057
 20
201.6336
  0
VERTEX
  8
LAYER_1
 10
333.2903
 20
201.6336
  0
VERTEX
  8
LAYER_1
 10
333.375
 20
201.6336
  0
VERTEX
  8
LAYER_1
 10
333.375
 20
201.549
  0
VERTEX
  8
LAYER_1
 10
333.4597
 20
201.549
  0
VERTEX
  8
LAYER_1
 10
333.4597
 20
201.4643
  0
VERTEX
  8
LAYER_1
 10
333.4597
 20
201.3796
  0
VERTEX
  8
LAYER_1
 10
333.4597
 20
201.295
  0
VERTEX
  8
LAYER_1
 10
333.375
 20
201.295
  0
VERTEX
  8
LAYER_1
 10
333.375
 20
201.2103
  0
VERTEX
  8
LAYER_1
 10
333.2903
 20
201.2103
  0
SEQEND
  0
POLYLINE
  8
LAYER_1
 40
0.1764
 41
0.1764
 66
1
 10
0
 20
0
 30
0
 70
1
  0
VERTEX
  8
LAYER_1
 10
333.2057
 20
200.7023
  0
VERTEX
  8
LAYER_1
 10
333.2903
 20
200.7023
  0
VERTEX
  8
LAYER_1
 10
333.2903
 20
200.6176
  0
VERTEX
  8
LAYER_1
 10
333.375
 20
200.6176
  0
VERTEX
  8
LAYER_1
 10
333.375
 20
200.533
  0
VERTEX
  8
LAYER_1
 10
333.4597
 20
200.533
  0
VERTEX
  8
LAYER_1
 10
333.4597
 20
200.4483
  0
VERTEX
  8
LAYER_1
 10
333.4597
 20
200.3636
  0
VERTEX
  8
LAYER_1
 10
333.4597
 20
200.279
  0
VERTEX
  8
LAYER_1
 10
333.375
 20
200.279
  0
VERTEX
  8
LAYER_1
 10
333.375
 20
200.1943
  0
VERTEX
  8
LAYER_1
 10
333.2903
 20
200.1943
  0
VERTEX
  8
LAYER_1
 10
333.2057
 20
200.1943
  0
VERTEX
  8
LAYER_1
 10
333.121
 20
200.1943
  0
VERTEX
  8
LAYER_1
 10
333.0363
 20
200.1943
  0
VERTEX
  8
LAYER_1
 10
333.0363
 20
200.279
  0
VERTEX
  8
LAYER_1
 10
332.9517
 20
200.279
  0
VERTEX
  8
LAYER_1
 10
332.9517
 20
200.3636
  0
VERTEX
  8
LAYER_1
 10
332.9517
 20
200.4483
  0
VERTEX
  8
LAYER_1
 10
332.9517
 20
200.533
  0
VERTEX
  8
LAYER_1
 10
333.0363
 20
200.6176
  0
VERTEX
  8
LAYER_1
 10
333.121
 20
200.6176
  0
VERTEX
  8
LAYER_1
 10
333.121
 20
200.7023
  0
SEQEND
  0
POLYLINE
  8
LAYER_1
 40
0.05
 41
0.05
 66
1
 10
0
 20
0
 30
0
 70
1
  0
VERTEX
  8
LAYER_1
 10
333.1845
 20
200.7235
  0
VERTEX
  8
LAYER_1
 10
333.2692
 20
200.7235
  0
VERTEX
  8
LAYER_1
 10
333.2692
 20
200.6388
  0
VERTEX
  8
LAYER_1
 10
333.3538
 20
200.6388
  0
VERTEX
  8
LAYER_1
 10
333.3538
 20
200.5541
  0
VERTEX
  8
LAYER_1
 10
333.4385
 20
200.5541
  0
VERTEX
  8
LAYER_1
 10
333.4385
 20
200.4695
  0
VERTEX
  8
LAYER_1
 10
333.4385
 20
200.3848
  0
VERTEX
  8
LAYER_1
 10
333.4385
 20
200.3002
  0
VERTEX
  8
LAYER_1
 10
333.3538
 20
200.3002
  0
VERTEX
  8
LAYER_1
 10
333.3538
 20
200.2155
  0
VERTEX
  8
LAYER_1
 10
333.2692
 20
200.2155
  0
VERTEX
  8
LAYER_1
 10
333.1845
 20
200.2155
  0
VERTEX
  8
LAYER_1
 10
333.0998
 20
200.2155
  0
VERTEX
  8
LAYER_1
 10
333.0152
 20
200.2155
  0
VERTEX
  8
LAYER_1
 10
333.0152
 20
200.3002
  0
VERTEX
  8
LAYER_1
 10
332.9305
 20
200.3002
  0
VERTEX
  8
LAYER_1
 10
332.9305
 20
200.3848
  0
VERTEX
  8
LAYER_1
 10
332.9305
 20
200.4695
  0
VERTEX
  8
LAYER_1
 10
332.9305
 20
200.5541
  0
VERTEX
  8
LAYER_1
 10
333.0152
 20
200.6388
  0
VERTEX
  8
LAYER_1
 10
333.0998
 20
200.6388
  0
VERTEX
  8
LAYER_1
 10
333.0998
 20
200.7235
  0
SEQEND
  0
POLYLINE
  8
LAYER_1
 40
0.0811
 41
0.0811
 66
1
 10
0
 20
0
 30
0
 70
1
  0
VERTEX
  8
LAYER_1
 10
333.2057
 20
200.7023
  0
VERTEX
  8
LAYER_1
 10
333.2903
 20
200.7023
  0
VERTEX
  8
LAYER_1
 10
333.2903
 20
200.6176
  0
VERTEX
  8
LAYER_1
 10
333.375
 20
200.6176
  0
VERTEX
  8
LAYER_1
 10
333.375
 20
200.533
  0
VERTEX
  8
LAYER_1
 10
333.4597
 20
200.533
  0
VERTEX
  8
LAYER_1
 10
333.4597
 20
200.4483
  0
VERTEX
  8
LAYER_1
 10
333.4597
 20
200.3636
  0
VERTEX
  8
LAYER_1
 10
333.4597
 20
200.279
  0
VERTEX
  8
LAYER_1
 10
333.375
 20
200.279
  0
VERTEX
  8
LAYER_1
 10
333.375
 20
200.1943
  0
VERTEX
  8
LAYER_1
 10
333.2903
 20
200.1943
  0
VERTEX
  8
LAYER_1
 10
333.2057
 20
200.1943
  0
VERTEX
  8
LAYER_1
 10
333.121
 20
200.1943
  0
VERTEX
  8
LAYER_1
 10
333.0363
 20
200.1943
  0
VERTEX
  8
LAYER_1
 10
333.0363
 20
200.279
  0
VERTEX
  8
LAYER_1
 10
332.9517
 20
200.279
  0
VERTEX
  8
LAYER_1
 10
332.9517
 20
200.3636
  0
VERTEX
  8
LAYER_1
 10
332.9517
 20
200.4483
  0
VERTEX
  8
LAYER_1
 10
332.9517
 20
200.533
  0
VERTEX
  8
LAYER_1
 10
333.0363
 20
200.6176
  0
VERTEX
  8
LAYER_1
 10
333.121
 20
200.6176
  0
VERTEX
  8
LAYER_1
 10
333.121
 20
200.7023
  0
SEQEND
  0
POLYLINE
  8
LAYER_1
 40
0.05
 41
0.05
 62
255
 66
1
 10
0
 20
0
 30
0
 70
1
  0
VERTEX
  8
LAYER_1
 10
328.7818
 20
200.1308
  0
VERTEX
  8
LAYER_1
 10
328.7818
 20
201.7395
  0
VERTEX
  8
LAYER_1
 10
331.9992
 20
201.7395
  0
VERTEX
  8
LAYER_1
 10
331.9992
 20
200.1308
  0
SEQEND
  0
TEXT
  8
LAYER_1
 10
331.4547
 20
200.1096
 11
331.4547
 21
200.1096
 40
3.4028
 41
0.5
 50
89.99999999
  1
5
  0
POLYLINE
  8
LAYER_1
 40
0.1764
 41
0.1764
 66
1
 10
0
 20
0
 30
0
  0
VERTEX
  8
LAYER_1
 10
315.087
 20
201.3796
  0
VERTEX
  8
LAYER_1
 10
302.8103
 20
201.3796
  0
SEQEND
  0
POLYLINE
  8
LAYER_1
 40
0.1764
 41
0.1764
 66
1
 10
0
 20
0
 30
0
  0
VERTEX
  8
LAYER_1
 10
315.087
 20
61.4257
  0
VERTEX
  8
LAYER_1
 10
302.8103
 20
61.4257
  0
SEQEND
  0
POLYLINE
  8
LAYER_1
 40
0.1764
 41
0.1764
 66
1
 10
0
 20
0
 30
0
  0
VERTEX
  8
LAYER_1
 10
302.8103
 20
201.3796
  0
VERTEX
  8
LAYER_1
 10
302.8103
 20
61.4257
  0
SEQEND
  0
POLYLINE
  8
LAYER_1
 40
0.1764
 41
0.1764
 66
1
 10
0
 20
0
 30
0
 70
1
  0
VERTEX
  8
LAYER_1
 10
302.8103
 20
201.2103
  0
VERTEX
  8
LAYER_1
 10
302.7257
 20
201.2103
  0
VERTEX
  8
LAYER_1
 10
302.641
 20
201.2103
  0
VERTEX
  8
LAYER_1
 10
302.641
 20
201.295
  0
VERTEX
  8
LAYER_1
 10
302.5563
 20
201.295
  0
VERTEX
  8
LAYER_1
 10
302.5563
 20
201.3796
  0
VERTEX
  8
LAYER_1
 10
302.5563
 20
201.4643
  0
VERTEX
  8
LAYER_1
 10
302.5563
 20
201.549
  0
VERTEX
  8
LAYER_1
 10
302.641
 20
201.549
  0
VERTEX
  8
LAYER_1
 10
302.641
 20
201.6336
  0
VERTEX
  8
LAYER_1
 10
302.7257
 20
201.6336
  0
VERTEX
  8
LAYER_1
 10
302.8103
 20
201.6336
  0
VERTEX
  8
LAYER_1
 10
302.895
 20
201.6336
  0
VERTEX
  8
LAYER_1
 10
302.9797
 20
201.6336
  0
VERTEX
  8
LAYER_1
 10
302.9797
 20
201.549
  0
VERTEX
  8
LAYER_1
 10
303.0643
 20
201.549
  0
VERTEX
  8
LAYER_1
 10
303.0643
 20
201.4643
  0
VERTEX
  8
LAYER_1
 10
303.0643
 20
201.3796
  0
VERTEX
  8
LAYER_1
 10
303.0643
 20
201.295
  0
VERTEX
  8
LAYER_1
 10
302.9797
 20
201.295
  0
VERTEX
  8
LAYER_1
 10
302.9797
 20
201.2103
  0
VERTEX
  8
LAYER_1
 10
302.895
 20
201.2103
  0
SEQEND
  0
POLYLINE
  8
LAYER_1
 40
0.05
 41
0.05
 66
1
 10
0
 20
0
 30
0
 70
1
  0
VERTEX
  8
LAYER_1
 10
302.7892
 20
201.2315
  0
VERTEX
  8
LAYER_1
 10
302.7045
 20
201.2315
  0
VERTEX
  8
LAYER_1
 10
302.6198
 20
201.2315
  0
VERTEX
  8
LAYER_1
 10
302.6198
 20
201.3161
  0
VERTEX
  8
LAYER_1
 10
302.5352
 20
201.3161
  0
VERTEX
  8
LAYER_1
 10
302.5352
 20
201.4008
  0
VERTEX
  8
LAYER_1
 10
302.5352
 20
201.4855
  0
VERTEX
  8
LAYER_1
 10
302.5352
 20
201.5701
  0
VERTEX
  8
LAYER_1
 10
302.6198
 20
201.5701
  0
VERTEX
  8
LAYER_1
 10
302.6198
 20
201.6548
  0
VERTEX
  8
LAYER_1
 10
302.7045
 20
201.6548
  0
VERTEX
  8
LAYER_1
 10
302.7892
 20
201.6548
  0
VERTEX
  8
LAYER_1
 10
302.8738
 20
201.6548
  0
VERTEX
  8
LAYER_1
 10
302.9585
 20
201.6548
  0
VERTEX
  8
LAYER_1
 10
302.9585
 20
201.5701
  0
VERTEX
  8
LAYER_1
 10
303.0432
 20
201.5701
  0
VERTEX
  8
LAYER_1
 10
303.0432
 20
201.4855
  0
VERTEX
  8
LAYER_1
 10
303.0432
 20
201.4008
  0
VERTEX
  8
LAYER_1
 10
303.0432
 20
201.3161
  0
VERTEX
  8
LAYER_1
 10
302.9585
 20
201.3161
  0
VERTEX
  8
LAYER_1
 10
302.9585
 20
201.2315
  0
VERTEX
  8
LAYER_1
 10
302.8738
 20
201.2315
  0
SEQEND
  0
POLYLINE
  8
LAYER_1
 40
0.0811
 41
0.0811
 66
1
 10
0
 20
0
 30
0
 70
1
  0
VERTEX
  8
LAYER_1
 10
302.8103
 20
201.2103
  0
VERTEX
  8
LAYER_1
 10
302.7257
 20
201.2103
  0
VERTEX
  8
LAYER_1
 10
302.641
 20
201.2103
  0
VERTEX
  8
LAYER_1
 10
302.641
 20
201.295
  0
VERTEX
  8
LAYER_1
 10
302.5563
 20
201.295
  0
VERTEX
  8
LAYER_1
 10
302.5563
 20
201.3796
  0
VERTEX
  8
LAYER_1
 10
302.5563
 20
201.4643
  0
VERTEX
  8
LAYER_1
 10
302.5563
 20
201.549
  0
VERTEX
  8
LAYER_1
 10
302.641
 20
201.549
  0
VERTEX
  8
LAYER_1
 10
302.641
 20
201.6336
  0
VERTEX
  8
LAYER_1
 10
302.7257
 20
201.6336
  0
VERTEX
  8
LAYER_1
 10
302.8103
 20
201.6336
  0
VERTEX
  8
LAYER_1
 10
302.895
 20
201.6336
  0
VERTEX
  8
LAYER_1
 10
302.9797
 20
201.6336
  0
VERTEX
  8
LAYER_1
 10
302.9797
 20
201.549
  0
VERTEX
  8
LAYER_1
 10
303.0643
 20
201.549
  0
VERTEX
  8
LAYER_1
 10
303.0643
 20
201.4643
  0
VERTEX
  8
LAYER_1
 10
303.0643
 20
201.3796
  0
VERTEX
  8
LAYER_1
 10
303.0643
 20
201.295
  0
VERTEX
  8
LAYER_1
 10
302.9797
 20
201.295
  0
VERTEX
  8
LAYER_1
 10
302.9797
 20
201.2103
  0
VERTEX
  8
LAYER_1
 10
302.895
 20
201.2103
  0
SEQEND
  0
POLYLINE
  8
LAYER_1
 40
0.1764
 41
0.1764
 66
1
 10
0
 20
0
 30
0
 70
1
  0
VERTEX
  8
LAYER_1
 10
302.8103
 20
61.6797
  0
VERTEX
  8
LAYER_1
 10
302.895
 20
61.6797
  0
VERTEX
  8
LAYER_1
 10
302.895
 20
61.595
  0
VERTEX
  8
LAYER_1
 10
302.9797
 20
61.595
  0
VERTEX
  8
LAYER_1
 10
302.9797
 20
61.5103
  0
VERTEX
  8
LAYER_1
 10
303.0643
 20
61.5103
  0
VERTEX
  8
LAYER_1
 10
303.0643
 20
61.4257
  0
VERTEX
  8
LAYER_1
 10
303.0643
 20
61.341
  0
VERTEX
  8
LAYER_1
 10
302.9797
 20
61.341
  0
VERTEX
  8
LAYER_1
 10
302.9797
 20
61.2563
  0
VERTEX
  8
LAYER_1
 10
302.895
 20
61.1717
  0
VERTEX
  8
LAYER_1
 10
302.8103
 20
61.1717
  0
VERTEX
  8
LAYER_1
 10
302.7257
 20
61.1717
  0
VERTEX
  8
LAYER_1
 10
302.641
 20
61.1717
  0
VERTEX
  8
LAYER_1
 10
302.641
 20
61.2563
  0
VERTEX
  8
LAYER_1
 10
302.5563
 20
61.2563
  0
VERTEX
  8
LAYER_1
 10
302.5563
 20
61.341
  0
VERTEX
  8
LAYER_1
 10
302.5563
 20
61.4257
  0
VERTEX
  8
LAYER_1
 10
302.5563
 20
61.5103
  0
VERTEX
  8
LAYER_1
 10
302.5563
 20
61.595
  0
VERTEX
  8
LAYER_1
 10
302.641
 20
61.595
  0
VERTEX
  8
LAYER_1
 10
302.641
 20
61.6797
  0
VERTEX
  8
LAYER_1
 10
302.7257
 20
61.6797
  0
SEQEND
  0
POLYLINE
  8
LAYER_1
 40
0.05
 41
0.05
 66
1
 10
0
 20
0
 30
0
 70
1
  0
VERTEX
  8
LAYER_1
 10
302.7892
 20
61.7008
  0
VERTEX
  8
LAYER_1
 10
302.8738
 20
61.7008
  0
VERTEX
  8
LAYER_1
 10
302.8738
 20
61.6162
  0
VERTEX
  8
LAYER_1
 10
302.9585
 20
61.6162
  0
VERTEX
  8
LAYER_1
 10
302.9585
 20
61.5315
  0
VERTEX
  8
LAYER_1
 10
303.0432
 20
61.5315
  0
VERTEX
  8
LAYER_1
 10
303.0432
 20
61.4468
  0
VERTEX
  8
LAYER_1
 10
303.0432
 20
61.3622
  0
VERTEX
  8
LAYER_1
 10
302.9585
 20
61.3622
  0
VERTEX
  8
LAYER_1
 10
302.9585
 20
61.2775
  0
VERTEX
  8
LAYER_1
 10
302.8738
 20
61.1928
  0
VERTEX
  8
LAYER_1
 10
302.7892
 20
61.1928
  0
VERTEX
  8
LAYER_1
 10
302.7045
 20
61.1928
  0
VERTEX
  8
LAYER_1
 10
302.6198
 20
61.1928
  0
VERTEX
  8
LAYER_1
 10
302.6198
 20
61.2775
  0
VERTEX
  8
LAYER_1
 10
302.5352
 20
61.2775
  0
VERTEX
  8
LAYER_1
 10
302.5352
 20
61.3622
  0
VERTEX
  8
LAYER_1
 10
302.5352
 20
61.4468
  0
VERTEX
  8
LAYER_1
 10
302.5352
 20
61.5315
  0
VERTEX
  8
LAYER_1
 10
302.5352
 20
61.6162
  0
VERTEX
  8
LAYER_1
 10
302.6198
 20
61.6162
  0
VERTEX
  8
LAYER_1
 10
302.6198
 20
61.7008
  0
VERTEX
  8
LAYER_1
 10
302.7045
 20
61.7008
  0
SEQEND
  0
POLYLINE
  8
LAYER_1
 40
0.0811
 41
0.0811
 66
1
 10
0
 20
0
 30
0
 70
1
  0
VERTEX
  8
LAYER_1
 10
302.8103
 20
61.6797
  0
VERTEX
  8
LAYER_1
 10
302.895
 20
61.6797
  0
VERTEX
  8
LAYER_1
 10
302.895
 20
61.595
  0
VERTEX
  8
LAYER_1
 10
302.9797
 20
61.595
  0
VERTEX
  8
LAYER_1
 10
302.9797
 20
61.5103
  0
VERTEX
  8
LAYER_1
 10
303.0643
 20
61.5103
  0
VERTEX
  8
LAYER_1
 10
303.0643
 20
61.4257
  0
VERTEX
  8
LAYER_1
 10
303.0643
 20
61.341
  0
VERTEX
  8
LAYER_1
 10
302.9797
 20
61.341
  0
VERTEX
  8
LAYER_1
 10
302.9797
 20
61.2563
  0
VERTEX
  8
LAYER_1
 10
302.895
 20
61.1717
  0
VERTEX
  8
LAYER_1
 10
302.8103
 20
61.1717
  0
VERTEX
  8
LAYER_1
 10
302.7257
 20
61.1717
  0
VERTEX
  8
LAYER_1
 10
302.641
 20
61.1717
  0
VERTEX
  8
LAYER_1
 10
302.641
 20
61.2563
  0
VERTEX
  8
LAYER_1
 10
302.5563
 20
61.2563
  0
VERTEX
  8
LAYER_1
 10
302.5563
 20
61.341
  0
VERTEX
  8
LAYER_1
 10
302.5563
 20
61.4257
  0
VERTEX
  8
LAYER_1
 10
302.5563
 20
61.5103
  0
VERTEX
  8
LAYER_1
 10
302.5563
 20
61.595
  0
VERTEX
  8
LAYER_1
 10
302.641
 20
61.595
  0
VERTEX
  8
LAYER_1
 10
302.641
 20
61.6797
  0
VERTEX
  8
LAYER_1
 10
302.7257
 20
61.6797
  0
SEQEND
  0
POLYLINE
  8
LAYER_1
 40
0.05
 41
0.05
 62
255
 66
1
 10
0
 20
0
 30
0
 70
1
  0
VERTEX
  8
LAYER_1
 10
298.3865
 20
129.0955
  0
VERTEX
  8
LAYER_1
 10
298.3865
 20
133.8368
  0
VERTEX
  8
LAYER_1
 10
301.6038
 20
133.8368
  0
VERTEX
  8
LAYER_1
 10
301.6038
 20
129.0955
  0
SEQEND
  0
TEXT
  8
LAYER_1
 10
301.0593
 20
129.0746
 11
301.0593
 21
129.0746
 40
3.4028
 41
0.5
 50
89.99999999
  1
700
  0
POLYLINE
  8
LAYER_1
 40
0.1764
 41
0.1764
 66
1
 10
0
 20
0
 30
0
  0
VERTEX
  8
LAYER_1
 10
318.4736
 20
202.3956
  0
VERTEX
  8
LAYER_1
 10
318.4736
 20
203.835
  0
SEQEND
  0
POLYLINE
  8
LAYER_1
 40
0.1764
 41
0.1764
 66
1
 10
0
 20
0
 30
0
  0
VERTEX
  8
LAYER_1
 10
320.3363
 20
202.3956
  0
VERTEX
  8
LAYER_1
 10
320.3363
 20
203.835
  0
SEQEND
  0
POLYLINE
  8
LAYER_1
 40
0.1764
 41
0.1764
 66
1
 10
0
 20
0
 30
0
  0
VERTEX
  8
LAYER_1
 10
318.4736
 20
203.835
  0
VERTEX
  8
LAYER_1
 10
320.3363
 20
203.835
  0
SEQEND
  0
POLYLINE
  8
LAYER_1
 40
0.1764
 41
0.1764
 66
1
 10
0
 20
0
 30
0
 70
1
  0
VERTEX
  8
LAYER_1
 10
318.7277
 20
203.835
  0
VERTEX
  8
LAYER_1
 10
318.7277
 20
203.7503
  0
VERTEX
  8
LAYER_1
 10
318.7277
 20
203.6656
  0
VERTEX
  8
LAYER_1
 10
318.643
 20
203.6656
  0
VERTEX
  8
LAYER_1
 10
318.643
 20
203.581
  0
VERTEX
  8
LAYER_1
 10
318.5583
 20
203.581
  0
VERTEX
  8
LAYER_1
 10
318.4736
 20
203.581
  0
VERTEX
  8
LAYER_1
 10
318.389
 20
203.581
  0
VERTEX
  8
LAYER_1
 10
318.389
 20
203.6656
  0
VERTEX
  8
LAYER_1
 10
318.3043
 20
203.6656
  0
VERTEX
  8
LAYER_1
 10
318.3043
 20
203.7503
  0
VERTEX
  8
LAYER_1
 10
318.2197
 20
203.7503
  0
VERTEX
  8
LAYER_1
 10
318.2197
 20
203.835
  0
VERTEX
  8
LAYER_1
 10
318.2197
 20
203.9196
  0
VERTEX
  8
LAYER_1
 10
318.3043
 20
203.9196
  0
VERTEX
  8
LAYER_1
 10
318.3043
 20
204.0043
  0
VERTEX
  8
LAYER_1
 10
318.389
 20
204.0043
  0
VERTEX
  8
LAYER_1
 10
318.389
 20
204.089
  0
VERTEX
  8
LAYER_1
 10
318.4736
 20
204.089
  0
VERTEX
  8
LAYER_1
 10
318.5583
 20
204.089
  0
VERTEX
  8
LAYER_1
 10
318.643
 20
204.089
  0
VERTEX
  8
LAYER_1
 10
318.643
 20
204.0043
  0
VERTEX
  8
LAYER_1
 10
318.7277
 20
204.0043
  0
VERTEX
  8
LAYER_1
 10
318.7277
 20
203.9196
  0
SEQEND
  0
POLYLINE
  8
LAYER_1
 40
0.05
 41
0.05
 66
1
 10
0
 20
0
 30
0
 70
1
  0
VERTEX
  8
LAYER_1
 10
318.7065
 20
203.8561
  0
VERTEX
  8
LAYER_1
 10
318.7065
 20
203.7715
  0
VERTEX
  8
LAYER_1
 10
318.7065
 20
203.6868
  0
VERTEX
  8
LAYER_1
 10
318.6218
 20
203.6868
  0
VERTEX
  8
LAYER_1
 10
318.6218
 20
203.6022
  0
VERTEX
  8
LAYER_1
 10
318.5372
 20
203.6022
  0
VERTEX
  8
LAYER_1
 10
318.4525
 20
203.6022
  0
VERTEX
  8
LAYER_1
 10
318.3678
 20
203.6022
  0
VERTEX
  8
LAYER_1
 10
318.3678
 20
203.6868
  0
VERTEX
  8
LAYER_1
 10
318.2832
 20
203.6868
  0
VERTEX
  8
LAYER_1
 10
318.2832
 20
203.7715
  0
VERTEX
  8
LAYER_1
 10
318.1985
 20
203.7715
  0
VERTEX
  8
LAYER_1
 10
318.1985
 20
203.8561
  0
VERTEX
  8
LAYER_1
 10
318.1985
 20
203.9408
  0
VERTEX
  8
LAYER_1
 10
318.2832
 20
203.9408
  0
VERTEX
  8
LAYER_1
 10
318.2832
 20
204.0255
  0
VERTEX
  8
LAYER_1
 10
318.3678
 20
204.0255
  0
VERTEX
  8
LAYER_1
 10
318.3678
 20
204.1102
  0
VERTEX
  8
LAYER_1
 10
318.4525
 20
204.1102
  0
VERTEX
  8
LAYER_1
 10
318.5372
 20
204.1102
  0
VERTEX
  8
LAYER_1
 10
318.6218
 20
204.1102
  0
VERTEX
  8
LAYER_1
 10
318.6218
 20
204.0255
  0
VERTEX
  8
LAYER_1
 10
318.7065
 20
204.0255
  0
VERTEX
  8
LAYER_1
 10
318.7065
 20
203.9408
  0
SEQEND
  0
POLYLINE
  8
LAYER_1
 40
0.0811
 41
0.0811
 66
1
 10
0
 20
0
 30
0
 70
1
  0
VERTEX
  8
LAYER_1
 10
318.7277
 20
203.835
  0
VERTEX
  8
LAYER_1
 10
318.7277
 20
203.7503
  0
VERTEX
  8
LAYER_1
 10
318.7277
 20
203.6656
  0
VERTEX
  8
LAYER_1
 10
318.643
 20
203.6656
  0
VERTEX
  8
LAYER_1
 10
318.643
 20
203.581
  0
VERTEX
  8
LAYER_1
 10
318.5583
 20
203.581
  0
VERTEX
  8
LAYER_1
 10
318.4736
 20
203.581
  0
VERTEX
  8
LAYER_1
 10
318.389
 20
203.581
  0
VERTEX
  8
LAYER_1
 10
318.389
 20
203.6656
  0
VERTEX
  8
LAYER_1
 10
318.3043
 20
203.6656
  0
VERTEX
  8
LAYER_1
 10
318.3043
 20
203.7503
  0
VERTEX
  8
LAYER_1
 10
318.2197
 20
203.7503
  0
VERTEX
  8
LAYER_1
 10
318.2197
 20
203.835
  0
VERTEX
  8
LAYER_1
 10
318.2197
 20
203.9196
  0
VERTEX
  8
LAYER_1
 10
318.3043
 20
203.9196
  0
VERTEX
  8
LAYER_1
 10
318.3043
 20
204.0043
  0
VERTEX
  8
LAYER_1
 10
318.389
 20
204.0043
  0
VERTEX
  8
LAYER_1
 10
318.389
 20
204.089
  0
VERTEX
  8
LAYER_1
 10
318.4736
 20
204.089
  0
VERTEX
  8
LAYER_1
 10
318.5583
 20
204.089
  0
VERTEX
  8
LAYER_1
 10
318.643
 20
204.089
  0
VERTEX
  8
LAYER_1
 10
318.643
 20
204.0043
  0
VERTEX
  8
LAYER_1
 10
318.7277
 20
204.0043
  0
VERTEX
  8
LAYER_1
 10
318.7277
 20
203.9196
  0
SEQEND
  0
POLYLINE
  8
LAYER_1
 40
0.1764
 41
0.1764
 66
1
 10
0
 20
0
 30
0
 70
1
  0
VERTEX
  8
LAYER_1
 10
320.0823
 20
203.835
  0
VERTEX
  8
LAYER_1
 10
320.0823
 20
203.9196
  0
VERTEX
  8
LAYER_1
 10
320.0823
 20
204.0043
  0
VERTEX
  8
LAYER_1
 10
320.167
 20
204.0043
  0
VERTEX
  8
LAYER_1
 10
320.167
 20
204.089
  0
VERTEX
  8
LAYER_1
 10
320.2517
 20
204.089
  0
VERTEX
  8
LAYER_1
 10
320.3363
 20
204.089
  0
VERTEX
  8
LAYER_1
 10
320.421
 20
204.089
  0
VERTEX
  8
LAYER_1
 10
320.421
 20
204.0043
  0
VERTEX
  8
LAYER_1
 10
320.5057
 20
204.0043
  0
VERTEX
  8
LAYER_1
 10
320.5057
 20
203.9196
  0
VERTEX
  8
LAYER_1
 10
320.5903
 20
203.9196
  0
VERTEX
  8
LAYER_1
 10
320.5903
 20
203.835
  0
VERTEX
  8
LAYER_1
 10
320.5057
 20
203.835
  0
VERTEX
  8
LAYER_1
 10
320.5057
 20
203.7503
  0
VERTEX
  8
LAYER_1
 10
320.5057
 20
203.6656
  0
VERTEX
  8
LAYER_1
 10
320.421
 20
203.6656
  0
VERTEX
  8
LAYER_1
 10
320.421
 20
203.581
  0
VERTEX
  8
LAYER_1
 10
320.3363
 20
203.581
  0
VERTEX
  8
LAYER_1
 10
320.2517
 20
203.581
  0
VERTEX
  8
LAYER_1
 10
320.167
 20
203.581
  0
VERTEX
  8
LAYER_1
 10
320.167
 20
203.6656
  0
VERTEX
  8
LAYER_1
 10
320.0823
 20
203.6656
  0
VERTEX
  8
LAYER_1
 10
320.0823
 20
203.7503
  0
SEQEND
  0
POLYLINE
  8
LAYER_1
 40
0.05
 41
0.05
 66
1
 10
0
 20
0
 30
0
 70
1
  0
VERTEX
  8
LAYER_1
 10
320.0612
 20
203.8561
  0
VERTEX
  8
LAYER_1
 10
320.0612
 20
203.9408
  0
VERTEX
  8
LAYER_1
 10
320.0612
 20
204.0255
  0
VERTEX
  8
LAYER_1
 10
320.1458
 20
204.0255
  0
VERTEX
  8
LAYER_1
 10
320.1458
 20
204.1102
  0
VERTEX
  8
LAYER_1
 10
320.2305
 20
204.1102
  0
VERTEX
  8
LAYER_1
 10
320.3152
 20
204.1102
  0
VERTEX
  8
LAYER_1
 10
320.3998
 20
204.1102
  0
VERTEX
  8
LAYER_1
 10
320.3998
 20
204.0255
  0
VERTEX
  8
LAYER_1
 10
320.4845
 20
204.0255
  0
VERTEX
  8
LAYER_1
 10
320.4845
 20
203.9408
  0
VERTEX
  8
LAYER_1
 10
320.5692
 20
203.9408
  0
VERTEX
  8
LAYER_1
 10
320.5692
 20
203.8561
  0
VERTEX
  8
LAYER_1
 10
320.4845
 20
203.8561
  0
VERTEX
  8
LAYER_1
 10
320.4845
 20
203.7715
  0
VERTEX
  8
LAYER_1
 10
320.4845
 20
203.6868
  0
VERTEX
  8
LAYER_1
 10
320.3998
 20
203.6868
  0
VERTEX
  8
LAYER_1
 10
320.3998
 20
203.6022
  0
VERTEX
  8
LAYER_1
 10
320.3152
 20
203.6022
  0
VERTEX
  8
LAYER_1
 10
320.2305
 20
203.6022
  0
VERTEX
  8
LAYER_1
 10
320.1458
 20
203.6022
  0
VERTEX
  8
LAYER_1
 10
320.1458
 20
203.6868
  0
VERTEX
  8
LAYER_1
 10
320.0612
 20
203.6868
  0
VERTEX
  8
LAYER_1
 10
320.0612
 20
203.7715
  0
SEQEND
  0
POLYLINE
  8
LAYER_1
 40
0.0811
 41
0.0811
 66
1
 10
0
 20
0
 30
0
 70
1
  0
VERTEX
  8
LAYER_1
 10
320.0823
 20
203.835
  0
VERTEX
  8
LAYER_1
 10
320.0823
 20
203.9196
  0
VERTEX
  8
LAYER_1
 10
320.0823
 20
204.0043
  0
VERTEX
  8
LAYER_1
 10
320.167
 20
204.0043
  0
VERTEX
  8
LAYER_1
 10
320.167
 20
204.089
  0
VERTEX
  8
LAYER_1
 10
320.2517
 20
204.089
  0
VERTEX
  8
LAYER_1
 10
320.3363
 20
204.089
  0
VERTEX
  8
LAYER_1
 10
320.421
 20
204.089
  0
VERTEX
  8
LAYER_1
 10
320.421
 20
204.0043
  0
VERTEX
  8
LAYER_1
 10
320.5057
 20
204.0043
  0
VERTEX
  8
LAYER_1
 10
320.5057
 20
203.9196
  0
VERTEX
  8
LAYER_1
 10
320.5903
 20
203.9196
  0
VERTEX
  8
LAYER_1
 10
320.5903
 20
203.835
  0
VERTEX
  8
LAYER_1
 10
320.5057
 20
203.835
  0
VERTEX
  8
LAYER_1
 10
320.5057
 20
203.7503
  0
VERTEX
  8
LAYER_1
 10
320.5057
 20
203.6656
  0
VERTEX
  8
LAYER_1
 10
320.421
 20
203.6656
  0
VERTEX
  8
LAYER_1
 10
320.421
 20
203.581
  0
VERTEX
  8
LAYER_1
 10
320.3363
 20
203.581
  0
VERTEX
  8
LAYER_1
 10
320.2517
 20
203.581
  0
VERTEX
  8
LAYER_1
 10
320.167
 20
203.581
  0
VERTEX
  8
LAYER_1
 10
320.167
 20
203.6656
  0
VERTEX
  8
LAYER_1
 10
320.0823
 20
203.6656
  0
VERTEX
  8
LAYER_1
 10
320.0823
 20
203.7503
  0
SEQEND
  0
POLYLINE
  8
LAYER_1
 40
0.05
 41
0.05
 62
255
 66
1
 10
0
 20
0
 30
0
 70
1
  0
VERTEX
  8
LAYER_1
 10
318.6218
 20
208.2588
  0
VERTEX
  8
LAYER_1
 10
320.1458
 20
208.2588
  0
VERTEX
  8
LAYER_1
 10
320.1458
 20
205.0415
  0
VERTEX
  8
LAYER_1
 10
318.6218
 20
205.0415
  0
SEQEND
  0
TEXT
  8
LAYER_1
 10
318.6431
 20
205.5859
 11
318.6431
 21
205.5859
 40
3.4028
 41
0.5
  1
9
  0
POLYLINE
  8
LAYER_1
 40
0.1764
 41
0.1764
 66
1
 10
0
 20
0
 30
0
 70
1
  0
VERTEX
  8
LAYER_1
 10
320.3363
 20
177.927
  0
VERTEX
  8
LAYER_1
 10
322.1143
 20
175.2177
  0
VERTEX
  8
LAYER_1
 10
322.3683
 20
175.387
  0
VERTEX
  8
LAYER_1
 10
320.5903
 20
178.0117
  0
VERTEX
  8
LAYER_1
 10
320.5903
 20
181.3983
  0
VERTEX
  8
LAYER_1
 10
320.3363
 20
181.3983
  0
SEQEND
  0
POLYLINE
  8
LAYER_1
  6
AIGENLINE001
 40
0.1764
 41
0.1764
 66
1
 10
0
 20
0
 30
0
 70
128
  0
VERTEX
  8
LAYER_1
 10
110.7017
 20
181.3983
  0
VERTEX
  8
LAYER_1
 10
202.057
 20
181.3983
  0
SEQEND
  0
POLYLINE
  8
LAYER_1
  6
AIGENLINE001
 40
0.1764
 41
0.1764
 66
1
 10
0
 20
0
 30
0
 70
128
  0
VERTEX
  8
LAYER_1
 10
202.057
 20
181.3983
  0
VERTEX
  8
LAYER_1
 10
202.057
 20
175.2177
  0
SEQEND
  0
POLYLINE
  8
LAYER_1
  6
AIGENLINE001
 40
0.1764
 41
0.1764
 66
1
 10
0
 20
0
 30
0
 70
128
  0
VERTEX
  8
LAYER_1
 10
202.057
 20
175.2177
  0
VERTEX
  8
LAYER_1
 10
110.7017
 20
175.2177
  0
SEQEND
  0
POLYLINE
  8
LAYER_1
  6
AIGENLINE001
 40
0.1764
 41
0.1764
 66
1
 10
0
 20
0
 30
0
 70
128
  0
VERTEX
  8
LAYER_1
 10
110.7017
 20
175.2177
  0
VERTEX
  8
LAYER_1
 10
110.7017
 20
181.3983
  0
SEQEND
  0
POLYLINE
  8
LAYER_1
  6
AIGENLINE001
 40
0.1764
 41
0.1764
 66
1
 10
0
 20
0
 30
0
 70
128
  0
VERTEX
  8
LAYER_1
 10
111.379
 20
84.201
  0
VERTEX
  8
LAYER_1
 10
201.3797
 20
84.201
  0
SEQEND
  0
POLYLINE
  8
LAYER_1
  6
AIGENLINE001
 40
0.1764
 41
0.1764
 66
1
 10
0
 20
0
 30
0
 70
128
  0
VERTEX
  8
LAYER_1
 10
201.3797
 20
84.201
  0
VERTEX
  8
LAYER_1
 10
201.3797
 20
81.407
  0
SEQEND
  0
POLYLINE
  8
LAYER_1
  6
AIGENLINE001
 40
0.1764
 41
0.1764
 66
1
 10
0
 20
0
 30
0
 70
128
  0
VERTEX
  8
LAYER_1
 10
201.3797
 20
81.407
  0
VERTEX
  8
LAYER_1
 10
111.379
 20
81.407
  0
SEQEND
  0
POLYLINE
  8
LAYER_1
  6
AIGENLINE001
 40
0.1764
 41
0.1764
 66
1
 10
0
 20
0
 30
0
 70
128
  0
VERTEX
  8
LAYER_1
 10
111.379
 20
81.407
  0
VERTEX
  8
LAYER_1
 10
111.379
 20
84.201
  0
SEQEND
  0
TEXT
  8
LAYER_1
 10
336.5924
 20
98.5097
 11
336.5924
 21
98.5097
 40
2.8837
 41
0.5
  1
ウレタンパッド
  0
POLYLINE
  8
LAYER_1
 40
0.1764
 41
0.1764
 66
1
 10
0
 20
0
 30
0
  0
VERTEX
  8
LAYER_1
 10
322.453
 20
83.693
  0
VERTEX
  8
LAYER_1
 10
336.5923
 20
97.8323
  0
SEQEND
  0
POLYLINE
  8
LAYER_1
 40
0.1764
 41
0.1764
 66
1
 10
0
 20
0
 30
0
  0
VERTEX
  8
LAYER_1
 10
336.5923
 20
97.8323
  0
VERTEX
  8
LAYER_1
 10
356.1503
 20
97.8323
  0
SEQEND
  0
TEXT
  8
LAYER_1
 10
336.5924
 20
193.0823
 11
336.5924
 21
193.0823
 40
2.8837
 41
0.5
  1
壁掛け金具
  0
POLYLINE
  8
LAYER_1
 40
0.1764
 41
0.1764
 66
1
 10
0
 20
0
 30
0
  0
VERTEX
  8
LAYER_1
 10
322.199
 20
178.0117
  0
VERTEX
  8
LAYER_1
 10
336.5923
 20
192.405
  0
SEQEND
  0
POLYLINE
  8
LAYER_1
 40
0.1764
 41
0.1764
 66
1
 10
0
 20
0
 30
0
  0
VERTEX
  8
LAYER_1
 10
336.5923
 20
192.405
  0
VERTEX
  8
LAYER_1
 10
350.647
 20
192.405
  0
SEQEND
  0
POLYLINE
  8
LAYER_1
 40
0.1764
 41
0.1764
 66
1
 10
0
 20
0
 30
0
  0
VERTEX
  8
LAYER_1
 10
111.379
 20
85.217
  0
VERTEX
  8
LAYER_1
 10
111.379
 20
94.2763
  0
SEQEND
  0
POLYLINE
  8
LAYER_1
 40
0.1764
 41
0.1764
 66
1
 10
0
 20
0
 30
0
  0
VERTEX
  8
LAYER_1
 10
201.3797
 20
85.217
  0
VERTEX
  8
LAYER_1
 10
201.3797
 20
94.2763
  0
SEQEND
  0
POLYLINE
  8
LAYER_1
 40
0.1764
 41
0.1764
 66
1
 10
0
 20
0
 30
0
  0
VERTEX
  8
LAYER_1
 10
111.379
 20
94.2763
  0
VERTEX
  8
LAYER_1
 10
201.3797
 20
94.2763
  0
SEQEND
  0
POLYLINE
  8
LAYER_1
 40
0.1764
 41
0.1764
 66
1
 10
0
 20
0
 30
0
 70
1
  0
VERTEX
  8
LAYER_1
 10
111.633
 20
94.2763
  0
VERTEX
  8
LAYER_1
 10
111.633
 20
94.1917
  0
VERTEX
  8
LAYER_1
 10
111.5483
 20
94.1917
  0
VERTEX
  8
LAYER_1
 10
111.5483
 20
94.107
  0
VERTEX
  8
LAYER_1
 10
111.4637
 20
94.107
  0
VERTEX
  8
LAYER_1
 10
111.379
 20
94.107
  0
VERTEX
  8
LAYER_1
 10
111.2943
 20
94.107
  0
VERTEX
  8
LAYER_1
 10
111.2097
 20
94.107
  0
VERTEX
  8
LAYER_1
 10
111.2097
 20
94.1917
  0
VERTEX
  8
LAYER_1
 10
111.125
 20
94.1917
  0
VERTEX
  8
LAYER_1
 10
111.125
 20
94.2763
  0
VERTEX
  8
LAYER_1
 10
111.125
 20
94.361
  0
VERTEX
  8
LAYER_1
 10
111.125
 20
94.4456
  0
VERTEX
  8
LAYER_1
 10
111.2097
 20
94.4456
  0
VERTEX
  8
LAYER_1
 10
111.2097
 20
94.5303
  0
VERTEX
  8
LAYER_1
 10
111.2943
 20
94.5303
  0
VERTEX
  8
LAYER_1
 10
111.379
 20
94.5303
  0
VERTEX
  8
LAYER_1
 10
111.4637
 20
94.5303
  0
VERTEX
  8
LAYER_1
 10
111.5483
 20
94.5303
  0
VERTEX
  8
LAYER_1
 10
111.5483
 20
94.4456
  0
VERTEX
  8
LAYER_1
 10
111.633
 20
94.4456
  0
VERTEX
  8
LAYER_1
 10
111.633
 20
94.361
  0
SEQEND
  0
POLYLINE
  8
LAYER_1
 40
0.05
 41
0.05
 66
1
 10
0
 20
0
 30
0
 70
1
  0
VERTEX
  8
LAYER_1
 10
111.6118
 20
94.2975
  0
VERTEX
  8
LAYER_1
 10
111.6118
 20
94.2128
  0
VERTEX
  8
LAYER_1
 10
111.5272
 20
94.2128
  0
VERTEX
  8
LAYER_1
 10
111.5272
 20
94.1282
  0
VERTEX
  8
LAYER_1
 10
111.4425
 20
94.1282
  0
VERTEX
  8
LAYER_1
 10
111.3578
 20
94.1282
  0
VERTEX
  8
LAYER_1
 10
111.2732
 20
94.1282
  0
VERTEX
  8
LAYER_1
 10
111.1885
 20
94.1282
  0
VERTEX
  8
LAYER_1
 10
111.1885
 20
94.2128
  0
VERTEX
  8
LAYER_1
 10
111.1038
 20
94.2128
  0
VERTEX
  8
LAYER_1
 10
111.1038
 20
94.2975
  0
VERTEX
  8
LAYER_1
 10
111.1038
 20
94.3822
  0
VERTEX
  8
LAYER_1
 10
111.1038
 20
94.4668
  0
VERTEX
  8
LAYER_1
 10
111.1885
 20
94.4668
  0
VERTEX
  8
LAYER_1
 10
111.1885
 20
94.5515
  0
VERTEX
  8
LAYER_1
 10
111.2732
 20
94.5515
  0
VERTEX
  8
LAYER_1
 10
111.3578
 20
94.5515
  0
VERTEX
  8
LAYER_1
 10
111.4425
 20
94.5515
  0
VERTEX
  8
LAYER_1
 10
111.5272
 20
94.5515
  0
VERTEX
  8
LAYER_1
 10
111.5272
 20
94.4668
  0
VERTEX
  8
LAYER_1
 10
111.6118
 20
94.4668
  0
VERTEX
  8
LAYER_1
 10
111.6118
 20
94.3822
  0
SEQEND
  0
POLYLINE
  8
LAYER_1
 40
0.0811
 41
0.0811
 66
1
 10
0
 20
0
 30
0
 70
1
  0
VERTEX
  8
LAYER_1
 10
111.633
 20
94.2763
  0
VERTEX
  8
LAYER_1
 10
111.633
 20
94.1917
  0
VERTEX
  8
LAYER_1
 10
111.5483
 20
94.1917
  0
VERTEX
  8
LAYER_1
 10
111.5483
 20
94.107
  0
VERTEX
  8
LAYER_1
 10
111.4637
 20
94.107
  0
VERTEX
  8
LAYER_1
 10
111.379
 20
94.107
  0
VERTEX
  8
LAYER_1
 10
111.2943
 20
94.107
  0
VERTEX
  8
LAYER_1
 10
111.2097
 20
94.107
  0
VERTEX
  8
LAYER_1
 10
111.2097
 20
94.1917
  0
VERTEX
  8
LAYER_1
 10
111.125
 20
94.1917
  0
VERTEX
  8
LAYER_1
 10
111.125
 20
94.2763
  0
VERTEX
  8
LAYER_1
 10
111.125
 20
94.361
  0
VERTEX
  8
LAYER_1
 10
111.125
 20
94.4456
  0
VERTEX
  8
LAYER_1
 10
111.2097
 20
94.4456
  0
VERTEX
  8
LAYER_1
 10
111.2097
 20
94.5303
  0
VERTEX
  8
LAYER_1
 10
111.2943
 20
94.5303
  0
VERTEX
  8
LAYER_1
 10
111.379
 20
94.5303
  0
VERTEX
  8
LAYER_1
 10
111.4637
 20
94.5303
  0
VERTEX
  8
LAYER_1
 10
111.5483
 20
94.5303
  0
VERTEX
  8
LAYER_1
 10
111.5483
 20
94.4456
  0
VERTEX
  8
LAYER_1
 10
111.633
 20
94.4456
  0
VERTEX
  8
LAYER_1
 10
111.633
 20
94.361
  0
SEQEND
  0
POLYLINE
  8
LAYER_1
 40
0.1764
 41
0.1764
 66
1
 10
0
 20
0
 30
0
 70
1
  0
VERTEX
  8
LAYER_1
 10
201.1257
 20
94.2763
  0
VERTEX
  8
LAYER_1
 10
201.1257
 20
94.361
  0
VERTEX
  8
LAYER_1
 10
201.1257
 20
94.4456
  0
VERTEX
  8
LAYER_1
 10
201.2103
 20
94.4456
  0
VERTEX
  8
LAYER_1
 10
201.2103
 20
94.5303
  0
VERTEX
  8
LAYER_1
 10
201.295
 20
94.5303
  0
VERTEX
  8
LAYER_1
 10
201.3797
 20
94.5303
  0
VERTEX
  8
LAYER_1
 10
201.4643
 20
94.5303
  0
VERTEX
  8
LAYER_1
 10
201.549
 20
94.5303
  0
VERTEX
  8
LAYER_1
 10
201.549
 20
94.4456
  0
VERTEX
  8
LAYER_1
 10
201.6337
 20
94.4456
  0
VERTEX
  8
LAYER_1
 10
201.6337
 20
94.361
  0
VERTEX
  8
LAYER_1
 10
201.6337
 20
94.2763
  0
VERTEX
  8
LAYER_1
 10
201.6337
 20
94.1917
  0
VERTEX
  8
LAYER_1
 10
201.549
 20
94.1917
  0
VERTEX
  8
LAYER_1
 10
201.549
 20
94.107
  0
VERTEX
  8
LAYER_1
 10
201.4643
 20
94.107
  0
VERTEX
  8
LAYER_1
 10
201.3797
 20
94.107
  0
VERTEX
  8
LAYER_1
 10
201.295
 20
94.107
  0
VERTEX
  8
LAYER_1
 10
201.2103
 20
94.107
  0
VERTEX
  8
LAYER_1
 10
201.2103
 20
94.1917
  0
VERTEX
  8
LAYER_1
 10
201.1257
 20
94.1917
  0
SEQEND
  0
POLYLINE
  8
LAYER_1
 40
0.05
 41
0.05
 66
1
 10
0
 20
0
 30
0
 70
1
  0
VERTEX
  8
LAYER_1
 10
201.1045
 20
94.2975
  0
VERTEX
  8
LAYER_1
 10
201.1045
 20
94.3822
  0
VERTEX
  8
LAYER_1
 10
201.1045
 20
94.4668
  0
VERTEX
  8
LAYER_1
 10
201.1892
 20
94.4668
  0
VERTEX
  8
LAYER_1
 10
201.1892
 20
94.5515
  0
VERTEX
  8
LAYER_1
 10
201.2738
 20
94.5515
  0
VERTEX
  8
LAYER_1
 10
201.3585
 20
94.5515
  0
VERTEX
  8
LAYER_1
 10
201.4432
 20
94.5515
  0
VERTEX
  8
LAYER_1
 10
201.5278
 20
94.5515
  0
VERTEX
  8
LAYER_1
 10
201.5278
 20
94.4668
  0
VERTEX
  8
LAYER_1
 10
201.6125
 20
94.4668
  0
VERTEX
  8
LAYER_1
 10
201.6125
 20
94.3822
  0
VERTEX
  8
LAYER_1
 10
201.6125
 20
94.2975
  0
VERTEX
  8
LAYER_1
 10
201.6125
 20
94.2128
  0
VERTEX
  8
LAYER_1
 10
201.5278
 20
94.2128
  0
VERTEX
  8
LAYER_1
 10
201.5278
 20
94.1282
  0
VERTEX
  8
LAYER_1
 10
201.4432
 20
94.1282
  0
VERTEX
  8
LAYER_1
 10
201.3585
 20
94.1282
  0
VERTEX
  8
LAYER_1
 10
201.2738
 20
94.1282
  0
VERTEX
  8
LAYER_1
 10
201.1892
 20
94.1282
  0
VERTEX
  8
LAYER_1
 10
201.1892
 20
94.2128
  0
VERTEX
  8
LAYER_1
 10
201.1045
 20
94.2128
  0
SEQEND
  0
POLYLINE
  8
LAYER_1
 40
0.0811
 41
0.0811
 66
1
 10
0
 20
0
 30
0
 70
1
  0
VERTEX
  8
LAYER_1
 10
201.1257
 20
94.2763
  0
VERTEX
  8
LAYER_1
 10
201.1257
 20
94.361
  0
VERTEX
  8
LAYER_1
 10
201.1257
 20
94.4456
  0
VERTEX
  8
LAYER_1
 10
201.2103
 20
94.4456
  0
VERTEX
  8
LAYER_1
 10
201.2103
 20
94.5303
  0
VERTEX
  8
LAYER_1
 10
201.295
 20
94.5303
  0
VERTEX
  8
LAYER_1
 10
201.3797
 20
94.5303
  0
VERTEX
  8
LAYER_1
 10
201.4643
 20
94.5303
  0
VERTEX
  8
LAYER_1
 10
201.549
 20
94.5303
  0
VERTEX
  8
LAYER_1
 10
201.549
 20
94.4456
  0
VERTEX
  8
LAYER_1
 10
201.6337
 20
94.4456
  0
VERTEX
  8
LAYER_1
 10
201.6337
 20
94.361
  0
VERTEX
  8
LAYER_1
 10
201.6337
 20
94.2763
  0
VERTEX
  8
LAYER_1
 10
201.6337
 20
94.1917
  0
VERTEX
  8
LAYER_1
 10
201.549
 20
94.1917
  0
VERTEX
  8
LAYER_1
 10
201.549
 20
94.107
  0
VERTEX
  8
LAYER_1
 10
201.4643
 20
94.107
  0
VERTEX
  8
LAYER_1
 10
201.3797
 20
94.107
  0
VERTEX
  8
LAYER_1
 10
201.295
 20
94.107
  0
VERTEX
  8
LAYER_1
 10
201.2103
 20
94.107
  0
VERTEX
  8
LAYER_1
 10
201.2103
 20
94.1917
  0
VERTEX
  8
LAYER_1
 10
201.1257
 20
94.1917
  0
SEQEND
  0
POLYLINE
  8
LAYER_1
 40
0.05
 41
0.05
 62
255
 66
1
 10
0
 20
0
 30
0
 70
1
  0
VERTEX
  8
LAYER_1
 10
154.0298
 20
98.7848
  0
VERTEX
  8
LAYER_1
 10
158.6865
 20
98.7848
  0
VERTEX
  8
LAYER_1
 10
158.6865
 20
95.5675
  0
VERTEX
  8
LAYER_1
 10
154.0298
 20
95.5675
  0
SEQEND
  0
TEXT
  8
LAYER_1
 10
154.0511
 20
96.112
 11
154.0511
 21
96.112
 40
3.4028
 41
0.5
  1
450
  0
POLYLINE
  8
LAYER_1
 40
0.1764
 41
0.1764
 66
1
 10
0
 20
0
 30
0
  0
VERTEX
  8
LAYER_1
 10
110.7017
 20
174.2017
  0
VERTEX
  8
LAYER_1
 10
110.7017
 20
162.941
  0
SEQEND
  0
POLYLINE
  8
LAYER_1
 40
0.1764
 41
0.1764
 66
1
 10
0
 20
0
 30
0
  0
VERTEX
  8
LAYER_1
 10
202.057
 20
174.2017
  0
VERTEX
  8
LAYER_1
 10
202.057
 20
162.941
  0
SEQEND
  0
POLYLINE
  8
LAYER_1
 40
0.1764
 41
0.1764
 66
1
 10
0
 20
0
 30
0
  0
VERTEX
  8
LAYER_1
 10
110.7017
 20
162.941
  0
VERTEX
  8
LAYER_1
 10
202.057
 20
162.941
  0
SEQEND
  0
POLYLINE
  8
LAYER_1
 40
0.1764
 41
0.1764
 66
1
 10
0
 20
0
 30
0
 70
1
  0
VERTEX
  8
LAYER_1
 10
110.9557
 20
162.941
  0
VERTEX
  8
LAYER_1
 10
110.9557
 20
162.8563
  0
VERTEX
  8
LAYER_1
 10
110.9557
 20
162.7717
  0
VERTEX
  8
LAYER_1
 10
110.871
 20
162.7717
  0
VERTEX
  8
LAYER_1
 10
110.871
 20
162.687
  0
VERTEX
  8
LAYER_1
 10
110.7863
 20
162.687
  0
VERTEX
  8
LAYER_1
 10
110.7017
 20
162.687
  0
VERTEX
  8
LAYER_1
 10
110.617
 20
162.687
  0
VERTEX
  8
LAYER_1
 10
110.5323
 20
162.687
  0
VERTEX
  8
LAYER_1
 10
110.5323
 20
162.7717
  0
VERTEX
  8
LAYER_1
 10
110.4477
 20
162.7717
  0
VERTEX
  8
LAYER_1
 10
110.4477
 20
162.8563
  0
VERTEX
  8
LAYER_1
 10
110.4477
 20
162.941
  0
VERTEX
  8
LAYER_1
 10
110.4477
 20
163.0257
  0
VERTEX
  8
LAYER_1
 10
110.5323
 20
163.0257
  0
VERTEX
  8
LAYER_1
 10
110.5323
 20
163.1103
  0
VERTEX
  8
LAYER_1
 10
110.617
 20
163.1103
  0
VERTEX
  8
LAYER_1
 10
110.617
 20
163.195
  0
VERTEX
  8
LAYER_1
 10
110.7017
 20
163.195
  0
VERTEX
  8
LAYER_1
 10
110.7863
 20
163.195
  0
VERTEX
  8
LAYER_1
 10
110.7863
 20
163.1103
  0
VERTEX
  8
LAYER_1
 10
110.871
 20
163.1103
  0
VERTEX
  8
LAYER_1
 10
110.871
 20
163.0257
  0
VERTEX
  8
LAYER_1
 10
110.9557
 20
163.0257
  0
SEQEND
  0
POLYLINE
  8
LAYER_1
 40
0.05
 41
0.05
 66
1
 10
0
 20
0
 30
0
 70
1
  0
VERTEX
  8
LAYER_1
 10
110.9345
 20
162.9622
  0
VERTEX
  8
LAYER_1
 10
110.9345
 20
162.8775
  0
VERTEX
  8
LAYER_1
 10
110.9345
 20
162.7928
  0
VERTEX
  8
LAYER_1
 10
110.8498
 20
162.7928
  0
VERTEX
  8
LAYER_1
 10
110.8498
 20
162.7082
  0
VERTEX
  8
LAYER_1
 10
110.7652
 20
162.7082
  0
VERTEX
  8
LAYER_1
 10
110.6805
 20
162.7082
  0
VERTEX
  8
LAYER_1
 10
110.5958
 20
162.7082
  0
VERTEX
  8
LAYER_1
 10
110.5112
 20
162.7082
  0
VERTEX
  8
LAYER_1
 10
110.5112
 20
162.7928
  0
VERTEX
  8
LAYER_1
 10
110.4265
 20
162.7928
  0
VERTEX
  8
LAYER_1
 10
110.4265
 20
162.8775
  0
VERTEX
  8
LAYER_1
 10
110.4265
 20
162.9622
  0
VERTEX
  8
LAYER_1
 10
110.4265
 20
163.0468
  0
VERTEX
  8
LAYER_1
 10
110.5112
 20
163.0468
  0
VERTEX
  8
LAYER_1
 10
110.5112
 20
163.1315
  0
VERTEX
  8
LAYER_1
 10
110.5958
 20
163.1315
  0
VERTEX
  8
LAYER_1
 10
110.5958
 20
163.2162
  0
VERTEX
  8
LAYER_1
 10
110.6805
 20
163.2162
  0
VERTEX
  8
LAYER_1
 10
110.7652
 20
163.2162
  0
VERTEX
  8
LAYER_1
 10
110.7652
 20
163.1315
  0
VERTEX
  8
LAYER_1
 10
110.8498
 20
163.1315
  0
VERTEX
  8
LAYER_1
 10
110.8498
 20
163.0468
  0
VERTEX
  8
LAYER_1
 10
110.9345
 20
163.0468
  0
SEQEND
  0
POLYLINE
  8
LAYER_1
 40
0.0811
 41
0.0811
 66
1
 10
0
 20
0
 30
0
 70
1
  0
VERTEX
  8
LAYER_1
 10
110.9557
 20
162.941
  0
VERTEX
  8
LAYER_1
 10
110.9557
 20
162.8563
  0
VERTEX
  8
LAYER_1
 10
110.9557
 20
162.7717
  0
VERTEX
  8
LAYER_1
 10
110.871
 20
162.7717
  0
VERTEX
  8
LAYER_1
 10
110.871
 20
162.687
  0
VERTEX
  8
LAYER_1
 10
110.7863
 20
162.687
  0
VERTEX
  8
LAYER_1
 10
110.7017
 20
162.687
  0
VERTEX
  8
LAYER_1
 10
110.617
 20
162.687
  0
VERTEX
  8
LAYER_1
 10
110.5323
 20
162.687
  0
VERTEX
  8
LAYER_1
 10
110.5323
 20
162.7717
  0
VERTEX
  8
LAYER_1
 10
110.4477
 20
162.7717
  0
VERTEX
  8
LAYER_1
 10
110.4477
 20
162.8563
  0
VERTEX
  8
LAYER_1
 10
110.4477
 20
162.941
  0
VERTEX
  8
LAYER_1
 10
110.4477
 20
163.0257
  0
VERTEX
  8
LAYER_1
 10
110.5323
 20
163.0257
  0
VERTEX
  8
LAYER_1
 10
110.5323
 20
163.1103
  0
VERTEX
  8
LAYER_1
 10
110.617
 20
163.1103
  0
VERTEX
  8
LAYER_1
 10
110.617
 20
163.195
  0
VERTEX
  8
LAYER_1
 10
110.7017
 20
163.195
  0
VERTEX
  8
LAYER_1
 10
110.7863
 20
163.195
  0
VERTEX
  8
LAYER_1
 10
110.7863
 20
163.1103
  0
VERTEX
  8
LAYER_1
 10
110.871
 20
163.1103
  0
VERTEX
  8
LAYER_1
 10
110.871
 20
163.0257
  0
VERTEX
  8
LAYER_1
 10
110.9557
 20
163.0257
  0
SEQEND
  0
POLYLINE
  8
LAYER_1
 40
0.1764
 41
0.1764
 66
1
 10
0
 20
0
 30
0
 70
1
  0
VERTEX
  8
LAYER_1
 10
201.803
 20
162.941
  0
VERTEX
  8
LAYER_1
 10
201.8877
 20
162.941
  0
VERTEX
  8
LAYER_1
 10
201.8877
 20
163.0257
  0
VERTEX
  8
LAYER_1
 10
201.8877
 20
163.1103
  0
VERTEX
  8
LAYER_1
 10
201.9723
 20
163.1103
  0
VERTEX
  8
LAYER_1
 10
201.9723
 20
163.195
  0
VERTEX
  8
LAYER_1
 10
202.057
 20
163.195
  0
VERTEX
  8
LAYER_1
 10
202.1417
 20
163.195
  0
VERTEX
  8
LAYER_1
 10
202.2263
 20
163.1103
  0
VERTEX
  8
LAYER_1
 10
202.311
 20
163.1103
  0
VERTEX
  8
LAYER_1
 10
202.311
 20
163.0257
  0
VERTEX
  8
LAYER_1
 10
202.311
 20
162.941
  0
VERTEX
  8
LAYER_1
 10
202.311
 20
162.8563
  0
VERTEX
  8
LAYER_1
 10
202.311
 20
162.7717
  0
VERTEX
  8
LAYER_1
 10
202.2263
 20
162.7717
  0
VERTEX
  8
LAYER_1
 10
202.2263
 20
162.687
  0
VERTEX
  8
LAYER_1
 10
202.1417
 20
162.687
  0
VERTEX
  8
LAYER_1
 10
202.057
 20
162.687
  0
VERTEX
  8
LAYER_1
 10
201.9723
 20
162.687
  0
VERTEX
  8
LAYER_1
 10
201.8877
 20
162.7717
  0
VERTEX
  8
LAYER_1
 10
201.8877
 20
162.8563
  0
VERTEX
  8
LAYER_1
 10
201.803
 20
162.8563
  0
SEQEND
  0
POLYLINE
  8
LAYER_1
 40
0.05
 41
0.05
 66
1
 10
0
 20
0
 30
0
 70
1
  0
VERTEX
  8
LAYER_1
 10
201.7818
 20
162.9622
  0
VERTEX
  8
LAYER_1
 10
201.8665
 20
162.9622
  0
VERTEX
  8
LAYER_1
 10
201.8665
 20
163.0468
  0
VERTEX
  8
LAYER_1
 10
201.8665
 20
163.1315
  0
VERTEX
  8
LAYER_1
 10
201.9512
 20
163.1315
  0
VERTEX
  8
LAYER_1
 10
201.9512
 20
163.2162
  0
VERTEX
  8
LAYER_1
 10
202.0358
 20
163.2162
  0
VERTEX
  8
LAYER_1
 10
202.1205
 20
163.2162
  0
VERTEX
  8
LAYER_1
 10
202.2052
 20
163.1315
  0
VERTEX
  8
LAYER_1
 10
202.2898
 20
163.1315
  0
VERTEX
  8
LAYER_1
 10
202.2898
 20
163.0468
  0
VERTEX
  8
LAYER_1
 10
202.2898
 20
162.9622
  0
VERTEX
  8
LAYER_1
 10
202.2898
 20
162.8775
  0
VERTEX
  8
LAYER_1
 10
202.2898
 20
162.7928
  0
VERTEX
  8
LAYER_1
 10
202.2052
 20
162.7928
  0
VERTEX
  8
LAYER_1
 10
202.2052
 20
162.7082
  0
VERTEX
  8
LAYER_1
 10
202.1205
 20
162.7082
  0
VERTEX
  8
LAYER_1
 10
202.0358
 20
162.7082
  0
VERTEX
  8
LAYER_1
 10
201.9512
 20
162.7082
  0
VERTEX
  8
LAYER_1
 10
201.8665
 20
162.7928
  0
VERTEX
  8
LAYER_1
 10
201.8665
 20
162.8775
  0
VERTEX
  8
LAYER_1
 10
201.7818
 20
162.8775
  0
SEQEND
  0
POLYLINE
  8
LAYER_1
 40
0.0811
 41
0.0811
 66
1
 10
0
 20
0
 30
0
 70
1
  0
VERTEX
  8
LAYER_1
 10
201.803
 20
162.941
  0
VERTEX
  8
LAYER_1
 10
201.8877
 20
162.941
  0
VERTEX
  8
LAYER_1
 10
201.8877
 20
163.0257
  0
VERTEX
  8
LAYER_1
 10
201.8877
 20
163.1103
  0
VERTEX
  8
LAYER_1
 10
201.9723
 20
163.1103
  0
VERTEX
  8
LAYER_1
 10
201.9723
 20
163.195
  0
VERTEX
  8
LAYER_1
 10
202.057
 20
163.195
  0
VERTEX
  8
LAYER_1
 10
202.1417
 20
163.195
  0
VERTEX
  8
LAYER_1
 10
202.2263
 20
163.1103
  0
VERTEX
  8
LAYER_1
 10
202.311
 20
163.1103
  0
VERTEX
  8
LAYER_1
 10
202.311
 20
163.0257
  0
VERTEX
  8
LAYER_1
 10
202.311
 20
162.941
  0
VERTEX
  8
LAYER_1
 10
202.311
 20
162.8563
  0
VERTEX
  8
LAYER_1
 10
202.311
 20
162.7717
  0
VERTEX
  8
LAYER_1
 10
202.2263
 20
162.7717
  0
VERTEX
  8
LAYER_1
 10
202.2263
 20
162.687
  0
VERTEX
  8
LAYER_1
 10
202.1417
 20
162.687
  0
VERTEX
  8
LAYER_1
 10
202.057
 20
162.687
  0
VERTEX
  8
LAYER_1
 10
201.9723
 20
162.687
  0
VERTEX
  8
LAYER_1
 10
201.8877
 20
162.7717
  0
VERTEX
  8
LAYER_1
 10
201.8877
 20
162.8563
  0
VERTEX
  8
LAYER_1
 10
201.803
 20
162.8563
  0
SEQEND
  0
POLYLINE
  8
LAYER_1
 40
0.05
 41
0.05
 62
255
 66
1
 10
0
 20
0
 30
0
 70
1
  0
VERTEX
  8
LAYER_1
 10
154.0298
 20
167.3648
  0
VERTEX
  8
LAYER_1
 10
158.6865
 20
167.3648
  0
VERTEX
  8
LAYER_1
 10
158.6865
 20
164.1475
  0
VERTEX
  8
LAYER_1
 10
154.0298
 20
164.1475
  0
SEQEND
  0
TEXT
  8
LAYER_1
 10
154.0511
 20
164.6919
 11
154.0511
 21
164.6919
 40
3.4028
 41
0.5
  1
457
  0
POLYLINE
  8
LAYER_1
 40
0.1764
 41
0.1764
 66
1
 10
0
 20
0
 30
0
  0
VERTEX
  8
LAYER_1
 10
322.2837
 20
200.4483
  0
VERTEX
  8
LAYER_1
 10
327.025
 20
200.4483
  0
SEQEND
  0
POLYLINE
  8
LAYER_1
 40
0.1764
 41
0.1764
 66
1
 10
0
 20
0
 30
0
  0
VERTEX
  8
LAYER_1
 10
321.6063
 20
181.3983
  0
VERTEX
  8
LAYER_1
 10
327.025
 20
181.3983
  0
SEQEND
  0
POLYLINE
  8
LAYER_1
 40
0.1764
 41
0.1764
 66
1
 10
0
 20
0
 30
0
  0
VERTEX
  8
LAYER_1
 10
327.025
 20
200.4483
  0
VERTEX
  8
LAYER_1
 10
327.025
 20
181.3983
  0
SEQEND
  0
POLYLINE
  8
LAYER_1
 40
0.1764
 41
0.1764
 66
1
 10
0
 20
0
 30
0
 70
1
  0
VERTEX
  8
LAYER_1
 10
327.025
 20
200.1943
  0
VERTEX
  8
LAYER_1
 10
326.9403
 20
200.1943
  0
VERTEX
  8
LAYER_1
 10
326.8557
 20
200.1943
  0
VERTEX
  8
LAYER_1
 10
326.8557
 20
200.279
  0
VERTEX
  8
LAYER_1
 10
326.771
 20
200.279
  0
VERTEX
  8
LAYER_1
 10
326.771
 20
200.3636
  0
VERTEX
  8
LAYER_1
 10
326.771
 20
200.4483
  0
VERTEX
  8
LAYER_1
 10
326.771
 20
200.533
  0
VERTEX
  8
LAYER_1
 10
326.8557
 20
200.533
  0
VERTEX
  8
LAYER_1
 10
326.8557
 20
200.6176
  0
VERTEX
  8
LAYER_1
 10
326.9403
 20
200.6176
  0
VERTEX
  8
LAYER_1
 10
326.9403
 20
200.7023
  0
VERTEX
  8
LAYER_1
 10
327.025
 20
200.7023
  0
VERTEX
  8
LAYER_1
 10
327.1097
 20
200.7023
  0
VERTEX
  8
LAYER_1
 10
327.1097
 20
200.6176
  0
VERTEX
  8
LAYER_1
 10
327.1943
 20
200.6176
  0
VERTEX
  8
LAYER_1
 10
327.1943
 20
200.533
  0
VERTEX
  8
LAYER_1
 10
327.279
 20
200.533
  0
VERTEX
  8
LAYER_1
 10
327.279
 20
200.4483
  0
VERTEX
  8
LAYER_1
 10
327.279
 20
200.3636
  0
VERTEX
  8
LAYER_1
 10
327.279
 20
200.279
  0
VERTEX
  8
LAYER_1
 10
327.1943
 20
200.279
  0
VERTEX
  8
LAYER_1
 10
327.1943
 20
200.1943
  0
VERTEX
  8
LAYER_1
 10
327.1097
 20
200.1943
  0
SEQEND
  0
POLYLINE
  8
LAYER_1
 40
0.05
 41
0.05
 66
1
 10
0
 20
0
 30
0
 70
1
  0
VERTEX
  8
LAYER_1
 10
327.0038
 20
200.2155
  0
VERTEX
  8
LAYER_1
 10
326.9192
 20
200.2155
  0
VERTEX
  8
LAYER_1
 10
326.8345
 20
200.2155
  0
VERTEX
  8
LAYER_1
 10
326.8345
 20
200.3002
  0
VERTEX
  8
LAYER_1
 10
326.7498
 20
200.3002
  0
VERTEX
  8
LAYER_1
 10
326.7498
 20
200.3848
  0
VERTEX
  8
LAYER_1
 10
326.7498
 20
200.4695
  0
VERTEX
  8
LAYER_1
 10
326.7498
 20
200.5541
  0
VERTEX
  8
LAYER_1
 10
326.8345
 20
200.5541
  0
VERTEX
  8
LAYER_1
 10
326.8345
 20
200.6388
  0
VERTEX
  8
LAYER_1
 10
326.9192
 20
200.6388
  0
VERTEX
  8
LAYER_1
 10
326.9192
 20
200.7235
  0
VERTEX
  8
LAYER_1
 10
327.0038
 20
200.7235
  0
VERTEX
  8
LAYER_1
 10
327.0885
 20
200.7235
  0
VERTEX
  8
LAYER_1
 10
327.0885
 20
200.6388
  0
VERTEX
  8
LAYER_1
 10
327.1732
 20
200.6388
  0
VERTEX
  8
LAYER_1
 10
327.1732
 20
200.5541
  0
VERTEX
  8
LAYER_1
 10
327.2578
 20
200.5541
  0
VERTEX
  8
LAYER_1
 10
327.2578
 20
200.4695
  0
VERTEX
  8
LAYER_1
 10
327.2578
 20
200.3848
  0
VERTEX
  8
LAYER_1
 10
327.2578
 20
200.3002
  0
VERTEX
  8
LAYER_1
 10
327.1732
 20
200.3002
  0
VERTEX
  8
LAYER_1
 10
327.1732
 20
200.2155
  0
VERTEX
  8
LAYER_1
 10
327.0885
 20
200.2155
  0
SEQEND
  0
POLYLINE
  8
LAYER_1
 40
0.0811
 41
0.0811
 66
1
 10
0
 20
0
 30
0
 70
1
  0
VERTEX
  8
LAYER_1
 10
327.025
 20
200.1943
  0
VERTEX
  8
LAYER_1
 10
326.9403
 20
200.1943
  0
VERTEX
  8
LAYER_1
 10
326.8557
 20
200.1943
  0
VERTEX
  8
LAYER_1
 10
326.8557
 20
200.279
  0
VERTEX
  8
LAYER_1
 10
326.771
 20
200.279
  0
VERTEX
  8
LAYER_1
 10
326.771
 20
200.3636
  0
VERTEX
  8
LAYER_1
 10
326.771
 20
200.4483
  0
VERTEX
  8
LAYER_1
 10
326.771
 20
200.533
  0
VERTEX
  8
LAYER_1
 10
326.8557
 20
200.533
  0
VERTEX
  8
LAYER_1
 10
326.8557
 20
200.6176
  0
VERTEX
  8
LAYER_1
 10
326.9403
 20
200.6176
  0
VERTEX
  8
LAYER_1
 10
326.9403
 20
200.7023
  0
VERTEX
  8
LAYER_1
 10
327.025
 20
200.7023
  0
VERTEX
  8
LAYER_1
 10
327.1097
 20
200.7023
  0
VERTEX
  8
LAYER_1
 10
327.1097
 20
200.6176
  0
VERTEX
  8
LAYER_1
 10
327.1943
 20
200.6176
  0
VERTEX
  8
LAYER_1
 10
327.1943
 20
200.533
  0
VERTEX
  8
LAYER_1
 10
327.279
 20
200.533
  0
VERTEX
  8
LAYER_1
 10
327.279
 20
200.4483
  0
VERTEX
  8
LAYER_1
 10
327.279
 20
200.3636
  0
VERTEX
  8
LAYER_1
 10
327.279
 20
200.279
  0
VERTEX
  8
LAYER_1
 10
327.1943
 20
200.279
  0
VERTEX
  8
LAYER_1
 10
327.1943
 20
200.1943
  0
VERTEX
  8
LAYER_1
 10
327.1097
 20
200.1943
  0
SEQEND
  0
POLYLINE
  8
LAYER_1
 40
0.1764
 41
0.1764
 66
1
 10
0
 20
0
 30
0
 70
1
  0
VERTEX
  8
LAYER_1
 10
327.025
 20
181.6523
  0
VERTEX
  8
LAYER_1
 10
327.1097
 20
181.6523
  0
VERTEX
  8
LAYER_1
 10
327.1943
 20
181.6523
  0
VERTEX
  8
LAYER_1
 10
327.1943
 20
181.5676
  0
VERTEX
  8
LAYER_1
 10
327.279
 20
181.5676
  0
VERTEX
  8
LAYER_1
 10
327.279
 20
181.483
  0
VERTEX
  8
LAYER_1
 10
327.279
 20
181.3983
  0
VERTEX
  8
LAYER_1
 10
327.279
 20
181.3136
  0
VERTEX
  8
LAYER_1
 10
327.1943
 20
181.3136
  0
VERTEX
  8
LAYER_1
 10
327.1943
 20
181.229
  0
VERTEX
  8
LAYER_1
 10
327.1097
 20
181.229
  0
VERTEX
  8
LAYER_1
 10
327.1097
 20
181.1443
  0
VERTEX
  8
LAYER_1
 10
327.025
 20
181.1443
  0
VERTEX
  8
LAYER_1
 10
326.9403
 20
181.1443
  0
VERTEX
  8
LAYER_1
 10
326.9403
 20
181.229
  0
VERTEX
  8
LAYER_1
 10
326.8557
 20
181.229
  0
VERTEX
  8
LAYER_1
 10
326.8557
 20
181.3136
  0
VERTEX
  8
LAYER_1
 10
326.771
 20
181.3136
  0
VERTEX
  8
LAYER_1
 10
326.771
 20
181.3983
  0
VERTEX
  8
LAYER_1
 10
326.771
 20
181.483
  0
VERTEX
  8
LAYER_1
 10
326.771
 20
181.5676
  0
VERTEX
  8
LAYER_1
 10
326.8557
 20
181.5676
  0
VERTEX
  8
LAYER_1
 10
326.8557
 20
181.6523
  0
VERTEX
  8
LAYER_1
 10
326.9403
 20
181.6523
  0
SEQEND
  0
POLYLINE
  8
LAYER_1
 40
0.05
 41
0.05
 66
1
 10
0
 20
0
 30
0
 70
1
  0
VERTEX
  8
LAYER_1
 10
327.0038
 20
181.6735
  0
VERTEX
  8
LAYER_1
 10
327.0885
 20
181.6735
  0
VERTEX
  8
LAYER_1
 10
327.1732
 20
181.6735
  0
VERTEX
  8
LAYER_1
 10
327.1732
 20
181.5888
  0
VERTEX
  8
LAYER_1
 10
327.2578
 20
181.5888
  0
VERTEX
  8
LAYER_1
 10
327.2578
 20
181.5041
  0
VERTEX
  8
LAYER_1
 10
327.2578
 20
181.4195
  0
VERTEX
  8
LAYER_1
 10
327.2578
 20
181.3348
  0
VERTEX
  8
LAYER_1
 10
327.1732
 20
181.3348
  0
VERTEX
  8
LAYER_1
 10
327.1732
 20
181.2502
  0
VERTEX
  8
LAYER_1
 10
327.0885
 20
181.2502
  0
VERTEX
  8
LAYER_1
 10
327.0885
 20
181.1655
  0
VERTEX
  8
LAYER_1
 10
327.0038
 20
181.1655
  0
VERTEX
  8
LAYER_1
 10
326.9192
 20
181.1655
  0
VERTEX
  8
LAYER_1
 10
326.9192
 20
181.2502
  0
VERTEX
  8
LAYER_1
 10
326.8345
 20
181.2502
  0
VERTEX
  8
LAYER_1
 10
326.8345
 20
181.3348
  0
VERTEX
  8
LAYER_1
 10
326.7498
 20
181.3348
  0
VERTEX
  8
LAYER_1
 10
326.7498
 20
181.4195
  0
VERTEX
  8
LAYER_1
 10
326.7498
 20
181.5041
  0
VERTEX
  8
LAYER_1
 10
326.7498
 20
181.5888
  0
VERTEX
  8
LAYER_1
 10
326.8345
 20
181.5888
  0
VERTEX
  8
LAYER_1
 10
326.8345
 20
181.6735
  0
VERTEX
  8
LAYER_1
 10
326.9192
 20
181.6735
  0
SEQEND
  0
POLYLINE
  8
LAYER_1
 40
0.0811
 41
0.0811
 66
1
 10
0
 20
0
 30
0
 70
1
  0
VERTEX
  8
LAYER_1
 10
327.025
 20
181.6523
  0
VERTEX
  8
LAYER_1
 10
327.1097
 20
181.6523
  0
VERTEX
  8
LAYER_1
 10
327.1943
 20
181.6523
  0
VERTEX
  8
LAYER_1
 10
327.1943
 20
181.5676
  0
VERTEX
  8
LAYER_1
 10
327.279
 20
181.5676
  0
VERTEX
  8
LAYER_1
 10
327.279
 20
181.483
  0
VERTEX
  8
LAYER_1
 10
327.279
 20
181.3983
  0
VERTEX
  8
LAYER_1
 10
327.279
 20
181.3136
  0
VERTEX
  8
LAYER_1
 10
327.1943
 20
181.3136
  0
VERTEX
  8
LAYER_1
 10
327.1943
 20
181.229
  0
VERTEX
  8
LAYER_1
 10
327.1097
 20
181.229
  0
VERTEX
  8
LAYER_1
 10
327.1097
 20
181.1443
  0
VERTEX
  8
LAYER_1
 10
327.025
 20
181.1443
  0
VERTEX
  8
LAYER_1
 10
326.9403
 20
181.1443
  0
VERTEX
  8
LAYER_1
 10
326.9403
 20
181.229
  0
VERTEX
  8
LAYER_1
 10
326.8557
 20
181.229
  0
VERTEX
  8
LAYER_1
 10
326.8557
 20
181.3136
  0
VERTEX
  8
LAYER_1
 10
326.771
 20
181.3136
  0
VERTEX
  8
LAYER_1
 10
326.771
 20
181.3983
  0
VERTEX
  8
LAYER_1
 10
326.771
 20
181.483
  0
VERTEX
  8
LAYER_1
 10
326.771
 20
181.5676
  0
VERTEX
  8
LAYER_1
 10
326.8557
 20
181.5676
  0
VERTEX
  8
LAYER_1
 10
326.8557
 20
181.6523
  0
VERTEX
  8
LAYER_1
 10
326.9403
 20
181.6523
  0
SEQEND
  0
POLYLINE
  8
LAYER_1
 40
0.05
 41
0.05
 62
255
 66
1
 10
0
 20
0
 30
0
 70
1
  0
VERTEX
  8
LAYER_1
 10
322.6012
 20
189.3781
  0
VERTEX
  8
LAYER_1
 10
322.6012
 20
192.5108
  0
VERTEX
  8
LAYER_1
 10
325.8185
 20
192.5108
  0
VERTEX
  8
LAYER_1
 10
325.8185
 20
189.3781
  0
SEQEND
  0
TEXT
  8
LAYER_1
 10
325.2742
 20
189.3571
 11
325.2742
 21
189.3571
 40
3.4028
 41
0.5
 50
89.99999999
  1
95
  0
POLYLINE
  8
LAYER_1
 40
0.1764
 41
0.1764
 66
1
 10
0
 20
0
 30
0
  0
VERTEX
  8
LAYER_1
 10
322.707
 20
81.407
  0
VERTEX
  8
LAYER_1
 10
327.025
 20
81.407
  0
SEQEND
  0
POLYLINE
  8
LAYER_1
 40
0.1764
 41
0.1764
 66
1
 10
0
 20
0
 30
0
  0
VERTEX
  8
LAYER_1
 10
321.2677
 20
62.4417
  0
VERTEX
  8
LAYER_1
 10
327.025
 20
62.4417
  0
SEQEND
  0
POLYLINE
  8
LAYER_1
 40
0.1764
 41
0.1764
 66
1
 10
0
 20
0
 30
0
  0
VERTEX
  8
LAYER_1
 10
327.025
 20
81.407
  0
VERTEX
  8
LAYER_1
 10
327.025
 20
62.4417
  0
SEQEND
  0
POLYLINE
  8
LAYER_1
 40
0.1764
 41
0.1764
 66
1
 10
0
 20
0
 30
0
 70
1
  0
VERTEX
  8
LAYER_1
 10
327.025
 20
81.153
  0
VERTEX
  8
LAYER_1
 10
326.9403
 20
81.153
  0
VERTEX
  8
LAYER_1
 10
326.9403
 20
81.2377
  0
VERTEX
  8
LAYER_1
 10
326.8557
 20
81.2377
  0
VERTEX
  8
LAYER_1
 10
326.8557
 20
81.3223
  0
VERTEX
  8
LAYER_1
 10
326.771
 20
81.3223
  0
VERTEX
  8
LAYER_1
 10
326.771
 20
81.407
  0
VERTEX
  8
LAYER_1
 10
326.771
 20
81.4917
  0
VERTEX
  8
LAYER_1
 10
326.771
 20
81.5763
  0
VERTEX
  8
LAYER_1
 10
326.8557
 20
81.5763
  0
VERTEX
  8
LAYER_1
 10
326.8557
 20
81.661
  0
VERTEX
  8
LAYER_1
 10
326.9403
 20
81.661
  0
VERTEX
  8
LAYER_1
 10
327.025
 20
81.661
  0
VERTEX
  8
LAYER_1
 10
327.1097
 20
81.661
  0
VERTEX
  8
LAYER_1
 10
327.1943
 20
81.661
  0
VERTEX
  8
LAYER_1
 10
327.1943
 20
81.5763
  0
VERTEX
  8
LAYER_1
 10
327.279
 20
81.5763
  0
VERTEX
  8
LAYER_1
 10
327.279
 20
81.4917
  0
VERTEX
  8
LAYER_1
 10
327.279
 20
81.407
  0
VERTEX
  8
LAYER_1
 10
327.279
 20
81.3223
  0
VERTEX
  8
LAYER_1
 10
327.1943
 20
81.3223
  0
VERTEX
  8
LAYER_1
 10
327.1943
 20
81.2377
  0
VERTEX
  8
LAYER_1
 10
327.1097
 20
81.2377
  0
VERTEX
  8
LAYER_1
 10
327.1097
 20
81.153
  0
SEQEND
  0
POLYLINE
  8
LAYER_1
 40
0.05
 41
0.05
 66
1
 10
0
 20
0
 30
0
 70
1
  0
VERTEX
  8
LAYER_1
 10
327.0038
 20
81.1742
  0
VERTEX
  8
LAYER_1
 10
326.9192
 20
81.1742
  0
VERTEX
  8
LAYER_1
 10
326.9192
 20
81.2588
  0
VERTEX
  8
LAYER_1
 10
326.8345
 20
81.2588
  0
VERTEX
  8
LAYER_1
 10
326.8345
 20
81.3435
  0
VERTEX
  8
LAYER_1
 10
326.7498
 20
81.3435
  0
VERTEX
  8
LAYER_1
 10
326.7498
 20
81.4282
  0
VERTEX
  8
LAYER_1
 10
326.7498
 20
81.5128
  0
VERTEX
  8
LAYER_1
 10
326.7498
 20
81.5975
  0
VERTEX
  8
LAYER_1
 10
326.8345
 20
81.5975
  0
VERTEX
  8
LAYER_1
 10
326.8345
 20
81.6822
  0
VERTEX
  8
LAYER_1
 10
326.9192
 20
81.6822
  0
VERTEX
  8
LAYER_1
 10
327.0038
 20
81.6822
  0
VERTEX
  8
LAYER_1
 10
327.0885
 20
81.6822
  0
VERTEX
  8
LAYER_1
 10
327.1732
 20
81.6822
  0
VERTEX
  8
LAYER_1
 10
327.1732
 20
81.5975
  0
VERTEX
  8
LAYER_1
 10
327.2578
 20
81.5975
  0
VERTEX
  8
LAYER_1
 10
327.2578
 20
81.5128
  0
VERTEX
  8
LAYER_1
 10
327.2578
 20
81.4282
  0
VERTEX
  8
LAYER_1
 10
327.2578
 20
81.3435
  0
VERTEX
  8
LAYER_1
 10
327.1732
 20
81.3435
  0
VERTEX
  8
LAYER_1
 10
327.1732
 20
81.2588
  0
VERTEX
  8
LAYER_1
 10
327.0885
 20
81.2588
  0
VERTEX
  8
LAYER_1
 10
327.0885
 20
81.1742
  0
SEQEND
  0
POLYLINE
  8
LAYER_1
 40
0.0811
 41
0.0811
 66
1
 10
0
 20
0
 30
0
 70
1
  0
VERTEX
  8
LAYER_1
 10
327.025
 20
81.153
  0
VERTEX
  8
LAYER_1
 10
326.9403
 20
81.153
  0
VERTEX
  8
LAYER_1
 10
326.9403
 20
81.2377
  0
VERTEX
  8
LAYER_1
 10
326.8557
 20
81.2377
  0
VERTEX
  8
LAYER_1
 10
326.8557
 20
81.3223
  0
VERTEX
  8
LAYER_1
 10
326.771
 20
81.3223
  0
VERTEX
  8
LAYER_1
 10
326.771
 20
81.407
  0
VERTEX
  8
LAYER_1
 10
326.771
 20
81.4917
  0
VERTEX
  8
LAYER_1
 10
326.771
 20
81.5763
  0
VERTEX
  8
LAYER_1
 10
326.8557
 20
81.5763
  0
VERTEX
  8
LAYER_1
 10
326.8557
 20
81.661
  0
VERTEX
  8
LAYER_1
 10
326.9403
 20
81.661
  0
VERTEX
  8
LAYER_1
 10
327.025
 20
81.661
  0
VERTEX
  8
LAYER_1
 10
327.1097
 20
81.661
  0
VERTEX
  8
LAYER_1
 10
327.1943
 20
81.661
  0
VERTEX
  8
LAYER_1
 10
327.1943
 20
81.5763
  0
VERTEX
  8
LAYER_1
 10
327.279
 20
81.5763
  0
VERTEX
  8
LAYER_1
 10
327.279
 20
81.4917
  0
VERTEX
  8
LAYER_1
 10
327.279
 20
81.407
  0
VERTEX
  8
LAYER_1
 10
327.279
 20
81.3223
  0
VERTEX
  8
LAYER_1
 10
327.1943
 20
81.3223
  0
VERTEX
  8
LAYER_1
 10
327.1943
 20
81.2377
  0
VERTEX
  8
LAYER_1
 10
327.1097
 20
81.2377
  0
VERTEX
  8
LAYER_1
 10
327.1097
 20
81.153
  0
SEQEND
  0
POLYLINE
  8
LAYER_1
 40
0.1764
 41
0.1764
 66
1
 10
0
 20
0
 30
0
 70
1
  0
VERTEX
  8
LAYER_1
 10
327.025
 20
62.6957
  0
VERTEX
  8
LAYER_1
 10
327.1097
 20
62.6957
  0
VERTEX
  8
LAYER_1
 10
327.1097
 20
62.611
  0
VERTEX
  8
LAYER_1
 10
327.1943
 20
62.611
  0
VERTEX
  8
LAYER_1
 10
327.1943
 20
62.5263
  0
VERTEX
  8
LAYER_1
 10
327.279
 20
62.5263
  0
VERTEX
  8
LAYER_1
 10
327.279
 20
62.4417
  0
VERTEX
  8
LAYER_1
 10
327.279
 20
62.357
  0
VERTEX
  8
LAYER_1
 10
327.279
 20
62.2723
  0
VERTEX
  8
LAYER_1
 10
327.1943
 20
62.2723
  0
VERTEX
  8
LAYER_1
 10
327.1943
 20
62.1877
  0
VERTEX
  8
LAYER_1
 10
327.1097
 20
62.1877
  0
VERTEX
  8
LAYER_1
 10
327.025
 20
62.1877
  0
VERTEX
  8
LAYER_1
 10
326.9403
 20
62.1877
  0
VERTEX
  8
LAYER_1
 10
326.8557
 20
62.1877
  0
VERTEX
  8
LAYER_1
 10
326.8557
 20
62.2723
  0
VERTEX
  8
LAYER_1
 10
326.771
 20
62.2723
  0
VERTEX
  8
LAYER_1
 10
326.771
 20
62.357
  0
VERTEX
  8
LAYER_1
 10
326.771
 20
62.4417
  0
VERTEX
  8
LAYER_1
 10
326.771
 20
62.5263
  0
VERTEX
  8
LAYER_1
 10
326.8557
 20
62.5263
  0
VERTEX
  8
LAYER_1
 10
326.8557
 20
62.611
  0
VERTEX
  8
LAYER_1
 10
326.9403
 20
62.611
  0
VERTEX
  8
LAYER_1
 10
326.9403
 20
62.6957
  0
SEQEND
  0
POLYLINE
  8
LAYER_1
 40
0.05
 41
0.05
 66
1
 10
0
 20
0
 30
0
 70
1
  0
VERTEX
  8
LAYER_1
 10
327.0038
 20
62.7168
  0
VERTEX
  8
LAYER_1
 10
327.0885
 20
62.7168
  0
VERTEX
  8
LAYER_1
 10
327.0885
 20
62.6322
  0
VERTEX
  8
LAYER_1
 10
327.1732
 20
62.6322
  0
VERTEX
  8
LAYER_1
 10
327.1732
 20
62.5475
  0
VERTEX
  8
LAYER_1
 10
327.2578
 20
62.5475
  0
VERTEX
  8
LAYER_1
 10
327.2578
 20
62.4628
  0
VERTEX
  8
LAYER_1
 10
327.2578
 20
62.3782
  0
VERTEX
  8
LAYER_1
 10
327.2578
 20
62.2935
  0
VERTEX
  8
LAYER_1
 10
327.1732
 20
62.2935
  0
VERTEX
  8
LAYER_1
 10
327.1732
 20
62.2088
  0
VERTEX
  8
LAYER_1
 10
327.0885
 20
62.2088
  0
VERTEX
  8
LAYER_1
 10
327.0038
 20
62.2088
  0
VERTEX
  8
LAYER_1
 10
326.9192
 20
62.2088
  0
VERTEX
  8
LAYER_1
 10
326.8345
 20
62.2088
  0
VERTEX
  8
LAYER_1
 10
326.8345
 20
62.2935
  0
VERTEX
  8
LAYER_1
 10
326.7498
 20
62.2935
  0
VERTEX
  8
LAYER_1
 10
326.7498
 20
62.3782
  0
VERTEX
  8
LAYER_1
 10
326.7498
 20
62.4628
  0
VERTEX
  8
LAYER_1
 10
326.7498
 20
62.5475
  0
VERTEX
  8
LAYER_1
 10
326.8345
 20
62.5475
  0
VERTEX
  8
LAYER_1
 10
326.8345
 20
62.6322
  0
VERTEX
  8
LAYER_1
 10
326.9192
 20
62.6322
  0
VERTEX
  8
LAYER_1
 10
326.9192
 20
62.7168
  0
SEQEND
  0
POLYLINE
  8
LAYER_1
 40
0.0811
 41
0.0811
 66
1
 10
0
 20
0
 30
0
 70
1
  0
VERTEX
  8
LAYER_1
 10
327.025
 20
62.6957
  0
VERTEX
  8
LAYER_1
 10
327.1097
 20
62.6957
  0
VERTEX
  8
LAYER_1
 10
327.1097
 20
62.611
  0
VERTEX
  8
LAYER_1
 10
327.1943
 20
62.611
  0
VERTEX
  8
LAYER_1
 10
327.1943
 20
62.5263
  0
VERTEX
  8
LAYER_1
 10
327.279
 20
62.5263
  0
VERTEX
  8
LAYER_1
 10
327.279
 20
62.4417
  0
VERTEX
  8
LAYER_1
 10
327.279
 20
62.357
  0
VERTEX
  8
LAYER_1
 10
327.279
 20
62.2723
  0
VERTEX
  8
LAYER_1
 10
327.1943
 20
62.2723
  0
VERTEX
  8
LAYER_1
 10
327.1943
 20
62.1877
  0
VERTEX
  8
LAYER_1
 10
327.1097
 20
62.1877
  0
VERTEX
  8
LAYER_1
 10
327.025
 20
62.1877
  0
VERTEX
  8
LAYER_1
 10
326.9403
 20
62.1877
  0
VERTEX
  8
LAYER_1
 10
326.8557
 20
62.1877
  0
VERTEX
  8
LAYER_1
 10
326.8557
 20
62.2723
  0
VERTEX
  8
LAYER_1
 10
326.771
 20
62.2723
  0
VERTEX
  8
LAYER_1
 10
326.771
 20
62.357
  0
VERTEX
  8
LAYER_1
 10
326.771
 20
62.4417
  0
VERTEX
  8
LAYER_1
 10
326.771
 20
62.5263
  0
VERTEX
  8
LAYER_1
 10
326.8557
 20
62.5263
  0
VERTEX
  8
LAYER_1
 10
326.8557
 20
62.611
  0
VERTEX
  8
LAYER_1
 10
326.9403
 20
62.611
  0
VERTEX
  8
LAYER_1
 10
326.9403
 20
62.6957
  0
SEQEND
  0
POLYLINE
  8
LAYER_1
 40
0.05
 41
0.05
 62
255
 66
1
 10
0
 20
0
 30
0
 70
1
  0
VERTEX
  8
LAYER_1
 10
322.6012
 20
70.3368
  0
VERTEX
  8
LAYER_1
 10
322.6012
 20
73.5542
  0
VERTEX
  8
LAYER_1
 10
325.8185
 20
73.5542
  0
VERTEX
  8
LAYER_1
 10
325.8185
 20
70.3368
  0
SEQEND
  0
TEXT
  8
LAYER_1
 10
325.2742
 20
70.3158
 11
325.2742
 21
70.3158
 40
3.4028
 41
0.5
 50
89.99999999
  1
95
  0
POLYLINE
  8
LAYER_1
 40
0.1764
 41
0.1764
 66
1
 10
0
 20
0
 30
0
  0
VERTEX
  8
LAYER_1
 10
202.3957
 20
84.201
  0
VERTEX
  8
LAYER_1
 10
208.153
 20
84.201
  0
SEQEND
  0
POLYLINE
  8
LAYER_1
 40
0.1764
 41
0.1764
 66
1
 10
0
 20
0
 30
0
  0
VERTEX
  8
LAYER_1
 10
202.3957
 20
81.407
  0
VERTEX
  8
LAYER_1
 10
208.153
 20
81.407
  0
SEQEND
  0
POLYLINE
  8
LAYER_1
 40
0.1764
 41
0.1764
 66
1
 10
0
 20
0
 30
0
  0
VERTEX
  8
LAYER_1
 10
208.153
 20
84.201
  0
VERTEX
  8
LAYER_1
 10
208.153
 20
81.407
  0
SEQEND
  0
POLYLINE
  8
LAYER_1
 40
0.1764
 41
0.1764
 66
1
 10
0
 20
0
 30
0
 70
1
  0
VERTEX
  8
LAYER_1
 10
208.153
 20
83.947
  0
VERTEX
  8
LAYER_1
 10
208.0683
 20
83.947
  0
VERTEX
  8
LAYER_1
 10
208.0683
 20
84.0317
  0
VERTEX
  8
LAYER_1
 10
207.9837
 20
84.0317
  0
VERTEX
  8
LAYER_1
 10
207.9837
 20
84.1163
  0
VERTEX
  8
LAYER_1
 10
207.9837
 20
84.201
  0
VERTEX
  8
LAYER_1
 10
207.9837
 20
84.2857
  0
VERTEX
  8
LAYER_1
 10
207.9837
 20
84.3703
  0
VERTEX
  8
LAYER_1
 10
208.0683
 20
84.455
  0
VERTEX
  8
LAYER_1
 10
208.153
 20
84.455
  0
VERTEX
  8
LAYER_1
 10
208.2377
 20
84.455
  0
VERTEX
  8
LAYER_1
 10
208.3223
 20
84.455
  0
VERTEX
  8
LAYER_1
 10
208.3223
 20
84.3703
  0
VERTEX
  8
LAYER_1
 10
208.407
 20
84.3703
  0
VERTEX
  8
LAYER_1
 10
208.407
 20
84.2857
  0
VERTEX
  8
LAYER_1
 10
208.407
 20
84.201
  0
VERTEX
  8
LAYER_1
 10
208.407
 20
84.1163
  0
VERTEX
  8
LAYER_1
 10
208.407
 20
84.0317
  0
VERTEX
  8
LAYER_1
 10
208.3223
 20
84.0317
  0
VERTEX
  8
LAYER_1
 10
208.2377
 20
83.947
  0
SEQEND
  0
POLYLINE
  8
LAYER_1
 40
0.05
 41
0.05
 66
1
 10
0
 20
0
 30
0
 70
1
  0
VERTEX
  8
LAYER_1
 10
208.1318
 20
83.9682
  0
VERTEX
  8
LAYER_1
 10
208.0472
 20
83.9682
  0
VERTEX
  8
LAYER_1
 10
208.0472
 20
84.0528
  0
VERTEX
  8
LAYER_1
 10
207.9625
 20
84.0528
  0
VERTEX
  8
LAYER_1
 10
207.9625
 20
84.1375
  0
VERTEX
  8
LAYER_1
 10
207.9625
 20
84.2222
  0
VERTEX
  8
LAYER_1
 10
207.9625
 20
84.3068
  0
VERTEX
  8
LAYER_1
 10
207.9625
 20
84.3915
  0
VERTEX
  8
LAYER_1
 10
208.0472
 20
84.4762
  0
VERTEX
  8
LAYER_1
 10
208.1318
 20
84.4762
  0
VERTEX
  8
LAYER_1
 10
208.2165
 20
84.4762
  0
VERTEX
  8
LAYER_1
 10
208.3012
 20
84.4762
  0
VERTEX
  8
LAYER_1
 10
208.3012
 20
84.3915
  0
VERTEX
  8
LAYER_1
 10
208.3858
 20
84.3915
  0
VERTEX
  8
LAYER_1
 10
208.3858
 20
84.3068
  0
VERTEX
  8
LAYER_1
 10
208.3858
 20
84.2222
  0
VERTEX
  8
LAYER_1
 10
208.3858
 20
84.1375
  0
VERTEX
  8
LAYER_1
 10
208.3858
 20
84.0528
  0
VERTEX
  8
LAYER_1
 10
208.3012
 20
84.0528
  0
VERTEX
  8
LAYER_1
 10
208.2165
 20
83.9682
  0
SEQEND
  0
POLYLINE
  8
LAYER_1
 40
0.0811
 41
0.0811
 66
1
 10
0
 20
0
 30
0
 70
1
  0
VERTEX
  8
LAYER_1
 10
208.153
 20
83.947
  0
VERTEX
  8
LAYER_1
 10
208.0683
 20
83.947
  0
VERTEX
  8
LAYER_1
 10
208.0683
 20
84.0317
  0
VERTEX
  8
LAYER_1
 10
207.9837
 20
84.0317
  0
VERTEX
  8
LAYER_1
 10
207.9837
 20
84.1163
  0
VERTEX
  8
LAYER_1
 10
207.9837
 20
84.201
  0
VERTEX
  8
LAYER_1
 10
207.9837
 20
84.2857
  0
VERTEX
  8
LAYER_1
 10
207.9837
 20
84.3703
  0
VERTEX
  8
LAYER_1
 10
208.0683
 20
84.455
  0
VERTEX
  8
LAYER_1
 10
208.153
 20
84.455
  0
VERTEX
  8
LAYER_1
 10
208.2377
 20
84.455
  0
VERTEX
  8
LAYER_1
 10
208.3223
 20
84.455
  0
VERTEX
  8
LAYER_1
 10
208.3223
 20
84.3703
  0
VERTEX
  8
LAYER_1
 10
208.407
 20
84.3703
  0
VERTEX
  8
LAYER_1
 10
208.407
 20
84.2857
  0
VERTEX
  8
LAYER_1
 10
208.407
 20
84.201
  0
VERTEX
  8
LAYER_1
 10
208.407
 20
84.1163
  0
VERTEX
  8
LAYER_1
 10
208.407
 20
84.0317
  0
VERTEX
  8
LAYER_1
 10
208.3223
 20
84.0317
  0
VERTEX
  8
LAYER_1
 10
208.2377
 20
83.947
  0
SEQEND
  0
POLYLINE
  8
LAYER_1
 40
0.1764
 41
0.1764
 66
1
 10
0
 20
0
 30
0
 70
1
  0
VERTEX
  8
LAYER_1
 10
208.153
 20
81.661
  0
VERTEX
  8
LAYER_1
 10
208.2377
 20
81.661
  0
VERTEX
  8
LAYER_1
 10
208.3223
 20
81.661
  0
VERTEX
  8
LAYER_1
 10
208.3223
 20
81.5763
  0
VERTEX
  8
LAYER_1
 10
208.407
 20
81.5763
  0
VERTEX
  8
LAYER_1
 10
208.407
 20
81.4917
  0
VERTEX
  8
LAYER_1
 10
208.407
 20
81.407
  0
VERTEX
  8
LAYER_1
 10
208.407
 20
81.3223
  0
VERTEX
  8
LAYER_1
 10
208.407
 20
81.2377
  0
VERTEX
  8
LAYER_1
 10
208.3223
 20
81.2377
  0
VERTEX
  8
LAYER_1
 10
208.3223
 20
81.153
  0
VERTEX
  8
LAYER_1
 10
208.2377
 20
81.153
  0
VERTEX
  8
LAYER_1
 10
208.153
 20
81.153
  0
VERTEX
  8
LAYER_1
 10
208.0683
 20
81.153
  0
VERTEX
  8
LAYER_1
 10
208.0683
 20
81.2377
  0
VERTEX
  8
LAYER_1
 10
207.9837
 20
81.2377
  0
VERTEX
  8
LAYER_1
 10
207.9837
 20
81.3223
  0
VERTEX
  8
LAYER_1
 10
207.9837
 20
81.407
  0
VERTEX
  8
LAYER_1
 10
207.9837
 20
81.4917
  0
VERTEX
  8
LAYER_1
 10
207.9837
 20
81.5763
  0
VERTEX
  8
LAYER_1
 10
208.0683
 20
81.5763
  0
VERTEX
  8
LAYER_1
 10
208.0683
 20
81.661
  0
SEQEND
  0
POLYLINE
  8
LAYER_1
 40
0.05
 41
0.05
 66
1
 10
0
 20
0
 30
0
 70
1
  0
VERTEX
  8
LAYER_1
 10
208.1318
 20
81.6822
  0
VERTEX
  8
LAYER_1
 10
208.2165
 20
81.6822
  0
VERTEX
  8
LAYER_1
 10
208.3012
 20
81.6822
  0
VERTEX
  8
LAYER_1
 10
208.3012
 20
81.5975
  0
VERTEX
  8
LAYER_1
 10
208.3858
 20
81.5975
  0
VERTEX
  8
LAYER_1
 10
208.3858
 20
81.5128
  0
VERTEX
  8
LAYER_1
 10
208.3858
 20
81.4282
  0
VERTEX
  8
LAYER_1
 10
208.3858
 20
81.3435
  0
VERTEX
  8
LAYER_1
 10
208.3858
 20
81.2588
  0
VERTEX
  8
LAYER_1
 10
208.3012
 20
81.2588
  0
VERTEX
  8
LAYER_1
 10
208.3012
 20
81.1742
  0
VERTEX
  8
LAYER_1
 10
208.2165
 20
81.1742
  0
VERTEX
  8
LAYER_1
 10
208.1318
 20
81.1742
  0
VERTEX
  8
LAYER_1
 10
208.0472
 20
81.1742
  0
VERTEX
  8
LAYER_1
 10
208.0472
 20
81.2588
  0
VERTEX
  8
LAYER_1
 10
207.9625
 20
81.2588
  0
VERTEX
  8
LAYER_1
 10
207.9625
 20
81.3435
  0
VERTEX
  8
LAYER_1
 10
207.9625
 20
81.4282
  0
VERTEX
  8
LAYER_1
 10
207.9625
 20
81.5128
  0
VERTEX
  8
LAYER_1
 10
207.9625
 20
81.5975
  0
VERTEX
  8
LAYER_1
 10
208.0472
 20
81.5975
  0
VERTEX
  8
LAYER_1
 10
208.0472
 20
81.6822
  0
SEQEND
  0
POLYLINE
  8
LAYER_1
 40
0.0811
 41
0.0811
 66
1
 10
0
 20
0
 30
0
 70
1
  0
VERTEX
  8
LAYER_1
 10
208.153
 20
81.661
  0
VERTEX
  8
LAYER_1
 10
208.2377
 20
81.661
  0
VERTEX
  8
LAYER_1
 10
208.3223
 20
81.661
  0
VERTEX
  8
LAYER_1
 10
208.3223
 20
81.5763
  0
VERTEX
  8
LAYER_1
 10
208.407
 20
81.5763
  0
VERTEX
  8
LAYER_1
 10
208.407
 20
81.4917
  0
VERTEX
  8
LAYER_1
 10
208.407
 20
81.407
  0
VERTEX
  8
LAYER_1
 10
208.407
 20
81.3223
  0
VERTEX
  8
LAYER_1
 10
208.407
 20
81.2377
  0
VERTEX
  8
LAYER_1
 10
208.3223
 20
81.2377
  0
VERTEX
  8
LAYER_1
 10
208.3223
 20
81.153
  0
VERTEX
  8
LAYER_1
 10
208.2377
 20
81.153
  0
VERTEX
  8
LAYER_1
 10
208.153
 20
81.153
  0
VERTEX
  8
LAYER_1
 10
208.0683
 20
81.153
  0
VERTEX
  8
LAYER_1
 10
208.0683
 20
81.2377
  0
VERTEX
  8
LAYER_1
 10
207.9837
 20
81.2377
  0
VERTEX
  8
LAYER_1
 10
207.9837
 20
81.3223
  0
VERTEX
  8
LAYER_1
 10
207.9837
 20
81.407
  0
VERTEX
  8
LAYER_1
 10
207.9837
 20
81.4917
  0
VERTEX
  8
LAYER_1
 10
207.9837
 20
81.5763
  0
VERTEX
  8
LAYER_1
 10
208.0683
 20
81.5763
  0
VERTEX
  8
LAYER_1
 10
208.0683
 20
81.661
  0
SEQEND
  0
POLYLINE
  8
LAYER_1
 40
0.05
 41
0.05
 62
255
 66
1
 10
0
 20
0
 30
0
 70
1
  0
VERTEX
  8
LAYER_1
 10
203.7292
 20
81.2588
  0
VERTEX
  8
LAYER_1
 10
203.7292
 20
84.3915
  0
VERTEX
  8
LAYER_1
 10
206.9465
 20
84.3915
  0
VERTEX
  8
LAYER_1
 10
206.9465
 20
81.2588
  0
SEQEND
  0
TEXT
  8
LAYER_1
 10
206.4022
 20
81.2374
 11
206.4022
 21
81.2374
 40
3.4028
 41
0.5
 50
89.99999999
  1
14
  0
POLYLINE
  8
LAYER_1
 40
0.1764
 41
0.1764
 66
1
 10
0
 20
0
 30
0
  0
VERTEX
  8
LAYER_1
 10
203.073
 20
181.3983
  0
VERTEX
  8
LAYER_1
 10
208.915
 20
181.3983
  0
SEQEND
  0
POLYLINE
  8
LAYER_1
 40
0.1764
 41
0.1764
 66
1
 10
0
 20
0
 30
0
  0
VERTEX
  8
LAYER_1
 10
203.073
 20
175.2177
  0
VERTEX
  8
LAYER_1
 10
208.915
 20
175.2177
  0
SEQEND
  0
POLYLINE
  8
LAYER_1
 40
0.1764
 41
0.1764
 66
1
 10
0
 20
0
 30
0
  0
VERTEX
  8
LAYER_1
 10
208.915
 20
181.3983
  0
VERTEX
  8
LAYER_1
 10
208.915
 20
175.2177
  0
SEQEND
  0
POLYLINE
  8
LAYER_1
 40
0.1764
 41
0.1764
 66
1
 10
0
 20
0
 30
0
 70
1
  0
VERTEX
  8
LAYER_1
 10
208.915
 20
181.1443
  0
VERTEX
  8
LAYER_1
 10
208.8303
 20
181.1443
  0
VERTEX
  8
LAYER_1
 10
208.8303
 20
181.229
  0
VERTEX
  8
LAYER_1
 10
208.7457
 20
181.229
  0
VERTEX
  8
LAYER_1
 10
208.661
 20
181.229
  0
VERTEX
  8
LAYER_1
 10
208.661
 20
181.3136
  0
VERTEX
  8
LAYER_1
 10
208.661
 20
181.3983
  0
VERTEX
  8
LAYER_1
 10
208.661
 20
181.483
  0
VERTEX
  8
LAYER_1
 10
208.661
 20
181.5676
  0
VERTEX
  8
LAYER_1
 10
208.7457
 20
181.5676
  0
VERTEX
  8
LAYER_1
 10
208.7457
 20
181.6523
  0
VERTEX
  8
LAYER_1
 10
208.8303
 20
181.6523
  0
VERTEX
  8
LAYER_1
 10
208.915
 20
181.6523
  0
VERTEX
  8
LAYER_1
 10
208.9997
 20
181.6523
  0
VERTEX
  8
LAYER_1
 10
209.0843
 20
181.6523
  0
VERTEX
  8
LAYER_1
 10
209.0843
 20
181.5676
  0
VERTEX
  8
LAYER_1
 10
209.0843
 20
181.483
  0
VERTEX
  8
LAYER_1
 10
209.169
 20
181.483
  0
VERTEX
  8
LAYER_1
 10
209.169
 20
181.3983
  0
VERTEX
  8
LAYER_1
 10
209.169
 20
181.3136
  0
VERTEX
  8
LAYER_1
 10
209.0843
 20
181.3136
  0
VERTEX
  8
LAYER_1
 10
209.0843
 20
181.229
  0
VERTEX
  8
LAYER_1
 10
208.9997
 20
181.229
  0
VERTEX
  8
LAYER_1
 10
208.9997
 20
181.1443
  0
SEQEND
  0
POLYLINE
  8
LAYER_1
 40
0.05
 41
0.05
 66
1
 10
0
 20
0
 30
0
 70
1
  0
VERTEX
  8
LAYER_1
 10
208.8938
 20
181.1655
  0
VERTEX
  8
LAYER_1
 10
208.8092
 20
181.1655
  0
VERTEX
  8
LAYER_1
 10
208.8092
 20
181.2502
  0
VERTEX
  8
LAYER_1
 10
208.7245
 20
181.2502
  0
VERTEX
  8
LAYER_1
 10
208.6398
 20
181.2502
  0
VERTEX
  8
LAYER_1
 10
208.6398
 20
181.3348
  0
VERTEX
  8
LAYER_1
 10
208.6398
 20
181.4195
  0
VERTEX
  8
LAYER_1
 10
208.6398
 20
181.5041
  0
VERTEX
  8
LAYER_1
 10
208.6398
 20
181.5888
  0
VERTEX
  8
LAYER_1
 10
208.7245
 20
181.5888
  0
VERTEX
  8
LAYER_1
 10
208.7245
 20
181.6735
  0
VERTEX
  8
LAYER_1
 10
208.8092
 20
181.6735
  0
VERTEX
  8
LAYER_1
 10
208.8938
 20
181.6735
  0
VERTEX
  8
LAYER_1
 10
208.9785
 20
181.6735
  0
VERTEX
  8
LAYER_1
 10
209.0632
 20
181.6735
  0
VERTEX
  8
LAYER_1
 10
209.0632
 20
181.5888
  0
VERTEX
  8
LAYER_1
 10
209.0632
 20
181.5041
  0
VERTEX
  8
LAYER_1
 10
209.1478
 20
181.5041
  0
VERTEX
  8
LAYER_1
 10
209.1478
 20
181.4195
  0
VERTEX
  8
LAYER_1
 10
209.1478
 20
181.3348
  0
VERTEX
  8
LAYER_1
 10
209.0632
 20
181.3348
  0
VERTEX
  8
LAYER_1
 10
209.0632
 20
181.2502
  0
VERTEX
  8
LAYER_1
 10
208.9785
 20
181.2502
  0
VERTEX
  8
LAYER_1
 10
208.9785
 20
181.1655
  0
SEQEND
  0
POLYLINE
  8
LAYER_1
 40
0.0811
 41
0.0811
 66
1
 10
0
 20
0
 30
0
 70
1
  0
VERTEX
  8
LAYER_1
 10
208.915
 20
181.1443
  0
VERTEX
  8
LAYER_1
 10
208.8303
 20
181.1443
  0
VERTEX
  8
LAYER_1
 10
208.8303
 20
181.229
  0
VERTEX
  8
LAYER_1
 10
208.7457
 20
181.229
  0
VERTEX
  8
LAYER_1
 10
208.661
 20
181.229
  0
VERTEX
  8
LAYER_1
 10
208.661
 20
181.3136
  0
VERTEX
  8
LAYER_1
 10
208.661
 20
181.3983
  0
VERTEX
  8
LAYER_1
 10
208.661
 20
181.483
  0
VERTEX
  8
LAYER_1
 10
208.661
 20
181.5676
  0
VERTEX
  8
LAYER_1
 10
208.7457
 20
181.5676
  0
VERTEX
  8
LAYER_1
 10
208.7457
 20
181.6523
  0
VERTEX
  8
LAYER_1
 10
208.8303
 20
181.6523
  0
VERTEX
  8
LAYER_1
 10
208.915
 20
181.6523
  0
VERTEX
  8
LAYER_1
 10
208.9997
 20
181.6523
  0
VERTEX
  8
LAYER_1
 10
209.0843
 20
181.6523
  0
VERTEX
  8
LAYER_1
 10
209.0843
 20
181.5676
  0
VERTEX
  8
LAYER_1
 10
209.0843
 20
181.483
  0
VERTEX
  8
LAYER_1
 10
209.169
 20
181.483
  0
VERTEX
  8
LAYER_1
 10
209.169
 20
181.3983
  0
VERTEX
  8
LAYER_1
 10
209.169
 20
181.3136
  0
VERTEX
  8
LAYER_1
 10
209.0843
 20
181.3136
  0
VERTEX
  8
LAYER_1
 10
209.0843
 20
181.229
  0
VERTEX
  8
LAYER_1
 10
208.9997
 20
181.229
  0
VERTEX
  8
LAYER_1
 10
208.9997
 20
181.1443
  0
SEQEND
  0
POLYLINE
  8
LAYER_1
 40
0.1764
 41
0.1764
 66
1
 10
0
 20
0
 30
0
 70
1
  0
VERTEX
  8
LAYER_1
 10
208.915
 20
175.4717
  0
VERTEX
  8
LAYER_1
 10
208.9997
 20
175.4717
  0
VERTEX
  8
LAYER_1
 10
208.9997
 20
175.387
  0
VERTEX
  8
LAYER_1
 10
209.0843
 20
175.387
  0
VERTEX
  8
LAYER_1
 10
209.0843
 20
175.3023
  0
VERTEX
  8
LAYER_1
 10
209.169
 20
175.3023
  0
VERTEX
  8
LAYER_1
 10
209.169
 20
175.2177
  0
VERTEX
  8
LAYER_1
 10
209.169
 20
175.133
  0
VERTEX
  8
LAYER_1
 10
209.0843
 20
175.133
  0
VERTEX
  8
LAYER_1
 10
209.0843
 20
175.0483
  0
VERTEX
  8
LAYER_1
 10
208.9997
 20
175.0483
  0
VERTEX
  8
LAYER_1
 10
208.9997
 20
174.9637
  0
VERTEX
  8
LAYER_1
 10
208.915
 20
174.9637
  0
VERTEX
  8
LAYER_1
 10
208.8303
 20
174.9637
  0
VERTEX
  8
LAYER_1
 10
208.7457
 20
174.9637
  0
VERTEX
  8
LAYER_1
 10
208.7457
 20
175.0483
  0
VERTEX
  8
LAYER_1
 10
208.661
 20
175.0483
  0
VERTEX
  8
LAYER_1
 10
208.661
 20
175.133
  0
VERTEX
  8
LAYER_1
 10
208.661
 20
175.2177
  0
VERTEX
  8
LAYER_1
 10
208.661
 20
175.3023
  0
VERTEX
  8
LAYER_1
 10
208.661
 20
175.387
  0
VERTEX
  8
LAYER_1
 10
208.7457
 20
175.387
  0
VERTEX
  8
LAYER_1
 10
208.7457
 20
175.4717
  0
VERTEX
  8
LAYER_1
 10
208.8303
 20
175.4717
  0
SEQEND
  0
POLYLINE
  8
LAYER_1
 40
0.05
 41
0.05
 66
1
 10
0
 20
0
 30
0
 70
1
  0
VERTEX
  8
LAYER_1
 10
208.8938
 20
175.4928
  0
VERTEX
  8
LAYER_1
 10
208.9785
 20
175.4928
  0
VERTEX
  8
LAYER_1
 10
208.9785
 20
175.4082
  0
VERTEX
  8
LAYER_1
 10
209.0632
 20
175.4082
  0
VERTEX
  8
LAYER_1
 10
209.0632
 20
175.3235
  0
VERTEX
  8
LAYER_1
 10
209.1478
 20
175.3235
  0
VERTEX
  8
LAYER_1
 10
209.1478
 20
175.2388
  0
VERTEX
  8
LAYER_1
 10
209.1478
 20
175.1542
  0
VERTEX
  8
LAYER_1
 10
209.0632
 20
175.1542
  0
VERTEX
  8
LAYER_1
 10
209.0632
 20
175.0695
  0
VERTEX
  8
LAYER_1
 10
208.9785
 20
175.0695
  0
VERTEX
  8
LAYER_1
 10
208.9785
 20
174.9848
  0
VERTEX
  8
LAYER_1
 10
208.8938
 20
174.9848
  0
VERTEX
  8
LAYER_1
 10
208.8092
 20
174.9848
  0
VERTEX
  8
LAYER_1
 10
208.7245
 20
174.9848
  0
VERTEX
  8
LAYER_1
 10
208.7245
 20
175.0695
  0
VERTEX
  8
LAYER_1
 10
208.6398
 20
175.0695
  0
VERTEX
  8
LAYER_1
 10
208.6398
 20
175.1542
  0
VERTEX
  8
LAYER_1
 10
208.6398
 20
175.2388
  0
VERTEX
  8
LAYER_1
 10
208.6398
 20
175.3235
  0
VERTEX
  8
LAYER_1
 10
208.6398
 20
175.4082
  0
VERTEX
  8
LAYER_1
 10
208.7245
 20
175.4082
  0
VERTEX
  8
LAYER_1
 10
208.7245
 20
175.4928
  0
VERTEX
  8
LAYER_1
 10
208.8092
 20
175.4928
  0
SEQEND
  0
POLYLINE
  8
LAYER_1
 40
0.0811
 41
0.0811
 66
1
 10
0
 20
0
 30
0
 70
1
  0
VERTEX
  8
LAYER_1
 10
208.915
 20
175.4717
  0
VERTEX
  8
LAYER_1
 10
208.9997
 20
175.4717
  0
VERTEX
  8
LAYER_1
 10
208.9997
 20
175.387
  0
VERTEX
  8
LAYER_1
 10
209.0843
 20
175.387
  0
VERTEX
  8
LAYER_1
 10
209.0843
 20
175.3023
  0
VERTEX
  8
LAYER_1
 10
209.169
 20
175.3023
  0
VERTEX
  8
LAYER_1
 10
209.169
 20
175.2177
  0
VERTEX
  8
LAYER_1
 10
209.169
 20
175.133
  0
VERTEX
  8
LAYER_1
 10
209.0843
 20
175.133
  0
VERTEX
  8
LAYER_1
 10
209.0843
 20
175.0483
  0
VERTEX
  8
LAYER_1
 10
208.9997
 20
175.0483
  0
VERTEX
  8
LAYER_1
 10
208.9997
 20
174.9637
  0
VERTEX
  8
LAYER_1
 10
208.915
 20
174.9637
  0
VERTEX
  8
LAYER_1
 10
208.8303
 20
174.9637
  0
VERTEX
  8
LAYER_1
 10
208.7457
 20
174.9637
  0
VERTEX
  8
LAYER_1
 10
208.7457
 20
175.0483
  0
VERTEX
  8
LAYER_1
 10
208.661
 20
175.0483
  0
VERTEX
  8
LAYER_1
 10
208.661
 20
175.133
  0
VERTEX
  8
LAYER_1
 10
208.661
 20
175.2177
  0
VERTEX
  8
LAYER_1
 10
208.661
 20
175.3023
  0
VERTEX
  8
LAYER_1
 10
208.661
 20
175.387
  0
VERTEX
  8
LAYER_1
 10
208.7457
 20
175.387
  0
VERTEX
  8
LAYER_1
 10
208.7457
 20
175.4717
  0
VERTEX
  8
LAYER_1
 10
208.8303
 20
175.4717
  0
SEQEND
  0
POLYLINE
  8
LAYER_1
 40
0.05
 41
0.05
 62
255
 66
1
 10
0
 20
0
 30
0
 70
1
  0
VERTEX
  8
LAYER_1
 10
204.4912
 20
176.7628
  0
VERTEX
  8
LAYER_1
 10
204.4912
 20
179.8955
  0
VERTEX
  8
LAYER_1
 10
207.7085
 20
179.8955
  0
VERTEX
  8
LAYER_1
 10
207.7085
 20
176.7628
  0
SEQEND
  0
TEXT
  8
LAYER_1
 10
207.1641
 20
176.7415
 11
207.1641
 21
176.7415
 40
3.4028
 41
0.5
 50
89.99999999
  1
31
  0
ENDSEC
  0
EOF
