  0
SECTION
  2
HEADER
  9
$ACADVER
  1
AC1009
  9
$LUNITS
 70
2
  9
$LUPREC
 70
4
  9
$LTSCALE
 40
1.0
  9
$EXTMIN
 10
3.1173
 20
6.8623
 30
0
  9
$EXTMAX
 10
417.095
 20
263.3768
 30
0
  0
ENDSEC
  0
SECTION
  2
TABLES
  0
TABLE
  2
LTYPE
 70
256
  0
LTYPE
  2
AIGENLINE001
 70
64
  3
generate AI->DXF Converter
 72
65
 73
2
 40
2.032
 49
1.016
 49
-1.016
  0
ENDTAB
  0
TABLE
  2
LAYER
 70
1
  0
LAYER
  2
LAYER_1
 70
64
 62
7
  6
CONTINUOUS
  0
ENDTAB
  0
TABLE
  2
STYLE
 70
6
  0
STYLE
  2
STANDARD
 70
0
 40
0
 50
0
 71
0
 41
0
 42
0
  3
TXT
  4
BIGFONT
  0
ENDTAB
  0
ENDSEC
  0
SECTION
  2
BLOCKS
  0
BLOCK
  8
LAYER_1
  2
AIGNBL01040005
 70
64
 10
0
 20
0
 30
0
  3
AIGNBL01040005
  0
POLYLINE
  8
LAYER_1
 40
0.05
 41
0.05
 62
29
 66
1
 10
0
 20
0
 30
0
 70
1
  0
VERTEX
  8
LAYER_1
 10
320.4766
 20
15.8555
  0
VERTEX
  8
LAYER_1
 10
319.9877
 20
14.6704
  0
VERTEX
  8
LAYER_1
 10
319.3597
 20
14.6704
  0
VERTEX
  8
LAYER_1
 10
320.9592
 20
18.4363
  0
VERTEX
  8
LAYER_1
 10
321.6924
 20
18.4363
  0
VERTEX
  8
LAYER_1
 10
323.2988
 20
14.6704
  0
VERTEX
  8
LAYER_1
 10
322.6487
 20
14.6704
  0
VERTEX
  8
LAYER_1
 10
322.1461
 20
15.8555
  0
SEQEND
  0
POLYLINE
  8
LAYER_1
 40
0.05
 41
0.05
 62
29
 66
1
 10
0
 20
0
 30
0
 70
1
  0
VERTEX
  8
LAYER_1
 10
322.0203
 20
16.2345
  0
VERTEX
  8
LAYER_1
 10
321.5594
 20
17.3193
  0
VERTEX
  8
LAYER_1
 10
321.3147
 20
18.0063
  0
VERTEX
  8
LAYER_1
 10
321.301
 20
18.0063
  0
VERTEX
  8
LAYER_1
 10
321.0633
 20
17.3238
  0
VERTEX
  8
LAYER_1
 10
320.6027
 20
16.2345
  0
SEQEND
  0
ENDBLK
  0
BLOCK
  8
LAYER_1
  2
AIGNBL01040006
 70
64
 10
0
 20
0
 30
0
  3
AIGNBL01040006
  0
POLYLINE
  8
LAYER_1
 40
0.05
 41
0.05
 62
29
 66
1
 10
0
 20
0
 30
0
 70
1
  0
VERTEX
  8
LAYER_1
 10
327.6641
 20
14.1171
 42
-0.01562387181
  0
VERTEX
  8
LAYER_1
 10
325.8619
 20
14.5533
  0
VERTEX
  8
LAYER_1
 10
325.5753
 20
14.6087
 42
-0.08357116773
  0
VERTEX
  8
LAYER_1
 10
324.7113
 20
14.7749
 42
-0.09750805853
  0
VERTEX
  8
LAYER_1
 10
324.0501
 20
15.1809
 42
-0.2129055397
  0
VERTEX
  8
LAYER_1
 10
323.5014
 20
16.5136
 42
-0.09685143224
  0
VERTEX
  8
LAYER_1
 10
323.646
 20
17.287
 42
-0.2046325641
  0
VERTEX
  8
LAYER_1
 10
324.6935
 20
18.3112
 42
-0.09825434011
  0
VERTEX
  8
LAYER_1
 10
325.6945
 20
18.4976
 42
-0.08554836282
  0
VERTEX
  8
LAYER_1
 10
326.5631
 20
18.3563
 42
-0.1004347897
  0
VERTEX
  8
LAYER_1
 10
327.2282
 20
17.962
 42
-0.2140895568
  0
VERTEX
  8
LAYER_1
 10
327.8036
 20
16.5921
 42
-0.09540761417
  0
VERTEX
  8
LAYER_1
 10
327.6647
 20
15.8243
 42
-0.2143180113
  0
VERTEX
  8
LAYER_1
 10
326.6419
 20
14.8459
 42
-0.02339684384
  0
VERTEX
  8
LAYER_1
 10
326.4628
 20
14.7876
  0
VERTEX
  8
LAYER_1
 10
326.4628
 20
14.7652
 42
0.01715381139
  0
VERTEX
  8
LAYER_1
 10
327.8391
 20
14.525
  0
SEQEND
  0
POLYLINE
  8
LAYER_1
 40
0.05
 41
0.05
 62
29
 66
1
 10
0
 20
0
 30
0
 70
1
  0
VERTEX
  8
LAYER_1
 10
327.1614
 20
16.5707
 42
0.1071478063
  0
VERTEX
  8
LAYER_1
 10
327.0101
 20
17.2755
 42
0.29764763
  0
VERTEX
  8
LAYER_1
 10
325.6731
 20
18.1011
 42
0.1072381498
  0
VERTEX
  8
LAYER_1
 10
324.9833
 20
17.9616
 42
0.2386128144
  0
VERTEX
  8
LAYER_1
 10
324.1964
 20
16.9559
 42
0.05752200415
  0
VERTEX
  8
LAYER_1
 10
324.1508
 20
16.5259
 42
0.218096749
  0
VERTEX
  8
LAYER_1
 10
324.6814
 20
15.3305
 42
0.1772796408
  0
VERTEX
  8
LAYER_1
 10
325.6452
 20
15.0049
 42
0.1075185771
  0
VERTEX
  8
LAYER_1
 10
326.3266
 20
15.1439
 42
0.2370926009
  0
VERTEX
  8
LAYER_1
 10
327.1137
 20
16.1435
 42
0.05601310134
  0
SEQEND
  0
ENDBLK
  0
BLOCK
  8
LAYER_1
  2
AIGNBL01040007
 70
64
 10
0
 20
0
 30
0
  3
AIGNBL01040007
  0
POLYLINE
  8
LAYER_1
 40
0.05
 41
0.05
 62
29
 66
1
 10
0
 20
0
 30
0
 70
1
  0
VERTEX
  8
LAYER_1
 10
329.131
 20
18.4363
  0
VERTEX
  8
LAYER_1
 10
329.131
 20
16.2069
 42
0.1145199457
  0
VERTEX
  8
LAYER_1
 10
329.2649
 20
15.5411
 42
0.1464896694
  0
VERTEX
  8
LAYER_1
 10
329.6152
 20
15.1559
 42
0.1362580474
  0
VERTEX
  8
LAYER_1
 10
330.2276
 20
15.0049
 42
0.1219437831
  0
VERTEX
  8
LAYER_1
 10
330.8507
 20
15.1397
 42
0.1502873274
  0
VERTEX
  8
LAYER_1
 10
331.2225
 20
15.5087
 42
0.1256234729
  0
VERTEX
  8
LAYER_1
 10
331.3731
 20
16.2069
  0
VERTEX
  8
LAYER_1
 10
331.3731
 20
18.4363
  0
VERTEX
  8
LAYER_1
 10
331.9877
 20
18.4363
  0
VERTEX
  8
LAYER_1
 10
331.9877
 20
16.2403
 42
-0.09997895241
  0
VERTEX
  8
LAYER_1
 10
331.8528
 20
15.4976
 42
-0.1214934275
  0
VERTEX
  8
LAYER_1
 10
331.4795
 20
14.991
 42
-0.110620524
  0
VERTEX
  8
LAYER_1
 10
330.854
 20
14.6843
 42
-0.06129362553
  0
VERTEX
  8
LAYER_1
 10
330.2065
 20
14.6087
 42
-0.09420005614
  0
VERTEX
  8
LAYER_1
 10
329.3874
 20
14.7469
 42
-0.24315236
  0
VERTEX
  8
LAYER_1
 10
328.5839
 20
15.6576
 42
-0.0632033471
  0
VERTEX
  8
LAYER_1
 10
328.5164
 20
16.2183
  0
VERTEX
  8
LAYER_1
 10
328.5164
 20
18.4363
  0
SEQEND
  0
ENDBLK
  0
BLOCK
  8
LAYER_1
  2
AIGNBL01040008
 70
64
 10
0
 20
0
 30
0
  3
AIGNBL01040008
  0
POLYLINE
  8
LAYER_1
 40
0.05
 41
0.05
 62
29
 66
1
 10
0
 20
0
 30
0
 70
1
  0
VERTEX
  8
LAYER_1
 10
333.734
 20
15.8555
  0
VERTEX
  8
LAYER_1
 10
333.2448
 20
14.6704
  0
VERTEX
  8
LAYER_1
 10
332.6167
 20
14.6704
  0
VERTEX
  8
LAYER_1
 10
334.216
 20
18.4363
  0
VERTEX
  8
LAYER_1
 10
334.9491
 20
18.4363
  0
VERTEX
  8
LAYER_1
 10
336.5555
 20
14.6704
  0
VERTEX
  8
LAYER_1
 10
335.9061
 20
14.6704
  0
VERTEX
  8
LAYER_1
 10
335.4035
 20
15.8555
  0
SEQEND
  0
POLYLINE
  8
LAYER_1
 40
0.05
 41
0.05
 62
29
 66
1
 10
0
 20
0
 30
0
 70
1
  0
VERTEX
  8
LAYER_1
 10
335.2774
 20
16.2345
  0
VERTEX
  8
LAYER_1
 10
334.8161
 20
17.3193
  0
VERTEX
  8
LAYER_1
 10
334.5715
 20
18.0063
  0
VERTEX
  8
LAYER_1
 10
334.5577
 20
18.0063
  0
VERTEX
  8
LAYER_1
 10
334.3203
 20
17.3238
  0
VERTEX
  8
LAYER_1
 10
333.8594
 20
16.2345
  0
SEQEND
  0
ENDBLK
  0
BLOCK
  8
LAYER_1
  2
AIGNBL01040009
 70
64
 10
0
 20
0
 30
0
  3
AIGNBL01040009
  0
POLYLINE
  8
LAYER_1
 40
0.05
 41
0.05
 62
29
 66
1
 10
0
 20
0
 30
0
 70
1
  0
VERTEX
  8
LAYER_1
 10
337.5963
 20
18.3915
 42
-0.03240300255
  0
VERTEX
  8
LAYER_1
 10
338.7631
 20
18.4645
 42
-0.08082287254
  0
VERTEX
  8
LAYER_1
 10
339.7196
 20
18.3327
 42
-0.07816212749
  0
VERTEX
  8
LAYER_1
 10
340.0829
 20
18.1517
 42
-0.2483921074
  0
VERTEX
  8
LAYER_1
 10
340.4946
 20
17.3634
 42
-0.226147
  0
VERTEX
  8
LAYER_1
 10
340.1315
 20
16.5593
 42
-0.1097235065
  0
VERTEX
  8
LAYER_1
 10
339.5032
 20
16.246
 42
-0.06565761462
  0
VERTEX
  8
LAYER_1
 10
338.6929
 20
16.1456
 42
-0.06238970687
  0
VERTEX
  8
LAYER_1
 10
338.2043
 20
16.179
  0
VERTEX
  8
LAYER_1
 10
338.2043
 20
14.6704
  0
VERTEX
  8
LAYER_1
 10
337.5963
 20
14.6704
  0
SEQEND
  0
POLYLINE
  8
LAYER_1
 40
0.05
 41
0.05
 62
29
 66
1
 10
0
 20
0
 30
0
 70
1
  0
VERTEX
  8
LAYER_1
 10
338.2043
 20
16.5759
 42
0.04202964651
  0
VERTEX
  8
LAYER_1
 10
338.7066
 20
16.5366
 42
0.1032325703
  0
VERTEX
  8
LAYER_1
 10
339.4258
 20
16.6639
 42
0.1555838345
  0
VERTEX
  8
LAYER_1
 10
339.7906
 20
16.9684
 42
0.1352564048
  0
VERTEX
  8
LAYER_1
 10
339.8876
 20
17.3411
 42
0.1737047371
  0
VERTEX
  8
LAYER_1
 10
339.7528
 20
17.7484
 42
0.1517050813
  0
VERTEX
  8
LAYER_1
 10
339.3317
 20
18.0079
 42
0.06879756253
  0
VERTEX
  8
LAYER_1
 10
338.7772
 20
18.0787
 42
0.06317907604
  0
VERTEX
  8
LAYER_1
 10
338.2043
 20
18.0394
  0
SEQEND
  0
ENDBLK
  0
BLOCK
  8
LAYER_1
  2
AIGNBL0104000A
 70
64
 10
0
 20
0
 30
0
  3
AIGNBL0104000A
  0
POLYLINE
  8
LAYER_1
 40
0.05
 41
0.05
 62
29
 66
1
 10
0
 20
0
 30
0
 70
1
  0
VERTEX
  8
LAYER_1
 10
342.0466
 20
18.1345
 42
-0.2767830485
  0
VERTEX
  8
LAYER_1
 10
341.9071
 20
17.8944
 42
-0.1265113161
  0
VERTEX
  8
LAYER_1
 10
341.655
 20
17.8327
 42
-0.2237303387
  0
VERTEX
  8
LAYER_1
 10
341.3446
 20
17.9651
 42
-0.1708347924
  0
VERTEX
  8
LAYER_1
 10
341.2846
 20
18.1345
 42
-0.2643957951
  0
VERTEX
  8
LAYER_1
 10
341.434
 20
18.3815
 42
-0.1289907874
  0
VERTEX
  8
LAYER_1
 10
341.6687
 20
18.4414
 42
-0.2252979244
  0
VERTEX
  8
LAYER_1
 10
341.9855
 20
18.3108
 42
-0.1691669651
  0
SEQEND
  0
POLYLINE
  8
LAYER_1
 40
0.05
 41
0.05
 62
29
 66
1
 10
0
 20
0
 30
0
 70
1
  0
VERTEX
  8
LAYER_1
 10
341.3611
 20
14.6704
  0
VERTEX
  8
LAYER_1
 10
341.3611
 20
17.3745
  0
VERTEX
  8
LAYER_1
 10
341.9757
 20
17.3745
  0
VERTEX
  8
LAYER_1
 10
341.9757
 20
14.6704
  0
SEQEND
  0
ENDBLK
  0
BLOCK
  8
LAYER_1
  2
AIGNBL0104000B
 70
64
 10
0
 20
0
 30
0
  3
AIGNBL0104000B
  0
POLYLINE
  8
LAYER_1
 40
0.05
 41
0.05
 62
29
 66
1
 10
0
 20
0
 30
0
 70
1
  0
VERTEX
  8
LAYER_1
 10
343.8474
 20
15.8555
  0
VERTEX
  8
LAYER_1
 10
343.3592
 20
14.6704
  0
VERTEX
  8
LAYER_1
 10
342.7301
 20
14.6704
  0
VERTEX
  8
LAYER_1
 10
344.3297
 20
18.4363
  0
VERTEX
  8
LAYER_1
 10
345.0635
 20
18.4363
  0
VERTEX
  8
LAYER_1
 10
346.67
 20
14.6704
  0
VERTEX
  8
LAYER_1
 10
346.0202
 20
14.6704
  0
VERTEX
  8
LAYER_1
 10
345.5176
 20
15.8555
  0
SEQEND
  0
POLYLINE
  8
LAYER_1
 40
0.05
 41
0.05
 62
29
 66
1
 10
0
 20
0
 30
0
 70
1
  0
VERTEX
  8
LAYER_1
 10
345.3915
 20
16.2345
  0
VERTEX
  8
LAYER_1
 10
344.9305
 20
17.3193
  0
VERTEX
  8
LAYER_1
 10
344.6866
 20
18.0063
  0
VERTEX
  8
LAYER_1
 10
344.6718
 20
18.0063
  0
VERTEX
  8
LAYER_1
 10
344.4348
 20
17.3238
  0
VERTEX
  8
LAYER_1
 10
343.9738
 20
16.2345
  0
SEQEND
  0
ENDBLK
  0
BLOCK
  8
LAYER_1
  2
AIGNBL01030004
 70
64
 10
0
 20
0
 30
0
  3
AIGNBL01030004
  0
INSERT
  8
LAYER_1
  2
AIGNBL01040005
 10
0
 20
0
 30
0
  0
INSERT
  8
LAYER_1
  2
AIGNBL01040006
 10
0
 20
0
 30
0
  0
INSERT
  8
LAYER_1
  2
AIGNBL01040007
 10
0
 20
0
 30
0
  0
INSERT
  8
LAYER_1
  2
AIGNBL01040008
 10
0
 20
0
 30
0
  0
INSERT
  8
LAYER_1
  2
AIGNBL01040009
 10
0
 20
0
 30
0
  0
INSERT
  8
LAYER_1
  2
AIGNBL0104000A
 10
0
 20
0
 30
0
  0
INSERT
  8
LAYER_1
  2
AIGNBL0104000B
 10
0
 20
0
 30
0
  0
ENDBLK
  0
BLOCK
  8
LAYER_1
  2
AIGNBL0103000D
 70
64
 10
0
 20
0
 30
0
  3
AIGNBL0103000D
  0
POLYLINE
  8
LAYER_1
 40
0.05
 41
0.05
 62
29
 66
1
 10
0
 20
0
 30
0
 70
1
  0
VERTEX
  8
LAYER_1
 10
319.4696
 20
12.7711
  0
VERTEX
  8
LAYER_1
 10
320.0228
 20
12.7711
  0
VERTEX
  8
LAYER_1
 10
320.0228
 20
12.6774
  0
VERTEX
  8
LAYER_1
 10
319.3645
 20
12.6774
  0
VERTEX
  8
LAYER_1
 10
319.3645
 20
13.7106
  0
VERTEX
  8
LAYER_1
 10
320.0053
 20
13.7106
  0
VERTEX
  8
LAYER_1
 10
320.0053
 20
13.6172
  0
VERTEX
  8
LAYER_1
 10
319.4696
 20
13.6172
  0
VERTEX
  8
LAYER_1
 10
319.4696
 20
13.2627
  0
VERTEX
  8
LAYER_1
 10
319.9701
 20
13.2627
  0
VERTEX
  8
LAYER_1
 10
319.9701
 20
13.1694
  0
VERTEX
  8
LAYER_1
 10
319.4696
 20
13.1694
  0
SEQEND
  0
ENDBLK
  0
BLOCK
  8
LAYER_1
  2
AIGNBL0103000E
 70
64
 10
0
 20
0
 30
0
  3
AIGNBL0103000E
  0
POLYLINE
  8
LAYER_1
 40
0.05
 41
0.05
 62
29
 66
1
 10
0
 20
0
 30
0
 70
1
  0
VERTEX
  8
LAYER_1
 10
321.1625
 20
12.8307
  0
VERTEX
  8
LAYER_1
 10
321.1652
 20
12.8307
  0
VERTEX
  8
LAYER_1
 10
321.1652
 20
13.7106
  0
VERTEX
  8
LAYER_1
 10
321.2703
 20
13.7106
  0
VERTEX
  8
LAYER_1
 10
321.2703
 20
12.6774
  0
VERTEX
  8
LAYER_1
 10
321.1394
 20
12.6774
  0
VERTEX
  8
LAYER_1
 10
320.5382
 20
13.5663
  0
VERTEX
  8
LAYER_1
 10
320.5348
 20
13.5663
  0
VERTEX
  8
LAYER_1
 10
320.5348
 20
12.6774
  0
VERTEX
  8
LAYER_1
 10
320.43
 20
12.6774
  0
VERTEX
  8
LAYER_1
 10
320.43
 20
13.7106
  0
VERTEX
  8
LAYER_1
 10
320.5613
 20
13.7106
  0
SEQEND
  0
ENDBLK
  0
BLOCK
  8
LAYER_1
  2
AIGNBL0103000F
 70
64
 10
0
 20
0
 30
0
  3
AIGNBL0103000F
  0
POLYLINE
  8
LAYER_1
 40
0.05
 41
0.05
 62
29
 66
1
 10
0
 20
0
 30
0
 70
1
  0
VERTEX
  8
LAYER_1
 10
321.7433
 20
12.8893
  0
VERTEX
  8
LAYER_1
 10
321.7978
 20
12.7863
 42
0.1809219053
  0
VERTEX
  8
LAYER_1
 10
321.9111
 20
12.7446
  0
VERTEX
  8
LAYER_1
 10
322.0003
 20
12.7642
  0
VERTEX
  8
LAYER_1
 10
322.0565
 20
12.8176
  0
VERTEX
  8
LAYER_1
 10
322.0854
 20
12.8941
  0
VERTEX
  8
LAYER_1
 10
322.0937
 20
12.9837
  0
VERTEX
  8
LAYER_1
 10
322.0937
 20
13.7106
  0
VERTEX
  8
LAYER_1
 10
322.1988
 20
13.7106
  0
VERTEX
  8
LAYER_1
 10
322.1988
 20
12.9751
  0
VERTEX
  8
LAYER_1
 10
322.1874
 20
12.8672
  0
VERTEX
  8
LAYER_1
 10
322.1461
 20
12.7622
  0
VERTEX
  8
LAYER_1
 10
322.0613
 20
12.6826
  0
VERTEX
  8
LAYER_1
 10
321.9225
 20
12.6512
 42
-0.1846674817
  0
VERTEX
  8
LAYER_1
 10
321.7378
 20
12.7112
 42
-0.1765293084
  0
VERTEX
  8
LAYER_1
 10
321.6455
 20
12.8628
  0
SEQEND
  0
ENDBLK
  0
BLOCK
  8
LAYER_1
  2
AIGNBL01030010
 70
64
 10
0
 20
0
 30
0
  3
AIGNBL01030010
  0
POLYLINE
  8
LAYER_1
 40
0.05
 41
0.05
 62
29
 66
1
 10
0
 20
0
 30
0
 70
1
  0
VERTEX
  8
LAYER_1
 10
323.6871
 20
13.1942
 42
-0.1037038216
  0
VERTEX
  8
LAYER_1
 10
323.646
 20
12.9768
 42
-0.1002458474
  0
VERTEX
  8
LAYER_1
 10
323.5334
 20
12.8052
  0
VERTEX
  8
LAYER_1
 10
323.3625
 20
12.6922
 42
-0.09506675375
  0
VERTEX
  8
LAYER_1
 10
323.1486
 20
12.6512
 42
-0.1010866674
  0
VERTEX
  8
LAYER_1
 10
322.935
 20
12.6922
 42
-0.1000561267
  0
VERTEX
  8
LAYER_1
 10
322.7641
 20
12.8052
 42
-0.09479293922
  0
VERTEX
  8
LAYER_1
 10
322.6508
 20
12.9768
 42
-0.09316534225
  0
VERTEX
  8
LAYER_1
 10
322.6101
 20
13.1942
 42
-0.1027149125
  0
VERTEX
  8
LAYER_1
 10
322.6508
 20
13.4116
 42
-0.1007559602
  0
VERTEX
  8
LAYER_1
 10
322.7641
 20
13.5831
 42
-0.09634037191
  0
VERTEX
  8
LAYER_1
 10
322.935
 20
13.6961
 42
-0.09532420784
  0
VERTEX
  8
LAYER_1
 10
323.1486
 20
13.7371
 42
-0.1018017754
  0
VERTEX
  8
LAYER_1
 10
323.3625
 20
13.6961
 42
-0.09904976341
  0
VERTEX
  8
LAYER_1
 10
323.5334
 20
13.5831
 42
-0.09543199427
  0
VERTEX
  8
LAYER_1
 10
323.646
 20
13.4116
 42
-0.09417236148
  0
SEQEND
  0
POLYLINE
  8
LAYER_1
 40
0.05
 41
0.05
 62
29
 66
1
 10
0
 20
0
 30
0
 70
1
  0
VERTEX
  8
LAYER_1
 10
323.5761
 20
13.1935
  0
VERTEX
  8
LAYER_1
 10
323.5472
 20
13.3654
  0
VERTEX
  8
LAYER_1
 10
323.4624
 20
13.5087
  0
VERTEX
  8
LAYER_1
 10
323.3274
 20
13.6069
  0
VERTEX
  8
LAYER_1
 10
323.1486
 20
13.6438
 42
0.1146758138
  0
VERTEX
  8
LAYER_1
 10
322.9698
 20
13.6069
  0
VERTEX
  8
LAYER_1
 10
322.8351
 20
13.5087
  0
VERTEX
  8
LAYER_1
 10
322.7503
 20
13.3654
  0
VERTEX
  8
LAYER_1
 10
322.7211
 20
13.1935
  0
VERTEX
  8
LAYER_1
 10
322.7503
 20
13.0216
  0
VERTEX
  8
LAYER_1
 10
322.8351
 20
12.8786
  0
VERTEX
  8
LAYER_1
 10
322.9698
 20
12.7811
 42
0.1008280473
  0
VERTEX
  8
LAYER_1
 10
323.1486
 20
12.7446
  0
VERTEX
  8
LAYER_1
 10
323.3274
 20
12.7811
  0
VERTEX
  8
LAYER_1
 10
323.4624
 20
12.8786
  0
VERTEX
  8
LAYER_1
 10
323.5472
 20
13.0216
  0
SEQEND
  0
ENDBLK
  0
BLOCK
  8
LAYER_1
  2
AIGNBL01030011
 70
64
 10
0
 20
0
 30
0
  3
AIGNBL01030011
  0
POLYLINE
  8
LAYER_1
 40
0.05
 41
0.05
 62
29
 66
1
 10
0
 20
0
 30
0
 70
1
  0
VERTEX
  8
LAYER_1
 10
324.4618
 20
12.6774
  0
VERTEX
  8
LAYER_1
 10
324.3571
 20
12.6774
  0
VERTEX
  8
LAYER_1
 10
324.3571
 20
13.1229
  0
VERTEX
  8
LAYER_1
 10
323.9702
 20
13.7106
  0
VERTEX
  8
LAYER_1
 10
324.1015
 20
13.7106
  0
VERTEX
  8
LAYER_1
 10
324.4126
 20
13.2104
  0
VERTEX
  8
LAYER_1
 10
324.7261
 20
13.7106
  0
VERTEX
  8
LAYER_1
 10
324.8484
 20
13.7106
  0
VERTEX
  8
LAYER_1
 10
324.4618
 20
13.1229
  0
SEQEND
  0
ENDBLK
  0
BLOCK
  8
LAYER_1
  2
AIGNBL01030012
 70
64
 10
0
 20
0
 30
0
  3
AIGNBL01030012
  0
POLYLINE
  8
LAYER_1
 40
0.05
 41
0.05
 62
29
 66
1
 10
0
 20
0
 30
0
 70
1
  0
VERTEX
  8
LAYER_1
 10
325.7534
 20
13.7106
  0
VERTEX
  8
LAYER_1
 10
326.061
 20
13.7106
  0
VERTEX
  8
LAYER_1
 10
326.1796
 20
13.6982
  0
VERTEX
  8
LAYER_1
 10
326.2864
 20
13.6558
  0
VERTEX
  8
LAYER_1
 10
326.3642
 20
13.5749
  0
VERTEX
  8
LAYER_1
 10
326.3939
 20
13.4467
 42
-0.1787887146
  0
VERTEX
  8
LAYER_1
 10
326.3439
 20
13.3044
 42
-0.1639171028
  0
VERTEX
  8
LAYER_1
 10
326.2106
 20
13.2249
  0
VERTEX
  8
LAYER_1
 10
326.2106
 20
13.2221
 42
-0.1735745096
  0
VERTEX
  8
LAYER_1
 10
326.3773
 20
13.1439
 42
-0.1923137572
  0
VERTEX
  8
LAYER_1
 10
326.4435
 20
12.9634
  0
VERTEX
  8
LAYER_1
 10
326.4163
 20
12.8463
  0
VERTEX
  8
LAYER_1
 10
326.3401
 20
12.7556
  0
VERTEX
  8
LAYER_1
 10
326.2192
 20
12.6981
  0
VERTEX
  8
LAYER_1
 10
326.0594
 20
12.6774
  0
VERTEX
  8
LAYER_1
 10
325.7534
 20
12.6774
  0
SEQEND
  0
POLYLINE
  8
LAYER_1
 40
0.05
 41
0.05
 62
29
 66
1
 10
0
 20
0
 30
0
 70
1
  0
VERTEX
  8
LAYER_1
 10
325.8585
 20
13.2583
  0
VERTEX
  8
LAYER_1
 10
326.07
 20
13.2583
  0
VERTEX
  8
LAYER_1
 10
326.1468
 20
13.2672
  0
VERTEX
  8
LAYER_1
 10
326.2171
 20
13.2969
  0
VERTEX
  8
LAYER_1
 10
326.2692
 20
13.3534
  0
VERTEX
  8
LAYER_1
 10
326.2888
 20
13.4395
  0
VERTEX
  8
LAYER_1
 10
326.2692
 20
13.5232
  0
VERTEX
  8
LAYER_1
 10
326.2161
 20
13.5794
  0
VERTEX
  8
LAYER_1
 10
326.1372
 20
13.6107
  0
VERTEX
  8
LAYER_1
 10
326.0407
 20
13.6204
  0
VERTEX
  8
LAYER_1
 10
325.8585
 20
13.6204
  0
SEQEND
  0
POLYLINE
  8
LAYER_1
 40
0.05
 41
0.05
 62
29
 66
1
 10
0
 20
0
 30
0
 70
1
  0
VERTEX
  8
LAYER_1
 10
325.8585
 20
12.768
  0
VERTEX
  8
LAYER_1
 10
326.0542
 20
12.768
  0
VERTEX
  8
LAYER_1
 10
326.1627
 20
12.779
  0
VERTEX
  8
LAYER_1
 10
326.2533
 20
12.8139
  0
VERTEX
  8
LAYER_1
 10
326.315
 20
12.8769
  0
VERTEX
  8
LAYER_1
 10
326.3384
 20
12.9696
 42
0.2554060681
  0
VERTEX
  8
LAYER_1
 10
326.2692
 20
13.1218
 42
0.1380642909
  0
VERTEX
  8
LAYER_1
 10
326.0731
 20
13.1721
  0
VERTEX
  8
LAYER_1
 10
325.8585
 20
13.1721
  0
SEQEND
  0
ENDBLK
  0
BLOCK
  8
LAYER_1
  2
AIGNBL01030013
 70
64
 10
0
 20
0
 30
0
  3
AIGNBL01030013
  0
POLYLINE
  8
LAYER_1
 40
0.05
 41
0.05
 62
29
 66
1
 10
0
 20
0
 30
0
 70
1
  0
VERTEX
  8
LAYER_1
 10
326.8755
 20
12.6774
  0
VERTEX
  8
LAYER_1
 10
326.7601
 20
12.6774
  0
VERTEX
  8
LAYER_1
 10
327.2069
 20
13.7106
  0
VERTEX
  8
LAYER_1
 10
327.3092
 20
13.7106
  0
VERTEX
  8
LAYER_1
 10
327.7526
 20
12.6774
  0
VERTEX
  8
LAYER_1
 10
327.6358
 20
12.6774
  0
VERTEX
  8
LAYER_1
 10
327.5218
 20
12.9489
  0
VERTEX
  8
LAYER_1
 10
326.9878
 20
12.9489
  0
SEQEND
  0
POLYLINE
  8
LAYER_1
 40
0.05
 41
0.05
 62
29
 66
1
 10
0
 20
0
 30
0
 70
1
  0
VERTEX
  8
LAYER_1
 10
327.0271
 20
13.0454
  0
VERTEX
  8
LAYER_1
 10
327.4825
 20
13.0454
  0
VERTEX
  8
LAYER_1
 10
327.2548
 20
13.5942
  0
SEQEND
  0
ENDBLK
  0
BLOCK
  8
LAYER_1
  2
AIGNBL01030014
 70
64
 10
0
 20
0
 30
0
  3
AIGNBL01030014
  0
POLYLINE
  8
LAYER_1
 40
0.05
 41
0.05
 62
29
 66
1
 10
0
 20
0
 30
0
 70
1
  0
VERTEX
  8
LAYER_1
 10
328.4371
 20
12.6774
  0
VERTEX
  8
LAYER_1
 10
328.3321
 20
12.6774
  0
VERTEX
  8
LAYER_1
 10
328.3321
 20
13.6172
  0
VERTEX
  8
LAYER_1
 10
327.9858
 20
13.6172
  0
VERTEX
  8
LAYER_1
 10
327.9858
 20
13.7106
  0
VERTEX
  8
LAYER_1
 10
328.7827
 20
13.7106
  0
VERTEX
  8
LAYER_1
 10
328.7827
 20
13.6172
  0
VERTEX
  8
LAYER_1
 10
328.4371
 20
13.6172
  0
SEQEND
  0
ENDBLK
  0
BLOCK
  8
LAYER_1
  2
AIGNBL01030015
 70
64
 10
0
 20
0
 30
0
  3
AIGNBL01030015
  0
POLYLINE
  8
LAYER_1
 40
0.05
 41
0.05
 62
29
 66
1
 10
0
 20
0
 30
0
 70
1
  0
VERTEX
  8
LAYER_1
 10
329.1389
 20
13.7106
  0
VERTEX
  8
LAYER_1
 10
329.2436
 20
13.7106
  0
VERTEX
  8
LAYER_1
 10
329.2436
 20
13.2627
  0
VERTEX
  8
LAYER_1
 10
329.8073
 20
13.2627
  0
VERTEX
  8
LAYER_1
 10
329.8073
 20
13.7106
  0
VERTEX
  8
LAYER_1
 10
329.9123
 20
13.7106
  0
VERTEX
  8
LAYER_1
 10
329.9123
 20
12.6774
  0
VERTEX
  8
LAYER_1
 10
329.8073
 20
12.6774
  0
VERTEX
  8
LAYER_1
 10
329.8073
 20
13.1666
  0
VERTEX
  8
LAYER_1
 10
329.2436
 20
13.1666
  0
VERTEX
  8
LAYER_1
 10
329.2436
 20
12.6774
  0
VERTEX
  8
LAYER_1
 10
329.1389
 20
12.6774
  0
SEQEND
  0
ENDBLK
  0
BLOCK
  8
LAYER_1
  2
AIGNBL01030016
 70
64
 10
0
 20
0
 30
0
  3
AIGNBL01030016
  0
POLYLINE
  8
LAYER_1
 40
0.05
 41
0.05
 62
29
 66
1
 10
0
 20
0
 30
0
 70
1
  0
VERTEX
  8
LAYER_1
 10
330.4928
 20
12.6774
  0
VERTEX
  8
LAYER_1
 10
330.3878
 20
12.6774
  0
VERTEX
  8
LAYER_1
 10
330.3878
 20
13.7106
  0
VERTEX
  8
LAYER_1
 10
330.6916
 20
13.7106
  0
VERTEX
  8
LAYER_1
 10
330.8322
 20
13.6961
  0
VERTEX
  8
LAYER_1
 10
330.9448
 20
13.6486
  0
VERTEX
  8
LAYER_1
 10
331.0182
 20
13.5632
  0
VERTEX
  8
LAYER_1
 10
331.0444
 20
13.435
  0
VERTEX
  8
LAYER_1
 10
331.0244
 20
13.3313
  0
VERTEX
  8
LAYER_1
 10
330.969
 20
13.2504
  0
VERTEX
  8
LAYER_1
 10
330.8856
 20
13.1956
  0
VERTEX
  8
LAYER_1
 10
330.7805
 20
13.1694
  0
VERTEX
  8
LAYER_1
 10
331.0826
 20
12.6774
  0
VERTEX
  8
LAYER_1
 10
330.9541
 20
12.6774
  0
VERTEX
  8
LAYER_1
 10
330.6682
 20
13.1604
  0
VERTEX
  8
LAYER_1
 10
330.4928
 20
13.1604
  0
SEQEND
  0
POLYLINE
  8
LAYER_1
 40
0.05
 41
0.05
 62
29
 66
1
 10
0
 20
0
 30
0
 70
1
  0
VERTEX
  8
LAYER_1
 10
330.4928
 20
13.251
  0
VERTEX
  8
LAYER_1
 10
330.6754
 20
13.251
 42
0.1656263988
  0
VERTEX
  8
LAYER_1
 10
330.8711
 20
13.2969
 42
0.250658542
  0
VERTEX
  8
LAYER_1
 10
330.9397
 20
13.435
  0
VERTEX
  8
LAYER_1
 10
330.9204
 20
13.5208
  0
VERTEX
  8
LAYER_1
 10
330.868
 20
13.578
  0
VERTEX
  8
LAYER_1
 10
330.7864
 20
13.61
  0
VERTEX
  8
LAYER_1
 10
330.6799
 20
13.6204
  0
VERTEX
  8
LAYER_1
 10
330.4928
 20
13.6204
  0
SEQEND
  0
ENDBLK
  0
BLOCK
  8
LAYER_1
  2
AIGNBL01030017
 70
64
 10
0
 20
0
 30
0
  3
AIGNBL01030017
  0
POLYLINE
  8
LAYER_1
 40
0.05
 41
0.05
 62
29
 66
1
 10
0
 20
0
 30
0
 70
1
  0
VERTEX
  8
LAYER_1
 10
332.4848
 20
13.1942
 42
-0.1002731409
  0
VERTEX
  8
LAYER_1
 10
332.4441
 20
12.9768
 42
-0.1003765801
  0
VERTEX
  8
LAYER_1
 10
332.3308
 20
12.8052
 42
-0.09507020048
  0
VERTEX
  8
LAYER_1
 10
332.1603
 20
12.6922
 42
-0.09502028874
  0
VERTEX
  8
LAYER_1
 10
331.9463
 20
12.6512
 42
-0.101175466
  0
VERTEX
  8
LAYER_1
 10
331.7324
 20
12.6922
 42
-0.09966682099
  0
VERTEX
  8
LAYER_1
 10
331.5618
 20
12.8052
 42
-0.09547486106
  0
VERTEX
  8
LAYER_1
 10
331.4488
 20
12.9768
 42
-0.09293253763
  0
VERTEX
  8
LAYER_1
 10
331.4082
 20
13.1942
 42
-0.1022983043
  0
VERTEX
  8
LAYER_1
 10
331.4488
 20
13.4116
 42
-0.1013677539
  0
VERTEX
  8
LAYER_1
 10
331.5618
 20
13.5831
 42
-0.09584066826
  0
VERTEX
  8
LAYER_1
 10
331.7324
 20
13.6961
 42
-0.09517167486
  0
VERTEX
  8
LAYER_1
 10
331.9463
 20
13.7371
 42
-0.1018346168
  0
VERTEX
  8
LAYER_1
 10
332.1603
 20
13.6961
 42
-0.10208105
  0
VERTEX
  8
LAYER_1
 10
332.3308
 20
13.5831
 42
-0.09492976366
  0
VERTEX
  8
LAYER_1
 10
332.4441
 20
13.4116
 42
-0.09296145325
  0
SEQEND
  0
POLYLINE
  8
LAYER_1
 40
0.05
 41
0.05
 62
29
 66
1
 10
0
 20
0
 30
0
 70
1
  0
VERTEX
  8
LAYER_1
 10
332.3739
 20
13.1935
  0
VERTEX
  8
LAYER_1
 10
332.3446
 20
13.3654
  0
VERTEX
  8
LAYER_1
 10
332.2598
 20
13.5087
  0
VERTEX
  8
LAYER_1
 10
332.1251
 20
13.6069
 42
0.1018863245
  0
VERTEX
  8
LAYER_1
 10
331.9463
 20
13.6438
  0
VERTEX
  8
LAYER_1
 10
331.7675
 20
13.6069
  0
VERTEX
  8
LAYER_1
 10
331.6325
 20
13.5087
  0
VERTEX
  8
LAYER_1
 10
331.5477
 20
13.3654
  0
VERTEX
  8
LAYER_1
 10
331.5188
 20
13.1935
  0
VERTEX
  8
LAYER_1
 10
331.5477
 20
13.0216
  0
VERTEX
  8
LAYER_1
 10
331.6325
 20
12.8786
  0
VERTEX
  8
LAYER_1
 10
331.7675
 20
12.7811
  0
VERTEX
  8
LAYER_1
 10
331.9463
 20
12.7446
 42
0.1157330551
  0
VERTEX
  8
LAYER_1
 10
332.1251
 20
12.7811
  0
VERTEX
  8
LAYER_1
 10
332.2598
 20
12.8786
  0
VERTEX
  8
LAYER_1
 10
332.3446
 20
13.0216
  0
SEQEND
  0
ENDBLK
  0
BLOCK
  8
LAYER_1
  2
AIGNBL01030018
 70
64
 10
0
 20
0
 30
0
  3
AIGNBL01030018
  0
POLYLINE
  8
LAYER_1
 40
0.05
 41
0.05
 62
29
 66
1
 10
0
 20
0
 30
0
 70
1
  0
VERTEX
  8
LAYER_1
 10
333.9265
 20
13.1942
 42
-0.1035463774
  0
VERTEX
  8
LAYER_1
 10
333.8856
 20
12.9768
 42
-0.1000469042
  0
VERTEX
  8
LAYER_1
 10
333.7729
 20
12.8052
 42
-0.09471741496
  0
VERTEX
  8
LAYER_1
 10
333.602
 20
12.6922
 42
-0.09506675375
  0
VERTEX
  8
LAYER_1
 10
333.3881
 20
12.6512
 42
-0.101822328
  0
VERTEX
  8
LAYER_1
 10
333.1745
 20
12.6922
 42
-0.1021045144
  0
VERTEX
  8
LAYER_1
 10
333.0036
 20
12.8052
 42
-0.09479293922
  0
VERTEX
  8
LAYER_1
 10
332.8903
 20
12.9768
 42
-0.09313545426
  0
VERTEX
  8
LAYER_1
 10
332.8496
 20
13.1942
 42
-0.1020962526
  0
VERTEX
  8
LAYER_1
 10
332.8903
 20
13.4116
 42
-0.1007559602
  0
VERTEX
  8
LAYER_1
 10
333.0036
 20
13.5831
 42
-0.09634037191
  0
VERTEX
  8
LAYER_1
 10
333.1745
 20
13.6961
 42
-0.0953147657
  0
VERTEX
  8
LAYER_1
 10
333.3881
 20
13.7371
 42
-0.1018017754
  0
VERTEX
  8
LAYER_1
 10
333.602
 20
13.6961
 42
-0.09904976342
  0
VERTEX
  8
LAYER_1
 10
333.7729
 20
13.5831
 42
-0.09562840933
  0
VERTEX
  8
LAYER_1
 10
333.8856
 20
13.4116
 42
-0.09373843258
  0
SEQEND
  0
POLYLINE
  8
LAYER_1
 40
0.05
 41
0.05
 62
29
 66
1
 10
0
 20
0
 30
0
 70
1
  0
VERTEX
  8
LAYER_1
 10
333.8156
 20
13.1935
  0
VERTEX
  8
LAYER_1
 10
333.7867
 20
13.3654
  0
VERTEX
  8
LAYER_1
 10
333.7019
 20
13.5087
  0
VERTEX
  8
LAYER_1
 10
333.5669
 20
13.6069
  0
VERTEX
  8
LAYER_1
 10
333.3881
 20
13.6438
 42
0.11467303
  0
VERTEX
  8
LAYER_1
 10
333.2093
 20
13.6069
  0
VERTEX
  8
LAYER_1
 10
333.0746
 20
13.5087
  0
VERTEX
  8
LAYER_1
 10
332.9898
 20
13.3654
  0
VERTEX
  8
LAYER_1
 10
332.9606
 20
13.1935
  0
VERTEX
  8
LAYER_1
 10
332.9898
 20
13.0216
  0
VERTEX
  8
LAYER_1
 10
333.0746
 20
12.8786
  0
VERTEX
  8
LAYER_1
 10
333.2093
 20
12.7811
 42
0.1008257054
  0
VERTEX
  8
LAYER_1
 10
333.3881
 20
12.7446
  0
VERTEX
  8
LAYER_1
 10
333.5669
 20
12.7811
  0
VERTEX
  8
LAYER_1
 10
333.7019
 20
12.8786
  0
VERTEX
  8
LAYER_1
 10
333.7867
 20
13.0216
  0
SEQEND
  0
ENDBLK
  0
BLOCK
  8
LAYER_1
  2
AIGNBL01030019
 70
64
 10
0
 20
0
 30
0
  3
AIGNBL01030019
  0
POLYLINE
  8
LAYER_1
 40
0.05
 41
0.05
 62
29
 66
1
 10
0
 20
0
 30
0
 70
1
  0
VERTEX
  8
LAYER_1
 10
334.8574
 20
12.8555
  0
VERTEX
  8
LAYER_1
 10
334.8591
 20
12.8555
  0
VERTEX
  8
LAYER_1
 10
335.2047
 20
13.7106
  0
VERTEX
  8
LAYER_1
 10
335.3656
 20
13.7106
  0
VERTEX
  8
LAYER_1
 10
335.3656
 20
12.6774
  0
VERTEX
  8
LAYER_1
 10
335.2601
 20
12.6774
  0
VERTEX
  8
LAYER_1
 10
335.2601
 20
13.5749
  0
VERTEX
  8
LAYER_1
 10
335.2574
 20
13.5749
  0
VERTEX
  8
LAYER_1
 10
334.8839
 20
12.6774
  0
VERTEX
  8
LAYER_1
 10
334.8285
 20
12.6774
  0
VERTEX
  8
LAYER_1
 10
334.4547
 20
13.5749
  0
VERTEX
  8
LAYER_1
 10
334.4519
 20
13.5749
  0
VERTEX
  8
LAYER_1
 10
334.4519
 20
12.6774
  0
VERTEX
  8
LAYER_1
 10
334.3469
 20
12.6774
  0
VERTEX
  8
LAYER_1
 10
334.3469
 20
13.7106
  0
VERTEX
  8
LAYER_1
 10
334.5074
 20
13.7106
  0
SEQEND
  0
ENDBLK
  0
BLOCK
  8
LAYER_1
  2
AIGNBL0103001A
 70
64
 10
0
 20
0
 30
0
  3
AIGNBL0103001A
  0
POLYLINE
  8
LAYER_1
 40
0.05
 41
0.05
 62
29
 66
1
 10
0
 20
0
 30
0
 70
1
  0
VERTEX
  8
LAYER_1
 10
336.5121
 20
12.7711
  0
VERTEX
  8
LAYER_1
 10
337.0654
 20
12.7711
  0
VERTEX
  8
LAYER_1
 10
337.0654
 20
12.6774
  0
VERTEX
  8
LAYER_1
 10
336.407
 20
12.6774
  0
VERTEX
  8
LAYER_1
 10
336.407
 20
13.7106
  0
VERTEX
  8
LAYER_1
 10
337.0478
 20
13.7106
  0
VERTEX
  8
LAYER_1
 10
337.0478
 20
13.6172
  0
VERTEX
  8
LAYER_1
 10
336.5121
 20
13.6172
  0
VERTEX
  8
LAYER_1
 10
336.5121
 20
13.2627
  0
VERTEX
  8
LAYER_1
 10
337.0127
 20
13.2627
  0
VERTEX
  8
LAYER_1
 10
337.0127
 20
13.1694
  0
VERTEX
  8
LAYER_1
 10
336.5121
 20
13.1694
  0
SEQEND
  0
ENDBLK
  0
BLOCK
  8
LAYER_1
  2
AIGNBL0103001B
 70
64
 10
0
 20
0
 30
0
  3
AIGNBL0103001B
  0
POLYLINE
  8
LAYER_1
 40
0.05
 41
0.05
 62
29
 66
1
 10
0
 20
0
 30
0
 70
1
  0
VERTEX
  8
LAYER_1
 10
337.8106
 20
13.2934
  0
VERTEX
  8
LAYER_1
 10
338.0927
 20
13.7106
  0
VERTEX
  8
LAYER_1
 10
338.2178
 20
13.7106
  0
VERTEX
  8
LAYER_1
 10
337.8753
 20
13.219
  0
VERTEX
  8
LAYER_1
 10
338.2546
 20
12.6774
  0
VERTEX
  8
LAYER_1
 10
338.1234
 20
12.6774
  0
VERTEX
  8
LAYER_1
 10
337.8078
 20
13.1432
  0
VERTEX
  8
LAYER_1
 10
337.4943
 20
12.6774
  0
VERTEX
  8
LAYER_1
 10
337.3627
 20
12.6774
  0
VERTEX
  8
LAYER_1
 10
337.7424
 20
13.2204
  0
VERTEX
  8
LAYER_1
 10
337.3965
 20
13.7106
  0
VERTEX
  8
LAYER_1
 10
337.5281
 20
13.7106
  0
SEQEND
  0
ENDBLK
  0
BLOCK
  8
LAYER_1
  2
AIGNBL0103001C
 70
64
 10
0
 20
0
 30
0
  3
AIGNBL0103001C
  0
POLYLINE
  8
LAYER_1
 40
0.05
 41
0.05
 62
29
 66
1
 10
0
 20
0
 30
0
 70
1
  0
VERTEX
  8
LAYER_1
 10
338.6209
 20
13.7106
  0
VERTEX
  8
LAYER_1
 10
338.913
 20
13.7106
  0
VERTEX
  8
LAYER_1
 10
339.056
 20
13.6941
  0
VERTEX
  8
LAYER_1
 10
339.1659
 20
13.6428
  0
VERTEX
  8
LAYER_1
 10
339.2368
 20
13.5566
  0
VERTEX
  8
LAYER_1
 10
339.2613
 20
13.435
  0
VERTEX
  8
LAYER_1
 10
339.2361
 20
13.313
  0
VERTEX
  8
LAYER_1
 10
339.1645
 20
13.2269
  0
VERTEX
  8
LAYER_1
 10
339.0536
 20
13.1753
  0
VERTEX
  8
LAYER_1
 10
338.9099
 20
13.1577
  0
VERTEX
  8
LAYER_1
 10
338.7259
 20
13.1577
  0
VERTEX
  8
LAYER_1
 10
338.7259
 20
12.6774
  0
VERTEX
  8
LAYER_1
 10
338.6209
 20
12.6774
  0
SEQEND
  0
POLYLINE
  8
LAYER_1
 40
0.05
 41
0.05
 62
29
 66
1
 10
0
 20
0
 30
0
 70
1
  0
VERTEX
  8
LAYER_1
 10
338.7259
 20
13.2465
  0
VERTEX
  8
LAYER_1
 10
338.9037
 20
13.2465
 42
0.1834000512
  0
VERTEX
  8
LAYER_1
 10
339.0921
 20
13.2948
 42
0.2348377208
  0
VERTEX
  8
LAYER_1
 10
339.1565
 20
13.435
 42
0.2656295013
  0
VERTEX
  8
LAYER_1
 10
339.0901
 20
13.5759
 42
0.1265933612
  0
VERTEX
  8
LAYER_1
 10
338.9037
 20
13.6204
  0
VERTEX
  8
LAYER_1
 10
338.7259
 20
13.6204
  0
SEQEND
  0
ENDBLK
  0
BLOCK
  8
LAYER_1
  2
AIGNBL0103001D
 70
64
 10
0
 20
0
 30
0
  3
AIGNBL0103001D
  0
POLYLINE
  8
LAYER_1
 40
0.05
 41
0.05
 62
29
 66
1
 10
0
 20
0
 30
0
 70
1
  0
VERTEX
  8
LAYER_1
 10
339.7736
 20
12.7711
  0
VERTEX
  8
LAYER_1
 10
340.3268
 20
12.7711
  0
VERTEX
  8
LAYER_1
 10
340.3268
 20
12.6774
  0
VERTEX
  8
LAYER_1
 10
339.6685
 20
12.6774
  0
VERTEX
  8
LAYER_1
 10
339.6685
 20
13.7106
  0
VERTEX
  8
LAYER_1
 10
340.3093
 20
13.7106
  0
VERTEX
  8
LAYER_1
 10
340.3093
 20
13.6172
  0
VERTEX
  8
LAYER_1
 10
339.7736
 20
13.6172
  0
VERTEX
  8
LAYER_1
 10
339.7736
 20
13.2627
  0
VERTEX
  8
LAYER_1
 10
340.2741
 20
13.2627
  0
VERTEX
  8
LAYER_1
 10
340.2741
 20
13.1694
  0
VERTEX
  8
LAYER_1
 10
339.7736
 20
13.1694
  0
SEQEND
  0
ENDBLK
  0
BLOCK
  8
LAYER_1
  2
AIGNBL0103001E
 70
64
 10
0
 20
0
 30
0
  3
AIGNBL0103001E
  0
POLYLINE
  8
LAYER_1
 40
0.05
 41
0.05
 62
29
 66
1
 10
0
 20
0
 30
0
 70
1
  0
VERTEX
  8
LAYER_1
 10
340.8388
 20
12.6774
  0
VERTEX
  8
LAYER_1
 10
340.7337
 20
12.6774
  0
VERTEX
  8
LAYER_1
 10
340.7337
 20
13.7106
  0
VERTEX
  8
LAYER_1
 10
341.0376
 20
13.7106
  0
VERTEX
  8
LAYER_1
 10
341.1781
 20
13.6961
  0
VERTEX
  8
LAYER_1
 10
341.2908
 20
13.6486
  0
VERTEX
  8
LAYER_1
 10
341.3645
 20
13.5632
  0
VERTEX
  8
LAYER_1
 10
341.3904
 20
13.435
  0
VERTEX
  8
LAYER_1
 10
341.3704
 20
13.3313
  0
VERTEX
  8
LAYER_1
 10
341.3149
 20
13.2504
  0
VERTEX
  8
LAYER_1
 10
341.2315
 20
13.1956
  0
VERTEX
  8
LAYER_1
 10
341.1265
 20
13.1694
  0
VERTEX
  8
LAYER_1
 10
341.4286
 20
12.6774
  0
VERTEX
  8
LAYER_1
 10
341.3001
 20
12.6774
  0
VERTEX
  8
LAYER_1
 10
341.0142
 20
13.1604
  0
VERTEX
  8
LAYER_1
 10
340.8388
 20
13.1604
  0
SEQEND
  0
POLYLINE
  8
LAYER_1
 40
0.05
 41
0.05
 62
29
 66
1
 10
0
 20
0
 30
0
 70
1
  0
VERTEX
  8
LAYER_1
 10
340.8388
 20
13.251
  0
VERTEX
  8
LAYER_1
 10
341.0214
 20
13.251
 42
0.166558795
  0
VERTEX
  8
LAYER_1
 10
341.2171
 20
13.2969
 42
0.2505726271
  0
VERTEX
  8
LAYER_1
 10
341.2856
 20
13.435
  0
VERTEX
  8
LAYER_1
 10
341.2667
 20
13.5208
  0
VERTEX
  8
LAYER_1
 10
341.214
 20
13.578
  0
VERTEX
  8
LAYER_1
 10
341.1323
 20
13.61
  0
VERTEX
  8
LAYER_1
 10
341.0259
 20
13.6204
  0
VERTEX
  8
LAYER_1
 10
340.8388
 20
13.6204
  0
SEQEND
  0
ENDBLK
  0
BLOCK
  8
LAYER_1
  2
AIGNBL0103001F
 70
64
 10
0
 20
0
 30
0
  3
AIGNBL0103001F
  0
POLYLINE
  8
LAYER_1
 40
0.05
 41
0.05
 62
29
 66
1
 10
0
 20
0
 30
0
 70
1
  0
VERTEX
  8
LAYER_1
 10
341.9143
 20
12.6774
  0
VERTEX
  8
LAYER_1
 10
341.8096
 20
12.6774
  0
VERTEX
  8
LAYER_1
 10
341.8096
 20
13.7106
  0
VERTEX
  8
LAYER_1
 10
341.9143
 20
13.7106
  0
SEQEND
  0
ENDBLK
  0
BLOCK
  8
LAYER_1
  2
AIGNBL01030020
 70
64
 10
0
 20
0
 30
0
  3
AIGNBL01030020
  0
POLYLINE
  8
LAYER_1
 40
0.05
 41
0.05
 62
29
 66
1
 10
0
 20
0
 30
0
 70
1
  0
VERTEX
  8
LAYER_1
 10
342.4952
 20
12.7711
  0
VERTEX
  8
LAYER_1
 10
343.0481
 20
12.7711
  0
VERTEX
  8
LAYER_1
 10
343.0481
 20
12.6774
  0
VERTEX
  8
LAYER_1
 10
342.3901
 20
12.6774
  0
VERTEX
  8
LAYER_1
 10
342.3901
 20
13.7106
  0
VERTEX
  8
LAYER_1
 10
343.0309
 20
13.7106
  0
VERTEX
  8
LAYER_1
 10
343.0309
 20
13.6172
  0
VERTEX
  8
LAYER_1
 10
342.4952
 20
13.6172
  0
VERTEX
  8
LAYER_1
 10
342.4952
 20
13.2627
  0
VERTEX
  8
LAYER_1
 10
342.9958
 20
13.2627
  0
VERTEX
  8
LAYER_1
 10
342.9958
 20
13.1694
  0
VERTEX
  8
LAYER_1
 10
342.4952
 20
13.1694
  0
SEQEND
  0
ENDBLK
  0
BLOCK
  8
LAYER_1
  2
AIGNBL01030021
 70
64
 10
0
 20
0
 30
0
  3
AIGNBL01030021
  0
POLYLINE
  8
LAYER_1
 40
0.05
 41
0.05
 62
29
 66
1
 10
0
 20
0
 30
0
 70
1
  0
VERTEX
  8
LAYER_1
 10
344.1881
 20
12.8307
  0
VERTEX
  8
LAYER_1
 10
344.1909
 20
12.8307
  0
VERTEX
  8
LAYER_1
 10
344.1909
 20
13.7106
  0
VERTEX
  8
LAYER_1
 10
344.296
 20
13.7106
  0
VERTEX
  8
LAYER_1
 10
344.296
 20
12.6774
  0
VERTEX
  8
LAYER_1
 10
344.1647
 20
12.6774
  0
VERTEX
  8
LAYER_1
 10
343.5635
 20
13.5663
  0
VERTEX
  8
LAYER_1
 10
343.5604
 20
13.5663
  0
VERTEX
  8
LAYER_1
 10
343.5604
 20
12.6774
  0
VERTEX
  8
LAYER_1
 10
343.4554
 20
12.6774
  0
VERTEX
  8
LAYER_1
 10
343.4554
 20
13.7106
  0
VERTEX
  8
LAYER_1
 10
343.5869
 20
13.7106
  0
SEQEND
  0
ENDBLK
  0
BLOCK
  8
LAYER_1
  2
AIGNBL01030022
 70
64
 10
0
 20
0
 30
0
  3
AIGNBL01030022
  0
POLYLINE
  8
LAYER_1
 40
0.05
 41
0.05
 62
29
 66
1
 10
0
 20
0
 30
0
 70
1
  0
VERTEX
  8
LAYER_1
 10
345.6416
 20
12.8452
  0
VERTEX
  8
LAYER_1
 10
345.5779
 20
12.7708
  0
VERTEX
  8
LAYER_1
 10
345.4918
 20
12.7091
  0
VERTEX
  8
LAYER_1
 10
345.3836
 20
12.6668
  0
VERTEX
  8
LAYER_1
 10
345.2547
 20
12.6512
 42
-0.1009408553
  0
VERTEX
  8
LAYER_1
 10
345.0387
 20
12.6922
 42
-0.1036436467
  0
VERTEX
  8
LAYER_1
 10
344.8682
 20
12.8052
 42
-0.09785904176
  0
VERTEX
  8
LAYER_1
 10
344.7566
 20
12.9768
 42
-0.09235342416
  0
VERTEX
  8
LAYER_1
 10
344.7163
 20
13.1942
 42
-0.1035463776
  0
VERTEX
  8
LAYER_1
 10
344.7572
 20
13.4116
 42
-0.1004334688
  0
VERTEX
  8
LAYER_1
 10
344.8699
 20
13.5831
 42
-0.09536773851
  0
VERTEX
  8
LAYER_1
 10
345.0408
 20
13.6961
 42
-0.09517167486
  0
VERTEX
  8
LAYER_1
 10
345.2547
 20
13.7371
  0
VERTEX
  8
LAYER_1
 10
345.3663
 20
13.7251
  0
VERTEX
  8
LAYER_1
 10
345.4694
 20
13.6916
  0
VERTEX
  8
LAYER_1
 10
345.5568
 20
13.64
  0
VERTEX
  8
LAYER_1
 10
345.6226
 20
13.5721
  0
VERTEX
  8
LAYER_1
 10
345.5352
 20
13.5077
  0
VERTEX
  8
LAYER_1
 10
345.4918
 20
13.5577
  0
VERTEX
  8
LAYER_1
 10
345.4284
 20
13.6014
  0
VERTEX
  8
LAYER_1
 10
345.3488
 20
13.6321
  0
VERTEX
  8
LAYER_1
 10
345.2561
 20
13.6438
  0
VERTEX
  8
LAYER_1
 10
345.0759
 20
13.6073
  0
VERTEX
  8
LAYER_1
 10
344.9409
 20
13.5091
  0
VERTEX
  8
LAYER_1
 10
344.8561
 20
13.3658
  0
VERTEX
  8
LAYER_1
 10
344.8272
 20
13.1942
  0
VERTEX
  8
LAYER_1
 10
344.8572
 20
13.0226
  0
VERTEX
  8
LAYER_1
 10
344.9426
 20
12.8793
  0
VERTEX
  8
LAYER_1
 10
345.0776
 20
12.7811
 42
0.1009931409
  0
VERTEX
  8
LAYER_1
 10
345.2561
 20
12.7446
  0
VERTEX
  8
LAYER_1
 10
345.4253
 20
12.7811
 42
0.1318558246
  0
VERTEX
  8
LAYER_1
 10
345.5596
 20
12.8979
  0
SEQEND
  0
ENDBLK
  0
BLOCK
  8
LAYER_1
  2
AIGNBL01030023
 70
64
 10
0
 20
0
 30
0
  3
AIGNBL01030023
  0
POLYLINE
  8
LAYER_1
 40
0.05
 41
0.05
 62
29
 66
1
 10
0
 20
0
 30
0
 70
1
  0
VERTEX
  8
LAYER_1
 10
346.1287
 20
12.7711
  0
VERTEX
  8
LAYER_1
 10
346.682
 20
12.7711
  0
VERTEX
  8
LAYER_1
 10
346.682
 20
12.6774
  0
VERTEX
  8
LAYER_1
 10
346.0237
 20
12.6774
  0
VERTEX
  8
LAYER_1
 10
346.0237
 20
13.7106
  0
VERTEX
  8
LAYER_1
 10
346.6645
 20
13.7106
  0
VERTEX
  8
LAYER_1
 10
346.6645
 20
13.6172
  0
VERTEX
  8
LAYER_1
 10
346.1287
 20
13.6172
  0
VERTEX
  8
LAYER_1
 10
346.1287
 20
13.2627
  0
VERTEX
  8
LAYER_1
 10
346.6293
 20
13.2627
  0
VERTEX
  8
LAYER_1
 10
346.6293
 20
13.1694
  0
VERTEX
  8
LAYER_1
 10
346.1287
 20
13.1694
  0
SEQEND
  0
ENDBLK
  0
BLOCK
  8
LAYER_1
  2
AIGNBL01020003
 70
64
 10
0
 20
0
 30
0
  3
AIGNBL01020003
  0
INSERT
  8
LAYER_1
  2
AIGNBL01030004
 10
0
 20
0
 30
0
  0
ENDBLK
  0
BLOCK
  8
LAYER_1
  2
AIGNBL0102000C
 70
64
 10
0
 20
0
 30
0
  3
AIGNBL0102000C
  0
INSERT
  8
LAYER_1
  2
AIGNBL0103000D
 10
0
 20
0
 30
0
  0
INSERT
  8
LAYER_1
  2
AIGNBL0103000E
 10
0
 20
0
 30
0
  0
INSERT
  8
LAYER_1
  2
AIGNBL0103000F
 10
0
 20
0
 30
0
  0
INSERT
  8
LAYER_1
  2
AIGNBL01030010
 10
0
 20
0
 30
0
  0
INSERT
  8
LAYER_1
  2
AIGNBL01030011
 10
0
 20
0
 30
0
  0
INSERT
  8
LAYER_1
  2
AIGNBL01030012
 10
0
 20
0
 30
0
  0
INSERT
  8
LAYER_1
  2
AIGNBL01030013
 10
0
 20
0
 30
0
  0
INSERT
  8
LAYER_1
  2
AIGNBL01030014
 10
0
 20
0
 30
0
  0
INSERT
  8
LAYER_1
  2
AIGNBL01030015
 10
0
 20
0
 30
0
  0
INSERT
  8
LAYER_1
  2
AIGNBL01030016
 10
0
 20
0
 30
0
  0
INSERT
  8
LAYER_1
  2
AIGNBL01030017
 10
0
 20
0
 30
0
  0
INSERT
  8
LAYER_1
  2
AIGNBL01030018
 10
0
 20
0
 30
0
  0
INSERT
  8
LAYER_1
  2
AIGNBL01030019
 10
0
 20
0
 30
0
  0
INSERT
  8
LAYER_1
  2
AIGNBL0103001A
 10
0
 20
0
 30
0
  0
INSERT
  8
LAYER_1
  2
AIGNBL0103001B
 10
0
 20
0
 30
0
  0
INSERT
  8
LAYER_1
  2
AIGNBL0103001C
 10
0
 20
0
 30
0
  0
INSERT
  8
LAYER_1
  2
AIGNBL0103001D
 10
0
 20
0
 30
0
  0
INSERT
  8
LAYER_1
  2
AIGNBL0103001E
 10
0
 20
0
 30
0
  0
INSERT
  8
LAYER_1
  2
AIGNBL0103001F
 10
0
 20
0
 30
0
  0
INSERT
  8
LAYER_1
  2
AIGNBL01030020
 10
0
 20
0
 30
0
  0
INSERT
  8
LAYER_1
  2
AIGNBL01030021
 10
0
 20
0
 30
0
  0
INSERT
  8
LAYER_1
  2
AIGNBL01030022
 10
0
 20
0
 30
0
  0
INSERT
  8
LAYER_1
  2
AIGNBL01030023
 10
0
 20
0
 30
0
  0
ENDBLK
  0
BLOCK
  8
LAYER_1
  2
AIGNBL01010002
 70
64
 10
0
 20
0
 30
0
  3
AIGNBL01010002
  0
INSERT
  8
LAYER_1
  2
AIGNBL01020003
 10
0
 20
0
 30
0
  0
INSERT
  8
LAYER_1
  2
AIGNBL0102000C
 10
0
 20
0
 30
0
  0
ENDBLK
  0
ENDSEC
  0
SECTION
  2
ENTITIES
  0
POLYLINE
  8
LAYER_1
 40
0.1764
 41
0.1764
 66
1
 10
0
 20
0
 30
0
 70
1
  0
VERTEX
  8
LAYER_1
 10
86.4023
 20
231.0977
  0
VERTEX
  8
LAYER_1
 10
226.3563
 20
231.0977
  0
VERTEX
  8
LAYER_1
 10
226.3563
 20
51.0963
  0
VERTEX
  8
LAYER_1
 10
86.4023
 20
51.0963
  0
SEQEND
  0
POLYLINE
  8
LAYER_1
 40
0.1764
 41
0.1764
 66
1
 10
0
 20
0
 30
0
 70
1
  0
VERTEX
  8
LAYER_1
 10
86.4023
 20
231.0977
  0
VERTEX
  8
LAYER_1
 10
226.3563
 20
231.0977
  0
VERTEX
  8
LAYER_1
 10
210.3543
 20
215.0957
  0
VERTEX
  8
LAYER_1
 10
102.4043
 20
215.0957
  0
SEQEND
  0
POLYLINE
  8
LAYER_1
 40
0.1764
 41
0.1764
 66
1
 10
0
 20
0
 30
0
 70
1
  0
VERTEX
  8
LAYER_1
 10
86.4023
 20
51.0963
  0
VERTEX
  8
LAYER_1
 10
226.3563
 20
51.0963
  0
VERTEX
  8
LAYER_1
 10
210.3543
 20
67.0983
  0
VERTEX
  8
LAYER_1
 10
102.4043
 20
67.0983
  0
SEQEND
  0
POLYLINE
  8
LAYER_1
 40
0.1764
 41
0.1764
 66
1
 10
0
 20
0
 30
0
 70
1
  0
VERTEX
  8
LAYER_1
 10
86.4023
 20
51.0963
  0
VERTEX
  8
LAYER_1
 10
86.4023
 20
231.0977
  0
VERTEX
  8
LAYER_1
 10
102.4043
 20
215.0957
  0
VERTEX
  8
LAYER_1
 10
102.4043
 20
67.0983
  0
SEQEND
  0
POLYLINE
  8
LAYER_1
 40
0.1764
 41
0.1764
 66
1
 10
0
 20
0
 30
0
 70
1
  0
VERTEX
  8
LAYER_1
 10
226.3563
 20
51.0963
  0
VERTEX
  8
LAYER_1
 10
226.3563
 20
231.0977
  0
VERTEX
  8
LAYER_1
 10
210.3543
 20
215.0957
  0
VERTEX
  8
LAYER_1
 10
210.3543
 20
67.0983
  0
SEQEND
  0
POLYLINE
  8
LAYER_1
 40
0.254
 41
0.254
 66
1
 10
0
 20
0
 30
0
  0
VERTEX
  8
LAYER_1
 10
3.1173
 20
26.564
  0
VERTEX
  8
LAYER_1
 10
417.095
 20
26.564
  0
SEQEND
  0
TEXT
  8
LAYER_1
 10
50.2808
 20
15.2382
 11
50.2808
 21
15.2382
 40
4.5833
 41
0.5
  1
ボヘミアンクリスタルミラー700×900mm
  0
TEXT
  8
LAYER_1
 10
349.7475
 20
16.2496
 11
349.7475
 21
16.2496
 40
3.3848
 41
0.5
 62
29
  1
●TEL 0120-65-1232●FAX 06-6532-1580
  0
TEXT
  8
LAYER_1
 10
349.7475
 20
12.735
 11
349.7475
 21
12.735
 40
3.3848
 41
0.5
 62
29
  1
hits@hiratatile.co.jp
  0
INSERT
  8
LAYER_1
  2
AIGNBL01010002
 10
0
 20
0
 30
0
  0
TEXT
  8
LAYER_1
 10
50.3859
 20
8.4635
 11
50.3859
 21
8.4635
 40
4.6883
 41
0.5
 62
29
  1
SC-BMS-02
  0
POLYLINE
  8
LAYER_1
 40
0.1764
 41
0.1764
 66
1
 10
0
 20
0
 30
0
 70
1
  0
VERTEX
  8
LAYER_1
 10
316.103
 20
231.0976
  0
VERTEX
  8
LAYER_1
 10
318.4736
 20
231.0976
  0
VERTEX
  8
LAYER_1
 10
318.4736
 20
51.0963
  0
VERTEX
  8
LAYER_1
 10
316.103
 20
51.0963
  0
SEQEND
  0
POLYLINE
  8
LAYER_1
 40
0.1764
 41
0.1764
 66
1
 10
0
 20
0
 30
0
 70
1
  0
VERTEX
  8
LAYER_1
 10
318.4736
 20
230.0816
  0
VERTEX
  8
LAYER_1
 10
320.3363
 20
230.0816
  0
VERTEX
  8
LAYER_1
 10
320.3363
 20
52.1123
  0
VERTEX
  8
LAYER_1
 10
318.4736
 20
52.1123
  0
SEQEND
  0
POLYLINE
  8
LAYER_1
 40
0.1764
 41
0.1764
 66
1
 10
0
 20
0
 30
0
  0
VERTEX
  8
LAYER_1
 10
86.4023
 20
234.1456
  0
VERTEX
  8
LAYER_1
 10
86.4023
 20
258.953
  0
SEQEND
  0
POLYLINE
  8
LAYER_1
 40
0.1764
 41
0.1764
 66
1
 10
0
 20
0
 30
0
  0
VERTEX
  8
LAYER_1
 10
226.3563
 20
234.1456
  0
VERTEX
  8
LAYER_1
 10
226.3563
 20
258.953
  0
SEQEND
  0
POLYLINE
  8
LAYER_1
 40
0.1764
 41
0.1764
 66
1
 10
0
 20
0
 30
0
  0
VERTEX
  8
LAYER_1
 10
86.4023
 20
258.953
  0
VERTEX
  8
LAYER_1
 10
226.3563
 20
258.953
  0
SEQEND
  0
POLYLINE
  8
LAYER_1
 40
0.1764
 41
0.1764
 66
1
 10
0
 20
0
 30
0
 70
1
  0
VERTEX
  8
LAYER_1
 10
86.6563
 20
258.953
  0
VERTEX
  8
LAYER_1
 10
86.6563
 20
258.8683
  0
VERTEX
  8
LAYER_1
 10
86.6563
 20
258.7836
  0
VERTEX
  8
LAYER_1
 10
86.5717
 20
258.7836
  0
VERTEX
  8
LAYER_1
 10
86.5717
 20
258.699
  0
VERTEX
  8
LAYER_1
 10
86.487
 20
258.699
  0
VERTEX
  8
LAYER_1
 10
86.4023
 20
258.699
  0
VERTEX
  8
LAYER_1
 10
86.3177
 20
258.699
  0
VERTEX
  8
LAYER_1
 10
86.233
 20
258.699
  0
VERTEX
  8
LAYER_1
 10
86.233
 20
258.7836
  0
VERTEX
  8
LAYER_1
 10
86.1483
 20
258.7836
  0
VERTEX
  8
LAYER_1
 10
86.1483
 20
258.8683
  0
VERTEX
  8
LAYER_1
 10
86.1483
 20
258.953
  0
VERTEX
  8
LAYER_1
 10
86.1483
 20
259.0376
  0
VERTEX
  8
LAYER_1
 10
86.233
 20
259.0376
  0
VERTEX
  8
LAYER_1
 10
86.233
 20
259.1223
  0
VERTEX
  8
LAYER_1
 10
86.3177
 20
259.1223
  0
VERTEX
  8
LAYER_1
 10
86.3177
 20
259.207
  0
VERTEX
  8
LAYER_1
 10
86.4023
 20
259.207
  0
VERTEX
  8
LAYER_1
 10
86.4023
 20
259.1223
  0
VERTEX
  8
LAYER_1
 10
86.487
 20
259.1223
  0
VERTEX
  8
LAYER_1
 10
86.5717
 20
259.1223
  0
VERTEX
  8
LAYER_1
 10
86.5717
 20
259.0376
  0
VERTEX
  8
LAYER_1
 10
86.6563
 20
259.0376
  0
SEQEND
  0
POLYLINE
  8
LAYER_1
 40
0.05
 41
0.05
 66
1
 10
0
 20
0
 30
0
 70
1
  0
VERTEX
  8
LAYER_1
 10
86.6352
 20
258.9741
  0
VERTEX
  8
LAYER_1
 10
86.6352
 20
258.8895
  0
VERTEX
  8
LAYER_1
 10
86.6352
 20
258.8048
  0
VERTEX
  8
LAYER_1
 10
86.5505
 20
258.8048
  0
VERTEX
  8
LAYER_1
 10
86.5505
 20
258.7201
  0
VERTEX
  8
LAYER_1
 10
86.4659
 20
258.7201
  0
VERTEX
  8
LAYER_1
 10
86.3812
 20
258.7201
  0
VERTEX
  8
LAYER_1
 10
86.2965
 20
258.7201
  0
VERTEX
  8
LAYER_1
 10
86.2119
 20
258.7201
  0
VERTEX
  8
LAYER_1
 10
86.2119
 20
258.8048
  0
VERTEX
  8
LAYER_1
 10
86.1272
 20
258.8048
  0
VERTEX
  8
LAYER_1
 10
86.1272
 20
258.8895
  0
VERTEX
  8
LAYER_1
 10
86.1272
 20
258.9741
  0
VERTEX
  8
LAYER_1
 10
86.1272
 20
259.0588
  0
VERTEX
  8
LAYER_1
 10
86.2119
 20
259.0588
  0
VERTEX
  8
LAYER_1
 10
86.2119
 20
259.1435
  0
VERTEX
  8
LAYER_1
 10
86.2965
 20
259.1435
  0
VERTEX
  8
LAYER_1
 10
86.2965
 20
259.2281
  0
VERTEX
  8
LAYER_1
 10
86.3812
 20
259.2281
  0
VERTEX
  8
LAYER_1
 10
86.3812
 20
259.1435
  0
VERTEX
  8
LAYER_1
 10
86.4659
 20
259.1435
  0
VERTEX
  8
LAYER_1
 10
86.5505
 20
259.1435
  0
VERTEX
  8
LAYER_1
 10
86.5505
 20
259.0588
  0
VERTEX
  8
LAYER_1
 10
86.6352
 20
259.0588
  0
SEQEND
  0
POLYLINE
  8
LAYER_1
 40
0.0811
 41
0.0811
 66
1
 10
0
 20
0
 30
0
 70
1
  0
VERTEX
  8
LAYER_1
 10
86.6563
 20
258.953
  0
VERTEX
  8
LAYER_1
 10
86.6563
 20
258.8683
  0
VERTEX
  8
LAYER_1
 10
86.6563
 20
258.7836
  0
VERTEX
  8
LAYER_1
 10
86.5717
 20
258.7836
  0
VERTEX
  8
LAYER_1
 10
86.5717
 20
258.699
  0
VERTEX
  8
LAYER_1
 10
86.487
 20
258.699
  0
VERTEX
  8
LAYER_1
 10
86.4023
 20
258.699
  0
VERTEX
  8
LAYER_1
 10
86.3177
 20
258.699
  0
VERTEX
  8
LAYER_1
 10
86.233
 20
258.699
  0
VERTEX
  8
LAYER_1
 10
86.233
 20
258.7836
  0
VERTEX
  8
LAYER_1
 10
86.1483
 20
258.7836
  0
VERTEX
  8
LAYER_1
 10
86.1483
 20
258.8683
  0
VERTEX
  8
LAYER_1
 10
86.1483
 20
258.953
  0
VERTEX
  8
LAYER_1
 10
86.1483
 20
259.0376
  0
VERTEX
  8
LAYER_1
 10
86.233
 20
259.0376
  0
VERTEX
  8
LAYER_1
 10
86.233
 20
259.1223
  0
VERTEX
  8
LAYER_1
 10
86.3177
 20
259.1223
  0
VERTEX
  8
LAYER_1
 10
86.3177
 20
259.207
  0
VERTEX
  8
LAYER_1
 10
86.4023
 20
259.207
  0
VERTEX
  8
LAYER_1
 10
86.4023
 20
259.1223
  0
VERTEX
  8
LAYER_1
 10
86.487
 20
259.1223
  0
VERTEX
  8
LAYER_1
 10
86.5717
 20
259.1223
  0
VERTEX
  8
LAYER_1
 10
86.5717
 20
259.0376
  0
VERTEX
  8
LAYER_1
 10
86.6563
 20
259.0376
  0
SEQEND
  0
POLYLINE
  8
LAYER_1
 40
0.1764
 41
0.1764
 66
1
 10
0
 20
0
 30
0
 70
1
  0
VERTEX
  8
LAYER_1
 10
226.1023
 20
258.953
  0
VERTEX
  8
LAYER_1
 10
226.187
 20
258.953
  0
VERTEX
  8
LAYER_1
 10
226.187
 20
259.0376
  0
VERTEX
  8
LAYER_1
 10
226.187
 20
259.1223
  0
VERTEX
  8
LAYER_1
 10
226.2717
 20
259.1223
  0
VERTEX
  8
LAYER_1
 10
226.3563
 20
259.1223
  0
VERTEX
  8
LAYER_1
 10
226.3563
 20
259.207
  0
VERTEX
  8
LAYER_1
 10
226.441
 20
259.207
  0
VERTEX
  8
LAYER_1
 10
226.441
 20
259.1223
  0
VERTEX
  8
LAYER_1
 10
226.5257
 20
259.1223
  0
VERTEX
  8
LAYER_1
 10
226.6103
 20
259.1223
  0
VERTEX
  8
LAYER_1
 10
226.6103
 20
259.0376
  0
VERTEX
  8
LAYER_1
 10
226.6103
 20
258.953
  0
VERTEX
  8
LAYER_1
 10
226.6103
 20
258.8683
  0
VERTEX
  8
LAYER_1
 10
226.6103
 20
258.7836
  0
VERTEX
  8
LAYER_1
 10
226.6103
 20
258.699
  0
VERTEX
  8
LAYER_1
 10
226.5257
 20
258.699
  0
VERTEX
  8
LAYER_1
 10
226.441
 20
258.699
  0
VERTEX
  8
LAYER_1
 10
226.3563
 20
258.699
  0
VERTEX
  8
LAYER_1
 10
226.2717
 20
258.699
  0
VERTEX
  8
LAYER_1
 10
226.187
 20
258.699
  0
VERTEX
  8
LAYER_1
 10
226.187
 20
258.7836
  0
VERTEX
  8
LAYER_1
 10
226.187
 20
258.8683
  0
VERTEX
  8
LAYER_1
 10
226.1023
 20
258.8683
  0
SEQEND
  0
POLYLINE
  8
LAYER_1
 40
0.05
 41
0.05
 66
1
 10
0
 20
0
 30
0
 70
1
  0
VERTEX
  8
LAYER_1
 10
226.0812
 20
258.9741
  0
VERTEX
  8
LAYER_1
 10
226.1658
 20
258.9741
  0
VERTEX
  8
LAYER_1
 10
226.1658
 20
259.0588
  0
VERTEX
  8
LAYER_1
 10
226.1658
 20
259.1435
  0
VERTEX
  8
LAYER_1
 10
226.2505
 20
259.1435
  0
VERTEX
  8
LAYER_1
 10
226.3352
 20
259.1435
  0
VERTEX
  8
LAYER_1
 10
226.3352
 20
259.2281
  0
VERTEX
  8
LAYER_1
 10
226.4198
 20
259.2281
  0
VERTEX
  8
LAYER_1
 10
226.4198
 20
259.1435
  0
VERTEX
  8
LAYER_1
 10
226.5045
 20
259.1435
  0
VERTEX
  8
LAYER_1
 10
226.5892
 20
259.1435
  0
VERTEX
  8
LAYER_1
 10
226.5892
 20
259.0588
  0
VERTEX
  8
LAYER_1
 10
226.5892
 20
258.9741
  0
VERTEX
  8
LAYER_1
 10
226.5892
 20
258.8895
  0
VERTEX
  8
LAYER_1
 10
226.5892
 20
258.8048
  0
VERTEX
  8
LAYER_1
 10
226.5892
 20
258.7201
  0
VERTEX
  8
LAYER_1
 10
226.5045
 20
258.7201
  0
VERTEX
  8
LAYER_1
 10
226.4198
 20
258.7201
  0
VERTEX
  8
LAYER_1
 10
226.3352
 20
258.7201
  0
VERTEX
  8
LAYER_1
 10
226.2505
 20
258.7201
  0
VERTEX
  8
LAYER_1
 10
226.1658
 20
258.7201
  0
VERTEX
  8
LAYER_1
 10
226.1658
 20
258.8048
  0
VERTEX
  8
LAYER_1
 10
226.1658
 20
258.8895
  0
VERTEX
  8
LAYER_1
 10
226.0812
 20
258.8895
  0
SEQEND
  0
POLYLINE
  8
LAYER_1
 40
0.0811
 41
0.0811
 66
1
 10
0
 20
0
 30
0
 70
1
  0
VERTEX
  8
LAYER_1
 10
226.1023
 20
258.953
  0
VERTEX
  8
LAYER_1
 10
226.187
 20
258.953
  0
VERTEX
  8
LAYER_1
 10
226.187
 20
259.0376
  0
VERTEX
  8
LAYER_1
 10
226.187
 20
259.1223
  0
VERTEX
  8
LAYER_1
 10
226.2717
 20
259.1223
  0
VERTEX
  8
LAYER_1
 10
226.3563
 20
259.1223
  0
VERTEX
  8
LAYER_1
 10
226.3563
 20
259.207
  0
VERTEX
  8
LAYER_1
 10
226.441
 20
259.207
  0
VERTEX
  8
LAYER_1
 10
226.441
 20
259.1223
  0
VERTEX
  8
LAYER_1
 10
226.5257
 20
259.1223
  0
VERTEX
  8
LAYER_1
 10
226.6103
 20
259.1223
  0
VERTEX
  8
LAYER_1
 10
226.6103
 20
259.0376
  0
VERTEX
  8
LAYER_1
 10
226.6103
 20
258.953
  0
VERTEX
  8
LAYER_1
 10
226.6103
 20
258.8683
  0
VERTEX
  8
LAYER_1
 10
226.6103
 20
258.7836
  0
VERTEX
  8
LAYER_1
 10
226.6103
 20
258.699
  0
VERTEX
  8
LAYER_1
 10
226.5257
 20
258.699
  0
VERTEX
  8
LAYER_1
 10
226.441
 20
258.699
  0
VERTEX
  8
LAYER_1
 10
226.3563
 20
258.699
  0
VERTEX
  8
LAYER_1
 10
226.2717
 20
258.699
  0
VERTEX
  8
LAYER_1
 10
226.187
 20
258.699
  0
VERTEX
  8
LAYER_1
 10
226.187
 20
258.7836
  0
VERTEX
  8
LAYER_1
 10
226.187
 20
258.8683
  0
VERTEX
  8
LAYER_1
 10
226.1023
 20
258.8683
  0
SEQEND
  0
POLYLINE
  8
LAYER_1
 40
0.05
 41
0.05
 62
255
 66
1
 10
0
 20
0
 30
0
 70
1
  0
VERTEX
  8
LAYER_1
 10
154.0298
 20
263.3768
  0
VERTEX
  8
LAYER_1
 10
158.6865
 20
263.3768
  0
VERTEX
  8
LAYER_1
 10
158.6865
 20
260.1595
  0
VERTEX
  8
LAYER_1
 10
154.0298
 20
260.1595
  0
SEQEND
  0
TEXT
  8
LAYER_1
 10
154.0511
 20
260.7038
 11
154.0511
 21
260.7038
 40
3.4028
 41
0.5
  1
700
  0
POLYLINE
  8
LAYER_1
 40
0.1764
 41
0.1764
 66
1
 10
0
 20
0
 30
0
  0
VERTEX
  8
LAYER_1
 10
315.087
 20
231.0976
  0
VERTEX
  8
LAYER_1
 10
297.561
 20
231.0976
  0
SEQEND
  0
POLYLINE
  8
LAYER_1
 40
0.1764
 41
0.1764
 66
1
 10
0
 20
0
 30
0
  0
VERTEX
  8
LAYER_1
 10
315.087
 20
51.0963
  0
VERTEX
  8
LAYER_1
 10
297.561
 20
51.0963
  0
SEQEND
  0
POLYLINE
  8
LAYER_1
 40
0.1764
 41
0.1764
 66
1
 10
0
 20
0
 30
0
  0
VERTEX
  8
LAYER_1
 10
297.561
 20
231.0976
  0
VERTEX
  8
LAYER_1
 10
297.561
 20
51.0963
  0
SEQEND
  0
POLYLINE
  8
LAYER_1
 40
0.1764
 41
0.1764
 66
1
 10
0
 20
0
 30
0
 70
1
  0
VERTEX
  8
LAYER_1
 10
297.561
 20
230.8436
  0
VERTEX
  8
LAYER_1
 10
297.4763
 20
230.8436
  0
VERTEX
  8
LAYER_1
 10
297.4763
 20
230.9283
  0
VERTEX
  8
LAYER_1
 10
297.3917
 20
230.9283
  0
VERTEX
  8
LAYER_1
 10
297.3917
 20
231.013
  0
VERTEX
  8
LAYER_1
 10
297.3917
 20
231.0976
  0
VERTEX
  8
LAYER_1
 10
297.307
 20
231.0976
  0
VERTEX
  8
LAYER_1
 10
297.307
 20
231.1823
  0
VERTEX
  8
LAYER_1
 10
297.3917
 20
231.1823
  0
VERTEX
  8
LAYER_1
 10
297.3917
 20
231.267
  0
VERTEX
  8
LAYER_1
 10
297.3917
 20
231.3516
  0
VERTEX
  8
LAYER_1
 10
297.4763
 20
231.3516
  0
VERTEX
  8
LAYER_1
 10
297.561
 20
231.3516
  0
VERTEX
  8
LAYER_1
 10
297.6457
 20
231.3516
  0
VERTEX
  8
LAYER_1
 10
297.7303
 20
231.3516
  0
VERTEX
  8
LAYER_1
 10
297.7303
 20
231.267
  0
VERTEX
  8
LAYER_1
 10
297.815
 20
231.267
  0
VERTEX
  8
LAYER_1
 10
297.815
 20
231.1823
  0
VERTEX
  8
LAYER_1
 10
297.815
 20
231.0976
  0
VERTEX
  8
LAYER_1
 10
297.815
 20
231.013
  0
VERTEX
  8
LAYER_1
 10
297.815
 20
230.9283
  0
VERTEX
  8
LAYER_1
 10
297.7303
 20
230.9283
  0
VERTEX
  8
LAYER_1
 10
297.6457
 20
230.8436
  0
SEQEND
  0
POLYLINE
  8
LAYER_1
 40
0.05
 41
0.05
 66
1
 10
0
 20
0
 30
0
 70
1
  0
VERTEX
  8
LAYER_1
 10
297.5398
 20
230.8648
  0
VERTEX
  8
LAYER_1
 10
297.4552
 20
230.8648
  0
VERTEX
  8
LAYER_1
 10
297.4552
 20
230.9495
  0
VERTEX
  8
LAYER_1
 10
297.3705
 20
230.9495
  0
VERTEX
  8
LAYER_1
 10
297.3705
 20
231.0342
  0
VERTEX
  8
LAYER_1
 10
297.3705
 20
231.1188
  0
VERTEX
  8
LAYER_1
 10
297.2858
 20
231.1188
  0
VERTEX
  8
LAYER_1
 10
297.2858
 20
231.2035
  0
VERTEX
  8
LAYER_1
 10
297.3705
 20
231.2035
  0
VERTEX
  8
LAYER_1
 10
297.3705
 20
231.2881
  0
VERTEX
  8
LAYER_1
 10
297.3705
 20
231.3728
  0
VERTEX
  8
LAYER_1
 10
297.4552
 20
231.3728
  0
VERTEX
  8
LAYER_1
 10
297.5398
 20
231.3728
  0
VERTEX
  8
LAYER_1
 10
297.6245
 20
231.3728
  0
VERTEX
  8
LAYER_1
 10
297.7092
 20
231.3728
  0
VERTEX
  8
LAYER_1
 10
297.7092
 20
231.2881
  0
VERTEX
  8
LAYER_1
 10
297.7938
 20
231.2881
  0
VERTEX
  8
LAYER_1
 10
297.7938
 20
231.2035
  0
VERTEX
  8
LAYER_1
 10
297.7938
 20
231.1188
  0
VERTEX
  8
LAYER_1
 10
297.7938
 20
231.0342
  0
VERTEX
  8
LAYER_1
 10
297.7938
 20
230.9495
  0
VERTEX
  8
LAYER_1
 10
297.7092
 20
230.9495
  0
VERTEX
  8
LAYER_1
 10
297.6245
 20
230.8648
  0
SEQEND
  0
POLYLINE
  8
LAYER_1
 40
0.0811
 41
0.0811
 66
1
 10
0
 20
0
 30
0
 70
1
  0
VERTEX
  8
LAYER_1
 10
297.561
 20
230.8436
  0
VERTEX
  8
LAYER_1
 10
297.4763
 20
230.8436
  0
VERTEX
  8
LAYER_1
 10
297.4763
 20
230.9283
  0
VERTEX
  8
LAYER_1
 10
297.3917
 20
230.9283
  0
VERTEX
  8
LAYER_1
 10
297.3917
 20
231.013
  0
VERTEX
  8
LAYER_1
 10
297.3917
 20
231.0976
  0
VERTEX
  8
LAYER_1
 10
297.307
 20
231.0976
  0
VERTEX
  8
LAYER_1
 10
297.307
 20
231.1823
  0
VERTEX
  8
LAYER_1
 10
297.3917
 20
231.1823
  0
VERTEX
  8
LAYER_1
 10
297.3917
 20
231.267
  0
VERTEX
  8
LAYER_1
 10
297.3917
 20
231.3516
  0
VERTEX
  8
LAYER_1
 10
297.4763
 20
231.3516
  0
VERTEX
  8
LAYER_1
 10
297.561
 20
231.3516
  0
VERTEX
  8
LAYER_1
 10
297.6457
 20
231.3516
  0
VERTEX
  8
LAYER_1
 10
297.7303
 20
231.3516
  0
VERTEX
  8
LAYER_1
 10
297.7303
 20
231.267
  0
VERTEX
  8
LAYER_1
 10
297.815
 20
231.267
  0
VERTEX
  8
LAYER_1
 10
297.815
 20
231.1823
  0
VERTEX
  8
LAYER_1
 10
297.815
 20
231.0976
  0
VERTEX
  8
LAYER_1
 10
297.815
 20
231.013
  0
VERTEX
  8
LAYER_1
 10
297.815
 20
230.9283
  0
VERTEX
  8
LAYER_1
 10
297.7303
 20
230.9283
  0
VERTEX
  8
LAYER_1
 10
297.6457
 20
230.8436
  0
SEQEND
  0
POLYLINE
  8
LAYER_1
 40
0.1764
 41
0.1764
 66
1
 10
0
 20
0
 30
0
 70
1
  0
VERTEX
  8
LAYER_1
 10
297.561
 20
51.3503
  0
VERTEX
  8
LAYER_1
 10
297.6457
 20
51.3503
  0
VERTEX
  8
LAYER_1
 10
297.7303
 20
51.3503
  0
VERTEX
  8
LAYER_1
 10
297.7303
 20
51.2657
  0
VERTEX
  8
LAYER_1
 10
297.815
 20
51.2657
  0
VERTEX
  8
LAYER_1
 10
297.815
 20
51.181
  0
VERTEX
  8
LAYER_1
 10
297.815
 20
51.0963
  0
VERTEX
  8
LAYER_1
 10
297.815
 20
51.0117
  0
VERTEX
  8
LAYER_1
 10
297.815
 20
50.927
  0
VERTEX
  8
LAYER_1
 10
297.7303
 20
50.927
  0
VERTEX
  8
LAYER_1
 10
297.6457
 20
50.8423
  0
VERTEX
  8
LAYER_1
 10
297.561
 20
50.8423
  0
VERTEX
  8
LAYER_1
 10
297.4763
 20
50.8423
  0
VERTEX
  8
LAYER_1
 10
297.4763
 20
50.927
  0
VERTEX
  8
LAYER_1
 10
297.3917
 20
50.927
  0
VERTEX
  8
LAYER_1
 10
297.3917
 20
51.0117
  0
VERTEX
  8
LAYER_1
 10
297.3917
 20
51.0963
  0
VERTEX
  8
LAYER_1
 10
297.307
 20
51.0963
  0
VERTEX
  8
LAYER_1
 10
297.307
 20
51.181
  0
VERTEX
  8
LAYER_1
 10
297.3917
 20
51.181
  0
VERTEX
  8
LAYER_1
 10
297.3917
 20
51.2657
  0
VERTEX
  8
LAYER_1
 10
297.3917
 20
51.3503
  0
VERTEX
  8
LAYER_1
 10
297.4763
 20
51.3503
  0
SEQEND
  0
POLYLINE
  8
LAYER_1
 40
0.05
 41
0.05
 66
1
 10
0
 20
0
 30
0
 70
1
  0
VERTEX
  8
LAYER_1
 10
297.5398
 20
51.3715
  0
VERTEX
  8
LAYER_1
 10
297.6245
 20
51.3715
  0
VERTEX
  8
LAYER_1
 10
297.7092
 20
51.3715
  0
VERTEX
  8
LAYER_1
 10
297.7092
 20
51.2868
  0
VERTEX
  8
LAYER_1
 10
297.7938
 20
51.2868
  0
VERTEX
  8
LAYER_1
 10
297.7938
 20
51.2022
  0
VERTEX
  8
LAYER_1
 10
297.7938
 20
51.1175
  0
VERTEX
  8
LAYER_1
 10
297.7938
 20
51.0328
  0
VERTEX
  8
LAYER_1
 10
297.7938
 20
50.9482
  0
VERTEX
  8
LAYER_1
 10
297.7092
 20
50.9482
  0
VERTEX
  8
LAYER_1
 10
297.6245
 20
50.8635
  0
VERTEX
  8
LAYER_1
 10
297.5398
 20
50.8635
  0
VERTEX
  8
LAYER_1
 10
297.4552
 20
50.8635
  0
VERTEX
  8
LAYER_1
 10
297.4552
 20
50.9482
  0
VERTEX
  8
LAYER_1
 10
297.3705
 20
50.9482
  0
VERTEX
  8
LAYER_1
 10
297.3705
 20
51.0328
  0
VERTEX
  8
LAYER_1
 10
297.3705
 20
51.1175
  0
VERTEX
  8
LAYER_1
 10
297.2858
 20
51.1175
  0
VERTEX
  8
LAYER_1
 10
297.2858
 20
51.2022
  0
VERTEX
  8
LAYER_1
 10
297.3705
 20
51.2022
  0
VERTEX
  8
LAYER_1
 10
297.3705
 20
51.2868
  0
VERTEX
  8
LAYER_1
 10
297.3705
 20
51.3715
  0
VERTEX
  8
LAYER_1
 10
297.4552
 20
51.3715
  0
SEQEND
  0
POLYLINE
  8
LAYER_1
 40
0.0811
 41
0.0811
 66
1
 10
0
 20
0
 30
0
 70
1
  0
VERTEX
  8
LAYER_1
 10
297.561
 20
51.3503
  0
VERTEX
  8
LAYER_1
 10
297.6457
 20
51.3503
  0
VERTEX
  8
LAYER_1
 10
297.7303
 20
51.3503
  0
VERTEX
  8
LAYER_1
 10
297.7303
 20
51.2657
  0
VERTEX
  8
LAYER_1
 10
297.815
 20
51.2657
  0
VERTEX
  8
LAYER_1
 10
297.815
 20
51.181
  0
VERTEX
  8
LAYER_1
 10
297.815
 20
51.0963
  0
VERTEX
  8
LAYER_1
 10
297.815
 20
51.0117
  0
VERTEX
  8
LAYER_1
 10
297.815
 20
50.927
  0
VERTEX
  8
LAYER_1
 10
297.7303
 20
50.927
  0
VERTEX
  8
LAYER_1
 10
297.6457
 20
50.8423
  0
VERTEX
  8
LAYER_1
 10
297.561
 20
50.8423
  0
VERTEX
  8
LAYER_1
 10
297.4763
 20
50.8423
  0
VERTEX
  8
LAYER_1
 10
297.4763
 20
50.927
  0
VERTEX
  8
LAYER_1
 10
297.3917
 20
50.927
  0
VERTEX
  8
LAYER_1
 10
297.3917
 20
51.0117
  0
VERTEX
  8
LAYER_1
 10
297.3917
 20
51.0963
  0
VERTEX
  8
LAYER_1
 10
297.307
 20
51.0963
  0
VERTEX
  8
LAYER_1
 10
297.307
 20
51.181
  0
VERTEX
  8
LAYER_1
 10
297.3917
 20
51.181
  0
VERTEX
  8
LAYER_1
 10
297.3917
 20
51.2657
  0
VERTEX
  8
LAYER_1
 10
297.3917
 20
51.3503
  0
VERTEX
  8
LAYER_1
 10
297.4763
 20
51.3503
  0
SEQEND
  0
POLYLINE
  8
LAYER_1
 40
0.05
 41
0.05
 62
255
 66
1
 10
0
 20
0
 30
0
 70
1
  0
VERTEX
  8
LAYER_1
 10
293.1372
 20
138.7475
  0
VERTEX
  8
LAYER_1
 10
293.1372
 20
143.4888
  0
VERTEX
  8
LAYER_1
 10
296.3545
 20
143.4888
  0
VERTEX
  8
LAYER_1
 10
296.3545
 20
138.7475
  0
SEQEND
  0
TEXT
  8
LAYER_1
 10
295.81
 20
138.7264
 11
295.81
 21
138.7264
 40
3.4028
 41
0.5
 50
89.99999999
  1
900
  0
POLYLINE
  8
LAYER_1
 40
0.1764
 41
0.1764
 66
1
 10
0
 20
0
 30
0
  0
VERTEX
  8
LAYER_1
 10
316.103
 20
232.1136
  0
VERTEX
  8
LAYER_1
 10
316.103
 20
243.713
  0
SEQEND
  0
POLYLINE
  8
LAYER_1
 40
0.1764
 41
0.1764
 66
1
 10
0
 20
0
 30
0
  0
VERTEX
  8
LAYER_1
 10
320.3363
 20
231.0976
  0
VERTEX
  8
LAYER_1
 10
320.3363
 20
243.713
  0
SEQEND
  0
POLYLINE
  8
LAYER_1
 40
0.1764
 41
0.1764
 66
1
 10
0
 20
0
 30
0
  0
VERTEX
  8
LAYER_1
 10
316.103
 20
243.713
  0
VERTEX
  8
LAYER_1
 10
320.3363
 20
243.713
  0
SEQEND
  0
POLYLINE
  8
LAYER_1
 40
0.1764
 41
0.1764
 66
1
 10
0
 20
0
 30
0
 70
1
  0
VERTEX
  8
LAYER_1
 10
316.357
 20
243.713
  0
VERTEX
  8
LAYER_1
 10
316.357
 20
243.6283
  0
VERTEX
  8
LAYER_1
 10
316.2723
 20
243.5436
  0
VERTEX
  8
LAYER_1
 10
316.1877
 20
243.459
  0
VERTEX
  8
LAYER_1
 10
316.103
 20
243.459
  0
VERTEX
  8
LAYER_1
 10
316.0183
 20
243.459
  0
VERTEX
  8
LAYER_1
 10
315.9337
 20
243.5436
  0
VERTEX
  8
LAYER_1
 10
315.849
 20
243.6283
  0
VERTEX
  8
LAYER_1
 10
315.849
 20
243.713
  0
VERTEX
  8
LAYER_1
 10
315.849
 20
243.7976
  0
VERTEX
  8
LAYER_1
 10
315.849
 20
243.8823
  0
VERTEX
  8
LAYER_1
 10
315.9337
 20
243.8823
  0
VERTEX
  8
LAYER_1
 10
315.9337
 20
243.967
  0
VERTEX
  8
LAYER_1
 10
316.0183
 20
243.967
  0
VERTEX
  8
LAYER_1
 10
316.103
 20
243.967
  0
VERTEX
  8
LAYER_1
 10
316.1877
 20
243.967
  0
VERTEX
  8
LAYER_1
 10
316.2723
 20
243.967
  0
VERTEX
  8
LAYER_1
 10
316.2723
 20
243.8823
  0
VERTEX
  8
LAYER_1
 10
316.357
 20
243.8823
  0
VERTEX
  8
LAYER_1
 10
316.357
 20
243.7976
  0
SEQEND
  0
POLYLINE
  8
LAYER_1
 40
0.05
 41
0.05
 66
1
 10
0
 20
0
 30
0
 70
1
  0
VERTEX
  8
LAYER_1
 10
316.3358
 20
243.7342
  0
VERTEX
  8
LAYER_1
 10
316.3358
 20
243.6495
  0
VERTEX
  8
LAYER_1
 10
316.2512
 20
243.5648
  0
VERTEX
  8
LAYER_1
 10
316.1665
 20
243.4801
  0
VERTEX
  8
LAYER_1
 10
316.0818
 20
243.4801
  0
VERTEX
  8
LAYER_1
 10
315.9972
 20
243.4801
  0
VERTEX
  8
LAYER_1
 10
315.9125
 20
243.5648
  0
VERTEX
  8
LAYER_1
 10
315.8278
 20
243.6495
  0
VERTEX
  8
LAYER_1
 10
315.8278
 20
243.7342
  0
VERTEX
  8
LAYER_1
 10
315.8278
 20
243.8188
  0
VERTEX
  8
LAYER_1
 10
315.8278
 20
243.9035
  0
VERTEX
  8
LAYER_1
 10
315.9125
 20
243.9035
  0
VERTEX
  8
LAYER_1
 10
315.9125
 20
243.9881
  0
VERTEX
  8
LAYER_1
 10
315.9972
 20
243.9881
  0
VERTEX
  8
LAYER_1
 10
316.0818
 20
243.9881
  0
VERTEX
  8
LAYER_1
 10
316.1665
 20
243.9881
  0
VERTEX
  8
LAYER_1
 10
316.2512
 20
243.9881
  0
VERTEX
  8
LAYER_1
 10
316.2512
 20
243.9035
  0
VERTEX
  8
LAYER_1
 10
316.3358
 20
243.9035
  0
VERTEX
  8
LAYER_1
 10
316.3358
 20
243.8188
  0
SEQEND
  0
POLYLINE
  8
LAYER_1
 40
0.0811
 41
0.0811
 66
1
 10
0
 20
0
 30
0
 70
1
  0
VERTEX
  8
LAYER_1
 10
316.357
 20
243.713
  0
VERTEX
  8
LAYER_1
 10
316.357
 20
243.6283
  0
VERTEX
  8
LAYER_1
 10
316.2723
 20
243.5436
  0
VERTEX
  8
LAYER_1
 10
316.1877
 20
243.459
  0
VERTEX
  8
LAYER_1
 10
316.103
 20
243.459
  0
VERTEX
  8
LAYER_1
 10
316.0183
 20
243.459
  0
VERTEX
  8
LAYER_1
 10
315.9337
 20
243.5436
  0
VERTEX
  8
LAYER_1
 10
315.849
 20
243.6283
  0
VERTEX
  8
LAYER_1
 10
315.849
 20
243.713
  0
VERTEX
  8
LAYER_1
 10
315.849
 20
243.7976
  0
VERTEX
  8
LAYER_1
 10
315.849
 20
243.8823
  0
VERTEX
  8
LAYER_1
 10
315.9337
 20
243.8823
  0
VERTEX
  8
LAYER_1
 10
315.9337
 20
243.967
  0
VERTEX
  8
LAYER_1
 10
316.0183
 20
243.967
  0
VERTEX
  8
LAYER_1
 10
316.103
 20
243.967
  0
VERTEX
  8
LAYER_1
 10
316.1877
 20
243.967
  0
VERTEX
  8
LAYER_1
 10
316.2723
 20
243.967
  0
VERTEX
  8
LAYER_1
 10
316.2723
 20
243.8823
  0
VERTEX
  8
LAYER_1
 10
316.357
 20
243.8823
  0
VERTEX
  8
LAYER_1
 10
316.357
 20
243.7976
  0
SEQEND
  0
POLYLINE
  8
LAYER_1
 40
0.1764
 41
0.1764
 66
1
 10
0
 20
0
 30
0
 70
1
  0
VERTEX
  8
LAYER_1
 10
320.0823
 20
243.713
  0
VERTEX
  8
LAYER_1
 10
320.0823
 20
243.7976
  0
VERTEX
  8
LAYER_1
 10
320.0823
 20
243.8823
  0
VERTEX
  8
LAYER_1
 10
320.167
 20
243.8823
  0
VERTEX
  8
LAYER_1
 10
320.167
 20
243.967
  0
VERTEX
  8
LAYER_1
 10
320.2517
 20
243.967
  0
VERTEX
  8
LAYER_1
 10
320.3363
 20
243.967
  0
VERTEX
  8
LAYER_1
 10
320.421
 20
243.967
  0
VERTEX
  8
LAYER_1
 10
320.421
 20
243.8823
  0
VERTEX
  8
LAYER_1
 10
320.5057
 20
243.8823
  0
VERTEX
  8
LAYER_1
 10
320.5057
 20
243.7976
  0
VERTEX
  8
LAYER_1
 10
320.5903
 20
243.713
  0
VERTEX
  8
LAYER_1
 10
320.5057
 20
243.6283
  0
VERTEX
  8
LAYER_1
 10
320.5057
 20
243.5436
  0
VERTEX
  8
LAYER_1
 10
320.421
 20
243.5436
  0
VERTEX
  8
LAYER_1
 10
320.421
 20
243.459
  0
VERTEX
  8
LAYER_1
 10
320.3363
 20
243.459
  0
VERTEX
  8
LAYER_1
 10
320.2517
 20
243.459
  0
VERTEX
  8
LAYER_1
 10
320.167
 20
243.459
  0
VERTEX
  8
LAYER_1
 10
320.167
 20
243.5436
  0
VERTEX
  8
LAYER_1
 10
320.0823
 20
243.5436
  0
VERTEX
  8
LAYER_1
 10
320.0823
 20
243.6283
  0
SEQEND
  0
POLYLINE
  8
LAYER_1
 40
0.05
 41
0.05
 66
1
 10
0
 20
0
 30
0
 70
1
  0
VERTEX
  8
LAYER_1
 10
320.0612
 20
243.7342
  0
VERTEX
  8
LAYER_1
 10
320.0612
 20
243.8188
  0
VERTEX
  8
LAYER_1
 10
320.0612
 20
243.9035
  0
VERTEX
  8
LAYER_1
 10
320.1458
 20
243.9035
  0
VERTEX
  8
LAYER_1
 10
320.1458
 20
243.9881
  0
VERTEX
  8
LAYER_1
 10
320.2305
 20
243.9881
  0
VERTEX
  8
LAYER_1
 10
320.3152
 20
243.9881
  0
VERTEX
  8
LAYER_1
 10
320.3998
 20
243.9881
  0
VERTEX
  8
LAYER_1
 10
320.3998
 20
243.9035
  0
VERTEX
  8
LAYER_1
 10
320.4845
 20
243.9035
  0
VERTEX
  8
LAYER_1
 10
320.4845
 20
243.8188
  0
VERTEX
  8
LAYER_1
 10
320.5692
 20
243.7342
  0
VERTEX
  8
LAYER_1
 10
320.4845
 20
243.6495
  0
VERTEX
  8
LAYER_1
 10
320.4845
 20
243.5648
  0
VERTEX
  8
LAYER_1
 10
320.3998
 20
243.5648
  0
VERTEX
  8
LAYER_1
 10
320.3998
 20
243.4801
  0
VERTEX
  8
LAYER_1
 10
320.3152
 20
243.4801
  0
VERTEX
  8
LAYER_1
 10
320.2305
 20
243.4801
  0
VERTEX
  8
LAYER_1
 10
320.1458
 20
243.4801
  0
VERTEX
  8
LAYER_1
 10
320.1458
 20
243.5648
  0
VERTEX
  8
LAYER_1
 10
320.0612
 20
243.5648
  0
VERTEX
  8
LAYER_1
 10
320.0612
 20
243.6495
  0
SEQEND
  0
POLYLINE
  8
LAYER_1
 40
0.0811
 41
0.0811
 66
1
 10
0
 20
0
 30
0
 70
1
  0
VERTEX
  8
LAYER_1
 10
320.0823
 20
243.713
  0
VERTEX
  8
LAYER_1
 10
320.0823
 20
243.7976
  0
VERTEX
  8
LAYER_1
 10
320.0823
 20
243.8823
  0
VERTEX
  8
LAYER_1
 10
320.167
 20
243.8823
  0
VERTEX
  8
LAYER_1
 10
320.167
 20
243.967
  0
VERTEX
  8
LAYER_1
 10
320.2517
 20
243.967
  0
VERTEX
  8
LAYER_1
 10
320.3363
 20
243.967
  0
VERTEX
  8
LAYER_1
 10
320.421
 20
243.967
  0
VERTEX
  8
LAYER_1
 10
320.421
 20
243.8823
  0
VERTEX
  8
LAYER_1
 10
320.5057
 20
243.8823
  0
VERTEX
  8
LAYER_1
 10
320.5057
 20
243.7976
  0
VERTEX
  8
LAYER_1
 10
320.5903
 20
243.713
  0
VERTEX
  8
LAYER_1
 10
320.5057
 20
243.6283
  0
VERTEX
  8
LAYER_1
 10
320.5057
 20
243.5436
  0
VERTEX
  8
LAYER_1
 10
320.421
 20
243.5436
  0
VERTEX
  8
LAYER_1
 10
320.421
 20
243.459
  0
VERTEX
  8
LAYER_1
 10
320.3363
 20
243.459
  0
VERTEX
  8
LAYER_1
 10
320.2517
 20
243.459
  0
VERTEX
  8
LAYER_1
 10
320.167
 20
243.459
  0
VERTEX
  8
LAYER_1
 10
320.167
 20
243.5436
  0
VERTEX
  8
LAYER_1
 10
320.0823
 20
243.5436
  0
VERTEX
  8
LAYER_1
 10
320.0823
 20
243.6283
  0
SEQEND
  0
POLYLINE
  8
LAYER_1
 40
0.05
 41
0.05
 62
255
 66
1
 10
0
 20
0
 30
0
 70
1
  0
VERTEX
  8
LAYER_1
 10
316.5898
 20
248.1368
  0
VERTEX
  8
LAYER_1
 10
319.7225
 20
248.1368
  0
VERTEX
  8
LAYER_1
 10
319.7225
 20
244.9195
  0
VERTEX
  8
LAYER_1
 10
316.5898
 20
244.9195
  0
SEQEND
  0
TEXT
  8
LAYER_1
 10
316.6112
 20
245.4639
 11
316.6112
 21
245.4639
 40
3.4028
 41
0.5
  1
21
  0
POLYLINE
  8
LAYER_1
 40
0.1764
 41
0.1764
 66
1
 10
0
 20
0
 30
0
  0
VERTEX
  8
LAYER_1
 10
316.103
 20
232.1136
  0
VERTEX
  8
LAYER_1
 10
316.103
 20
237.9557
  0
SEQEND
  0
POLYLINE
  8
LAYER_1
 40
0.1764
 41
0.1764
 66
1
 10
0
 20
0
 30
0
  0
VERTEX
  8
LAYER_1
 10
318.4736
 20
232.1136
  0
VERTEX
  8
LAYER_1
 10
318.4736
 20
237.9557
  0
SEQEND
  0
POLYLINE
  8
LAYER_1
 40
0.1764
 41
0.1764
 66
1
 10
0
 20
0
 30
0
  0
VERTEX
  8
LAYER_1
 10
316.103
 20
237.9557
  0
VERTEX
  8
LAYER_1
 10
318.4736
 20
237.9557
  0
SEQEND
  0
POLYLINE
  8
LAYER_1
 40
0.1764
 41
0.1764
 66
1
 10
0
 20
0
 30
0
 70
1
  0
VERTEX
  8
LAYER_1
 10
316.357
 20
237.9557
  0
VERTEX
  8
LAYER_1
 10
316.357
 20
237.871
  0
VERTEX
  8
LAYER_1
 10
316.2723
 20
237.7863
  0
VERTEX
  8
LAYER_1
 10
316.2723
 20
237.7016
  0
VERTEX
  8
LAYER_1
 10
316.1877
 20
237.7016
  0
VERTEX
  8
LAYER_1
 10
316.103
 20
237.7016
  0
VERTEX
  8
LAYER_1
 10
316.0183
 20
237.7016
  0
VERTEX
  8
LAYER_1
 10
315.9337
 20
237.7016
  0
VERTEX
  8
LAYER_1
 10
315.9337
 20
237.7863
  0
VERTEX
  8
LAYER_1
 10
315.849
 20
237.871
  0
VERTEX
  8
LAYER_1
 10
315.849
 20
237.9557
  0
VERTEX
  8
LAYER_1
 10
315.849
 20
238.0403
  0
VERTEX
  8
LAYER_1
 10
315.849
 20
238.125
  0
VERTEX
  8
LAYER_1
 10
315.9337
 20
238.125
  0
VERTEX
  8
LAYER_1
 10
315.9337
 20
238.2096
  0
VERTEX
  8
LAYER_1
 10
316.0183
 20
238.2096
  0
VERTEX
  8
LAYER_1
 10
316.103
 20
238.2096
  0
VERTEX
  8
LAYER_1
 10
316.1877
 20
238.2096
  0
VERTEX
  8
LAYER_1
 10
316.2723
 20
238.2096
  0
VERTEX
  8
LAYER_1
 10
316.2723
 20
238.125
  0
VERTEX
  8
LAYER_1
 10
316.357
 20
238.125
  0
VERTEX
  8
LAYER_1
 10
316.357
 20
238.0403
  0
SEQEND
  0
POLYLINE
  8
LAYER_1
 40
0.05
 41
0.05
 66
1
 10
0
 20
0
 30
0
 70
1
  0
VERTEX
  8
LAYER_1
 10
316.3358
 20
237.9768
  0
VERTEX
  8
LAYER_1
 10
316.3358
 20
237.8922
  0
VERTEX
  8
LAYER_1
 10
316.2512
 20
237.8075
  0
VERTEX
  8
LAYER_1
 10
316.2512
 20
237.7228
  0
VERTEX
  8
LAYER_1
 10
316.1665
 20
237.7228
  0
VERTEX
  8
LAYER_1
 10
316.0818
 20
237.7228
  0
VERTEX
  8
LAYER_1
 10
315.9972
 20
237.7228
  0
VERTEX
  8
LAYER_1
 10
315.9125
 20
237.7228
  0
VERTEX
  8
LAYER_1
 10
315.9125
 20
237.8075
  0
VERTEX
  8
LAYER_1
 10
315.8278
 20
237.8922
  0
VERTEX
  8
LAYER_1
 10
315.8278
 20
237.9768
  0
VERTEX
  8
LAYER_1
 10
315.8278
 20
238.0615
  0
VERTEX
  8
LAYER_1
 10
315.8278
 20
238.1461
  0
VERTEX
  8
LAYER_1
 10
315.9125
 20
238.1461
  0
VERTEX
  8
LAYER_1
 10
315.9125
 20
238.2308
  0
VERTEX
  8
LAYER_1
 10
315.9972
 20
238.2308
  0
VERTEX
  8
LAYER_1
 10
316.0818
 20
238.2308
  0
VERTEX
  8
LAYER_1
 10
316.1665
 20
238.2308
  0
VERTEX
  8
LAYER_1
 10
316.2512
 20
238.2308
  0
VERTEX
  8
LAYER_1
 10
316.2512
 20
238.1461
  0
VERTEX
  8
LAYER_1
 10
316.3358
 20
238.1461
  0
VERTEX
  8
LAYER_1
 10
316.3358
 20
238.0615
  0
SEQEND
  0
POLYLINE
  8
LAYER_1
 40
0.0811
 41
0.0811
 66
1
 10
0
 20
0
 30
0
 70
1
  0
VERTEX
  8
LAYER_1
 10
316.357
 20
237.9557
  0
VERTEX
  8
LAYER_1
 10
316.357
 20
237.871
  0
VERTEX
  8
LAYER_1
 10
316.2723
 20
237.7863
  0
VERTEX
  8
LAYER_1
 10
316.2723
 20
237.7016
  0
VERTEX
  8
LAYER_1
 10
316.1877
 20
237.7016
  0
VERTEX
  8
LAYER_1
 10
316.103
 20
237.7016
  0
VERTEX
  8
LAYER_1
 10
316.0183
 20
237.7016
  0
VERTEX
  8
LAYER_1
 10
315.9337
 20
237.7016
  0
VERTEX
  8
LAYER_1
 10
315.9337
 20
237.7863
  0
VERTEX
  8
LAYER_1
 10
315.849
 20
237.871
  0
VERTEX
  8
LAYER_1
 10
315.849
 20
237.9557
  0
VERTEX
  8
LAYER_1
 10
315.849
 20
238.0403
  0
VERTEX
  8
LAYER_1
 10
315.849
 20
238.125
  0
VERTEX
  8
LAYER_1
 10
315.9337
 20
238.125
  0
VERTEX
  8
LAYER_1
 10
315.9337
 20
238.2096
  0
VERTEX
  8
LAYER_1
 10
316.0183
 20
238.2096
  0
VERTEX
  8
LAYER_1
 10
316.103
 20
238.2096
  0
VERTEX
  8
LAYER_1
 10
316.1877
 20
238.2096
  0
VERTEX
  8
LAYER_1
 10
316.2723
 20
238.2096
  0
VERTEX
  8
LAYER_1
 10
316.2723
 20
238.125
  0
VERTEX
  8
LAYER_1
 10
316.357
 20
238.125
  0
VERTEX
  8
LAYER_1
 10
316.357
 20
238.0403
  0
SEQEND
  0
POLYLINE
  8
LAYER_1
 40
0.1764
 41
0.1764
 66
1
 10
0
 20
0
 30
0
 70
1
  0
VERTEX
  8
LAYER_1
 10
318.2197
 20
237.9557
  0
VERTEX
  8
LAYER_1
 10
318.2197
 20
238.0403
  0
VERTEX
  8
LAYER_1
 10
318.3043
 20
238.0403
  0
VERTEX
  8
LAYER_1
 10
318.3043
 20
238.125
  0
VERTEX
  8
LAYER_1
 10
318.389
 20
238.125
  0
VERTEX
  8
LAYER_1
 10
318.389
 20
238.2096
  0
VERTEX
  8
LAYER_1
 10
318.4736
 20
238.2096
  0
VERTEX
  8
LAYER_1
 10
318.5583
 20
238.2096
  0
VERTEX
  8
LAYER_1
 10
318.643
 20
238.2096
  0
VERTEX
  8
LAYER_1
 10
318.643
 20
238.125
  0
VERTEX
  8
LAYER_1
 10
318.7277
 20
238.125
  0
VERTEX
  8
LAYER_1
 10
318.7277
 20
238.0403
  0
VERTEX
  8
LAYER_1
 10
318.7277
 20
237.9557
  0
VERTEX
  8
LAYER_1
 10
318.7277
 20
237.871
  0
VERTEX
  8
LAYER_1
 10
318.7277
 20
237.7863
  0
VERTEX
  8
LAYER_1
 10
318.643
 20
237.7863
  0
VERTEX
  8
LAYER_1
 10
318.643
 20
237.7016
  0
VERTEX
  8
LAYER_1
 10
318.5583
 20
237.7016
  0
VERTEX
  8
LAYER_1
 10
318.4736
 20
237.7016
  0
VERTEX
  8
LAYER_1
 10
318.389
 20
237.7016
  0
VERTEX
  8
LAYER_1
 10
318.389
 20
237.7863
  0
VERTEX
  8
LAYER_1
 10
318.3043
 20
237.7863
  0
VERTEX
  8
LAYER_1
 10
318.3043
 20
237.871
  0
VERTEX
  8
LAYER_1
 10
318.2197
 20
237.871
  0
SEQEND
  0
POLYLINE
  8
LAYER_1
 40
0.05
 41
0.05
 66
1
 10
0
 20
0
 30
0
 70
1
  0
VERTEX
  8
LAYER_1
 10
318.1985
 20
237.9768
  0
VERTEX
  8
LAYER_1
 10
318.1985
 20
238.0615
  0
VERTEX
  8
LAYER_1
 10
318.2832
 20
238.0615
  0
VERTEX
  8
LAYER_1
 10
318.2832
 20
238.1461
  0
VERTEX
  8
LAYER_1
 10
318.3678
 20
238.1461
  0
VERTEX
  8
LAYER_1
 10
318.3678
 20
238.2308
  0
VERTEX
  8
LAYER_1
 10
318.4525
 20
238.2308
  0
VERTEX
  8
LAYER_1
 10
318.5372
 20
238.2308
  0
VERTEX
  8
LAYER_1
 10
318.6218
 20
238.2308
  0
VERTEX
  8
LAYER_1
 10
318.6218
 20
238.1461
  0
VERTEX
  8
LAYER_1
 10
318.7065
 20
238.1461
  0
VERTEX
  8
LAYER_1
 10
318.7065
 20
238.0615
  0
VERTEX
  8
LAYER_1
 10
318.7065
 20
237.9768
  0
VERTEX
  8
LAYER_1
 10
318.7065
 20
237.8922
  0
VERTEX
  8
LAYER_1
 10
318.7065
 20
237.8075
  0
VERTEX
  8
LAYER_1
 10
318.6218
 20
237.8075
  0
VERTEX
  8
LAYER_1
 10
318.6218
 20
237.7228
  0
VERTEX
  8
LAYER_1
 10
318.5372
 20
237.7228
  0
VERTEX
  8
LAYER_1
 10
318.4525
 20
237.7228
  0
VERTEX
  8
LAYER_1
 10
318.3678
 20
237.7228
  0
VERTEX
  8
LAYER_1
 10
318.3678
 20
237.8075
  0
VERTEX
  8
LAYER_1
 10
318.2832
 20
237.8075
  0
VERTEX
  8
LAYER_1
 10
318.2832
 20
237.8922
  0
VERTEX
  8
LAYER_1
 10
318.1985
 20
237.8922
  0
SEQEND
  0
POLYLINE
  8
LAYER_1
 40
0.0811
 41
0.0811
 66
1
 10
0
 20
0
 30
0
 70
1
  0
VERTEX
  8
LAYER_1
 10
318.2197
 20
237.9557
  0
VERTEX
  8
LAYER_1
 10
318.2197
 20
238.0403
  0
VERTEX
  8
LAYER_1
 10
318.3043
 20
238.0403
  0
VERTEX
  8
LAYER_1
 10
318.3043
 20
238.125
  0
VERTEX
  8
LAYER_1
 10
318.389
 20
238.125
  0
VERTEX
  8
LAYER_1
 10
318.389
 20
238.2096
  0
VERTEX
  8
LAYER_1
 10
318.4736
 20
238.2096
  0
VERTEX
  8
LAYER_1
 10
318.5583
 20
238.2096
  0
VERTEX
  8
LAYER_1
 10
318.643
 20
238.2096
  0
VERTEX
  8
LAYER_1
 10
318.643
 20
238.125
  0
VERTEX
  8
LAYER_1
 10
318.7277
 20
238.125
  0
VERTEX
  8
LAYER_1
 10
318.7277
 20
238.0403
  0
VERTEX
  8
LAYER_1
 10
318.7277
 20
237.9557
  0
VERTEX
  8
LAYER_1
 10
318.7277
 20
237.871
  0
VERTEX
  8
LAYER_1
 10
318.7277
 20
237.7863
  0
VERTEX
  8
LAYER_1
 10
318.643
 20
237.7863
  0
VERTEX
  8
LAYER_1
 10
318.643
 20
237.7016
  0
VERTEX
  8
LAYER_1
 10
318.5583
 20
237.7016
  0
VERTEX
  8
LAYER_1
 10
318.4736
 20
237.7016
  0
VERTEX
  8
LAYER_1
 10
318.389
 20
237.7016
  0
VERTEX
  8
LAYER_1
 10
318.389
 20
237.7863
  0
VERTEX
  8
LAYER_1
 10
318.3043
 20
237.7863
  0
VERTEX
  8
LAYER_1
 10
318.3043
 20
237.871
  0
VERTEX
  8
LAYER_1
 10
318.2197
 20
237.871
  0
SEQEND
  0
POLYLINE
  8
LAYER_1
 40
0.05
 41
0.05
 62
255
 66
1
 10
0
 20
0
 30
0
 70
1
  0
VERTEX
  8
LAYER_1
 10
315.7432
 20
242.3795
  0
VERTEX
  8
LAYER_1
 10
318.8758
 20
242.3795
  0
VERTEX
  8
LAYER_1
 10
318.8758
 20
239.1621
  0
VERTEX
  8
LAYER_1
 10
315.7432
 20
239.1621
  0
SEQEND
  0
TEXT
  8
LAYER_1
 10
315.7644
 20
239.7065
 11
315.7644
 21
239.7065
 40
3.4028
 41
0.5
  1
12
  0
POLYLINE
  8
LAYER_1
 40
0.1764
 41
0.1764
 66
1
 10
0
 20
0
 30
0
  0
VERTEX
  8
LAYER_1
 10
321.2677
 20
230.0816
  0
VERTEX
  8
LAYER_1
 10
334.2217
 20
230.0816
  0
SEQEND
  0
POLYLINE
  8
LAYER_1
 40
0.1764
 41
0.1764
 66
1
 10
0
 20
0
 30
0
  0
VERTEX
  8
LAYER_1
 10
321.2677
 20
52.1123
  0
VERTEX
  8
LAYER_1
 10
334.2217
 20
52.1123
  0
SEQEND
  0
POLYLINE
  8
LAYER_1
 40
0.1764
 41
0.1764
 66
1
 10
0
 20
0
 30
0
  0
VERTEX
  8
LAYER_1
 10
334.2217
 20
230.0816
  0
VERTEX
  8
LAYER_1
 10
334.2217
 20
52.1123
  0
SEQEND
  0
POLYLINE
  8
LAYER_1
 40
0.1764
 41
0.1764
 66
1
 10
0
 20
0
 30
0
 70
1
  0
VERTEX
  8
LAYER_1
 10
334.2217
 20
229.8276
  0
VERTEX
  8
LAYER_1
 10
334.137
 20
229.8276
  0
VERTEX
  8
LAYER_1
 10
334.137
 20
229.9123
  0
VERTEX
  8
LAYER_1
 10
334.0523
 20
229.9123
  0
VERTEX
  8
LAYER_1
 10
333.9677
 20
229.9123
  0
VERTEX
  8
LAYER_1
 10
333.9677
 20
229.997
  0
VERTEX
  8
LAYER_1
 10
333.9677
 20
230.0816
  0
VERTEX
  8
LAYER_1
 10
333.9677
 20
230.1663
  0
VERTEX
  8
LAYER_1
 10
333.9677
 20
230.251
  0
VERTEX
  8
LAYER_1
 10
334.0523
 20
230.3356
  0
VERTEX
  8
LAYER_1
 10
334.137
 20
230.3356
  0
VERTEX
  8
LAYER_1
 10
334.2217
 20
230.3356
  0
VERTEX
  8
LAYER_1
 10
334.3063
 20
230.3356
  0
VERTEX
  8
LAYER_1
 10
334.391
 20
230.3356
  0
VERTEX
  8
LAYER_1
 10
334.391
 20
230.251
  0
VERTEX
  8
LAYER_1
 10
334.391
 20
230.1663
  0
VERTEX
  8
LAYER_1
 10
334.4757
 20
230.1663
  0
VERTEX
  8
LAYER_1
 10
334.4757
 20
230.0816
  0
VERTEX
  8
LAYER_1
 10
334.391
 20
230.0816
  0
VERTEX
  8
LAYER_1
 10
334.391
 20
229.997
  0
VERTEX
  8
LAYER_1
 10
334.391
 20
229.9123
  0
VERTEX
  8
LAYER_1
 10
334.3063
 20
229.9123
  0
VERTEX
  8
LAYER_1
 10
334.2217
 20
229.9123
  0
SEQEND
  0
POLYLINE
  8
LAYER_1
 40
0.05
 41
0.05
 66
1
 10
0
 20
0
 30
0
 70
1
  0
VERTEX
  8
LAYER_1
 10
334.2005
 20
229.8488
  0
VERTEX
  8
LAYER_1
 10
334.1158
 20
229.8488
  0
VERTEX
  8
LAYER_1
 10
334.1158
 20
229.9335
  0
VERTEX
  8
LAYER_1
 10
334.0312
 20
229.9335
  0
VERTEX
  8
LAYER_1
 10
333.9465
 20
229.9335
  0
VERTEX
  8
LAYER_1
 10
333.9465
 20
230.0182
  0
VERTEX
  8
LAYER_1
 10
333.9465
 20
230.1028
  0
VERTEX
  8
LAYER_1
 10
333.9465
 20
230.1875
  0
VERTEX
  8
LAYER_1
 10
333.9465
 20
230.2721
  0
VERTEX
  8
LAYER_1
 10
334.0312
 20
230.3568
  0
VERTEX
  8
LAYER_1
 10
334.1158
 20
230.3568
  0
VERTEX
  8
LAYER_1
 10
334.2005
 20
230.3568
  0
VERTEX
  8
LAYER_1
 10
334.2852
 20
230.3568
  0
VERTEX
  8
LAYER_1
 10
334.3698
 20
230.3568
  0
VERTEX
  8
LAYER_1
 10
334.3698
 20
230.2721
  0
VERTEX
  8
LAYER_1
 10
334.3698
 20
230.1875
  0
VERTEX
  8
LAYER_1
 10
334.4545
 20
230.1875
  0
VERTEX
  8
LAYER_1
 10
334.4545
 20
230.1028
  0
VERTEX
  8
LAYER_1
 10
334.3698
 20
230.1028
  0
VERTEX
  8
LAYER_1
 10
334.3698
 20
230.0182
  0
VERTEX
  8
LAYER_1
 10
334.3698
 20
229.9335
  0
VERTEX
  8
LAYER_1
 10
334.2852
 20
229.9335
  0
VERTEX
  8
LAYER_1
 10
334.2005
 20
229.9335
  0
SEQEND
  0
POLYLINE
  8
LAYER_1
 40
0.0811
 41
0.0811
 66
1
 10
0
 20
0
 30
0
 70
1
  0
VERTEX
  8
LAYER_1
 10
334.2217
 20
229.8276
  0
VERTEX
  8
LAYER_1
 10
334.137
 20
229.8276
  0
VERTEX
  8
LAYER_1
 10
334.137
 20
229.9123
  0
VERTEX
  8
LAYER_1
 10
334.0523
 20
229.9123
  0
VERTEX
  8
LAYER_1
 10
333.9677
 20
229.9123
  0
VERTEX
  8
LAYER_1
 10
333.9677
 20
229.997
  0
VERTEX
  8
LAYER_1
 10
333.9677
 20
230.0816
  0
VERTEX
  8
LAYER_1
 10
333.9677
 20
230.1663
  0
VERTEX
  8
LAYER_1
 10
333.9677
 20
230.251
  0
VERTEX
  8
LAYER_1
 10
334.0523
 20
230.3356
  0
VERTEX
  8
LAYER_1
 10
334.137
 20
230.3356
  0
VERTEX
  8
LAYER_1
 10
334.2217
 20
230.3356
  0
VERTEX
  8
LAYER_1
 10
334.3063
 20
230.3356
  0
VERTEX
  8
LAYER_1
 10
334.391
 20
230.3356
  0
VERTEX
  8
LAYER_1
 10
334.391
 20
230.251
  0
VERTEX
  8
LAYER_1
 10
334.391
 20
230.1663
  0
VERTEX
  8
LAYER_1
 10
334.4757
 20
230.1663
  0
VERTEX
  8
LAYER_1
 10
334.4757
 20
230.0816
  0
VERTEX
  8
LAYER_1
 10
334.391
 20
230.0816
  0
VERTEX
  8
LAYER_1
 10
334.391
 20
229.997
  0
VERTEX
  8
LAYER_1
 10
334.391
 20
229.9123
  0
VERTEX
  8
LAYER_1
 10
334.3063
 20
229.9123
  0
VERTEX
  8
LAYER_1
 10
334.2217
 20
229.9123
  0
SEQEND
  0
POLYLINE
  8
LAYER_1
 40
0.1764
 41
0.1764
 66
1
 10
0
 20
0
 30
0
 70
1
  0
VERTEX
  8
LAYER_1
 10
334.2217
 20
52.3663
  0
VERTEX
  8
LAYER_1
 10
334.3063
 20
52.3663
  0
VERTEX
  8
LAYER_1
 10
334.3063
 20
52.2817
  0
VERTEX
  8
LAYER_1
 10
334.391
 20
52.2817
  0
VERTEX
  8
LAYER_1
 10
334.391
 20
52.197
  0
VERTEX
  8
LAYER_1
 10
334.4757
 20
52.197
  0
VERTEX
  8
LAYER_1
 10
334.4757
 20
52.1123
  0
VERTEX
  8
LAYER_1
 10
334.4757
 20
52.0277
  0
VERTEX
  8
LAYER_1
 10
334.391
 20
52.0277
  0
VERTEX
  8
LAYER_1
 10
334.391
 20
51.943
  0
VERTEX
  8
LAYER_1
 10
334.3063
 20
51.943
  0
VERTEX
  8
LAYER_1
 10
334.3063
 20
51.8583
  0
VERTEX
  8
LAYER_1
 10
334.2217
 20
51.8583
  0
VERTEX
  8
LAYER_1
 10
334.137
 20
51.8583
  0
VERTEX
  8
LAYER_1
 10
334.0523
 20
51.8583
  0
VERTEX
  8
LAYER_1
 10
334.0523
 20
51.943
  0
VERTEX
  8
LAYER_1
 10
333.9677
 20
51.943
  0
VERTEX
  8
LAYER_1
 10
333.9677
 20
52.0277
  0
VERTEX
  8
LAYER_1
 10
333.9677
 20
52.1123
  0
VERTEX
  8
LAYER_1
 10
333.9677
 20
52.197
  0
VERTEX
  8
LAYER_1
 10
333.9677
 20
52.2817
  0
VERTEX
  8
LAYER_1
 10
334.0523
 20
52.2817
  0
VERTEX
  8
LAYER_1
 10
334.0523
 20
52.3663
  0
VERTEX
  8
LAYER_1
 10
334.137
 20
52.3663
  0
SEQEND
  0
POLYLINE
  8
LAYER_1
 40
0.05
 41
0.05
 66
1
 10
0
 20
0
 30
0
 70
1
  0
VERTEX
  8
LAYER_1
 10
334.2005
 20
52.3875
  0
VERTEX
  8
LAYER_1
 10
334.2852
 20
52.3875
  0
VERTEX
  8
LAYER_1
 10
334.2852
 20
52.3028
  0
VERTEX
  8
LAYER_1
 10
334.3698
 20
52.3028
  0
VERTEX
  8
LAYER_1
 10
334.3698
 20
52.2182
  0
VERTEX
  8
LAYER_1
 10
334.4545
 20
52.2182
  0
VERTEX
  8
LAYER_1
 10
334.4545
 20
52.1335
  0
VERTEX
  8
LAYER_1
 10
334.4545
 20
52.0488
  0
VERTEX
  8
LAYER_1
 10
334.3698
 20
52.0488
  0
VERTEX
  8
LAYER_1
 10
334.3698
 20
51.9642
  0
VERTEX
  8
LAYER_1
 10
334.2852
 20
51.9642
  0
VERTEX
  8
LAYER_1
 10
334.2852
 20
51.8795
  0
VERTEX
  8
LAYER_1
 10
334.2005
 20
51.8795
  0
VERTEX
  8
LAYER_1
 10
334.1158
 20
51.8795
  0
VERTEX
  8
LAYER_1
 10
334.0312
 20
51.8795
  0
VERTEX
  8
LAYER_1
 10
334.0312
 20
51.9642
  0
VERTEX
  8
LAYER_1
 10
333.9465
 20
51.9642
  0
VERTEX
  8
LAYER_1
 10
333.9465
 20
52.0488
  0
VERTEX
  8
LAYER_1
 10
333.9465
 20
52.1335
  0
VERTEX
  8
LAYER_1
 10
333.9465
 20
52.2182
  0
VERTEX
  8
LAYER_1
 10
333.9465
 20
52.3028
  0
VERTEX
  8
LAYER_1
 10
334.0312
 20
52.3028
  0
VERTEX
  8
LAYER_1
 10
334.0312
 20
52.3875
  0
VERTEX
  8
LAYER_1
 10
334.1158
 20
52.3875
  0
SEQEND
  0
POLYLINE
  8
LAYER_1
 40
0.0811
 41
0.0811
 66
1
 10
0
 20
0
 30
0
 70
1
  0
VERTEX
  8
LAYER_1
 10
334.2217
 20
52.3663
  0
VERTEX
  8
LAYER_1
 10
334.3063
 20
52.3663
  0
VERTEX
  8
LAYER_1
 10
334.3063
 20
52.2817
  0
VERTEX
  8
LAYER_1
 10
334.391
 20
52.2817
  0
VERTEX
  8
LAYER_1
 10
334.391
 20
52.197
  0
VERTEX
  8
LAYER_1
 10
334.4757
 20
52.197
  0
VERTEX
  8
LAYER_1
 10
334.4757
 20
52.1123
  0
VERTEX
  8
LAYER_1
 10
334.4757
 20
52.0277
  0
VERTEX
  8
LAYER_1
 10
334.391
 20
52.0277
  0
VERTEX
  8
LAYER_1
 10
334.391
 20
51.943
  0
VERTEX
  8
LAYER_1
 10
334.3063
 20
51.943
  0
VERTEX
  8
LAYER_1
 10
334.3063
 20
51.8583
  0
VERTEX
  8
LAYER_1
 10
334.2217
 20
51.8583
  0
VERTEX
  8
LAYER_1
 10
334.137
 20
51.8583
  0
VERTEX
  8
LAYER_1
 10
334.0523
 20
51.8583
  0
VERTEX
  8
LAYER_1
 10
334.0523
 20
51.943
  0
VERTEX
  8
LAYER_1
 10
333.9677
 20
51.943
  0
VERTEX
  8
LAYER_1
 10
333.9677
 20
52.0277
  0
VERTEX
  8
LAYER_1
 10
333.9677
 20
52.1123
  0
VERTEX
  8
LAYER_1
 10
333.9677
 20
52.197
  0
VERTEX
  8
LAYER_1
 10
333.9677
 20
52.2817
  0
VERTEX
  8
LAYER_1
 10
334.0523
 20
52.2817
  0
VERTEX
  8
LAYER_1
 10
334.0523
 20
52.3663
  0
VERTEX
  8
LAYER_1
 10
334.137
 20
52.3663
  0
SEQEND
  0
POLYLINE
  8
LAYER_1
 40
0.05
 41
0.05
 62
255
 66
1
 10
0
 20
0
 30
0
 70
1
  0
VERTEX
  8
LAYER_1
 10
329.7132
 20
138.7475
  0
VERTEX
  8
LAYER_1
 10
329.7132
 20
143.4888
  0
VERTEX
  8
LAYER_1
 10
332.9305
 20
143.4888
  0
VERTEX
  8
LAYER_1
 10
332.9305
 20
138.7475
  0
SEQEND
  0
TEXT
  8
LAYER_1
 10
332.3859
 20
138.7264
 11
332.3859
 21
138.7264
 40
3.4028
 41
0.5
 50
89.99999999
  1
890
  0
POLYLINE
  8
LAYER_1
 40
0.1764
 41
0.1764
 66
1
 10
0
 20
0
 30
0
  0
VERTEX
  8
LAYER_1
 10
319.4897
 20
231.0976
  0
VERTEX
  8
LAYER_1
 10
334.2217
 20
231.0976
  0
SEQEND
  0
POLYLINE
  8
LAYER_1
 40
0.1764
 41
0.1764
 66
1
 10
0
 20
0
 30
0
  0
VERTEX
  8
LAYER_1
 10
321.2677
 20
230.0816
  0
VERTEX
  8
LAYER_1
 10
334.2217
 20
230.0816
  0
SEQEND
  0
POLYLINE
  8
LAYER_1
 40
0.1764
 41
0.1764
 66
1
 10
0
 20
0
 30
0
  0
VERTEX
  8
LAYER_1
 10
334.2217
 20
231.0976
  0
VERTEX
  8
LAYER_1
 10
334.2217
 20
230.0816
  0
SEQEND
  0
POLYLINE
  8
LAYER_1
 40
0.1764
 41
0.1764
 66
1
 10
0
 20
0
 30
0
 70
1
  0
VERTEX
  8
LAYER_1
 10
334.2217
 20
230.8436
  0
VERTEX
  8
LAYER_1
 10
334.137
 20
230.8436
  0
VERTEX
  8
LAYER_1
 10
334.137
 20
230.9283
  0
VERTEX
  8
LAYER_1
 10
334.0523
 20
230.9283
  0
VERTEX
  8
LAYER_1
 10
333.9677
 20
230.9283
  0
VERTEX
  8
LAYER_1
 10
333.9677
 20
231.013
  0
VERTEX
  8
LAYER_1
 10
333.9677
 20
231.0976
  0
VERTEX
  8
LAYER_1
 10
333.9677
 20
231.1823
  0
VERTEX
  8
LAYER_1
 10
333.9677
 20
231.267
  0
VERTEX
  8
LAYER_1
 10
334.0523
 20
231.267
  0
VERTEX
  8
LAYER_1
 10
334.0523
 20
231.3516
  0
VERTEX
  8
LAYER_1
 10
334.137
 20
231.3516
  0
VERTEX
  8
LAYER_1
 10
334.2217
 20
231.3516
  0
VERTEX
  8
LAYER_1
 10
334.3063
 20
231.3516
  0
VERTEX
  8
LAYER_1
 10
334.391
 20
231.3516
  0
VERTEX
  8
LAYER_1
 10
334.391
 20
231.267
  0
VERTEX
  8
LAYER_1
 10
334.391
 20
231.1823
  0
VERTEX
  8
LAYER_1
 10
334.4757
 20
231.1823
  0
VERTEX
  8
LAYER_1
 10
334.4757
 20
231.0976
  0
VERTEX
  8
LAYER_1
 10
334.391
 20
231.013
  0
VERTEX
  8
LAYER_1
 10
334.391
 20
230.9283
  0
VERTEX
  8
LAYER_1
 10
334.3063
 20
230.9283
  0
VERTEX
  8
LAYER_1
 10
334.3063
 20
230.8436
  0
SEQEND
  0
POLYLINE
  8
LAYER_1
 40
0.05
 41
0.05
 66
1
 10
0
 20
0
 30
0
 70
1
  0
VERTEX
  8
LAYER_1
 10
334.2005
 20
230.8648
  0
VERTEX
  8
LAYER_1
 10
334.1158
 20
230.8648
  0
VERTEX
  8
LAYER_1
 10
334.1158
 20
230.9495
  0
VERTEX
  8
LAYER_1
 10
334.0312
 20
230.9495
  0
VERTEX
  8
LAYER_1
 10
333.9465
 20
230.9495
  0
VERTEX
  8
LAYER_1
 10
333.9465
 20
231.0342
  0
VERTEX
  8
LAYER_1
 10
333.9465
 20
231.1188
  0
VERTEX
  8
LAYER_1
 10
333.9465
 20
231.2035
  0
VERTEX
  8
LAYER_1
 10
333.9465
 20
231.2881
  0
VERTEX
  8
LAYER_1
 10
334.0312
 20
231.2881
  0
VERTEX
  8
LAYER_1
 10
334.0312
 20
231.3728
  0
VERTEX
  8
LAYER_1
 10
334.1158
 20
231.3728
  0
VERTEX
  8
LAYER_1
 10
334.2005
 20
231.3728
  0
VERTEX
  8
LAYER_1
 10
334.2852
 20
231.3728
  0
VERTEX
  8
LAYER_1
 10
334.3698
 20
231.3728
  0
VERTEX
  8
LAYER_1
 10
334.3698
 20
231.2881
  0
VERTEX
  8
LAYER_1
 10
334.3698
 20
231.2035
  0
VERTEX
  8
LAYER_1
 10
334.4545
 20
231.2035
  0
VERTEX
  8
LAYER_1
 10
334.4545
 20
231.1188
  0
VERTEX
  8
LAYER_1
 10
334.3698
 20
231.0342
  0
VERTEX
  8
LAYER_1
 10
334.3698
 20
230.9495
  0
VERTEX
  8
LAYER_1
 10
334.2852
 20
230.9495
  0
VERTEX
  8
LAYER_1
 10
334.2852
 20
230.8648
  0
SEQEND
  0
POLYLINE
  8
LAYER_1
 40
0.0811
 41
0.0811
 66
1
 10
0
 20
0
 30
0
 70
1
  0
VERTEX
  8
LAYER_1
 10
334.2217
 20
230.8436
  0
VERTEX
  8
LAYER_1
 10
334.137
 20
230.8436
  0
VERTEX
  8
LAYER_1
 10
334.137
 20
230.9283
  0
VERTEX
  8
LAYER_1
 10
334.0523
 20
230.9283
  0
VERTEX
  8
LAYER_1
 10
333.9677
 20
230.9283
  0
VERTEX
  8
LAYER_1
 10
333.9677
 20
231.013
  0
VERTEX
  8
LAYER_1
 10
333.9677
 20
231.0976
  0
VERTEX
  8
LAYER_1
 10
333.9677
 20
231.1823
  0
VERTEX
  8
LAYER_1
 10
333.9677
 20
231.267
  0
VERTEX
  8
LAYER_1
 10
334.0523
 20
231.267
  0
VERTEX
  8
LAYER_1
 10
334.0523
 20
231.3516
  0
VERTEX
  8
LAYER_1
 10
334.137
 20
231.3516
  0
VERTEX
  8
LAYER_1
 10
334.2217
 20
231.3516
  0
VERTEX
  8
LAYER_1
 10
334.3063
 20
231.3516
  0
VERTEX
  8
LAYER_1
 10
334.391
 20
231.3516
  0
VERTEX
  8
LAYER_1
 10
334.391
 20
231.267
  0
VERTEX
  8
LAYER_1
 10
334.391
 20
231.1823
  0
VERTEX
  8
LAYER_1
 10
334.4757
 20
231.1823
  0
VERTEX
  8
LAYER_1
 10
334.4757
 20
231.0976
  0
VERTEX
  8
LAYER_1
 10
334.391
 20
231.013
  0
VERTEX
  8
LAYER_1
 10
334.391
 20
230.9283
  0
VERTEX
  8
LAYER_1
 10
334.3063
 20
230.9283
  0
VERTEX
  8
LAYER_1
 10
334.3063
 20
230.8436
  0
SEQEND
  0
POLYLINE
  8
LAYER_1
 40
0.1764
 41
0.1764
 66
1
 10
0
 20
0
 30
0
 70
1
  0
VERTEX
  8
LAYER_1
 10
334.2217
 20
230.3356
  0
VERTEX
  8
LAYER_1
 10
334.3063
 20
230.3356
  0
VERTEX
  8
LAYER_1
 10
334.391
 20
230.3356
  0
VERTEX
  8
LAYER_1
 10
334.391
 20
230.251
  0
VERTEX
  8
LAYER_1
 10
334.391
 20
230.1663
  0
VERTEX
  8
LAYER_1
 10
334.4757
 20
230.1663
  0
VERTEX
  8
LAYER_1
 10
334.4757
 20
230.0816
  0
VERTEX
  8
LAYER_1
 10
334.391
 20
230.0816
  0
VERTEX
  8
LAYER_1
 10
334.391
 20
229.997
  0
VERTEX
  8
LAYER_1
 10
334.391
 20
229.9123
  0
VERTEX
  8
LAYER_1
 10
334.3063
 20
229.9123
  0
VERTEX
  8
LAYER_1
 10
334.2217
 20
229.9123
  0
VERTEX
  8
LAYER_1
 10
334.2217
 20
229.8276
  0
VERTEX
  8
LAYER_1
 10
334.137
 20
229.8276
  0
VERTEX
  8
LAYER_1
 10
334.137
 20
229.9123
  0
VERTEX
  8
LAYER_1
 10
334.0523
 20
229.9123
  0
VERTEX
  8
LAYER_1
 10
333.9677
 20
229.9123
  0
VERTEX
  8
LAYER_1
 10
333.9677
 20
229.997
  0
VERTEX
  8
LAYER_1
 10
333.9677
 20
230.0816
  0
VERTEX
  8
LAYER_1
 10
333.9677
 20
230.1663
  0
VERTEX
  8
LAYER_1
 10
333.9677
 20
230.251
  0
VERTEX
  8
LAYER_1
 10
334.0523
 20
230.3356
  0
VERTEX
  8
LAYER_1
 10
334.137
 20
230.3356
  0
SEQEND
  0
POLYLINE
  8
LAYER_1
 40
0.05
 41
0.05
 66
1
 10
0
 20
0
 30
0
 70
1
  0
VERTEX
  8
LAYER_1
 10
334.2005
 20
230.3568
  0
VERTEX
  8
LAYER_1
 10
334.2852
 20
230.3568
  0
VERTEX
  8
LAYER_1
 10
334.3698
 20
230.3568
  0
VERTEX
  8
LAYER_1
 10
334.3698
 20
230.2721
  0
VERTEX
  8
LAYER_1
 10
334.3698
 20
230.1875
  0
VERTEX
  8
LAYER_1
 10
334.4545
 20
230.1875
  0
VERTEX
  8
LAYER_1
 10
334.4545
 20
230.1028
  0
VERTEX
  8
LAYER_1
 10
334.3698
 20
230.1028
  0
VERTEX
  8
LAYER_1
 10
334.3698
 20
230.0182
  0
VERTEX
  8
LAYER_1
 10
334.3698
 20
229.9335
  0
VERTEX
  8
LAYER_1
 10
334.2852
 20
229.9335
  0
VERTEX
  8
LAYER_1
 10
334.2005
 20
229.9335
  0
VERTEX
  8
LAYER_1
 10
334.2005
 20
229.8488
  0
VERTEX
  8
LAYER_1
 10
334.1158
 20
229.8488
  0
VERTEX
  8
LAYER_1
 10
334.1158
 20
229.9335
  0
VERTEX
  8
LAYER_1
 10
334.0312
 20
229.9335
  0
VERTEX
  8
LAYER_1
 10
333.9465
 20
229.9335
  0
VERTEX
  8
LAYER_1
 10
333.9465
 20
230.0182
  0
VERTEX
  8
LAYER_1
 10
333.9465
 20
230.1028
  0
VERTEX
  8
LAYER_1
 10
333.9465
 20
230.1875
  0
VERTEX
  8
LAYER_1
 10
333.9465
 20
230.2721
  0
VERTEX
  8
LAYER_1
 10
334.0312
 20
230.3568
  0
VERTEX
  8
LAYER_1
 10
334.1158
 20
230.3568
  0
SEQEND
  0
POLYLINE
  8
LAYER_1
 40
0.0811
 41
0.0811
 66
1
 10
0
 20
0
 30
0
 70
1
  0
VERTEX
  8
LAYER_1
 10
334.2217
 20
230.3356
  0
VERTEX
  8
LAYER_1
 10
334.3063
 20
230.3356
  0
VERTEX
  8
LAYER_1
 10
334.391
 20
230.3356
  0
VERTEX
  8
LAYER_1
 10
334.391
 20
230.251
  0
VERTEX
  8
LAYER_1
 10
334.391
 20
230.1663
  0
VERTEX
  8
LAYER_1
 10
334.4757
 20
230.1663
  0
VERTEX
  8
LAYER_1
 10
334.4757
 20
230.0816
  0
VERTEX
  8
LAYER_1
 10
334.391
 20
230.0816
  0
VERTEX
  8
LAYER_1
 10
334.391
 20
229.997
  0
VERTEX
  8
LAYER_1
 10
334.391
 20
229.9123
  0
VERTEX
  8
LAYER_1
 10
334.3063
 20
229.9123
  0
VERTEX
  8
LAYER_1
 10
334.2217
 20
229.9123
  0
VERTEX
  8
LAYER_1
 10
334.2217
 20
229.8276
  0
VERTEX
  8
LAYER_1
 10
334.137
 20
229.8276
  0
VERTEX
  8
LAYER_1
 10
334.137
 20
229.9123
  0
VERTEX
  8
LAYER_1
 10
334.0523
 20
229.9123
  0
VERTEX
  8
LAYER_1
 10
333.9677
 20
229.9123
  0
VERTEX
  8
LAYER_1
 10
333.9677
 20
229.997
  0
VERTEX
  8
LAYER_1
 10
333.9677
 20
230.0816
  0
VERTEX
  8
LAYER_1
 10
333.9677
 20
230.1663
  0
VERTEX
  8
LAYER_1
 10
333.9677
 20
230.251
  0
VERTEX
  8
LAYER_1
 10
334.0523
 20
230.3356
  0
VERTEX
  8
LAYER_1
 10
334.137
 20
230.3356
  0
SEQEND
  0
POLYLINE
  8
LAYER_1
 40
0.05
 41
0.05
 62
255
 66
1
 10
0
 20
0
 30
0
 70
1
  0
VERTEX
  8
LAYER_1
 10
329.7132
 20
229.8488
  0
VERTEX
  8
LAYER_1
 10
329.7132
 20
231.4575
  0
VERTEX
  8
LAYER_1
 10
332.9305
 20
231.4575
  0
VERTEX
  8
LAYER_1
 10
332.9305
 20
229.8488
  0
SEQEND
  0
TEXT
  8
LAYER_1
 10
332.3859
 20
229.8277
 11
332.3859
 21
229.8277
 40
3.4028
 41
0.5
 50
89.99999999
  1
5
  0
POLYLINE
  8
LAYER_1
 40
0.1764
 41
0.1764
 66
1
 10
0
 20
0
 30
0
  0
VERTEX
  8
LAYER_1
 10
230.4203
 20
231.0976
  0
VERTEX
  8
LAYER_1
 10
250.825
 20
231.0976
  0
SEQEND
  0
POLYLINE
  8
LAYER_1
 40
0.1764
 41
0.1764
 66
1
 10
0
 20
0
 30
0
  0
VERTEX
  8
LAYER_1
 10
230.4203
 20
51.0963
  0
VERTEX
  8
LAYER_1
 10
250.825
 20
51.0963
  0
SEQEND
  0
POLYLINE
  8
LAYER_1
 40
0.1764
 41
0.1764
 66
1
 10
0
 20
0
 30
0
  0
VERTEX
  8
LAYER_1
 10
250.825
 20
231.0976
  0
VERTEX
  8
LAYER_1
 10
250.825
 20
51.0963
  0
SEQEND
  0
POLYLINE
  8
LAYER_1
 40
0.1764
 41
0.1764
 66
1
 10
0
 20
0
 30
0
 70
1
  0
VERTEX
  8
LAYER_1
 10
250.825
 20
230.8436
  0
VERTEX
  8
LAYER_1
 10
250.7403
 20
230.8436
  0
VERTEX
  8
LAYER_1
 10
250.6557
 20
230.9283
  0
VERTEX
  8
LAYER_1
 10
250.571
 20
230.9283
  0
VERTEX
  8
LAYER_1
 10
250.571
 20
231.013
  0
VERTEX
  8
LAYER_1
 10
250.571
 20
231.0976
  0
VERTEX
  8
LAYER_1
 10
250.571
 20
231.1823
  0
VERTEX
  8
LAYER_1
 10
250.571
 20
231.267
  0
VERTEX
  8
LAYER_1
 10
250.6557
 20
231.267
  0
VERTEX
  8
LAYER_1
 10
250.6557
 20
231.3516
  0
VERTEX
  8
LAYER_1
 10
250.7403
 20
231.3516
  0
VERTEX
  8
LAYER_1
 10
250.825
 20
231.3516
  0
VERTEX
  8
LAYER_1
 10
250.9097
 20
231.3516
  0
VERTEX
  8
LAYER_1
 10
250.9943
 20
231.267
  0
VERTEX
  8
LAYER_1
 10
250.9943
 20
231.1823
  0
VERTEX
  8
LAYER_1
 10
251.079
 20
231.1823
  0
VERTEX
  8
LAYER_1
 10
251.079
 20
231.0976
  0
VERTEX
  8
LAYER_1
 10
250.9943
 20
231.0976
  0
VERTEX
  8
LAYER_1
 10
250.9943
 20
231.013
  0
VERTEX
  8
LAYER_1
 10
250.9943
 20
230.9283
  0
VERTEX
  8
LAYER_1
 10
250.9097
 20
230.9283
  0
VERTEX
  8
LAYER_1
 10
250.9097
 20
230.8436
  0
SEQEND
  0
POLYLINE
  8
LAYER_1
 40
0.05
 41
0.05
 66
1
 10
0
 20
0
 30
0
 70
1
  0
VERTEX
  8
LAYER_1
 10
250.8038
 20
230.8648
  0
VERTEX
  8
LAYER_1
 10
250.7192
 20
230.8648
  0
VERTEX
  8
LAYER_1
 10
250.6345
 20
230.9495
  0
VERTEX
  8
LAYER_1
 10
250.5498
 20
230.9495
  0
VERTEX
  8
LAYER_1
 10
250.5498
 20
231.0342
  0
VERTEX
  8
LAYER_1
 10
250.5498
 20
231.1188
  0
VERTEX
  8
LAYER_1
 10
250.5498
 20
231.2035
  0
VERTEX
  8
LAYER_1
 10
250.5498
 20
231.2881
  0
VERTEX
  8
LAYER_1
 10
250.6345
 20
231.2881
  0
VERTEX
  8
LAYER_1
 10
250.6345
 20
231.3728
  0
VERTEX
  8
LAYER_1
 10
250.7192
 20
231.3728
  0
VERTEX
  8
LAYER_1
 10
250.8038
 20
231.3728
  0
VERTEX
  8
LAYER_1
 10
250.8885
 20
231.3728
  0
VERTEX
  8
LAYER_1
 10
250.9732
 20
231.2881
  0
VERTEX
  8
LAYER_1
 10
250.9732
 20
231.2035
  0
VERTEX
  8
LAYER_1
 10
251.0578
 20
231.2035
  0
VERTEX
  8
LAYER_1
 10
251.0578
 20
231.1188
  0
VERTEX
  8
LAYER_1
 10
250.9732
 20
231.1188
  0
VERTEX
  8
LAYER_1
 10
250.9732
 20
231.0342
  0
VERTEX
  8
LAYER_1
 10
250.9732
 20
230.9495
  0
VERTEX
  8
LAYER_1
 10
250.8885
 20
230.9495
  0
VERTEX
  8
LAYER_1
 10
250.8885
 20
230.8648
  0
SEQEND
  0
POLYLINE
  8
LAYER_1
 40
0.0811
 41
0.0811
 66
1
 10
0
 20
0
 30
0
 70
1
  0
VERTEX
  8
LAYER_1
 10
250.825
 20
230.8436
  0
VERTEX
  8
LAYER_1
 10
250.7403
 20
230.8436
  0
VERTEX
  8
LAYER_1
 10
250.6557
 20
230.9283
  0
VERTEX
  8
LAYER_1
 10
250.571
 20
230.9283
  0
VERTEX
  8
LAYER_1
 10
250.571
 20
231.013
  0
VERTEX
  8
LAYER_1
 10
250.571
 20
231.0976
  0
VERTEX
  8
LAYER_1
 10
250.571
 20
231.1823
  0
VERTEX
  8
LAYER_1
 10
250.571
 20
231.267
  0
VERTEX
  8
LAYER_1
 10
250.6557
 20
231.267
  0
VERTEX
  8
LAYER_1
 10
250.6557
 20
231.3516
  0
VERTEX
  8
LAYER_1
 10
250.7403
 20
231.3516
  0
VERTEX
  8
LAYER_1
 10
250.825
 20
231.3516
  0
VERTEX
  8
LAYER_1
 10
250.9097
 20
231.3516
  0
VERTEX
  8
LAYER_1
 10
250.9943
 20
231.267
  0
VERTEX
  8
LAYER_1
 10
250.9943
 20
231.1823
  0
VERTEX
  8
LAYER_1
 10
251.079
 20
231.1823
  0
VERTEX
  8
LAYER_1
 10
251.079
 20
231.0976
  0
VERTEX
  8
LAYER_1
 10
250.9943
 20
231.0976
  0
VERTEX
  8
LAYER_1
 10
250.9943
 20
231.013
  0
VERTEX
  8
LAYER_1
 10
250.9943
 20
230.9283
  0
VERTEX
  8
LAYER_1
 10
250.9097
 20
230.9283
  0
VERTEX
  8
LAYER_1
 10
250.9097
 20
230.8436
  0
SEQEND
  0
POLYLINE
  8
LAYER_1
 40
0.1764
 41
0.1764
 66
1
 10
0
 20
0
 30
0
 70
1
  0
VERTEX
  8
LAYER_1
 10
250.825
 20
51.3503
  0
VERTEX
  8
LAYER_1
 10
250.9097
 20
51.3503
  0
VERTEX
  8
LAYER_1
 10
250.9943
 20
51.2657
  0
VERTEX
  8
LAYER_1
 10
250.9943
 20
51.181
  0
VERTEX
  8
LAYER_1
 10
251.079
 20
51.181
  0
VERTEX
  8
LAYER_1
 10
251.079
 20
51.0963
  0
VERTEX
  8
LAYER_1
 10
250.9943
 20
51.0963
  0
VERTEX
  8
LAYER_1
 10
250.9943
 20
51.0117
  0
VERTEX
  8
LAYER_1
 10
250.9943
 20
50.927
  0
VERTEX
  8
LAYER_1
 10
250.9097
 20
50.927
  0
VERTEX
  8
LAYER_1
 10
250.9097
 20
50.8423
  0
VERTEX
  8
LAYER_1
 10
250.825
 20
50.8423
  0
VERTEX
  8
LAYER_1
 10
250.7403
 20
50.8423
  0
VERTEX
  8
LAYER_1
 10
250.6557
 20
50.927
  0
VERTEX
  8
LAYER_1
 10
250.571
 20
50.927
  0
VERTEX
  8
LAYER_1
 10
250.571
 20
51.0117
  0
VERTEX
  8
LAYER_1
 10
250.571
 20
51.0963
  0
VERTEX
  8
LAYER_1
 10
250.571
 20
51.181
  0
VERTEX
  8
LAYER_1
 10
250.571
 20
51.2657
  0
VERTEX
  8
LAYER_1
 10
250.6557
 20
51.2657
  0
VERTEX
  8
LAYER_1
 10
250.6557
 20
51.3503
  0
VERTEX
  8
LAYER_1
 10
250.7403
 20
51.3503
  0
SEQEND
  0
POLYLINE
  8
LAYER_1
 40
0.05
 41
0.05
 66
1
 10
0
 20
0
 30
0
 70
1
  0
VERTEX
  8
LAYER_1
 10
250.8038
 20
51.3715
  0
VERTEX
  8
LAYER_1
 10
250.8885
 20
51.3715
  0
VERTEX
  8
LAYER_1
 10
250.9732
 20
51.2868
  0
VERTEX
  8
LAYER_1
 10
250.9732
 20
51.2022
  0
VERTEX
  8
LAYER_1
 10
251.0578
 20
51.2022
  0
VERTEX
  8
LAYER_1
 10
251.0578
 20
51.1175
  0
VERTEX
  8
LAYER_1
 10
250.9732
 20
51.1175
  0
VERTEX
  8
LAYER_1
 10
250.9732
 20
51.0328
  0
VERTEX
  8
LAYER_1
 10
250.9732
 20
50.9482
  0
VERTEX
  8
LAYER_1
 10
250.8885
 20
50.9482
  0
VERTEX
  8
LAYER_1
 10
250.8885
 20
50.8635
  0
VERTEX
  8
LAYER_1
 10
250.8038
 20
50.8635
  0
VERTEX
  8
LAYER_1
 10
250.7192
 20
50.8635
  0
VERTEX
  8
LAYER_1
 10
250.6345
 20
50.9482
  0
VERTEX
  8
LAYER_1
 10
250.5498
 20
50.9482
  0
VERTEX
  8
LAYER_1
 10
250.5498
 20
51.0328
  0
VERTEX
  8
LAYER_1
 10
250.5498
 20
51.1175
  0
VERTEX
  8
LAYER_1
 10
250.5498
 20
51.2022
  0
VERTEX
  8
LAYER_1
 10
250.5498
 20
51.2868
  0
VERTEX
  8
LAYER_1
 10
250.6345
 20
51.2868
  0
VERTEX
  8
LAYER_1
 10
250.6345
 20
51.3715
  0
VERTEX
  8
LAYER_1
 10
250.7192
 20
51.3715
  0
SEQEND
  0
POLYLINE
  8
LAYER_1
 40
0.0811
 41
0.0811
 66
1
 10
0
 20
0
 30
0
 70
1
  0
VERTEX
  8
LAYER_1
 10
250.825
 20
51.3503
  0
VERTEX
  8
LAYER_1
 10
250.9097
 20
51.3503
  0
VERTEX
  8
LAYER_1
 10
250.9943
 20
51.2657
  0
VERTEX
  8
LAYER_1
 10
250.9943
 20
51.181
  0
VERTEX
  8
LAYER_1
 10
251.079
 20
51.181
  0
VERTEX
  8
LAYER_1
 10
251.079
 20
51.0963
  0
VERTEX
  8
LAYER_1
 10
250.9943
 20
51.0963
  0
VERTEX
  8
LAYER_1
 10
250.9943
 20
51.0117
  0
VERTEX
  8
LAYER_1
 10
250.9943
 20
50.927
  0
VERTEX
  8
LAYER_1
 10
250.9097
 20
50.927
  0
VERTEX
  8
LAYER_1
 10
250.9097
 20
50.8423
  0
VERTEX
  8
LAYER_1
 10
250.825
 20
50.8423
  0
VERTEX
  8
LAYER_1
 10
250.7403
 20
50.8423
  0
VERTEX
  8
LAYER_1
 10
250.6557
 20
50.927
  0
VERTEX
  8
LAYER_1
 10
250.571
 20
50.927
  0
VERTEX
  8
LAYER_1
 10
250.571
 20
51.0117
  0
VERTEX
  8
LAYER_1
 10
250.571
 20
51.0963
  0
VERTEX
  8
LAYER_1
 10
250.571
 20
51.181
  0
VERTEX
  8
LAYER_1
 10
250.571
 20
51.2657
  0
VERTEX
  8
LAYER_1
 10
250.6557
 20
51.2657
  0
VERTEX
  8
LAYER_1
 10
250.6557
 20
51.3503
  0
VERTEX
  8
LAYER_1
 10
250.7403
 20
51.3503
  0
SEQEND
  0
POLYLINE
  8
LAYER_1
 40
0.05
 41
0.05
 62
255
 66
1
 10
0
 20
0
 30
0
 70
1
  0
VERTEX
  8
LAYER_1
 10
246.3165
 20
138.7475
  0
VERTEX
  8
LAYER_1
 10
246.3165
 20
143.4888
  0
VERTEX
  8
LAYER_1
 10
249.5338
 20
143.4888
  0
VERTEX
  8
LAYER_1
 10
249.5338
 20
138.7475
  0
SEQEND
  0
TEXT
  8
LAYER_1
 10
248.9895
 20
138.7264
 11
248.9895
 21
138.7264
 40
3.4028
 41
0.5
 50
89.99999999
  1
900
  0
POLYLINE
  8
LAYER_1
 40
0.1764
 41
0.1764
 66
1
 10
0
 20
0
 30
0
  0
VERTEX
  8
LAYER_1
 10
102.4043
 20
234.1456
  0
VERTEX
  8
LAYER_1
 10
102.4043
 20
246.507
  0
SEQEND
  0
POLYLINE
  8
LAYER_1
 40
0.1764
 41
0.1764
 66
1
 10
0
 20
0
 30
0
  0
VERTEX
  8
LAYER_1
 10
210.3543
 20
234.1456
  0
VERTEX
  8
LAYER_1
 10
210.3543
 20
246.507
  0
SEQEND
  0
POLYLINE
  8
LAYER_1
 40
0.1764
 41
0.1764
 66
1
 10
0
 20
0
 30
0
  0
VERTEX
  8
LAYER_1
 10
102.4043
 20
246.507
  0
VERTEX
  8
LAYER_1
 10
210.3543
 20
246.507
  0
SEQEND
  0
POLYLINE
  8
LAYER_1
 40
0.1764
 41
0.1764
 66
1
 10
0
 20
0
 30
0
 70
1
  0
VERTEX
  8
LAYER_1
 10
102.6583
 20
246.507
  0
VERTEX
  8
LAYER_1
 10
102.6583
 20
246.4223
  0
VERTEX
  8
LAYER_1
 10
102.5737
 20
246.4223
  0
VERTEX
  8
LAYER_1
 10
102.5737
 20
246.3376
  0
VERTEX
  8
LAYER_1
 10
102.489
 20
246.3376
  0
VERTEX
  8
LAYER_1
 10
102.489
 20
246.253
  0
VERTEX
  8
LAYER_1
 10
102.4043
 20
246.253
  0
VERTEX
  8
LAYER_1
 10
102.3197
 20
246.253
  0
VERTEX
  8
LAYER_1
 10
102.235
 20
246.3376
  0
VERTEX
  8
LAYER_1
 10
102.1503
 20
246.3376
  0
VERTEX
  8
LAYER_1
 10
102.1503
 20
246.4223
  0
VERTEX
  8
LAYER_1
 10
102.1503
 20
246.507
  0
VERTEX
  8
LAYER_1
 10
102.1503
 20
246.5916
  0
VERTEX
  8
LAYER_1
 10
102.1503
 20
246.6763
  0
VERTEX
  8
LAYER_1
 10
102.235
 20
246.6763
  0
VERTEX
  8
LAYER_1
 10
102.235
 20
246.761
  0
VERTEX
  8
LAYER_1
 10
102.3197
 20
246.761
  0
VERTEX
  8
LAYER_1
 10
102.4043
 20
246.761
  0
VERTEX
  8
LAYER_1
 10
102.489
 20
246.761
  0
VERTEX
  8
LAYER_1
 10
102.5737
 20
246.761
  0
VERTEX
  8
LAYER_1
 10
102.5737
 20
246.6763
  0
VERTEX
  8
LAYER_1
 10
102.6583
 20
246.5916
  0
SEQEND
  0
POLYLINE
  8
LAYER_1
 40
0.05
 41
0.05
 66
1
 10
0
 20
0
 30
0
 70
1
  0
VERTEX
  8
LAYER_1
 10
102.6372
 20
246.5281
  0
VERTEX
  8
LAYER_1
 10
102.6372
 20
246.4435
  0
VERTEX
  8
LAYER_1
 10
102.5525
 20
246.4435
  0
VERTEX
  8
LAYER_1
 10
102.5525
 20
246.3588
  0
VERTEX
  8
LAYER_1
 10
102.4678
 20
246.3588
  0
VERTEX
  8
LAYER_1
 10
102.4678
 20
246.2741
  0
VERTEX
  8
LAYER_1
 10
102.3832
 20
246.2741
  0
VERTEX
  8
LAYER_1
 10
102.2985
 20
246.2741
  0
VERTEX
  8
LAYER_1
 10
102.2138
 20
246.3588
  0
VERTEX
  8
LAYER_1
 10
102.1292
 20
246.3588
  0
VERTEX
  8
LAYER_1
 10
102.1292
 20
246.4435
  0
VERTEX
  8
LAYER_1
 10
102.1292
 20
246.5281
  0
VERTEX
  8
LAYER_1
 10
102.1292
 20
246.6128
  0
VERTEX
  8
LAYER_1
 10
102.1292
 20
246.6975
  0
VERTEX
  8
LAYER_1
 10
102.2138
 20
246.6975
  0
VERTEX
  8
LAYER_1
 10
102.2138
 20
246.7821
  0
VERTEX
  8
LAYER_1
 10
102.2985
 20
246.7821
  0
VERTEX
  8
LAYER_1
 10
102.3832
 20
246.7821
  0
VERTEX
  8
LAYER_1
 10
102.4678
 20
246.7821
  0
VERTEX
  8
LAYER_1
 10
102.5525
 20
246.7821
  0
VERTEX
  8
LAYER_1
 10
102.5525
 20
246.6975
  0
VERTEX
  8
LAYER_1
 10
102.6372
 20
246.6128
  0
SEQEND
  0
POLYLINE
  8
LAYER_1
 40
0.0811
 41
0.0811
 66
1
 10
0
 20
0
 30
0
 70
1
  0
VERTEX
  8
LAYER_1
 10
102.6583
 20
246.507
  0
VERTEX
  8
LAYER_1
 10
102.6583
 20
246.4223
  0
VERTEX
  8
LAYER_1
 10
102.5737
 20
246.4223
  0
VERTEX
  8
LAYER_1
 10
102.5737
 20
246.3376
  0
VERTEX
  8
LAYER_1
 10
102.489
 20
246.3376
  0
VERTEX
  8
LAYER_1
 10
102.489
 20
246.253
  0
VERTEX
  8
LAYER_1
 10
102.4043
 20
246.253
  0
VERTEX
  8
LAYER_1
 10
102.3197
 20
246.253
  0
VERTEX
  8
LAYER_1
 10
102.235
 20
246.3376
  0
VERTEX
  8
LAYER_1
 10
102.1503
 20
246.3376
  0
VERTEX
  8
LAYER_1
 10
102.1503
 20
246.4223
  0
VERTEX
  8
LAYER_1
 10
102.1503
 20
246.507
  0
VERTEX
  8
LAYER_1
 10
102.1503
 20
246.5916
  0
VERTEX
  8
LAYER_1
 10
102.1503
 20
246.6763
  0
VERTEX
  8
LAYER_1
 10
102.235
 20
246.6763
  0
VERTEX
  8
LAYER_1
 10
102.235
 20
246.761
  0
VERTEX
  8
LAYER_1
 10
102.3197
 20
246.761
  0
VERTEX
  8
LAYER_1
 10
102.4043
 20
246.761
  0
VERTEX
  8
LAYER_1
 10
102.489
 20
246.761
  0
VERTEX
  8
LAYER_1
 10
102.5737
 20
246.761
  0
VERTEX
  8
LAYER_1
 10
102.5737
 20
246.6763
  0
VERTEX
  8
LAYER_1
 10
102.6583
 20
246.5916
  0
SEQEND
  0
POLYLINE
  8
LAYER_1
 40
0.1764
 41
0.1764
 66
1
 10
0
 20
0
 30
0
 70
1
  0
VERTEX
  8
LAYER_1
 10
210.1003
 20
246.507
  0
VERTEX
  8
LAYER_1
 10
210.185
 20
246.507
  0
VERTEX
  8
LAYER_1
 10
210.185
 20
246.5916
  0
VERTEX
  8
LAYER_1
 10
210.185
 20
246.6763
  0
VERTEX
  8
LAYER_1
 10
210.2697
 20
246.6763
  0
VERTEX
  8
LAYER_1
 10
210.2697
 20
246.761
  0
VERTEX
  8
LAYER_1
 10
210.3543
 20
246.761
  0
VERTEX
  8
LAYER_1
 10
210.439
 20
246.761
  0
VERTEX
  8
LAYER_1
 10
210.5237
 20
246.761
  0
VERTEX
  8
LAYER_1
 10
210.5237
 20
246.6763
  0
VERTEX
  8
LAYER_1
 10
210.6083
 20
246.6763
  0
VERTEX
  8
LAYER_1
 10
210.6083
 20
246.5916
  0
VERTEX
  8
LAYER_1
 10
210.6083
 20
246.507
  0
VERTEX
  8
LAYER_1
 10
210.6083
 20
246.4223
  0
VERTEX
  8
LAYER_1
 10
210.6083
 20
246.3376
  0
VERTEX
  8
LAYER_1
 10
210.5237
 20
246.3376
  0
VERTEX
  8
LAYER_1
 10
210.5237
 20
246.253
  0
VERTEX
  8
LAYER_1
 10
210.439
 20
246.253
  0
VERTEX
  8
LAYER_1
 10
210.3543
 20
246.253
  0
VERTEX
  8
LAYER_1
 10
210.2697
 20
246.253
  0
VERTEX
  8
LAYER_1
 10
210.2697
 20
246.3376
  0
VERTEX
  8
LAYER_1
 10
210.185
 20
246.3376
  0
VERTEX
  8
LAYER_1
 10
210.185
 20
246.4223
  0
VERTEX
  8
LAYER_1
 10
210.185
 20
246.507
  0
SEQEND
  0
POLYLINE
  8
LAYER_1
 40
0.05
 41
0.05
 66
1
 10
0
 20
0
 30
0
 70
1
  0
VERTEX
  8
LAYER_1
 10
210.0792
 20
246.5281
  0
VERTEX
  8
LAYER_1
 10
210.1638
 20
246.5281
  0
VERTEX
  8
LAYER_1
 10
210.1638
 20
246.6128
  0
VERTEX
  8
LAYER_1
 10
210.1638
 20
246.6975
  0
VERTEX
  8
LAYER_1
 10
210.2485
 20
246.6975
  0
VERTEX
  8
LAYER_1
 10
210.2485
 20
246.7821
  0
VERTEX
  8
LAYER_1
 10
210.3332
 20
246.7821
  0
VERTEX
  8
LAYER_1
 10
210.4178
 20
246.7821
  0
VERTEX
  8
LAYER_1
 10
210.5025
 20
246.7821
  0
VERTEX
  8
LAYER_1
 10
210.5025
 20
246.6975
  0
VERTEX
  8
LAYER_1
 10
210.5872
 20
246.6975
  0
VERTEX
  8
LAYER_1
 10
210.5872
 20
246.6128
  0
VERTEX
  8
LAYER_1
 10
210.5872
 20
246.5281
  0
VERTEX
  8
LAYER_1
 10
210.5872
 20
246.4435
  0
VERTEX
  8
LAYER_1
 10
210.5872
 20
246.3588
  0
VERTEX
  8
LAYER_1
 10
210.5025
 20
246.3588
  0
VERTEX
  8
LAYER_1
 10
210.5025
 20
246.2741
  0
VERTEX
  8
LAYER_1
 10
210.4178
 20
246.2741
  0
VERTEX
  8
LAYER_1
 10
210.3332
 20
246.2741
  0
VERTEX
  8
LAYER_1
 10
210.2485
 20
246.2741
  0
VERTEX
  8
LAYER_1
 10
210.2485
 20
246.3588
  0
VERTEX
  8
LAYER_1
 10
210.1638
 20
246.3588
  0
VERTEX
  8
LAYER_1
 10
210.1638
 20
246.4435
  0
VERTEX
  8
LAYER_1
 10
210.1638
 20
246.5281
  0
SEQEND
  0
POLYLINE
  8
LAYER_1
 40
0.0811
 41
0.0811
 66
1
 10
0
 20
0
 30
0
 70
1
  0
VERTEX
  8
LAYER_1
 10
210.1003
 20
246.507
  0
VERTEX
  8
LAYER_1
 10
210.185
 20
246.507
  0
VERTEX
  8
LAYER_1
 10
210.185
 20
246.5916
  0
VERTEX
  8
LAYER_1
 10
210.185
 20
246.6763
  0
VERTEX
  8
LAYER_1
 10
210.2697
 20
246.6763
  0
VERTEX
  8
LAYER_1
 10
210.2697
 20
246.761
  0
VERTEX
  8
LAYER_1
 10
210.3543
 20
246.761
  0
VERTEX
  8
LAYER_1
 10
210.439
 20
246.761
  0
VERTEX
  8
LAYER_1
 10
210.5237
 20
246.761
  0
VERTEX
  8
LAYER_1
 10
210.5237
 20
246.6763
  0
VERTEX
  8
LAYER_1
 10
210.6083
 20
246.6763
  0
VERTEX
  8
LAYER_1
 10
210.6083
 20
246.5916
  0
VERTEX
  8
LAYER_1
 10
210.6083
 20
246.507
  0
VERTEX
  8
LAYER_1
 10
210.6083
 20
246.4223
  0
VERTEX
  8
LAYER_1
 10
210.6083
 20
246.3376
  0
VERTEX
  8
LAYER_1
 10
210.5237
 20
246.3376
  0
VERTEX
  8
LAYER_1
 10
210.5237
 20
246.253
  0
VERTEX
  8
LAYER_1
 10
210.439
 20
246.253
  0
VERTEX
  8
LAYER_1
 10
210.3543
 20
246.253
  0
VERTEX
  8
LAYER_1
 10
210.2697
 20
246.253
  0
VERTEX
  8
LAYER_1
 10
210.2697
 20
246.3376
  0
VERTEX
  8
LAYER_1
 10
210.185
 20
246.3376
  0
VERTEX
  8
LAYER_1
 10
210.185
 20
246.4223
  0
VERTEX
  8
LAYER_1
 10
210.185
 20
246.507
  0
SEQEND
  0
POLYLINE
  8
LAYER_1
 40
0.05
 41
0.05
 62
255
 66
1
 10
0
 20
0
 30
0
 70
1
  0
VERTEX
  8
LAYER_1
 10
154.0298
 20
250.9308
  0
VERTEX
  8
LAYER_1
 10
158.6865
 20
250.9308
  0
VERTEX
  8
LAYER_1
 10
158.6865
 20
247.7135
  0
VERTEX
  8
LAYER_1
 10
154.0298
 20
247.7135
  0
SEQEND
  0
TEXT
  8
LAYER_1
 10
154.0511
 20
248.2579
 11
154.0511
 21
248.2579
 40
3.4028
 41
0.5
  1
540
  0
POLYLINE
  8
LAYER_1
 40
0.1764
 41
0.1764
 66
1
 10
0
 20
0
 30
0
  0
VERTEX
  8
LAYER_1
 10
230.4203
 20
215.0956
  0
VERTEX
  8
LAYER_1
 10
240.157
 20
215.0956
  0
SEQEND
  0
POLYLINE
  8
LAYER_1
 40
0.1764
 41
0.1764
 66
1
 10
0
 20
0
 30
0
  0
VERTEX
  8
LAYER_1
 10
230.4203
 20
67.0983
  0
VERTEX
  8
LAYER_1
 10
240.157
 20
67.0983
  0
SEQEND
  0
POLYLINE
  8
LAYER_1
 40
0.1764
 41
0.1764
 66
1
 10
0
 20
0
 30
0
  0
VERTEX
  8
LAYER_1
 10
240.157
 20
215.0956
  0
VERTEX
  8
LAYER_1
 10
240.157
 20
67.0983
  0
SEQEND
  0
POLYLINE
  8
LAYER_1
 40
0.1764
 41
0.1764
 66
1
 10
0
 20
0
 30
0
 70
1
  0
VERTEX
  8
LAYER_1
 10
240.157
 20
214.8416
  0
VERTEX
  8
LAYER_1
 10
240.0723
 20
214.8416
  0
VERTEX
  8
LAYER_1
 10
240.0723
 20
214.9263
  0
VERTEX
  8
LAYER_1
 10
239.9877
 20
214.9263
  0
VERTEX
  8
LAYER_1
 10
239.9877
 20
215.011
  0
VERTEX
  8
LAYER_1
 10
239.9877
 20
215.0956
  0
VERTEX
  8
LAYER_1
 10
239.903
 20
215.0956
  0
VERTEX
  8
LAYER_1
 10
239.903
 20
215.1803
  0
VERTEX
  8
LAYER_1
 10
239.9877
 20
215.1803
  0
VERTEX
  8
LAYER_1
 10
239.9877
 20
215.265
  0
VERTEX
  8
LAYER_1
 10
240.0723
 20
215.3496
  0
VERTEX
  8
LAYER_1
 10
240.157
 20
215.3496
  0
VERTEX
  8
LAYER_1
 10
240.2417
 20
215.3496
  0
VERTEX
  8
LAYER_1
 10
240.3263
 20
215.3496
  0
VERTEX
  8
LAYER_1
 10
240.3263
 20
215.265
  0
VERTEX
  8
LAYER_1
 10
240.411
 20
215.265
  0
VERTEX
  8
LAYER_1
 10
240.411
 20
215.1803
  0
VERTEX
  8
LAYER_1
 10
240.411
 20
215.0956
  0
VERTEX
  8
LAYER_1
 10
240.411
 20
215.011
  0
VERTEX
  8
LAYER_1
 10
240.411
 20
214.9263
  0
VERTEX
  8
LAYER_1
 10
240.3263
 20
214.9263
  0
VERTEX
  8
LAYER_1
 10
240.2417
 20
214.8416
  0
SEQEND
  0
POLYLINE
  8
LAYER_1
 40
0.05
 41
0.05
 66
1
 10
0
 20
0
 30
0
 70
1
  0
VERTEX
  8
LAYER_1
 10
240.1358
 20
214.8628
  0
VERTEX
  8
LAYER_1
 10
240.0512
 20
214.8628
  0
VERTEX
  8
LAYER_1
 10
240.0512
 20
214.9475
  0
VERTEX
  8
LAYER_1
 10
239.9665
 20
214.9475
  0
VERTEX
  8
LAYER_1
 10
239.9665
 20
215.0321
  0
VERTEX
  8
LAYER_1
 10
239.9665
 20
215.1168
  0
VERTEX
  8
LAYER_1
 10
239.8818
 20
215.1168
  0
VERTEX
  8
LAYER_1
 10
239.8818
 20
215.2015
  0
VERTEX
  8
LAYER_1
 10
239.9665
 20
215.2015
  0
VERTEX
  8
LAYER_1
 10
239.9665
 20
215.2861
  0
VERTEX
  8
LAYER_1
 10
240.0512
 20
215.3708
  0
VERTEX
  8
LAYER_1
 10
240.1358
 20
215.3708
  0
VERTEX
  8
LAYER_1
 10
240.2205
 20
215.3708
  0
VERTEX
  8
LAYER_1
 10
240.3052
 20
215.3708
  0
VERTEX
  8
LAYER_1
 10
240.3052
 20
215.2861
  0
VERTEX
  8
LAYER_1
 10
240.3898
 20
215.2861
  0
VERTEX
  8
LAYER_1
 10
240.3898
 20
215.2015
  0
VERTEX
  8
LAYER_1
 10
240.3898
 20
215.1168
  0
VERTEX
  8
LAYER_1
 10
240.3898
 20
215.0321
  0
VERTEX
  8
LAYER_1
 10
240.3898
 20
214.9475
  0
VERTEX
  8
LAYER_1
 10
240.3052
 20
214.9475
  0
VERTEX
  8
LAYER_1
 10
240.2205
 20
214.8628
  0
SEQEND
  0
POLYLINE
  8
LAYER_1
 40
0.0811
 41
0.0811
 66
1
 10
0
 20
0
 30
0
 70
1
  0
VERTEX
  8
LAYER_1
 10
240.157
 20
214.8416
  0
VERTEX
  8
LAYER_1
 10
240.0723
 20
214.8416
  0
VERTEX
  8
LAYER_1
 10
240.0723
 20
214.9263
  0
VERTEX
  8
LAYER_1
 10
239.9877
 20
214.9263
  0
VERTEX
  8
LAYER_1
 10
239.9877
 20
215.011
  0
VERTEX
  8
LAYER_1
 10
239.9877
 20
215.0956
  0
VERTEX
  8
LAYER_1
 10
239.903
 20
215.0956
  0
VERTEX
  8
LAYER_1
 10
239.903
 20
215.1803
  0
VERTEX
  8
LAYER_1
 10
239.9877
 20
215.1803
  0
VERTEX
  8
LAYER_1
 10
239.9877
 20
215.265
  0
VERTEX
  8
LAYER_1
 10
240.0723
 20
215.3496
  0
VERTEX
  8
LAYER_1
 10
240.157
 20
215.3496
  0
VERTEX
  8
LAYER_1
 10
240.2417
 20
215.3496
  0
VERTEX
  8
LAYER_1
 10
240.3263
 20
215.3496
  0
VERTEX
  8
LAYER_1
 10
240.3263
 20
215.265
  0
VERTEX
  8
LAYER_1
 10
240.411
 20
215.265
  0
VERTEX
  8
LAYER_1
 10
240.411
 20
215.1803
  0
VERTEX
  8
LAYER_1
 10
240.411
 20
215.0956
  0
VERTEX
  8
LAYER_1
 10
240.411
 20
215.011
  0
VERTEX
  8
LAYER_1
 10
240.411
 20
214.9263
  0
VERTEX
  8
LAYER_1
 10
240.3263
 20
214.9263
  0
VERTEX
  8
LAYER_1
 10
240.2417
 20
214.8416
  0
SEQEND
  0
POLYLINE
  8
LAYER_1
 40
0.1764
 41
0.1764
 66
1
 10
0
 20
0
 30
0
 70
1
  0
VERTEX
  8
LAYER_1
 10
240.157
 20
67.3523
  0
VERTEX
  8
LAYER_1
 10
240.2417
 20
67.3523
  0
VERTEX
  8
LAYER_1
 10
240.3263
 20
67.3523
  0
VERTEX
  8
LAYER_1
 10
240.3263
 20
67.2677
  0
VERTEX
  8
LAYER_1
 10
240.411
 20
67.2677
  0
VERTEX
  8
LAYER_1
 10
240.411
 20
67.183
  0
VERTEX
  8
LAYER_1
 10
240.411
 20
67.0983
  0
VERTEX
  8
LAYER_1
 10
240.411
 20
67.0137
  0
VERTEX
  8
LAYER_1
 10
240.411
 20
66.929
  0
VERTEX
  8
LAYER_1
 10
240.3263
 20
66.929
  0
VERTEX
  8
LAYER_1
 10
240.2417
 20
66.8443
  0
VERTEX
  8
LAYER_1
 10
240.157
 20
66.8443
  0
VERTEX
  8
LAYER_1
 10
240.0723
 20
66.8443
  0
VERTEX
  8
LAYER_1
 10
240.0723
 20
66.929
  0
VERTEX
  8
LAYER_1
 10
239.9877
 20
66.929
  0
VERTEX
  8
LAYER_1
 10
239.9877
 20
67.0137
  0
VERTEX
  8
LAYER_1
 10
239.9877
 20
67.0983
  0
VERTEX
  8
LAYER_1
 10
239.903
 20
67.0983
  0
VERTEX
  8
LAYER_1
 10
239.903
 20
67.183
  0
VERTEX
  8
LAYER_1
 10
239.9877
 20
67.183
  0
VERTEX
  8
LAYER_1
 10
239.9877
 20
67.2677
  0
VERTEX
  8
LAYER_1
 10
240.0723
 20
67.3523
  0
SEQEND
  0
POLYLINE
  8
LAYER_1
 40
0.05
 41
0.05
 66
1
 10
0
 20
0
 30
0
 70
1
  0
VERTEX
  8
LAYER_1
 10
240.1358
 20
67.3735
  0
VERTEX
  8
LAYER_1
 10
240.2205
 20
67.3735
  0
VERTEX
  8
LAYER_1
 10
240.3052
 20
67.3735
  0
VERTEX
  8
LAYER_1
 10
240.3052
 20
67.2888
  0
VERTEX
  8
LAYER_1
 10
240.3898
 20
67.2888
  0
VERTEX
  8
LAYER_1
 10
240.3898
 20
67.2042
  0
VERTEX
  8
LAYER_1
 10
240.3898
 20
67.1195
  0
VERTEX
  8
LAYER_1
 10
240.3898
 20
67.0348
  0
VERTEX
  8
LAYER_1
 10
240.3898
 20
66.9502
  0
VERTEX
  8
LAYER_1
 10
240.3052
 20
66.9502
  0
VERTEX
  8
LAYER_1
 10
240.2205
 20
66.8655
  0
VERTEX
  8
LAYER_1
 10
240.1358
 20
66.8655
  0
VERTEX
  8
LAYER_1
 10
240.0512
 20
66.8655
  0
VERTEX
  8
LAYER_1
 10
240.0512
 20
66.9502
  0
VERTEX
  8
LAYER_1
 10
239.9665
 20
66.9502
  0
VERTEX
  8
LAYER_1
 10
239.9665
 20
67.0348
  0
VERTEX
  8
LAYER_1
 10
239.9665
 20
67.1195
  0
VERTEX
  8
LAYER_1
 10
239.8818
 20
67.1195
  0
VERTEX
  8
LAYER_1
 10
239.8818
 20
67.2042
  0
VERTEX
  8
LAYER_1
 10
239.9665
 20
67.2042
  0
VERTEX
  8
LAYER_1
 10
239.9665
 20
67.2888
  0
VERTEX
  8
LAYER_1
 10
240.0512
 20
67.3735
  0
SEQEND
  0
POLYLINE
  8
LAYER_1
 40
0.0811
 41
0.0811
 66
1
 10
0
 20
0
 30
0
 70
1
  0
VERTEX
  8
LAYER_1
 10
240.157
 20
67.3523
  0
VERTEX
  8
LAYER_1
 10
240.2417
 20
67.3523
  0
VERTEX
  8
LAYER_1
 10
240.3263
 20
67.3523
  0
VERTEX
  8
LAYER_1
 10
240.3263
 20
67.2677
  0
VERTEX
  8
LAYER_1
 10
240.411
 20
67.2677
  0
VERTEX
  8
LAYER_1
 10
240.411
 20
67.183
  0
VERTEX
  8
LAYER_1
 10
240.411
 20
67.0983
  0
VERTEX
  8
LAYER_1
 10
240.411
 20
67.0137
  0
VERTEX
  8
LAYER_1
 10
240.411
 20
66.929
  0
VERTEX
  8
LAYER_1
 10
240.3263
 20
66.929
  0
VERTEX
  8
LAYER_1
 10
240.2417
 20
66.8443
  0
VERTEX
  8
LAYER_1
 10
240.157
 20
66.8443
  0
VERTEX
  8
LAYER_1
 10
240.0723
 20
66.8443
  0
VERTEX
  8
LAYER_1
 10
240.0723
 20
66.929
  0
VERTEX
  8
LAYER_1
 10
239.9877
 20
66.929
  0
VERTEX
  8
LAYER_1
 10
239.9877
 20
67.0137
  0
VERTEX
  8
LAYER_1
 10
239.9877
 20
67.0983
  0
VERTEX
  8
LAYER_1
 10
239.903
 20
67.0983
  0
VERTEX
  8
LAYER_1
 10
239.903
 20
67.183
  0
VERTEX
  8
LAYER_1
 10
239.9877
 20
67.183
  0
VERTEX
  8
LAYER_1
 10
239.9877
 20
67.2677
  0
VERTEX
  8
LAYER_1
 10
240.0723
 20
67.3523
  0
SEQEND
  0
POLYLINE
  8
LAYER_1
 40
0.05
 41
0.05
 62
255
 66
1
 10
0
 20
0
 30
0
 70
1
  0
VERTEX
  8
LAYER_1
 10
235.7332
 20
138.7475
  0
VERTEX
  8
LAYER_1
 10
235.7332
 20
143.4888
  0
VERTEX
  8
LAYER_1
 10
238.9505
 20
143.4888
  0
VERTEX
  8
LAYER_1
 10
238.9505
 20
138.7475
  0
SEQEND
  0
TEXT
  8
LAYER_1
 10
238.4061
 20
138.7264
 11
238.4061
 21
138.7264
 40
3.4028
 41
0.5
 50
89.99999999
  1
740
  0
POLYLINE
  8
LAYER_1
 40
0.1764
 41
0.1764
 66
1
 10
0
 20
0
 30
0
  0
VERTEX
  8
LAYER_1
 10
318.4736
 20
232.1136
  0
VERTEX
  8
LAYER_1
 10
318.4736
 20
232.9603
  0
SEQEND
  0
POLYLINE
  8
LAYER_1
 40
0.1764
 41
0.1764
 66
1
 10
0
 20
0
 30
0
  0
VERTEX
  8
LAYER_1
 10
320.3363
 20
232.1136
  0
VERTEX
  8
LAYER_1
 10
320.3363
 20
232.9603
  0
SEQEND
  0
POLYLINE
  8
LAYER_1
 40
0.1764
 41
0.1764
 66
1
 10
0
 20
0
 30
0
  0
VERTEX
  8
LAYER_1
 10
318.4736
 20
232.9603
  0
VERTEX
  8
LAYER_1
 10
320.3363
 20
232.9603
  0
SEQEND
  0
POLYLINE
  8
LAYER_1
 40
0.1764
 41
0.1764
 66
1
 10
0
 20
0
 30
0
 70
1
  0
VERTEX
  8
LAYER_1
 10
318.7277
 20
232.9603
  0
VERTEX
  8
LAYER_1
 10
318.7277
 20
232.8756
  0
VERTEX
  8
LAYER_1
 10
318.7277
 20
232.791
  0
VERTEX
  8
LAYER_1
 10
318.643
 20
232.791
  0
VERTEX
  8
LAYER_1
 10
318.643
 20
232.7063
  0
VERTEX
  8
LAYER_1
 10
318.5583
 20
232.7063
  0
VERTEX
  8
LAYER_1
 10
318.4736
 20
232.7063
  0
VERTEX
  8
LAYER_1
 10
318.389
 20
232.7063
  0
VERTEX
  8
LAYER_1
 10
318.389
 20
232.791
  0
VERTEX
  8
LAYER_1
 10
318.3043
 20
232.791
  0
VERTEX
  8
LAYER_1
 10
318.3043
 20
232.8756
  0
VERTEX
  8
LAYER_1
 10
318.2197
 20
232.8756
  0
VERTEX
  8
LAYER_1
 10
318.2197
 20
232.9603
  0
VERTEX
  8
LAYER_1
 10
318.2197
 20
233.045
  0
VERTEX
  8
LAYER_1
 10
318.3043
 20
233.045
  0
VERTEX
  8
LAYER_1
 10
318.3043
 20
233.1296
  0
VERTEX
  8
LAYER_1
 10
318.389
 20
233.1296
  0
VERTEX
  8
LAYER_1
 10
318.389
 20
233.2143
  0
VERTEX
  8
LAYER_1
 10
318.4736
 20
233.2143
  0
VERTEX
  8
LAYER_1
 10
318.5583
 20
233.2143
  0
VERTEX
  8
LAYER_1
 10
318.643
 20
233.2143
  0
VERTEX
  8
LAYER_1
 10
318.643
 20
233.1296
  0
VERTEX
  8
LAYER_1
 10
318.7277
 20
233.1296
  0
VERTEX
  8
LAYER_1
 10
318.7277
 20
233.045
  0
SEQEND
  0
POLYLINE
  8
LAYER_1
 40
0.05
 41
0.05
 66
1
 10
0
 20
0
 30
0
 70
1
  0
VERTEX
  8
LAYER_1
 10
318.7065
 20
232.9815
  0
VERTEX
  8
LAYER_1
 10
318.7065
 20
232.8968
  0
VERTEX
  8
LAYER_1
 10
318.7065
 20
232.8121
  0
VERTEX
  8
LAYER_1
 10
318.6218
 20
232.8121
  0
VERTEX
  8
LAYER_1
 10
318.6218
 20
232.7275
  0
VERTEX
  8
LAYER_1
 10
318.5372
 20
232.7275
  0
VERTEX
  8
LAYER_1
 10
318.4525
 20
232.7275
  0
VERTEX
  8
LAYER_1
 10
318.3678
 20
232.7275
  0
VERTEX
  8
LAYER_1
 10
318.3678
 20
232.8121
  0
VERTEX
  8
LAYER_1
 10
318.2832
 20
232.8121
  0
VERTEX
  8
LAYER_1
 10
318.2832
 20
232.8968
  0
VERTEX
  8
LAYER_1
 10
318.1985
 20
232.8968
  0
VERTEX
  8
LAYER_1
 10
318.1985
 20
232.9815
  0
VERTEX
  8
LAYER_1
 10
318.1985
 20
233.0661
  0
VERTEX
  8
LAYER_1
 10
318.2832
 20
233.0661
  0
VERTEX
  8
LAYER_1
 10
318.2832
 20
233.1508
  0
VERTEX
  8
LAYER_1
 10
318.3678
 20
233.1508
  0
VERTEX
  8
LAYER_1
 10
318.3678
 20
233.2355
  0
VERTEX
  8
LAYER_1
 10
318.4525
 20
233.2355
  0
VERTEX
  8
LAYER_1
 10
318.5372
 20
233.2355
  0
VERTEX
  8
LAYER_1
 10
318.6218
 20
233.2355
  0
VERTEX
  8
LAYER_1
 10
318.6218
 20
233.1508
  0
VERTEX
  8
LAYER_1
 10
318.7065
 20
233.1508
  0
VERTEX
  8
LAYER_1
 10
318.7065
 20
233.0661
  0
SEQEND
  0
POLYLINE
  8
LAYER_1
 40
0.0811
 41
0.0811
 66
1
 10
0
 20
0
 30
0
 70
1
  0
VERTEX
  8
LAYER_1
 10
318.7277
 20
232.9603
  0
VERTEX
  8
LAYER_1
 10
318.7277
 20
232.8756
  0
VERTEX
  8
LAYER_1
 10
318.7277
 20
232.791
  0
VERTEX
  8
LAYER_1
 10
318.643
 20
232.791
  0
VERTEX
  8
LAYER_1
 10
318.643
 20
232.7063
  0
VERTEX
  8
LAYER_1
 10
318.5583
 20
232.7063
  0
VERTEX
  8
LAYER_1
 10
318.4736
 20
232.7063
  0
VERTEX
  8
LAYER_1
 10
318.389
 20
232.7063
  0
VERTEX
  8
LAYER_1
 10
318.389
 20
232.791
  0
VERTEX
  8
LAYER_1
 10
318.3043
 20
232.791
  0
VERTEX
  8
LAYER_1
 10
318.3043
 20
232.8756
  0
VERTEX
  8
LAYER_1
 10
318.2197
 20
232.8756
  0
VERTEX
  8
LAYER_1
 10
318.2197
 20
232.9603
  0
VERTEX
  8
LAYER_1
 10
318.2197
 20
233.045
  0
VERTEX
  8
LAYER_1
 10
318.3043
 20
233.045
  0
VERTEX
  8
LAYER_1
 10
318.3043
 20
233.1296
  0
VERTEX
  8
LAYER_1
 10
318.389
 20
233.1296
  0
VERTEX
  8
LAYER_1
 10
318.389
 20
233.2143
  0
VERTEX
  8
LAYER_1
 10
318.4736
 20
233.2143
  0
VERTEX
  8
LAYER_1
 10
318.5583
 20
233.2143
  0
VERTEX
  8
LAYER_1
 10
318.643
 20
233.2143
  0
VERTEX
  8
LAYER_1
 10
318.643
 20
233.1296
  0
VERTEX
  8
LAYER_1
 10
318.7277
 20
233.1296
  0
VERTEX
  8
LAYER_1
 10
318.7277
 20
233.045
  0
SEQEND
  0
POLYLINE
  8
LAYER_1
 40
0.1764
 41
0.1764
 66
1
 10
0
 20
0
 30
0
 70
1
  0
VERTEX
  8
LAYER_1
 10
320.0823
 20
232.9603
  0
VERTEX
  8
LAYER_1
 10
320.0823
 20
233.045
  0
VERTEX
  8
LAYER_1
 10
320.0823
 20
233.1296
  0
VERTEX
  8
LAYER_1
 10
320.167
 20
233.1296
  0
VERTEX
  8
LAYER_1
 10
320.167
 20
233.2143
  0
VERTEX
  8
LAYER_1
 10
320.2517
 20
233.2143
  0
VERTEX
  8
LAYER_1
 10
320.3363
 20
233.2143
  0
VERTEX
  8
LAYER_1
 10
320.421
 20
233.2143
  0
VERTEX
  8
LAYER_1
 10
320.421
 20
233.1296
  0
VERTEX
  8
LAYER_1
 10
320.5057
 20
233.1296
  0
VERTEX
  8
LAYER_1
 10
320.5057
 20
233.045
  0
VERTEX
  8
LAYER_1
 10
320.5903
 20
232.9603
  0
VERTEX
  8
LAYER_1
 10
320.5057
 20
232.8756
  0
VERTEX
  8
LAYER_1
 10
320.5057
 20
232.791
  0
VERTEX
  8
LAYER_1
 10
320.421
 20
232.791
  0
VERTEX
  8
LAYER_1
 10
320.421
 20
232.7063
  0
VERTEX
  8
LAYER_1
 10
320.3363
 20
232.7063
  0
VERTEX
  8
LAYER_1
 10
320.2517
 20
232.7063
  0
VERTEX
  8
LAYER_1
 10
320.167
 20
232.7063
  0
VERTEX
  8
LAYER_1
 10
320.167
 20
232.791
  0
VERTEX
  8
LAYER_1
 10
320.0823
 20
232.791
  0
VERTEX
  8
LAYER_1
 10
320.0823
 20
232.8756
  0
SEQEND
  0
POLYLINE
  8
LAYER_1
 40
0.05
 41
0.05
 66
1
 10
0
 20
0
 30
0
 70
1
  0
VERTEX
  8
LAYER_1
 10
320.0612
 20
232.9815
  0
VERTEX
  8
LAYER_1
 10
320.0612
 20
233.0661
  0
VERTEX
  8
LAYER_1
 10
320.0612
 20
233.1508
  0
VERTEX
  8
LAYER_1
 10
320.1458
 20
233.1508
  0
VERTEX
  8
LAYER_1
 10
320.1458
 20
233.2355
  0
VERTEX
  8
LAYER_1
 10
320.2305
 20
233.2355
  0
VERTEX
  8
LAYER_1
 10
320.3152
 20
233.2355
  0
VERTEX
  8
LAYER_1
 10
320.3998
 20
233.2355
  0
VERTEX
  8
LAYER_1
 10
320.3998
 20
233.1508
  0
VERTEX
  8
LAYER_1
 10
320.4845
 20
233.1508
  0
VERTEX
  8
LAYER_1
 10
320.4845
 20
233.0661
  0
VERTEX
  8
LAYER_1
 10
320.5692
 20
232.9815
  0
VERTEX
  8
LAYER_1
 10
320.4845
 20
232.8968
  0
VERTEX
  8
LAYER_1
 10
320.4845
 20
232.8121
  0
VERTEX
  8
LAYER_1
 10
320.3998
 20
232.8121
  0
VERTEX
  8
LAYER_1
 10
320.3998
 20
232.7275
  0
VERTEX
  8
LAYER_1
 10
320.3152
 20
232.7275
  0
VERTEX
  8
LAYER_1
 10
320.2305
 20
232.7275
  0
VERTEX
  8
LAYER_1
 10
320.1458
 20
232.7275
  0
VERTEX
  8
LAYER_1
 10
320.1458
 20
232.8121
  0
VERTEX
  8
LAYER_1
 10
320.0612
 20
232.8121
  0
VERTEX
  8
LAYER_1
 10
320.0612
 20
232.8968
  0
SEQEND
  0
POLYLINE
  8
LAYER_1
 40
0.0811
 41
0.0811
 66
1
 10
0
 20
0
 30
0
 70
1
  0
VERTEX
  8
LAYER_1
 10
320.0823
 20
232.9603
  0
VERTEX
  8
LAYER_1
 10
320.0823
 20
233.045
  0
VERTEX
  8
LAYER_1
 10
320.0823
 20
233.1296
  0
VERTEX
  8
LAYER_1
 10
320.167
 20
233.1296
  0
VERTEX
  8
LAYER_1
 10
320.167
 20
233.2143
  0
VERTEX
  8
LAYER_1
 10
320.2517
 20
233.2143
  0
VERTEX
  8
LAYER_1
 10
320.3363
 20
233.2143
  0
VERTEX
  8
LAYER_1
 10
320.421
 20
233.2143
  0
VERTEX
  8
LAYER_1
 10
320.421
 20
233.1296
  0
VERTEX
  8
LAYER_1
 10
320.5057
 20
233.1296
  0
VERTEX
  8
LAYER_1
 10
320.5057
 20
233.045
  0
VERTEX
  8
LAYER_1
 10
320.5903
 20
232.9603
  0
VERTEX
  8
LAYER_1
 10
320.5057
 20
232.8756
  0
VERTEX
  8
LAYER_1
 10
320.5057
 20
232.791
  0
VERTEX
  8
LAYER_1
 10
320.421
 20
232.791
  0
VERTEX
  8
LAYER_1
 10
320.421
 20
232.7063
  0
VERTEX
  8
LAYER_1
 10
320.3363
 20
232.7063
  0
VERTEX
  8
LAYER_1
 10
320.2517
 20
232.7063
  0
VERTEX
  8
LAYER_1
 10
320.167
 20
232.7063
  0
VERTEX
  8
LAYER_1
 10
320.167
 20
232.791
  0
VERTEX
  8
LAYER_1
 10
320.0823
 20
232.791
  0
VERTEX
  8
LAYER_1
 10
320.0823
 20
232.8756
  0
SEQEND
  0
POLYLINE
  8
LAYER_1
 40
0.05
 41
0.05
 62
255
 66
1
 10
0
 20
0
 30
0
 70
1
  0
VERTEX
  8
LAYER_1
 10
318.6218
 20
237.3842
  0
VERTEX
  8
LAYER_1
 10
320.1458
 20
237.3842
  0
VERTEX
  8
LAYER_1
 10
320.1458
 20
234.1668
  0
VERTEX
  8
LAYER_1
 10
318.6218
 20
234.1668
  0
SEQEND
  0
TEXT
  8
LAYER_1
 10
318.6431
 20
234.7113
 11
318.6431
 21
234.7113
 40
3.4028
 41
0.5
  1
9
  0
POLYLINE
  8
LAYER_1
 40
0.1764
 41
0.1764
 66
1
 10
0
 20
0
 30
0
 70
1
  0
VERTEX
  8
LAYER_1
 10
320.3363
 20
207.645
  0
VERTEX
  8
LAYER_1
 10
322.1143
 20
204.9356
  0
VERTEX
  8
LAYER_1
 10
322.3683
 20
205.105
  0
VERTEX
  8
LAYER_1
 10
320.5903
 20
207.7296
  0
VERTEX
  8
LAYER_1
 10
320.5903
 20
211.1163
  0
VERTEX
  8
LAYER_1
 10
320.3363
 20
211.1163
  0
SEQEND
  0
TEXT
  8
LAYER_1
 10
336.5924
 20
222.8004
 11
336.5924
 21
222.8004
 40
2.8837
 41
0.5
  1
壁掛け金具
  0
POLYLINE
  8
LAYER_1
 40
0.1764
 41
0.1764
 66
1
 10
0
 20
0
 30
0
  0
VERTEX
  8
LAYER_1
 10
322.199
 20
207.7296
  0
VERTEX
  8
LAYER_1
 10
336.5923
 20
222.123
  0
SEQEND
  0
POLYLINE
  8
LAYER_1
 40
0.1764
 41
0.1764
 66
1
 10
0
 20
0
 30
0
  0
VERTEX
  8
LAYER_1
 10
336.5923
 20
222.123
  0
VERTEX
  8
LAYER_1
 10
350.647
 20
222.123
  0
SEQEND
  0
POLYLINE
  8
LAYER_1
 40
0.05
 41
0.05
 62
253
 66
1
 10
0
 20
0
 30
0
 70
1
  0
VERTEX
  8
LAYER_1
 10
320.3363
 20
73.9563
  0
VERTEX
  8
LAYER_1
 10
321.691
 20
73.9563
  0
VERTEX
  8
LAYER_1
 10
321.691
 20
71.0777
  0
VERTEX
  8
LAYER_1
 10
320.3363
 20
71.0777
  0
SEQEND
  0
POLYLINE
  8
LAYER_1
 40
0.1764
 41
0.1764
 66
1
 10
0
 20
0
 30
0
 70
1
  0
VERTEX
  8
LAYER_1
 10
320.3363
 20
73.9563
  0
VERTEX
  8
LAYER_1
 10
321.691
 20
73.9563
  0
VERTEX
  8
LAYER_1
 10
321.691
 20
71.0777
  0
VERTEX
  8
LAYER_1
 10
320.3363
 20
71.0777
  0
SEQEND
  0
TEXT
  8
LAYER_1
 10
336.5924
 20
88.1803
 11
336.5924
 21
88.1803
 40
2.8837
 41
0.5
  1
ウレタンパッド
  0
POLYLINE
  8
LAYER_1
 40
0.1764
 41
0.1764
 66
1
 10
0
 20
0
 30
0
  0
VERTEX
  8
LAYER_1
 10
322.453
 20
73.3637
  0
VERTEX
  8
LAYER_1
 10
336.5923
 20
87.503
  0
SEQEND
  0
POLYLINE
  8
LAYER_1
 40
0.1764
 41
0.1764
 66
1
 10
0
 20
0
 30
0
  0
VERTEX
  8
LAYER_1
 10
336.5923
 20
87.503
  0
VERTEX
  8
LAYER_1
 10
356.1503
 20
87.503
  0
SEQEND
  0
POLYLINE
  8
LAYER_1
  6
AIGENLINE001
 40
0.1764
 41
0.1764
 66
1
 10
0
 20
0
 30
0
 70
128
  0
VERTEX
  8
LAYER_1
 10
110.7017
 20
211.1163
  0
VERTEX
  8
LAYER_1
 10
202.057
 20
211.1163
  0
SEQEND
  0
POLYLINE
  8
LAYER_1
  6
AIGENLINE001
 40
0.1764
 41
0.1764
 66
1
 10
0
 20
0
 30
0
 70
128
  0
VERTEX
  8
LAYER_1
 10
202.057
 20
211.1163
  0
VERTEX
  8
LAYER_1
 10
202.057
 20
204.9356
  0
SEQEND
  0
POLYLINE
  8
LAYER_1
  6
AIGENLINE001
 40
0.1764
 41
0.1764
 66
1
 10
0
 20
0
 30
0
 70
128
  0
VERTEX
  8
LAYER_1
 10
202.057
 20
204.9356
  0
VERTEX
  8
LAYER_1
 10
110.7017
 20
204.9356
  0
SEQEND
  0
POLYLINE
  8
LAYER_1
  6
AIGENLINE001
 40
0.1764
 41
0.1764
 66
1
 10
0
 20
0
 30
0
 70
128
  0
VERTEX
  8
LAYER_1
 10
110.7017
 20
204.9356
  0
VERTEX
  8
LAYER_1
 10
110.7017
 20
211.1163
  0
SEQEND
  0
POLYLINE
  8
LAYER_1
  6
AIGENLINE001
 40
0.1764
 41
0.1764
 66
1
 10
0
 20
0
 30
0
 70
128
  0
VERTEX
  8
LAYER_1
 10
111.379
 20
73.9563
  0
VERTEX
  8
LAYER_1
 10
201.3797
 20
73.9563
  0
SEQEND
  0
POLYLINE
  8
LAYER_1
  6
AIGENLINE001
 40
0.1764
 41
0.1764
 66
1
 10
0
 20
0
 30
0
 70
128
  0
VERTEX
  8
LAYER_1
 10
201.3797
 20
73.9563
  0
VERTEX
  8
LAYER_1
 10
201.3797
 20
71.0777
  0
SEQEND
  0
POLYLINE
  8
LAYER_1
  6
AIGENLINE001
 40
0.1764
 41
0.1764
 66
1
 10
0
 20
0
 30
0
 70
128
  0
VERTEX
  8
LAYER_1
 10
201.3797
 20
71.0777
  0
VERTEX
  8
LAYER_1
 10
111.379
 20
71.0777
  0
SEQEND
  0
POLYLINE
  8
LAYER_1
  6
AIGENLINE001
 40
0.1764
 41
0.1764
 66
1
 10
0
 20
0
 30
0
 70
128
  0
VERTEX
  8
LAYER_1
 10
111.379
 20
71.0777
  0
VERTEX
  8
LAYER_1
 10
111.379
 20
73.9563
  0
SEQEND
  0
POLYLINE
  8
LAYER_1
 40
0.1764
 41
0.1764
 66
1
 10
0
 20
0
 30
0
  0
VERTEX
  8
LAYER_1
 10
321.2677
 20
230.0816
  0
VERTEX
  8
LAYER_1
 10
327.1943
 20
230.0816
  0
SEQEND
  0
POLYLINE
  8
LAYER_1
 40
0.1764
 41
0.1764
 66
1
 10
0
 20
0
 30
0
  0
VERTEX
  8
LAYER_1
 10
321.2677
 20
211.1163
  0
VERTEX
  8
LAYER_1
 10
327.1943
 20
211.1163
  0
SEQEND
  0
POLYLINE
  8
LAYER_1
 40
0.1764
 41
0.1764
 66
1
 10
0
 20
0
 30
0
  0
VERTEX
  8
LAYER_1
 10
327.1943
 20
230.0816
  0
VERTEX
  8
LAYER_1
 10
327.1943
 20
211.1163
  0
SEQEND
  0
POLYLINE
  8
LAYER_1
 40
0.1764
 41
0.1764
 66
1
 10
0
 20
0
 30
0
 70
1
  0
VERTEX
  8
LAYER_1
 10
327.1943
 20
229.8276
  0
VERTEX
  8
LAYER_1
 10
327.1943
 20
229.9123
  0
VERTEX
  8
LAYER_1
 10
327.1097
 20
229.9123
  0
VERTEX
  8
LAYER_1
 10
327.025
 20
229.9123
  0
VERTEX
  8
LAYER_1
 10
327.025
 20
229.997
  0
VERTEX
  8
LAYER_1
 10
326.9403
 20
229.997
  0
VERTEX
  8
LAYER_1
 10
326.9403
 20
230.0816
  0
VERTEX
  8
LAYER_1
 10
326.9403
 20
230.1663
  0
VERTEX
  8
LAYER_1
 10
326.9403
 20
230.251
  0
VERTEX
  8
LAYER_1
 10
327.025
 20
230.251
  0
VERTEX
  8
LAYER_1
 10
327.025
 20
230.3356
  0
VERTEX
  8
LAYER_1
 10
327.1097
 20
230.3356
  0
VERTEX
  8
LAYER_1
 10
327.1943
 20
230.3356
  0
VERTEX
  8
LAYER_1
 10
327.279
 20
230.3356
  0
VERTEX
  8
LAYER_1
 10
327.3637
 20
230.3356
  0
VERTEX
  8
LAYER_1
 10
327.3637
 20
230.251
  0
VERTEX
  8
LAYER_1
 10
327.4483
 20
230.251
  0
VERTEX
  8
LAYER_1
 10
327.4483
 20
230.1663
  0
VERTEX
  8
LAYER_1
 10
327.4483
 20
230.0816
  0
VERTEX
  8
LAYER_1
 10
327.4483
 20
229.997
  0
VERTEX
  8
LAYER_1
 10
327.3637
 20
229.997
  0
VERTEX
  8
LAYER_1
 10
327.3637
 20
229.9123
  0
VERTEX
  8
LAYER_1
 10
327.279
 20
229.9123
  0
SEQEND
  0
POLYLINE
  8
LAYER_1
 40
0.05
 41
0.05
 66
1
 10
0
 20
0
 30
0
 70
1
  0
VERTEX
  8
LAYER_1
 10
327.1732
 20
229.8488
  0
VERTEX
  8
LAYER_1
 10
327.1732
 20
229.9335
  0
VERTEX
  8
LAYER_1
 10
327.0885
 20
229.9335
  0
VERTEX
  8
LAYER_1
 10
327.0038
 20
229.9335
  0
VERTEX
  8
LAYER_1
 10
327.0038
 20
230.0182
  0
VERTEX
  8
LAYER_1
 10
326.9192
 20
230.0182
  0
VERTEX
  8
LAYER_1
 10
326.9192
 20
230.1028
  0
VERTEX
  8
LAYER_1
 10
326.9192
 20
230.1875
  0
VERTEX
  8
LAYER_1
 10
326.9192
 20
230.2721
  0
VERTEX
  8
LAYER_1
 10
327.0038
 20
230.2721
  0
VERTEX
  8
LAYER_1
 10
327.0038
 20
230.3568
  0
VERTEX
  8
LAYER_1
 10
327.0885
 20
230.3568
  0
VERTEX
  8
LAYER_1
 10
327.1732
 20
230.3568
  0
VERTEX
  8
LAYER_1
 10
327.2578
 20
230.3568
  0
VERTEX
  8
LAYER_1
 10
327.3425
 20
230.3568
  0
VERTEX
  8
LAYER_1
 10
327.3425
 20
230.2721
  0
VERTEX
  8
LAYER_1
 10
327.4272
 20
230.2721
  0
VERTEX
  8
LAYER_1
 10
327.4272
 20
230.1875
  0
VERTEX
  8
LAYER_1
 10
327.4272
 20
230.1028
  0
VERTEX
  8
LAYER_1
 10
327.4272
 20
230.0182
  0
VERTEX
  8
LAYER_1
 10
327.3425
 20
230.0182
  0
VERTEX
  8
LAYER_1
 10
327.3425
 20
229.9335
  0
VERTEX
  8
LAYER_1
 10
327.2578
 20
229.9335
  0
SEQEND
  0
POLYLINE
  8
LAYER_1
 40
0.0811
 41
0.0811
 66
1
 10
0
 20
0
 30
0
 70
1
  0
VERTEX
  8
LAYER_1
 10
327.1943
 20
229.8276
  0
VERTEX
  8
LAYER_1
 10
327.1943
 20
229.9123
  0
VERTEX
  8
LAYER_1
 10
327.1097
 20
229.9123
  0
VERTEX
  8
LAYER_1
 10
327.025
 20
229.9123
  0
VERTEX
  8
LAYER_1
 10
327.025
 20
229.997
  0
VERTEX
  8
LAYER_1
 10
326.9403
 20
229.997
  0
VERTEX
  8
LAYER_1
 10
326.9403
 20
230.0816
  0
VERTEX
  8
LAYER_1
 10
326.9403
 20
230.1663
  0
VERTEX
  8
LAYER_1
 10
326.9403
 20
230.251
  0
VERTEX
  8
LAYER_1
 10
327.025
 20
230.251
  0
VERTEX
  8
LAYER_1
 10
327.025
 20
230.3356
  0
VERTEX
  8
LAYER_1
 10
327.1097
 20
230.3356
  0
VERTEX
  8
LAYER_1
 10
327.1943
 20
230.3356
  0
VERTEX
  8
LAYER_1
 10
327.279
 20
230.3356
  0
VERTEX
  8
LAYER_1
 10
327.3637
 20
230.3356
  0
VERTEX
  8
LAYER_1
 10
327.3637
 20
230.251
  0
VERTEX
  8
LAYER_1
 10
327.4483
 20
230.251
  0
VERTEX
  8
LAYER_1
 10
327.4483
 20
230.1663
  0
VERTEX
  8
LAYER_1
 10
327.4483
 20
230.0816
  0
VERTEX
  8
LAYER_1
 10
327.4483
 20
229.997
  0
VERTEX
  8
LAYER_1
 10
327.3637
 20
229.997
  0
VERTEX
  8
LAYER_1
 10
327.3637
 20
229.9123
  0
VERTEX
  8
LAYER_1
 10
327.279
 20
229.9123
  0
SEQEND
  0
POLYLINE
  8
LAYER_1
 40
0.1764
 41
0.1764
 66
1
 10
0
 20
0
 30
0
 70
1
  0
VERTEX
  8
LAYER_1
 10
327.1943
 20
211.3703
  0
VERTEX
  8
LAYER_1
 10
327.279
 20
211.3703
  0
VERTEX
  8
LAYER_1
 10
327.3637
 20
211.3703
  0
VERTEX
  8
LAYER_1
 10
327.3637
 20
211.2856
  0
VERTEX
  8
LAYER_1
 10
327.4483
 20
211.2856
  0
VERTEX
  8
LAYER_1
 10
327.4483
 20
211.201
  0
VERTEX
  8
LAYER_1
 10
327.4483
 20
211.1163
  0
VERTEX
  8
LAYER_1
 10
327.4483
 20
211.0316
  0
VERTEX
  8
LAYER_1
 10
327.4483
 20
210.947
  0
VERTEX
  8
LAYER_1
 10
327.3637
 20
210.947
  0
VERTEX
  8
LAYER_1
 10
327.3637
 20
210.8623
  0
VERTEX
  8
LAYER_1
 10
327.279
 20
210.8623
  0
VERTEX
  8
LAYER_1
 10
327.1943
 20
210.8623
  0
VERTEX
  8
LAYER_1
 10
327.1097
 20
210.8623
  0
VERTEX
  8
LAYER_1
 10
327.025
 20
210.947
  0
VERTEX
  8
LAYER_1
 10
327.025
 20
211.0316
  0
VERTEX
  8
LAYER_1
 10
326.9403
 20
211.0316
  0
VERTEX
  8
LAYER_1
 10
326.9403
 20
211.1163
  0
VERTEX
  8
LAYER_1
 10
326.9403
 20
211.201
  0
VERTEX
  8
LAYER_1
 10
327.025
 20
211.2856
  0
VERTEX
  8
LAYER_1
 10
327.1097
 20
211.3703
  0
SEQEND
  0
POLYLINE
  8
LAYER_1
 40
0.05
 41
0.05
 66
1
 10
0
 20
0
 30
0
 70
1
  0
VERTEX
  8
LAYER_1
 10
327.1732
 20
211.3915
  0
VERTEX
  8
LAYER_1
 10
327.2578
 20
211.3915
  0
VERTEX
  8
LAYER_1
 10
327.3425
 20
211.3915
  0
VERTEX
  8
LAYER_1
 10
327.3425
 20
211.3068
  0
VERTEX
  8
LAYER_1
 10
327.4272
 20
211.3068
  0
VERTEX
  8
LAYER_1
 10
327.4272
 20
211.2221
  0
VERTEX
  8
LAYER_1
 10
327.4272
 20
211.1375
  0
VERTEX
  8
LAYER_1
 10
327.4272
 20
211.0528
  0
VERTEX
  8
LAYER_1
 10
327.4272
 20
210.9682
  0
VERTEX
  8
LAYER_1
 10
327.3425
 20
210.9682
  0
VERTEX
  8
LAYER_1
 10
327.3425
 20
210.8835
  0
VERTEX
  8
LAYER_1
 10
327.2578
 20
210.8835
  0
VERTEX
  8
LAYER_1
 10
327.1732
 20
210.8835
  0
VERTEX
  8
LAYER_1
 10
327.0885
 20
210.8835
  0
VERTEX
  8
LAYER_1
 10
327.0038
 20
210.9682
  0
VERTEX
  8
LAYER_1
 10
327.0038
 20
211.0528
  0
VERTEX
  8
LAYER_1
 10
326.9192
 20
211.0528
  0
VERTEX
  8
LAYER_1
 10
326.9192
 20
211.1375
  0
VERTEX
  8
LAYER_1
 10
326.9192
 20
211.2221
  0
VERTEX
  8
LAYER_1
 10
327.0038
 20
211.3068
  0
VERTEX
  8
LAYER_1
 10
327.0885
 20
211.3915
  0
SEQEND
  0
POLYLINE
  8
LAYER_1
 40
0.0811
 41
0.0811
 66
1
 10
0
 20
0
 30
0
 70
1
  0
VERTEX
  8
LAYER_1
 10
327.1943
 20
211.3703
  0
VERTEX
  8
LAYER_1
 10
327.279
 20
211.3703
  0
VERTEX
  8
LAYER_1
 10
327.3637
 20
211.3703
  0
VERTEX
  8
LAYER_1
 10
327.3637
 20
211.2856
  0
VERTEX
  8
LAYER_1
 10
327.4483
 20
211.2856
  0
VERTEX
  8
LAYER_1
 10
327.4483
 20
211.201
  0
VERTEX
  8
LAYER_1
 10
327.4483
 20
211.1163
  0
VERTEX
  8
LAYER_1
 10
327.4483
 20
211.0316
  0
VERTEX
  8
LAYER_1
 10
327.4483
 20
210.947
  0
VERTEX
  8
LAYER_1
 10
327.3637
 20
210.947
  0
VERTEX
  8
LAYER_1
 10
327.3637
 20
210.8623
  0
VERTEX
  8
LAYER_1
 10
327.279
 20
210.8623
  0
VERTEX
  8
LAYER_1
 10
327.1943
 20
210.8623
  0
VERTEX
  8
LAYER_1
 10
327.1097
 20
210.8623
  0
VERTEX
  8
LAYER_1
 10
327.025
 20
210.947
  0
VERTEX
  8
LAYER_1
 10
327.025
 20
211.0316
  0
VERTEX
  8
LAYER_1
 10
326.9403
 20
211.0316
  0
VERTEX
  8
LAYER_1
 10
326.9403
 20
211.1163
  0
VERTEX
  8
LAYER_1
 10
326.9403
 20
211.201
  0
VERTEX
  8
LAYER_1
 10
327.025
 20
211.2856
  0
VERTEX
  8
LAYER_1
 10
327.1097
 20
211.3703
  0
SEQEND
  0
POLYLINE
  8
LAYER_1
 40
0.05
 41
0.05
 62
255
 66
1
 10
0
 20
0
 30
0
 70
1
  0
VERTEX
  8
LAYER_1
 10
322.7705
 20
219.0961
  0
VERTEX
  8
LAYER_1
 10
322.7705
 20
222.2288
  0
VERTEX
  8
LAYER_1
 10
325.9878
 20
222.2288
  0
VERTEX
  8
LAYER_1
 10
325.9878
 20
219.0961
  0
SEQEND
  0
TEXT
  8
LAYER_1
 10
325.4434
 20
219.0748
 11
325.4434
 21
219.0748
 40
3.4028
 41
0.5
 50
89.99999999
  1
95
  0
POLYLINE
  8
LAYER_1
 40
0.1764
 41
0.1764
 66
1
 10
0
 20
0
 30
0
  0
VERTEX
  8
LAYER_1
 10
322.707
 20
71.0777
  0
VERTEX
  8
LAYER_1
 10
327.1943
 20
71.0777
  0
SEQEND
  0
POLYLINE
  8
LAYER_1
 40
0.1764
 41
0.1764
 66
1
 10
0
 20
0
 30
0
  0
VERTEX
  8
LAYER_1
 10
321.2677
 20
52.1123
  0
VERTEX
  8
LAYER_1
 10
327.1943
 20
52.1123
  0
SEQEND
  0
POLYLINE
  8
LAYER_1
 40
0.1764
 41
0.1764
 66
1
 10
0
 20
0
 30
0
  0
VERTEX
  8
LAYER_1
 10
327.1943
 20
71.0777
  0
VERTEX
  8
LAYER_1
 10
327.1943
 20
52.1123
  0
SEQEND
  0
POLYLINE
  8
LAYER_1
 40
0.1764
 41
0.1764
 66
1
 10
0
 20
0
 30
0
 70
1
  0
VERTEX
  8
LAYER_1
 10
327.1943
 20
70.9083
  0
VERTEX
  8
LAYER_1
 10
327.1097
 20
70.9083
  0
VERTEX
  8
LAYER_1
 10
327.025
 20
70.9083
  0
VERTEX
  8
LAYER_1
 10
327.025
 20
70.993
  0
VERTEX
  8
LAYER_1
 10
326.9403
 20
70.993
  0
VERTEX
  8
LAYER_1
 10
326.9403
 20
71.0777
  0
VERTEX
  8
LAYER_1
 10
326.9403
 20
71.1623
  0
VERTEX
  8
LAYER_1
 10
326.9403
 20
71.247
  0
VERTEX
  8
LAYER_1
 10
327.025
 20
71.247
  0
VERTEX
  8
LAYER_1
 10
327.025
 20
71.3317
  0
VERTEX
  8
LAYER_1
 10
327.1097
 20
71.3317
  0
VERTEX
  8
LAYER_1
 10
327.1943
 20
71.3317
  0
VERTEX
  8
LAYER_1
 10
327.279
 20
71.3317
  0
VERTEX
  8
LAYER_1
 10
327.3637
 20
71.3317
  0
VERTEX
  8
LAYER_1
 10
327.3637
 20
71.247
  0
VERTEX
  8
LAYER_1
 10
327.4483
 20
71.247
  0
VERTEX
  8
LAYER_1
 10
327.4483
 20
71.1623
  0
VERTEX
  8
LAYER_1
 10
327.4483
 20
71.0777
  0
VERTEX
  8
LAYER_1
 10
327.4483
 20
70.993
  0
VERTEX
  8
LAYER_1
 10
327.3637
 20
70.993
  0
VERTEX
  8
LAYER_1
 10
327.3637
 20
70.9083
  0
VERTEX
  8
LAYER_1
 10
327.279
 20
70.9083
  0
SEQEND
  0
POLYLINE
  8
LAYER_1
 40
0.05
 41
0.05
 66
1
 10
0
 20
0
 30
0
 70
1
  0
VERTEX
  8
LAYER_1
 10
327.1732
 20
70.9295
  0
VERTEX
  8
LAYER_1
 10
327.0885
 20
70.9295
  0
VERTEX
  8
LAYER_1
 10
327.0038
 20
70.9295
  0
VERTEX
  8
LAYER_1
 10
327.0038
 20
71.0142
  0
VERTEX
  8
LAYER_1
 10
326.9192
 20
71.0142
  0
VERTEX
  8
LAYER_1
 10
326.9192
 20
71.0988
  0
VERTEX
  8
LAYER_1
 10
326.9192
 20
71.1835
  0
VERTEX
  8
LAYER_1
 10
326.9192
 20
71.2682
  0
VERTEX
  8
LAYER_1
 10
327.0038
 20
71.2682
  0
VERTEX
  8
LAYER_1
 10
327.0038
 20
71.3528
  0
VERTEX
  8
LAYER_1
 10
327.0885
 20
71.3528
  0
VERTEX
  8
LAYER_1
 10
327.1732
 20
71.3528
  0
VERTEX
  8
LAYER_1
 10
327.2578
 20
71.3528
  0
VERTEX
  8
LAYER_1
 10
327.3425
 20
71.3528
  0
VERTEX
  8
LAYER_1
 10
327.3425
 20
71.2682
  0
VERTEX
  8
LAYER_1
 10
327.4272
 20
71.2682
  0
VERTEX
  8
LAYER_1
 10
327.4272
 20
71.1835
  0
VERTEX
  8
LAYER_1
 10
327.4272
 20
71.0988
  0
VERTEX
  8
LAYER_1
 10
327.4272
 20
71.0142
  0
VERTEX
  8
LAYER_1
 10
327.3425
 20
71.0142
  0
VERTEX
  8
LAYER_1
 10
327.3425
 20
70.9295
  0
VERTEX
  8
LAYER_1
 10
327.2578
 20
70.9295
  0
SEQEND
  0
POLYLINE
  8
LAYER_1
 40
0.0811
 41
0.0811
 66
1
 10
0
 20
0
 30
0
 70
1
  0
VERTEX
  8
LAYER_1
 10
327.1943
 20
70.9083
  0
VERTEX
  8
LAYER_1
 10
327.1097
 20
70.9083
  0
VERTEX
  8
LAYER_1
 10
327.025
 20
70.9083
  0
VERTEX
  8
LAYER_1
 10
327.025
 20
70.993
  0
VERTEX
  8
LAYER_1
 10
326.9403
 20
70.993
  0
VERTEX
  8
LAYER_1
 10
326.9403
 20
71.0777
  0
VERTEX
  8
LAYER_1
 10
326.9403
 20
71.1623
  0
VERTEX
  8
LAYER_1
 10
326.9403
 20
71.247
  0
VERTEX
  8
LAYER_1
 10
327.025
 20
71.247
  0
VERTEX
  8
LAYER_1
 10
327.025
 20
71.3317
  0
VERTEX
  8
LAYER_1
 10
327.1097
 20
71.3317
  0
VERTEX
  8
LAYER_1
 10
327.1943
 20
71.3317
  0
VERTEX
  8
LAYER_1
 10
327.279
 20
71.3317
  0
VERTEX
  8
LAYER_1
 10
327.3637
 20
71.3317
  0
VERTEX
  8
LAYER_1
 10
327.3637
 20
71.247
  0
VERTEX
  8
LAYER_1
 10
327.4483
 20
71.247
  0
VERTEX
  8
LAYER_1
 10
327.4483
 20
71.1623
  0
VERTEX
  8
LAYER_1
 10
327.4483
 20
71.0777
  0
VERTEX
  8
LAYER_1
 10
327.4483
 20
70.993
  0
VERTEX
  8
LAYER_1
 10
327.3637
 20
70.993
  0
VERTEX
  8
LAYER_1
 10
327.3637
 20
70.9083
  0
VERTEX
  8
LAYER_1
 10
327.279
 20
70.9083
  0
SEQEND
  0
POLYLINE
  8
LAYER_1
 40
0.1764
 41
0.1764
 66
1
 10
0
 20
0
 30
0
 70
1
  0
VERTEX
  8
LAYER_1
 10
327.1943
 20
52.3663
  0
VERTEX
  8
LAYER_1
 10
327.279
 20
52.3663
  0
VERTEX
  8
LAYER_1
 10
327.3637
 20
52.3663
  0
VERTEX
  8
LAYER_1
 10
327.3637
 20
52.2817
  0
VERTEX
  8
LAYER_1
 10
327.4483
 20
52.2817
  0
VERTEX
  8
LAYER_1
 10
327.4483
 20
52.197
  0
VERTEX
  8
LAYER_1
 10
327.4483
 20
52.1123
  0
VERTEX
  8
LAYER_1
 10
327.4483
 20
52.0277
  0
VERTEX
  8
LAYER_1
 10
327.4483
 20
51.943
  0
VERTEX
  8
LAYER_1
 10
327.3637
 20
51.943
  0
VERTEX
  8
LAYER_1
 10
327.279
 20
51.8583
  0
VERTEX
  8
LAYER_1
 10
327.1943
 20
51.8583
  0
VERTEX
  8
LAYER_1
 10
327.1097
 20
51.8583
  0
VERTEX
  8
LAYER_1
 10
327.1097
 20
51.943
  0
VERTEX
  8
LAYER_1
 10
327.025
 20
51.943
  0
VERTEX
  8
LAYER_1
 10
327.025
 20
52.0277
  0
VERTEX
  8
LAYER_1
 10
326.9403
 20
52.0277
  0
VERTEX
  8
LAYER_1
 10
326.9403
 20
52.1123
  0
VERTEX
  8
LAYER_1
 10
326.9403
 20
52.197
  0
VERTEX
  8
LAYER_1
 10
327.025
 20
52.2817
  0
VERTEX
  8
LAYER_1
 10
327.025
 20
52.3663
  0
VERTEX
  8
LAYER_1
 10
327.1097
 20
52.3663
  0
SEQEND
  0
POLYLINE
  8
LAYER_1
 40
0.05
 41
0.05
 66
1
 10
0
 20
0
 30
0
 70
1
  0
VERTEX
  8
LAYER_1
 10
327.1732
 20
52.3875
  0
VERTEX
  8
LAYER_1
 10
327.2578
 20
52.3875
  0
VERTEX
  8
LAYER_1
 10
327.3425
 20
52.3875
  0
VERTEX
  8
LAYER_1
 10
327.3425
 20
52.3028
  0
VERTEX
  8
LAYER_1
 10
327.4272
 20
52.3028
  0
VERTEX
  8
LAYER_1
 10
327.4272
 20
52.2182
  0
VERTEX
  8
LAYER_1
 10
327.4272
 20
52.1335
  0
VERTEX
  8
LAYER_1
 10
327.4272
 20
52.0488
  0
VERTEX
  8
LAYER_1
 10
327.4272
 20
51.9642
  0
VERTEX
  8
LAYER_1
 10
327.3425
 20
51.9642
  0
VERTEX
  8
LAYER_1
 10
327.2578
 20
51.8795
  0
VERTEX
  8
LAYER_1
 10
327.1732
 20
51.8795
  0
VERTEX
  8
LAYER_1
 10
327.0885
 20
51.8795
  0
VERTEX
  8
LAYER_1
 10
327.0885
 20
51.9642
  0
VERTEX
  8
LAYER_1
 10
327.0038
 20
51.9642
  0
VERTEX
  8
LAYER_1
 10
327.0038
 20
52.0488
  0
VERTEX
  8
LAYER_1
 10
326.9192
 20
52.0488
  0
VERTEX
  8
LAYER_1
 10
326.9192
 20
52.1335
  0
VERTEX
  8
LAYER_1
 10
326.9192
 20
52.2182
  0
VERTEX
  8
LAYER_1
 10
327.0038
 20
52.3028
  0
VERTEX
  8
LAYER_1
 10
327.0038
 20
52.3875
  0
VERTEX
  8
LAYER_1
 10
327.0885
 20
52.3875
  0
SEQEND
  0
POLYLINE
  8
LAYER_1
 40
0.0811
 41
0.0811
 66
1
 10
0
 20
0
 30
0
 70
1
  0
VERTEX
  8
LAYER_1
 10
327.1943
 20
52.3663
  0
VERTEX
  8
LAYER_1
 10
327.279
 20
52.3663
  0
VERTEX
  8
LAYER_1
 10
327.3637
 20
52.3663
  0
VERTEX
  8
LAYER_1
 10
327.3637
 20
52.2817
  0
VERTEX
  8
LAYER_1
 10
327.4483
 20
52.2817
  0
VERTEX
  8
LAYER_1
 10
327.4483
 20
52.197
  0
VERTEX
  8
LAYER_1
 10
327.4483
 20
52.1123
  0
VERTEX
  8
LAYER_1
 10
327.4483
 20
52.0277
  0
VERTEX
  8
LAYER_1
 10
327.4483
 20
51.943
  0
VERTEX
  8
LAYER_1
 10
327.3637
 20
51.943
  0
VERTEX
  8
LAYER_1
 10
327.279
 20
51.8583
  0
VERTEX
  8
LAYER_1
 10
327.1943
 20
51.8583
  0
VERTEX
  8
LAYER_1
 10
327.1097
 20
51.8583
  0
VERTEX
  8
LAYER_1
 10
327.1097
 20
51.943
  0
VERTEX
  8
LAYER_1
 10
327.025
 20
51.943
  0
VERTEX
  8
LAYER_1
 10
327.025
 20
52.0277
  0
VERTEX
  8
LAYER_1
 10
326.9403
 20
52.0277
  0
VERTEX
  8
LAYER_1
 10
326.9403
 20
52.1123
  0
VERTEX
  8
LAYER_1
 10
326.9403
 20
52.197
  0
VERTEX
  8
LAYER_1
 10
327.025
 20
52.2817
  0
VERTEX
  8
LAYER_1
 10
327.025
 20
52.3663
  0
VERTEX
  8
LAYER_1
 10
327.1097
 20
52.3663
  0
SEQEND
  0
POLYLINE
  8
LAYER_1
 40
0.05
 41
0.05
 62
255
 66
1
 10
0
 20
0
 30
0
 70
1
  0
VERTEX
  8
LAYER_1
 10
322.7705
 20
60.0922
  0
VERTEX
  8
LAYER_1
 10
322.7705
 20
63.2248
  0
VERTEX
  8
LAYER_1
 10
325.9878
 20
63.2248
  0
VERTEX
  8
LAYER_1
 10
325.9878
 20
60.0922
  0
SEQEND
  0
TEXT
  8
LAYER_1
 10
325.4434
 20
60.0708
 11
325.4434
 21
60.0708
 40
3.4028
 41
0.5
 50
89.99999999
  1
95
  0
POLYLINE
  8
LAYER_1
 40
0.1764
 41
0.1764
 66
1
 10
0
 20
0
 30
0
  0
VERTEX
  8
LAYER_1
 10
111.379
 20
74.8877
  0
VERTEX
  8
LAYER_1
 10
111.379
 20
85.725
  0
SEQEND
  0
POLYLINE
  8
LAYER_1
 40
0.1764
 41
0.1764
 66
1
 10
0
 20
0
 30
0
  0
VERTEX
  8
LAYER_1
 10
201.3797
 20
74.8877
  0
VERTEX
  8
LAYER_1
 10
201.3797
 20
85.725
  0
SEQEND
  0
POLYLINE
  8
LAYER_1
 40
0.1764
 41
0.1764
 66
1
 10
0
 20
0
 30
0
  0
VERTEX
  8
LAYER_1
 10
111.379
 20
85.725
  0
VERTEX
  8
LAYER_1
 10
201.3797
 20
85.725
  0
SEQEND
  0
POLYLINE
  8
LAYER_1
 40
0.1764
 41
0.1764
 66
1
 10
0
 20
0
 30
0
 70
1
  0
VERTEX
  8
LAYER_1
 10
111.633
 20
85.725
  0
VERTEX
  8
LAYER_1
 10
111.633
 20
85.6403
  0
VERTEX
  8
LAYER_1
 10
111.633
 20
85.5557
  0
VERTEX
  8
LAYER_1
 10
111.5483
 20
85.5557
  0
VERTEX
  8
LAYER_1
 10
111.5483
 20
85.471
  0
VERTEX
  8
LAYER_1
 10
111.4637
 20
85.471
  0
VERTEX
  8
LAYER_1
 10
111.379
 20
85.471
  0
VERTEX
  8
LAYER_1
 10
111.2943
 20
85.471
  0
VERTEX
  8
LAYER_1
 10
111.2097
 20
85.471
  0
VERTEX
  8
LAYER_1
 10
111.2097
 20
85.5557
  0
VERTEX
  8
LAYER_1
 10
111.125
 20
85.5557
  0
VERTEX
  8
LAYER_1
 10
111.125
 20
85.6403
  0
VERTEX
  8
LAYER_1
 10
111.125
 20
85.725
  0
VERTEX
  8
LAYER_1
 10
111.125
 20
85.8097
  0
VERTEX
  8
LAYER_1
 10
111.2097
 20
85.8097
  0
VERTEX
  8
LAYER_1
 10
111.2097
 20
85.8943
  0
VERTEX
  8
LAYER_1
 10
111.2943
 20
85.8943
  0
VERTEX
  8
LAYER_1
 10
111.2943
 20
85.979
  0
VERTEX
  8
LAYER_1
 10
111.379
 20
85.979
  0
VERTEX
  8
LAYER_1
 10
111.4637
 20
85.979
  0
VERTEX
  8
LAYER_1
 10
111.4637
 20
85.8943
  0
VERTEX
  8
LAYER_1
 10
111.5483
 20
85.8943
  0
VERTEX
  8
LAYER_1
 10
111.633
 20
85.8097
  0
SEQEND
  0
POLYLINE
  8
LAYER_1
 40
0.05
 41
0.05
 66
1
 10
0
 20
0
 30
0
 70
1
  0
VERTEX
  8
LAYER_1
 10
111.6118
 20
85.7462
  0
VERTEX
  8
LAYER_1
 10
111.6118
 20
85.6615
  0
VERTEX
  8
LAYER_1
 10
111.6118
 20
85.5768
  0
VERTEX
  8
LAYER_1
 10
111.5272
 20
85.5768
  0
VERTEX
  8
LAYER_1
 10
111.5272
 20
85.4922
  0
VERTEX
  8
LAYER_1
 10
111.4425
 20
85.4922
  0
VERTEX
  8
LAYER_1
 10
111.3578
 20
85.4922
  0
VERTEX
  8
LAYER_1
 10
111.2732
 20
85.4922
  0
VERTEX
  8
LAYER_1
 10
111.1885
 20
85.4922
  0
VERTEX
  8
LAYER_1
 10
111.1885
 20
85.5768
  0
VERTEX
  8
LAYER_1
 10
111.1038
 20
85.5768
  0
VERTEX
  8
LAYER_1
 10
111.1038
 20
85.6615
  0
VERTEX
  8
LAYER_1
 10
111.1038
 20
85.7462
  0
VERTEX
  8
LAYER_1
 10
111.1038
 20
85.8308
  0
VERTEX
  8
LAYER_1
 10
111.1885
 20
85.8308
  0
VERTEX
  8
LAYER_1
 10
111.1885
 20
85.9155
  0
VERTEX
  8
LAYER_1
 10
111.2732
 20
85.9155
  0
VERTEX
  8
LAYER_1
 10
111.2732
 20
86.0002
  0
VERTEX
  8
LAYER_1
 10
111.3578
 20
86.0002
  0
VERTEX
  8
LAYER_1
 10
111.4425
 20
86.0002
  0
VERTEX
  8
LAYER_1
 10
111.4425
 20
85.9155
  0
VERTEX
  8
LAYER_1
 10
111.5272
 20
85.9155
  0
VERTEX
  8
LAYER_1
 10
111.6118
 20
85.8308
  0
SEQEND
  0
POLYLINE
  8
LAYER_1
 40
0.0811
 41
0.0811
 66
1
 10
0
 20
0
 30
0
 70
1
  0
VERTEX
  8
LAYER_1
 10
111.633
 20
85.725
  0
VERTEX
  8
LAYER_1
 10
111.633
 20
85.6403
  0
VERTEX
  8
LAYER_1
 10
111.633
 20
85.5557
  0
VERTEX
  8
LAYER_1
 10
111.5483
 20
85.5557
  0
VERTEX
  8
LAYER_1
 10
111.5483
 20
85.471
  0
VERTEX
  8
LAYER_1
 10
111.4637
 20
85.471
  0
VERTEX
  8
LAYER_1
 10
111.379
 20
85.471
  0
VERTEX
  8
LAYER_1
 10
111.2943
 20
85.471
  0
VERTEX
  8
LAYER_1
 10
111.2097
 20
85.471
  0
VERTEX
  8
LAYER_1
 10
111.2097
 20
85.5557
  0
VERTEX
  8
LAYER_1
 10
111.125
 20
85.5557
  0
VERTEX
  8
LAYER_1
 10
111.125
 20
85.6403
  0
VERTEX
  8
LAYER_1
 10
111.125
 20
85.725
  0
VERTEX
  8
LAYER_1
 10
111.125
 20
85.8097
  0
VERTEX
  8
LAYER_1
 10
111.2097
 20
85.8097
  0
VERTEX
  8
LAYER_1
 10
111.2097
 20
85.8943
  0
VERTEX
  8
LAYER_1
 10
111.2943
 20
85.8943
  0
VERTEX
  8
LAYER_1
 10
111.2943
 20
85.979
  0
VERTEX
  8
LAYER_1
 10
111.379
 20
85.979
  0
VERTEX
  8
LAYER_1
 10
111.4637
 20
85.979
  0
VERTEX
  8
LAYER_1
 10
111.4637
 20
85.8943
  0
VERTEX
  8
LAYER_1
 10
111.5483
 20
85.8943
  0
VERTEX
  8
LAYER_1
 10
111.633
 20
85.8097
  0
SEQEND
  0
POLYLINE
  8
LAYER_1
 40
0.1764
 41
0.1764
 66
1
 10
0
 20
0
 30
0
 70
1
  0
VERTEX
  8
LAYER_1
 10
201.1257
 20
85.725
  0
VERTEX
  8
LAYER_1
 10
201.1257
 20
85.8097
  0
VERTEX
  8
LAYER_1
 10
201.2103
 20
85.8097
  0
VERTEX
  8
LAYER_1
 10
201.2103
 20
85.8943
  0
VERTEX
  8
LAYER_1
 10
201.295
 20
85.8943
  0
VERTEX
  8
LAYER_1
 10
201.295
 20
85.979
  0
VERTEX
  8
LAYER_1
 10
201.3797
 20
85.979
  0
VERTEX
  8
LAYER_1
 10
201.4643
 20
85.979
  0
VERTEX
  8
LAYER_1
 10
201.4643
 20
85.8943
  0
VERTEX
  8
LAYER_1
 10
201.549
 20
85.8943
  0
VERTEX
  8
LAYER_1
 10
201.6337
 20
85.8097
  0
VERTEX
  8
LAYER_1
 10
201.6337
 20
85.725
  0
VERTEX
  8
LAYER_1
 10
201.6337
 20
85.6403
  0
VERTEX
  8
LAYER_1
 10
201.6337
 20
85.5557
  0
VERTEX
  8
LAYER_1
 10
201.549
 20
85.5557
  0
VERTEX
  8
LAYER_1
 10
201.549
 20
85.471
  0
VERTEX
  8
LAYER_1
 10
201.4643
 20
85.471
  0
VERTEX
  8
LAYER_1
 10
201.3797
 20
85.471
  0
VERTEX
  8
LAYER_1
 10
201.295
 20
85.471
  0
VERTEX
  8
LAYER_1
 10
201.2103
 20
85.471
  0
VERTEX
  8
LAYER_1
 10
201.2103
 20
85.5557
  0
VERTEX
  8
LAYER_1
 10
201.1257
 20
85.5557
  0
VERTEX
  8
LAYER_1
 10
201.1257
 20
85.6403
  0
SEQEND
  0
POLYLINE
  8
LAYER_1
 40
0.05
 41
0.05
 66
1
 10
0
 20
0
 30
0
 70
1
  0
VERTEX
  8
LAYER_1
 10
201.1045
 20
85.7462
  0
VERTEX
  8
LAYER_1
 10
201.1045
 20
85.8308
  0
VERTEX
  8
LAYER_1
 10
201.1892
 20
85.8308
  0
VERTEX
  8
LAYER_1
 10
201.1892
 20
85.9155
  0
VERTEX
  8
LAYER_1
 10
201.2738
 20
85.9155
  0
VERTEX
  8
LAYER_1
 10
201.2738
 20
86.0002
  0
VERTEX
  8
LAYER_1
 10
201.3585
 20
86.0002
  0
VERTEX
  8
LAYER_1
 10
201.4432
 20
86.0002
  0
VERTEX
  8
LAYER_1
 10
201.4432
 20
85.9155
  0
VERTEX
  8
LAYER_1
 10
201.5278
 20
85.9155
  0
VERTEX
  8
LAYER_1
 10
201.6125
 20
85.8308
  0
VERTEX
  8
LAYER_1
 10
201.6125
 20
85.7462
  0
VERTEX
  8
LAYER_1
 10
201.6125
 20
85.6615
  0
VERTEX
  8
LAYER_1
 10
201.6125
 20
85.5768
  0
VERTEX
  8
LAYER_1
 10
201.5278
 20
85.5768
  0
VERTEX
  8
LAYER_1
 10
201.5278
 20
85.4922
  0
VERTEX
  8
LAYER_1
 10
201.4432
 20
85.4922
  0
VERTEX
  8
LAYER_1
 10
201.3585
 20
85.4922
  0
VERTEX
  8
LAYER_1
 10
201.2738
 20
85.4922
  0
VERTEX
  8
LAYER_1
 10
201.1892
 20
85.4922
  0
VERTEX
  8
LAYER_1
 10
201.1892
 20
85.5768
  0
VERTEX
  8
LAYER_1
 10
201.1045
 20
85.5768
  0
VERTEX
  8
LAYER_1
 10
201.1045
 20
85.6615
  0
SEQEND
  0
POLYLINE
  8
LAYER_1
 40
0.0811
 41
0.0811
 66
1
 10
0
 20
0
 30
0
 70
1
  0
VERTEX
  8
LAYER_1
 10
201.1257
 20
85.725
  0
VERTEX
  8
LAYER_1
 10
201.1257
 20
85.8097
  0
VERTEX
  8
LAYER_1
 10
201.2103
 20
85.8097
  0
VERTEX
  8
LAYER_1
 10
201.2103
 20
85.8943
  0
VERTEX
  8
LAYER_1
 10
201.295
 20
85.8943
  0
VERTEX
  8
LAYER_1
 10
201.295
 20
85.979
  0
VERTEX
  8
LAYER_1
 10
201.3797
 20
85.979
  0
VERTEX
  8
LAYER_1
 10
201.4643
 20
85.979
  0
VERTEX
  8
LAYER_1
 10
201.4643
 20
85.8943
  0
VERTEX
  8
LAYER_1
 10
201.549
 20
85.8943
  0
VERTEX
  8
LAYER_1
 10
201.6337
 20
85.8097
  0
VERTEX
  8
LAYER_1
 10
201.6337
 20
85.725
  0
VERTEX
  8
LAYER_1
 10
201.6337
 20
85.6403
  0
VERTEX
  8
LAYER_1
 10
201.6337
 20
85.5557
  0
VERTEX
  8
LAYER_1
 10
201.549
 20
85.5557
  0
VERTEX
  8
LAYER_1
 10
201.549
 20
85.471
  0
VERTEX
  8
LAYER_1
 10
201.4643
 20
85.471
  0
VERTEX
  8
LAYER_1
 10
201.3797
 20
85.471
  0
VERTEX
  8
LAYER_1
 10
201.295
 20
85.471
  0
VERTEX
  8
LAYER_1
 10
201.2103
 20
85.471
  0
VERTEX
  8
LAYER_1
 10
201.2103
 20
85.5557
  0
VERTEX
  8
LAYER_1
 10
201.1257
 20
85.5557
  0
VERTEX
  8
LAYER_1
 10
201.1257
 20
85.6403
  0
SEQEND
  0
POLYLINE
  8
LAYER_1
 40
0.05
 41
0.05
 62
255
 66
1
 10
0
 20
0
 30
0
 70
1
  0
VERTEX
  8
LAYER_1
 10
154.0298
 20
90.1488
  0
VERTEX
  8
LAYER_1
 10
158.6865
 20
90.1488
  0
VERTEX
  8
LAYER_1
 10
158.6865
 20
86.9315
  0
VERTEX
  8
LAYER_1
 10
154.0298
 20
86.9315
  0
SEQEND
  0
TEXT
  8
LAYER_1
 10
154.0511
 20
87.4758
 11
154.0511
 21
87.4758
 40
3.4028
 41
0.5
  1
450
  0
POLYLINE
  8
LAYER_1
 40
0.1764
 41
0.1764
 66
1
 10
0
 20
0
 30
0
  0
VERTEX
  8
LAYER_1
 10
110.7017
 20
203.9196
  0
VERTEX
  8
LAYER_1
 10
110.7017
 20
190.4576
  0
SEQEND
  0
POLYLINE
  8
LAYER_1
 40
0.1764
 41
0.1764
 66
1
 10
0
 20
0
 30
0
  0
VERTEX
  8
LAYER_1
 10
202.057
 20
203.9196
  0
VERTEX
  8
LAYER_1
 10
202.057
 20
190.4576
  0
SEQEND
  0
POLYLINE
  8
LAYER_1
 40
0.1764
 41
0.1764
 66
1
 10
0
 20
0
 30
0
  0
VERTEX
  8
LAYER_1
 10
110.7017
 20
190.4576
  0
VERTEX
  8
LAYER_1
 10
202.057
 20
190.4576
  0
SEQEND
  0
POLYLINE
  8
LAYER_1
 40
0.1764
 41
0.1764
 66
1
 10
0
 20
0
 30
0
 70
1
  0
VERTEX
  8
LAYER_1
 10
110.9557
 20
190.4576
  0
VERTEX
  8
LAYER_1
 10
110.9557
 20
190.373
  0
VERTEX
  8
LAYER_1
 10
110.871
 20
190.373
  0
VERTEX
  8
LAYER_1
 10
110.871
 20
190.2883
  0
VERTEX
  8
LAYER_1
 10
110.7863
 20
190.2883
  0
VERTEX
  8
LAYER_1
 10
110.7017
 20
190.2883
  0
VERTEX
  8
LAYER_1
 10
110.617
 20
190.2883
  0
VERTEX
  8
LAYER_1
 10
110.5323
 20
190.2883
  0
VERTEX
  8
LAYER_1
 10
110.5323
 20
190.373
  0
VERTEX
  8
LAYER_1
 10
110.4477
 20
190.373
  0
VERTEX
  8
LAYER_1
 10
110.4477
 20
190.4576
  0
VERTEX
  8
LAYER_1
 10
110.4477
 20
190.5423
  0
VERTEX
  8
LAYER_1
 10
110.4477
 20
190.627
  0
VERTEX
  8
LAYER_1
 10
110.5323
 20
190.627
  0
VERTEX
  8
LAYER_1
 10
110.5323
 20
190.7116
  0
VERTEX
  8
LAYER_1
 10
110.617
 20
190.7116
  0
VERTEX
  8
LAYER_1
 10
110.7017
 20
190.7116
  0
VERTEX
  8
LAYER_1
 10
110.7863
 20
190.7116
  0
VERTEX
  8
LAYER_1
 10
110.871
 20
190.7116
  0
VERTEX
  8
LAYER_1
 10
110.871
 20
190.627
  0
VERTEX
  8
LAYER_1
 10
110.9557
 20
190.627
  0
VERTEX
  8
LAYER_1
 10
110.9557
 20
190.5423
  0
SEQEND
  0
POLYLINE
  8
LAYER_1
 40
0.05
 41
0.05
 66
1
 10
0
 20
0
 30
0
 70
1
  0
VERTEX
  8
LAYER_1
 10
110.9345
 20
190.4788
  0
VERTEX
  8
LAYER_1
 10
110.9345
 20
190.3941
  0
VERTEX
  8
LAYER_1
 10
110.8498
 20
190.3941
  0
VERTEX
  8
LAYER_1
 10
110.8498
 20
190.3095
  0
VERTEX
  8
LAYER_1
 10
110.7652
 20
190.3095
  0
VERTEX
  8
LAYER_1
 10
110.6805
 20
190.3095
  0
VERTEX
  8
LAYER_1
 10
110.5958
 20
190.3095
  0
VERTEX
  8
LAYER_1
 10
110.5112
 20
190.3095
  0
VERTEX
  8
LAYER_1
 10
110.5112
 20
190.3941
  0
VERTEX
  8
LAYER_1
 10
110.4265
 20
190.3941
  0
VERTEX
  8
LAYER_1
 10
110.4265
 20
190.4788
  0
VERTEX
  8
LAYER_1
 10
110.4265
 20
190.5635
  0
VERTEX
  8
LAYER_1
 10
110.4265
 20
190.6481
  0
VERTEX
  8
LAYER_1
 10
110.5112
 20
190.6481
  0
VERTEX
  8
LAYER_1
 10
110.5112
 20
190.7328
  0
VERTEX
  8
LAYER_1
 10
110.5958
 20
190.7328
  0
VERTEX
  8
LAYER_1
 10
110.6805
 20
190.7328
  0
VERTEX
  8
LAYER_1
 10
110.7652
 20
190.7328
  0
VERTEX
  8
LAYER_1
 10
110.8498
 20
190.7328
  0
VERTEX
  8
LAYER_1
 10
110.8498
 20
190.6481
  0
VERTEX
  8
LAYER_1
 10
110.9345
 20
190.6481
  0
VERTEX
  8
LAYER_1
 10
110.9345
 20
190.5635
  0
SEQEND
  0
POLYLINE
  8
LAYER_1
 40
0.0811
 41
0.0811
 66
1
 10
0
 20
0
 30
0
 70
1
  0
VERTEX
  8
LAYER_1
 10
110.9557
 20
190.4576
  0
VERTEX
  8
LAYER_1
 10
110.9557
 20
190.373
  0
VERTEX
  8
LAYER_1
 10
110.871
 20
190.373
  0
VERTEX
  8
LAYER_1
 10
110.871
 20
190.2883
  0
VERTEX
  8
LAYER_1
 10
110.7863
 20
190.2883
  0
VERTEX
  8
LAYER_1
 10
110.7017
 20
190.2883
  0
VERTEX
  8
LAYER_1
 10
110.617
 20
190.2883
  0
VERTEX
  8
LAYER_1
 10
110.5323
 20
190.2883
  0
VERTEX
  8
LAYER_1
 10
110.5323
 20
190.373
  0
VERTEX
  8
LAYER_1
 10
110.4477
 20
190.373
  0
VERTEX
  8
LAYER_1
 10
110.4477
 20
190.4576
  0
VERTEX
  8
LAYER_1
 10
110.4477
 20
190.5423
  0
VERTEX
  8
LAYER_1
 10
110.4477
 20
190.627
  0
VERTEX
  8
LAYER_1
 10
110.5323
 20
190.627
  0
VERTEX
  8
LAYER_1
 10
110.5323
 20
190.7116
  0
VERTEX
  8
LAYER_1
 10
110.617
 20
190.7116
  0
VERTEX
  8
LAYER_1
 10
110.7017
 20
190.7116
  0
VERTEX
  8
LAYER_1
 10
110.7863
 20
190.7116
  0
VERTEX
  8
LAYER_1
 10
110.871
 20
190.7116
  0
VERTEX
  8
LAYER_1
 10
110.871
 20
190.627
  0
VERTEX
  8
LAYER_1
 10
110.9557
 20
190.627
  0
VERTEX
  8
LAYER_1
 10
110.9557
 20
190.5423
  0
SEQEND
  0
POLYLINE
  8
LAYER_1
 40
0.1764
 41
0.1764
 66
1
 10
0
 20
0
 30
0
 70
1
  0
VERTEX
  8
LAYER_1
 10
201.803
 20
190.4576
  0
VERTEX
  8
LAYER_1
 10
201.803
 20
190.5423
  0
VERTEX
  8
LAYER_1
 10
201.8877
 20
190.5423
  0
VERTEX
  8
LAYER_1
 10
201.8877
 20
190.627
  0
VERTEX
  8
LAYER_1
 10
201.8877
 20
190.7116
  0
VERTEX
  8
LAYER_1
 10
201.9723
 20
190.7116
  0
VERTEX
  8
LAYER_1
 10
202.057
 20
190.7116
  0
VERTEX
  8
LAYER_1
 10
202.1417
 20
190.7116
  0
VERTEX
  8
LAYER_1
 10
202.2263
 20
190.7116
  0
VERTEX
  8
LAYER_1
 10
202.311
 20
190.7116
  0
VERTEX
  8
LAYER_1
 10
202.311
 20
190.627
  0
VERTEX
  8
LAYER_1
 10
202.311
 20
190.5423
  0
VERTEX
  8
LAYER_1
 10
202.311
 20
190.4576
  0
VERTEX
  8
LAYER_1
 10
202.311
 20
190.373
  0
VERTEX
  8
LAYER_1
 10
202.311
 20
190.2883
  0
VERTEX
  8
LAYER_1
 10
202.2263
 20
190.2883
  0
VERTEX
  8
LAYER_1
 10
202.1417
 20
190.2883
  0
VERTEX
  8
LAYER_1
 10
202.057
 20
190.2883
  0
VERTEX
  8
LAYER_1
 10
201.9723
 20
190.2883
  0
VERTEX
  8
LAYER_1
 10
201.8877
 20
190.2883
  0
VERTEX
  8
LAYER_1
 10
201.8877
 20
190.373
  0
VERTEX
  8
LAYER_1
 10
201.8877
 20
190.4576
  0
SEQEND
  0
POLYLINE
  8
LAYER_1
 40
0.05
 41
0.05
 66
1
 10
0
 20
0
 30
0
 70
1
  0
VERTEX
  8
LAYER_1
 10
201.7818
 20
190.4788
  0
VERTEX
  8
LAYER_1
 10
201.7818
 20
190.5635
  0
VERTEX
  8
LAYER_1
 10
201.8665
 20
190.5635
  0
VERTEX
  8
LAYER_1
 10
201.8665
 20
190.6481
  0
VERTEX
  8
LAYER_1
 10
201.8665
 20
190.7328
  0
VERTEX
  8
LAYER_1
 10
201.9512
 20
190.7328
  0
VERTEX
  8
LAYER_1
 10
202.0358
 20
190.7328
  0
VERTEX
  8
LAYER_1
 10
202.1205
 20
190.7328
  0
VERTEX
  8
LAYER_1
 10
202.2052
 20
190.7328
  0
VERTEX
  8
LAYER_1
 10
202.2898
 20
190.7328
  0
VERTEX
  8
LAYER_1
 10
202.2898
 20
190.6481
  0
VERTEX
  8
LAYER_1
 10
202.2898
 20
190.5635
  0
VERTEX
  8
LAYER_1
 10
202.2898
 20
190.4788
  0
VERTEX
  8
LAYER_1
 10
202.2898
 20
190.3941
  0
VERTEX
  8
LAYER_1
 10
202.2898
 20
190.3095
  0
VERTEX
  8
LAYER_1
 10
202.2052
 20
190.3095
  0
VERTEX
  8
LAYER_1
 10
202.1205
 20
190.3095
  0
VERTEX
  8
LAYER_1
 10
202.0358
 20
190.3095
  0
VERTEX
  8
LAYER_1
 10
201.9512
 20
190.3095
  0
VERTEX
  8
LAYER_1
 10
201.8665
 20
190.3095
  0
VERTEX
  8
LAYER_1
 10
201.8665
 20
190.3941
  0
VERTEX
  8
LAYER_1
 10
201.8665
 20
190.4788
  0
SEQEND
  0
POLYLINE
  8
LAYER_1
 40
0.0811
 41
0.0811
 66
1
 10
0
 20
0
 30
0
 70
1
  0
VERTEX
  8
LAYER_1
 10
201.803
 20
190.4576
  0
VERTEX
  8
LAYER_1
 10
201.803
 20
190.5423
  0
VERTEX
  8
LAYER_1
 10
201.8877
 20
190.5423
  0
VERTEX
  8
LAYER_1
 10
201.8877
 20
190.627
  0
VERTEX
  8
LAYER_1
 10
201.8877
 20
190.7116
  0
VERTEX
  8
LAYER_1
 10
201.9723
 20
190.7116
  0
VERTEX
  8
LAYER_1
 10
202.057
 20
190.7116
  0
VERTEX
  8
LAYER_1
 10
202.1417
 20
190.7116
  0
VERTEX
  8
LAYER_1
 10
202.2263
 20
190.7116
  0
VERTEX
  8
LAYER_1
 10
202.311
 20
190.7116
  0
VERTEX
  8
LAYER_1
 10
202.311
 20
190.627
  0
VERTEX
  8
LAYER_1
 10
202.311
 20
190.5423
  0
VERTEX
  8
LAYER_1
 10
202.311
 20
190.4576
  0
VERTEX
  8
LAYER_1
 10
202.311
 20
190.373
  0
VERTEX
  8
LAYER_1
 10
202.311
 20
190.2883
  0
VERTEX
  8
LAYER_1
 10
202.2263
 20
190.2883
  0
VERTEX
  8
LAYER_1
 10
202.1417
 20
190.2883
  0
VERTEX
  8
LAYER_1
 10
202.057
 20
190.2883
  0
VERTEX
  8
LAYER_1
 10
201.9723
 20
190.2883
  0
VERTEX
  8
LAYER_1
 10
201.8877
 20
190.2883
  0
VERTEX
  8
LAYER_1
 10
201.8877
 20
190.373
  0
VERTEX
  8
LAYER_1
 10
201.8877
 20
190.4576
  0
SEQEND
  0
POLYLINE
  8
LAYER_1
 40
0.05
 41
0.05
 62
255
 66
1
 10
0
 20
0
 30
0
 70
1
  0
VERTEX
  8
LAYER_1
 10
154.0298
 20
194.9661
  0
VERTEX
  8
LAYER_1
 10
158.6865
 20
194.9661
  0
VERTEX
  8
LAYER_1
 10
158.6865
 20
191.7488
  0
VERTEX
  8
LAYER_1
 10
154.0298
 20
191.7488
  0
SEQEND
  0
TEXT
  8
LAYER_1
 10
154.0511
 20
192.2932
 11
154.0511
 21
192.2932
 40
3.4028
 41
0.5
  1
457
  0
POLYLINE
  8
LAYER_1
 40
0.1764
 41
0.1764
 66
1
 10
0
 20
0
 30
0
  0
VERTEX
  8
LAYER_1
 10
203.073
 20
211.1163
  0
VERTEX
  8
LAYER_1
 10
208.661
 20
211.1163
  0
SEQEND
  0
POLYLINE
  8
LAYER_1
 40
0.1764
 41
0.1764
 66
1
 10
0
 20
0
 30
0
  0
VERTEX
  8
LAYER_1
 10
203.073
 20
204.9356
  0
VERTEX
  8
LAYER_1
 10
208.661
 20
204.9356
  0
SEQEND
  0
POLYLINE
  8
LAYER_1
 40
0.1764
 41
0.1764
 66
1
 10
0
 20
0
 30
0
  0
VERTEX
  8
LAYER_1
 10
208.661
 20
211.1163
  0
VERTEX
  8
LAYER_1
 10
208.661
 20
204.9356
  0
SEQEND
  0
POLYLINE
  8
LAYER_1
 40
0.1764
 41
0.1764
 66
1
 10
0
 20
0
 30
0
 70
1
  0
VERTEX
  8
LAYER_1
 10
208.661
 20
210.8623
  0
VERTEX
  8
LAYER_1
 10
208.5763
 20
210.8623
  0
VERTEX
  8
LAYER_1
 10
208.5763
 20
210.947
  0
VERTEX
  8
LAYER_1
 10
208.4917
 20
210.947
  0
VERTEX
  8
LAYER_1
 10
208.4917
 20
211.0316
  0
VERTEX
  8
LAYER_1
 10
208.407
 20
211.0316
  0
VERTEX
  8
LAYER_1
 10
208.407
 20
211.1163
  0
VERTEX
  8
LAYER_1
 10
208.407
 20
211.201
  0
VERTEX
  8
LAYER_1
 10
208.4917
 20
211.201
  0
VERTEX
  8
LAYER_1
 10
208.4917
 20
211.2856
  0
VERTEX
  8
LAYER_1
 10
208.5763
 20
211.2856
  0
VERTEX
  8
LAYER_1
 10
208.5763
 20
211.3703
  0
VERTEX
  8
LAYER_1
 10
208.661
 20
211.3703
  0
VERTEX
  8
LAYER_1
 10
208.7457
 20
211.3703
  0
VERTEX
  8
LAYER_1
 10
208.8303
 20
211.3703
  0
VERTEX
  8
LAYER_1
 10
208.8303
 20
211.2856
  0
VERTEX
  8
LAYER_1
 10
208.915
 20
211.2856
  0
VERTEX
  8
LAYER_1
 10
208.915
 20
211.201
  0
VERTEX
  8
LAYER_1
 10
208.915
 20
211.1163
  0
VERTEX
  8
LAYER_1
 10
208.915
 20
211.0316
  0
VERTEX
  8
LAYER_1
 10
208.915
 20
210.947
  0
VERTEX
  8
LAYER_1
 10
208.8303
 20
210.947
  0
VERTEX
  8
LAYER_1
 10
208.8303
 20
210.8623
  0
VERTEX
  8
LAYER_1
 10
208.7457
 20
210.8623
  0
SEQEND
  0
POLYLINE
  8
LAYER_1
 40
0.05
 41
0.05
 66
1
 10
0
 20
0
 30
0
 70
1
  0
VERTEX
  8
LAYER_1
 10
208.6398
 20
210.8835
  0
VERTEX
  8
LAYER_1
 10
208.5552
 20
210.8835
  0
VERTEX
  8
LAYER_1
 10
208.5552
 20
210.9682
  0
VERTEX
  8
LAYER_1
 10
208.4705
 20
210.9682
  0
VERTEX
  8
LAYER_1
 10
208.4705
 20
211.0528
  0
VERTEX
  8
LAYER_1
 10
208.3858
 20
211.0528
  0
VERTEX
  8
LAYER_1
 10
208.3858
 20
211.1375
  0
VERTEX
  8
LAYER_1
 10
208.3858
 20
211.2221
  0
VERTEX
  8
LAYER_1
 10
208.4705
 20
211.2221
  0
VERTEX
  8
LAYER_1
 10
208.4705
 20
211.3068
  0
VERTEX
  8
LAYER_1
 10
208.5552
 20
211.3068
  0
VERTEX
  8
LAYER_1
 10
208.5552
 20
211.3915
  0
VERTEX
  8
LAYER_1
 10
208.6398
 20
211.3915
  0
VERTEX
  8
LAYER_1
 10
208.7245
 20
211.3915
  0
VERTEX
  8
LAYER_1
 10
208.8092
 20
211.3915
  0
VERTEX
  8
LAYER_1
 10
208.8092
 20
211.3068
  0
VERTEX
  8
LAYER_1
 10
208.8938
 20
211.3068
  0
VERTEX
  8
LAYER_1
 10
208.8938
 20
211.2221
  0
VERTEX
  8
LAYER_1
 10
208.8938
 20
211.1375
  0
VERTEX
  8
LAYER_1
 10
208.8938
 20
211.0528
  0
VERTEX
  8
LAYER_1
 10
208.8938
 20
210.9682
  0
VERTEX
  8
LAYER_1
 10
208.8092
 20
210.9682
  0
VERTEX
  8
LAYER_1
 10
208.8092
 20
210.8835
  0
VERTEX
  8
LAYER_1
 10
208.7245
 20
210.8835
  0
SEQEND
  0
POLYLINE
  8
LAYER_1
 40
0.0811
 41
0.0811
 66
1
 10
0
 20
0
 30
0
 70
1
  0
VERTEX
  8
LAYER_1
 10
208.661
 20
210.8623
  0
VERTEX
  8
LAYER_1
 10
208.5763
 20
210.8623
  0
VERTEX
  8
LAYER_1
 10
208.5763
 20
210.947
  0
VERTEX
  8
LAYER_1
 10
208.4917
 20
210.947
  0
VERTEX
  8
LAYER_1
 10
208.4917
 20
211.0316
  0
VERTEX
  8
LAYER_1
 10
208.407
 20
211.0316
  0
VERTEX
  8
LAYER_1
 10
208.407
 20
211.1163
  0
VERTEX
  8
LAYER_1
 10
208.407
 20
211.201
  0
VERTEX
  8
LAYER_1
 10
208.4917
 20
211.201
  0
VERTEX
  8
LAYER_1
 10
208.4917
 20
211.2856
  0
VERTEX
  8
LAYER_1
 10
208.5763
 20
211.2856
  0
VERTEX
  8
LAYER_1
 10
208.5763
 20
211.3703
  0
VERTEX
  8
LAYER_1
 10
208.661
 20
211.3703
  0
VERTEX
  8
LAYER_1
 10
208.7457
 20
211.3703
  0
VERTEX
  8
LAYER_1
 10
208.8303
 20
211.3703
  0
VERTEX
  8
LAYER_1
 10
208.8303
 20
211.2856
  0
VERTEX
  8
LAYER_1
 10
208.915
 20
211.2856
  0
VERTEX
  8
LAYER_1
 10
208.915
 20
211.201
  0
VERTEX
  8
LAYER_1
 10
208.915
 20
211.1163
  0
VERTEX
  8
LAYER_1
 10
208.915
 20
211.0316
  0
VERTEX
  8
LAYER_1
 10
208.915
 20
210.947
  0
VERTEX
  8
LAYER_1
 10
208.8303
 20
210.947
  0
VERTEX
  8
LAYER_1
 10
208.8303
 20
210.8623
  0
VERTEX
  8
LAYER_1
 10
208.7457
 20
210.8623
  0
SEQEND
  0
POLYLINE
  8
LAYER_1
 40
0.1764
 41
0.1764
 66
1
 10
0
 20
0
 30
0
 70
1
  0
VERTEX
  8
LAYER_1
 10
208.661
 20
205.1897
  0
VERTEX
  8
LAYER_1
 10
208.7457
 20
205.1897
  0
VERTEX
  8
LAYER_1
 10
208.8303
 20
205.1897
  0
VERTEX
  8
LAYER_1
 10
208.8303
 20
205.105
  0
VERTEX
  8
LAYER_1
 10
208.915
 20
205.105
  0
VERTEX
  8
LAYER_1
 10
208.915
 20
205.0203
  0
VERTEX
  8
LAYER_1
 10
208.915
 20
204.9356
  0
VERTEX
  8
LAYER_1
 10
208.915
 20
204.851
  0
VERTEX
  8
LAYER_1
 10
208.915
 20
204.7663
  0
VERTEX
  8
LAYER_1
 10
208.8303
 20
204.7663
  0
VERTEX
  8
LAYER_1
 10
208.8303
 20
204.6816
  0
VERTEX
  8
LAYER_1
 10
208.7457
 20
204.6816
  0
VERTEX
  8
LAYER_1
 10
208.661
 20
204.6816
  0
VERTEX
  8
LAYER_1
 10
208.5763
 20
204.6816
  0
VERTEX
  8
LAYER_1
 10
208.4917
 20
204.7663
  0
VERTEX
  8
LAYER_1
 10
208.4917
 20
204.851
  0
VERTEX
  8
LAYER_1
 10
208.407
 20
204.851
  0
VERTEX
  8
LAYER_1
 10
208.407
 20
204.9356
  0
VERTEX
  8
LAYER_1
 10
208.4917
 20
205.0203
  0
VERTEX
  8
LAYER_1
 10
208.4917
 20
205.105
  0
VERTEX
  8
LAYER_1
 10
208.5763
 20
205.105
  0
VERTEX
  8
LAYER_1
 10
208.5763
 20
205.1897
  0
SEQEND
  0
POLYLINE
  8
LAYER_1
 40
0.05
 41
0.05
 66
1
 10
0
 20
0
 30
0
 70
1
  0
VERTEX
  8
LAYER_1
 10
208.6398
 20
205.2108
  0
VERTEX
  8
LAYER_1
 10
208.7245
 20
205.2108
  0
VERTEX
  8
LAYER_1
 10
208.8092
 20
205.2108
  0
VERTEX
  8
LAYER_1
 10
208.8092
 20
205.1262
  0
VERTEX
  8
LAYER_1
 10
208.8938
 20
205.1262
  0
VERTEX
  8
LAYER_1
 10
208.8938
 20
205.0415
  0
VERTEX
  8
LAYER_1
 10
208.8938
 20
204.9568
  0
VERTEX
  8
LAYER_1
 10
208.8938
 20
204.8721
  0
VERTEX
  8
LAYER_1
 10
208.8938
 20
204.7875
  0
VERTEX
  8
LAYER_1
 10
208.8092
 20
204.7875
  0
VERTEX
  8
LAYER_1
 10
208.8092
 20
204.7028
  0
VERTEX
  8
LAYER_1
 10
208.7245
 20
204.7028
  0
VERTEX
  8
LAYER_1
 10
208.6398
 20
204.7028
  0
VERTEX
  8
LAYER_1
 10
208.5552
 20
204.7028
  0
VERTEX
  8
LAYER_1
 10
208.4705
 20
204.7875
  0
VERTEX
  8
LAYER_1
 10
208.4705
 20
204.8721
  0
VERTEX
  8
LAYER_1
 10
208.3858
 20
204.8721
  0
VERTEX
  8
LAYER_1
 10
208.3858
 20
204.9568
  0
VERTEX
  8
LAYER_1
 10
208.4705
 20
205.0415
  0
VERTEX
  8
LAYER_1
 10
208.4705
 20
205.1262
  0
VERTEX
  8
LAYER_1
 10
208.5552
 20
205.1262
  0
VERTEX
  8
LAYER_1
 10
208.5552
 20
205.2108
  0
SEQEND
  0
POLYLINE
  8
LAYER_1
 40
0.0811
 41
0.0811
 66
1
 10
0
 20
0
 30
0
 70
1
  0
VERTEX
  8
LAYER_1
 10
208.661
 20
205.1897
  0
VERTEX
  8
LAYER_1
 10
208.7457
 20
205.1897
  0
VERTEX
  8
LAYER_1
 10
208.8303
 20
205.1897
  0
VERTEX
  8
LAYER_1
 10
208.8303
 20
205.105
  0
VERTEX
  8
LAYER_1
 10
208.915
 20
205.105
  0
VERTEX
  8
LAYER_1
 10
208.915
 20
205.0203
  0
VERTEX
  8
LAYER_1
 10
208.915
 20
204.9356
  0
VERTEX
  8
LAYER_1
 10
208.915
 20
204.851
  0
VERTEX
  8
LAYER_1
 10
208.915
 20
204.7663
  0
VERTEX
  8
LAYER_1
 10
208.8303
 20
204.7663
  0
VERTEX
  8
LAYER_1
 10
208.8303
 20
204.6816
  0
VERTEX
  8
LAYER_1
 10
208.7457
 20
204.6816
  0
VERTEX
  8
LAYER_1
 10
208.661
 20
204.6816
  0
VERTEX
  8
LAYER_1
 10
208.5763
 20
204.6816
  0
VERTEX
  8
LAYER_1
 10
208.4917
 20
204.7663
  0
VERTEX
  8
LAYER_1
 10
208.4917
 20
204.851
  0
VERTEX
  8
LAYER_1
 10
208.407
 20
204.851
  0
VERTEX
  8
LAYER_1
 10
208.407
 20
204.9356
  0
VERTEX
  8
LAYER_1
 10
208.4917
 20
205.0203
  0
VERTEX
  8
LAYER_1
 10
208.4917
 20
205.105
  0
VERTEX
  8
LAYER_1
 10
208.5763
 20
205.105
  0
VERTEX
  8
LAYER_1
 10
208.5763
 20
205.1897
  0
SEQEND
  0
POLYLINE
  8
LAYER_1
 40
0.05
 41
0.05
 62
255
 66
1
 10
0
 20
0
 30
0
 70
1
  0
VERTEX
  8
LAYER_1
 10
204.2372
 20
206.4808
  0
VERTEX
  8
LAYER_1
 10
204.2372
 20
209.6135
  0
VERTEX
  8
LAYER_1
 10
207.4545
 20
209.6135
  0
VERTEX
  8
LAYER_1
 10
207.4545
 20
206.4808
  0
SEQEND
  0
TEXT
  8
LAYER_1
 10
206.9102
 20
206.4596
 11
206.9102
 21
206.4596
 40
3.4028
 41
0.5
 50
89.99999999
  1
31
  0
POLYLINE
  8
LAYER_1
 40
0.1764
 41
0.1764
 66
1
 10
0
 20
0
 30
0
  0
VERTEX
  8
LAYER_1
 10
202.3957
 20
73.9563
  0
VERTEX
  8
LAYER_1
 10
207.8143
 20
73.9563
  0
SEQEND
  0
POLYLINE
  8
LAYER_1
 40
0.1764
 41
0.1764
 66
1
 10
0
 20
0
 30
0
  0
VERTEX
  8
LAYER_1
 10
202.3957
 20
71.0777
  0
VERTEX
  8
LAYER_1
 10
207.8143
 20
71.0777
  0
SEQEND
  0
POLYLINE
  8
LAYER_1
 40
0.1764
 41
0.1764
 66
1
 10
0
 20
0
 30
0
  0
VERTEX
  8
LAYER_1
 10
207.8143
 20
73.9563
  0
VERTEX
  8
LAYER_1
 10
207.8143
 20
71.0777
  0
SEQEND
  0
POLYLINE
  8
LAYER_1
 40
0.1764
 41
0.1764
 66
1
 10
0
 20
0
 30
0
 70
1
  0
VERTEX
  8
LAYER_1
 10
207.8143
 20
73.7023
  0
VERTEX
  8
LAYER_1
 10
207.7297
 20
73.7023
  0
VERTEX
  8
LAYER_1
 10
207.645
 20
73.7023
  0
VERTEX
  8
LAYER_1
 10
207.645
 20
73.787
  0
VERTEX
  8
LAYER_1
 10
207.5603
 20
73.787
  0
VERTEX
  8
LAYER_1
 10
207.5603
 20
73.8717
  0
VERTEX
  8
LAYER_1
 10
207.5603
 20
73.9563
  0
VERTEX
  8
LAYER_1
 10
207.5603
 20
74.041
  0
VERTEX
  8
LAYER_1
 10
207.645
 20
74.1257
  0
VERTEX
  8
LAYER_1
 10
207.7297
 20
74.1257
  0
VERTEX
  8
LAYER_1
 10
207.8143
 20
74.2103
  0
VERTEX
  8
LAYER_1
 10
207.8143
 20
74.1257
  0
VERTEX
  8
LAYER_1
 10
207.899
 20
74.1257
  0
VERTEX
  8
LAYER_1
 10
207.9837
 20
74.1257
  0
VERTEX
  8
LAYER_1
 10
207.9837
 20
74.041
  0
VERTEX
  8
LAYER_1
 10
208.0683
 20
74.041
  0
VERTEX
  8
LAYER_1
 10
208.0683
 20
73.9563
  0
VERTEX
  8
LAYER_1
 10
208.0683
 20
73.8717
  0
VERTEX
  8
LAYER_1
 10
207.9837
 20
73.787
  0
VERTEX
  8
LAYER_1
 10
207.9837
 20
73.7023
  0
VERTEX
  8
LAYER_1
 10
207.899
 20
73.7023
  0
SEQEND
  0
POLYLINE
  8
LAYER_1
 40
0.05
 41
0.05
 66
1
 10
0
 20
0
 30
0
 70
1
  0
VERTEX
  8
LAYER_1
 10
207.7932
 20
73.7235
  0
VERTEX
  8
LAYER_1
 10
207.7085
 20
73.7235
  0
VERTEX
  8
LAYER_1
 10
207.6238
 20
73.7235
  0
VERTEX
  8
LAYER_1
 10
207.6238
 20
73.8082
  0
VERTEX
  8
LAYER_1
 10
207.5392
 20
73.8082
  0
VERTEX
  8
LAYER_1
 10
207.5392
 20
73.8928
  0
VERTEX
  8
LAYER_1
 10
207.5392
 20
73.9775
  0
VERTEX
  8
LAYER_1
 10
207.5392
 20
74.0622
  0
VERTEX
  8
LAYER_1
 10
207.6238
 20
74.1468
  0
VERTEX
  8
LAYER_1
 10
207.7085
 20
74.1468
  0
VERTEX
  8
LAYER_1
 10
207.7932
 20
74.2315
  0
VERTEX
  8
LAYER_1
 10
207.7932
 20
74.1468
  0
VERTEX
  8
LAYER_1
 10
207.8778
 20
74.1468
  0
VERTEX
  8
LAYER_1
 10
207.9625
 20
74.1468
  0
VERTEX
  8
LAYER_1
 10
207.9625
 20
74.0622
  0
VERTEX
  8
LAYER_1
 10
208.0472
 20
74.0622
  0
VERTEX
  8
LAYER_1
 10
208.0472
 20
73.9775
  0
VERTEX
  8
LAYER_1
 10
208.0472
 20
73.8928
  0
VERTEX
  8
LAYER_1
 10
207.9625
 20
73.8082
  0
VERTEX
  8
LAYER_1
 10
207.9625
 20
73.7235
  0
VERTEX
  8
LAYER_1
 10
207.8778
 20
73.7235
  0
SEQEND
  0
POLYLINE
  8
LAYER_1
 40
0.0811
 41
0.0811
 66
1
 10
0
 20
0
 30
0
 70
1
  0
VERTEX
  8
LAYER_1
 10
207.8143
 20
73.7023
  0
VERTEX
  8
LAYER_1
 10
207.7297
 20
73.7023
  0
VERTEX
  8
LAYER_1
 10
207.645
 20
73.7023
  0
VERTEX
  8
LAYER_1
 10
207.645
 20
73.787
  0
VERTEX
  8
LAYER_1
 10
207.5603
 20
73.787
  0
VERTEX
  8
LAYER_1
 10
207.5603
 20
73.8717
  0
VERTEX
  8
LAYER_1
 10
207.5603
 20
73.9563
  0
VERTEX
  8
LAYER_1
 10
207.5603
 20
74.041
  0
VERTEX
  8
LAYER_1
 10
207.645
 20
74.1257
  0
VERTEX
  8
LAYER_1
 10
207.7297
 20
74.1257
  0
VERTEX
  8
LAYER_1
 10
207.8143
 20
74.2103
  0
VERTEX
  8
LAYER_1
 10
207.8143
 20
74.1257
  0
VERTEX
  8
LAYER_1
 10
207.899
 20
74.1257
  0
VERTEX
  8
LAYER_1
 10
207.9837
 20
74.1257
  0
VERTEX
  8
LAYER_1
 10
207.9837
 20
74.041
  0
VERTEX
  8
LAYER_1
 10
208.0683
 20
74.041
  0
VERTEX
  8
LAYER_1
 10
208.0683
 20
73.9563
  0
VERTEX
  8
LAYER_1
 10
208.0683
 20
73.8717
  0
VERTEX
  8
LAYER_1
 10
207.9837
 20
73.787
  0
VERTEX
  8
LAYER_1
 10
207.9837
 20
73.7023
  0
VERTEX
  8
LAYER_1
 10
207.899
 20
73.7023
  0
SEQEND
  0
POLYLINE
  8
LAYER_1
 40
0.1764
 41
0.1764
 66
1
 10
0
 20
0
 30
0
 70
1
  0
VERTEX
  8
LAYER_1
 10
207.8143
 20
71.3317
  0
VERTEX
  8
LAYER_1
 10
207.899
 20
71.3317
  0
VERTEX
  8
LAYER_1
 10
207.9837
 20
71.3317
  0
VERTEX
  8
LAYER_1
 10
207.9837
 20
71.247
  0
VERTEX
  8
LAYER_1
 10
208.0683
 20
71.1623
  0
VERTEX
  8
LAYER_1
 10
208.0683
 20
71.0777
  0
VERTEX
  8
LAYER_1
 10
208.0683
 20
70.993
  0
VERTEX
  8
LAYER_1
 10
207.9837
 20
70.993
  0
VERTEX
  8
LAYER_1
 10
207.9837
 20
70.9083
  0
VERTEX
  8
LAYER_1
 10
207.899
 20
70.9083
  0
VERTEX
  8
LAYER_1
 10
207.8143
 20
70.9083
  0
VERTEX
  8
LAYER_1
 10
207.7297
 20
70.9083
  0
VERTEX
  8
LAYER_1
 10
207.645
 20
70.9083
  0
VERTEX
  8
LAYER_1
 10
207.5603
 20
70.993
  0
VERTEX
  8
LAYER_1
 10
207.5603
 20
71.0777
  0
VERTEX
  8
LAYER_1
 10
207.5603
 20
71.1623
  0
VERTEX
  8
LAYER_1
 10
207.5603
 20
71.247
  0
VERTEX
  8
LAYER_1
 10
207.645
 20
71.247
  0
VERTEX
  8
LAYER_1
 10
207.645
 20
71.3317
  0
VERTEX
  8
LAYER_1
 10
207.7297
 20
71.3317
  0
SEQEND
  0
POLYLINE
  8
LAYER_1
 40
0.05
 41
0.05
 66
1
 10
0
 20
0
 30
0
 70
1
  0
VERTEX
  8
LAYER_1
 10
207.7932
 20
71.3528
  0
VERTEX
  8
LAYER_1
 10
207.8778
 20
71.3528
  0
VERTEX
  8
LAYER_1
 10
207.9625
 20
71.3528
  0
VERTEX
  8
LAYER_1
 10
207.9625
 20
71.2682
  0
VERTEX
  8
LAYER_1
 10
208.0472
 20
71.1835
  0
VERTEX
  8
LAYER_1
 10
208.0472
 20
71.0988
  0
VERTEX
  8
LAYER_1
 10
208.0472
 20
71.0142
  0
VERTEX
  8
LAYER_1
 10
207.9625
 20
71.0142
  0
VERTEX
  8
LAYER_1
 10
207.9625
 20
70.9295
  0
VERTEX
  8
LAYER_1
 10
207.8778
 20
70.9295
  0
VERTEX
  8
LAYER_1
 10
207.7932
 20
70.9295
  0
VERTEX
  8
LAYER_1
 10
207.7085
 20
70.9295
  0
VERTEX
  8
LAYER_1
 10
207.6238
 20
70.9295
  0
VERTEX
  8
LAYER_1
 10
207.5392
 20
71.0142
  0
VERTEX
  8
LAYER_1
 10
207.5392
 20
71.0988
  0
VERTEX
  8
LAYER_1
 10
207.5392
 20
71.1835
  0
VERTEX
  8
LAYER_1
 10
207.5392
 20
71.2682
  0
VERTEX
  8
LAYER_1
 10
207.6238
 20
71.2682
  0
VERTEX
  8
LAYER_1
 10
207.6238
 20
71.3528
  0
VERTEX
  8
LAYER_1
 10
207.7085
 20
71.3528
  0
SEQEND
  0
POLYLINE
  8
LAYER_1
 40
0.0811
 41
0.0811
 66
1
 10
0
 20
0
 30
0
 70
1
  0
VERTEX
  8
LAYER_1
 10
207.8143
 20
71.3317
  0
VERTEX
  8
LAYER_1
 10
207.899
 20
71.3317
  0
VERTEX
  8
LAYER_1
 10
207.9837
 20
71.3317
  0
VERTEX
  8
LAYER_1
 10
207.9837
 20
71.247
  0
VERTEX
  8
LAYER_1
 10
208.0683
 20
71.1623
  0
VERTEX
  8
LAYER_1
 10
208.0683
 20
71.0777
  0
VERTEX
  8
LAYER_1
 10
208.0683
 20
70.993
  0
VERTEX
  8
LAYER_1
 10
207.9837
 20
70.993
  0
VERTEX
  8
LAYER_1
 10
207.9837
 20
70.9083
  0
VERTEX
  8
LAYER_1
 10
207.899
 20
70.9083
  0
VERTEX
  8
LAYER_1
 10
207.8143
 20
70.9083
  0
VERTEX
  8
LAYER_1
 10
207.7297
 20
70.9083
  0
VERTEX
  8
LAYER_1
 10
207.645
 20
70.9083
  0
VERTEX
  8
LAYER_1
 10
207.5603
 20
70.993
  0
VERTEX
  8
LAYER_1
 10
207.5603
 20
71.0777
  0
VERTEX
  8
LAYER_1
 10
207.5603
 20
71.1623
  0
VERTEX
  8
LAYER_1
 10
207.5603
 20
71.247
  0
VERTEX
  8
LAYER_1
 10
207.645
 20
71.247
  0
VERTEX
  8
LAYER_1
 10
207.645
 20
71.3317
  0
VERTEX
  8
LAYER_1
 10
207.7297
 20
71.3317
  0
SEQEND
  0
POLYLINE
  8
LAYER_1
 40
0.05
 41
0.05
 62
255
 66
1
 10
0
 20
0
 30
0
 70
1
  0
VERTEX
  8
LAYER_1
 10
203.3905
 20
70.9295
  0
VERTEX
  8
LAYER_1
 10
203.3905
 20
74.1468
  0
VERTEX
  8
LAYER_1
 10
206.6078
 20
74.1468
  0
VERTEX
  8
LAYER_1
 10
206.6078
 20
70.9295
  0
SEQEND
  0
TEXT
  8
LAYER_1
 10
206.0634
 20
70.9083
 11
206.0634
 21
70.9083
 40
3.4028
 41
0.5
 50
89.99999999
  1
14
  0
ENDSEC
  0
EOF
