  0
SECTION
  2
HEADER
  9
$ACADVER
  1
AC1009
  9
$LUNITS
 70
2
  9
$LUPREC
 70
4
  9
$LTSCALE
 40
1.0
  9
$EXTMIN
 10
-19.8543
 20
27.567
 30
0
  9
$EXTMAX
 10
447.9289
 20
302.7257
 30
0
  0
ENDSEC
  0
SECTION
  2
TABLES
  0
TABLE
  2
LTYPE
 70
256
  0
ENDTAB
  0
TABLE
  2
LAYER
 70
1
  0
LAYER
  2
LAYER_1
 70
64
 62
7
  6
CONTINUOUS
  0
ENDTAB
  0
TABLE
  2
STYLE
 70
6
  0
STYLE
  2
STANDARD
 70
0
 40
0
 50
0
 71
0
 41
0
 42
0
  3
TXT
  4
BIGFONT
  0
ENDTAB
  0
ENDSEC
  0
SECTION
  2
BLOCKS
  0
BLOCK
  8
LAYER_1
  2
AIGNBL01020003
 70
64
 10
0
 20
0
 30
0
  3
AIGNBL01020003
  0
POLYLINE
  8
LAYER_1
 40
0.05
 41
0.05
 66
1
 10
0
 20
0
 30
0
 70
1
  0
VERTEX
  8
LAYER_1
 10
273.8944
 20
151.4185
 42
0.003792564866
  0
VERTEX
  8
LAYER_1
 10
273.7201
 20
150.7662
  0
VERTEX
  8
LAYER_1
 10
271.858
 20
150.7662
  0
VERTEX
  8
LAYER_1
 10
271.858
 20
150.8807
 42
0.02278135619
  0
VERTEX
  8
LAYER_1
 10
272.6648
 20
151.7272
 42
0.04723243527
  0
VERTEX
  8
LAYER_1
 10
273.0917
 20
152.3072
 42
0.1230884842
  0
VERTEX
  8
LAYER_1
 10
273.287
 20
152.9321
 42
0.1777455227
  0
VERTEX
  8
LAYER_1
 10
273.1267
 20
153.4253
 42
0.2219572458
  0
VERTEX
  8
LAYER_1
 10
272.6996
 20
153.5944
 42
0.193485998
  0
VERTEX
  8
LAYER_1
 10
272.2521
 20
153.4093
 42
0.06419371577
  0
VERTEX
  8
LAYER_1
 10
272.0223
 20
153.1312
  0
VERTEX
  8
LAYER_1
 10
271.9128
 20
153.2308
  0
VERTEX
  8
LAYER_1
 10
272.1966
 20
153.6342
 42
-0.208904623
  0
VERTEX
  8
LAYER_1
 10
272.8688
 20
153.9279
 42
-0.2423387439
  0
VERTEX
  8
LAYER_1
 10
273.5676
 20
153.5656
 42
-0.1508948288
  0
VERTEX
  8
LAYER_1
 10
273.7053
 20
153.0864
 42
-0.1457630468
  0
VERTEX
  8
LAYER_1
 10
273.5223
 20
152.4552
 42
-0.0561285845
  0
VERTEX
  8
LAYER_1
 10
273.0479
 20
151.8715
  0
VERTEX
  8
LAYER_1
 10
272.341
 20
151.1296
  0
VERTEX
  8
LAYER_1
 10
273.2722
 20
151.1296
 42
0.1579153417
  0
VERTEX
  8
LAYER_1
 10
273.5486
 20
151.1729
 42
0.1175288435
  0
VERTEX
  8
LAYER_1
 10
273.6602
 20
151.2876
 42
0.02923461329
  0
VERTEX
  8
LAYER_1
 10
273.7549
 20
151.4633
  0
SEQEND
  0
POLYLINE
  8
LAYER_1
 40
0.05
 41
0.05
 66
1
 10
0
 20
0
 30
0
 70
1
  0
VERTEX
  8
LAYER_1
 10
274.6361
 20
150.7662
  0
VERTEX
  8
LAYER_1
 10
274.6361
 20
150.9005
 42
0.1328938396
  0
VERTEX
  8
LAYER_1
 10
275.0151
 20
150.9732
 42
0.1769939062
  0
VERTEX
  8
LAYER_1
 10
275.089
 20
151.0643
 42
0.09368909439
  0
VERTEX
  8
LAYER_1
 10
275.1143
 20
151.3337
  0
VERTEX
  8
LAYER_1
 10
275.1143
 20
153.2508
 42
0.2281865562
  0
VERTEX
  8
LAYER_1
 10
275.0722
 20
153.4964
 42
0.1691385028
  0
VERTEX
  8
LAYER_1
 10
274.9751
 20
153.5365
 42
0.05059313606
  0
VERTEX
  8
LAYER_1
 10
274.8752
 20
153.5446
  0
VERTEX
  8
LAYER_1
 10
274.6361
 20
153.5545
  0
VERTEX
  8
LAYER_1
 10
274.6361
 20
153.669
 42
0.05373039339
  0
VERTEX
  8
LAYER_1
 10
275.5225
 20
153.9279
  0
VERTEX
  8
LAYER_1
 10
275.5225
 20
151.3337
 42
0.1624746903
  0
VERTEX
  8
LAYER_1
 10
275.5657
 20
151.0301
 42
0.1606820438
  0
VERTEX
  8
LAYER_1
 10
275.658
 20
150.9565
 42
0.08261693812
  0
VERTEX
  8
LAYER_1
 10
276.0055
 20
150.9005
  0
VERTEX
  8
LAYER_1
 10
276.0055
 20
150.7662
  0
SEQEND
  0
POLYLINE
  8
LAYER_1
 40
0.05
 41
0.05
 66
1
 10
0
 20
0
 30
0
 70
1
  0
VERTEX
  8
LAYER_1
 10
278.6889
 20
152.3197
 42
-0.09150979782
  0
VERTEX
  8
LAYER_1
 10
278.519
 20
151.3616
 42
-0.1255490277
  0
VERTEX
  8
LAYER_1
 10
278.1632
 20
150.8652
 42
-0.1666328448
  0
VERTEX
  8
LAYER_1
 10
277.6781
 20
150.7064
 42
-0.250167264
  0
VERTEX
  8
LAYER_1
 10
276.9685
 20
151.0808
 42
-0.05876571822
  0
VERTEX
  8
LAYER_1
 10
276.8173
 20
151.3647
 42
-0.09242420725
  0
VERTEX
  8
LAYER_1
 10
276.6589
 20
152.2224
 42
-0.006999474923
  0
VERTEX
  8
LAYER_1
 10
276.6577
 20
152.3147
 42
-0.09115496735
  0
VERTEX
  8
LAYER_1
 10
276.825
 20
153.2571
 42
-0.1229333837
  0
VERTEX
  8
LAYER_1
 10
277.1794
 20
153.7599
 42
-0.170075482
  0
VERTEX
  8
LAYER_1
 10
277.6781
 20
153.9279
 42
-0.2543735813
  0
VERTEX
  8
LAYER_1
 10
278.382
 20
153.5474
 42
-0.1112915968
  0
VERTEX
  8
LAYER_1
 10
278.6394
 20
152.8769
 42
-0.04631208053
  0
SEQEND
  0
POLYLINE
  8
LAYER_1
 40
0.05
 41
0.05
 66
1
 10
0
 20
0
 30
0
 70
1
  0
VERTEX
  8
LAYER_1
 10
277.1007
 20
152.3246
 42
0.08355530849
  0
VERTEX
  8
LAYER_1
 10
277.2586
 20
151.2518
 42
0.07969525303
  0
VERTEX
  8
LAYER_1
 10
277.3914
 20
151.0197
 42
0.2174347907
  0
VERTEX
  8
LAYER_1
 10
277.6781
 20
150.8757
 42
0.2473844678
  0
VERTEX
  8
LAYER_1
 10
277.9895
 20
151.0437
 42
0.07133704529
  0
VERTEX
  8
LAYER_1
 10
278.1044
 20
151.2616
 42
0.04824924254
  0
VERTEX
  8
LAYER_1
 10
278.195
 20
151.6155
 42
0.04205638148
  0
VERTEX
  8
LAYER_1
 10
278.2459
 20
152.3197
 42
0.04174598549
  0
VERTEX
  8
LAYER_1
 10
278.1962
 20
153.0133
 42
0.05555749362
  0
VERTEX
  8
LAYER_1
 10
278.0922
 20
153.4047
 42
0.08536874964
  0
VERTEX
  8
LAYER_1
 10
277.9587
 20
153.6298
 42
0.2137425268
  0
VERTEX
  8
LAYER_1
 10
277.6733
 20
153.7636
 42
0.2457381326
  0
VERTEX
  8
LAYER_1
 10
277.3589
 20
153.5957
 42
0.07176830469
  0
VERTEX
  8
LAYER_1
 10
277.243
 20
153.3781
 42
0.04867446744
  0
VERTEX
  8
LAYER_1
 10
277.1518
 20
153.0252
 42
0.04241345838
  0
SEQEND
  0
ENDBLK
  0
BLOCK
  8
LAYER_1
  2
AIGNBL01020004
 70
64
 10
0
 20
0
 30
0
  3
AIGNBL01020004
  0
POLYLINE
  8
LAYER_1
 40
0.05
 41
0.05
 66
1
 10
0
 20
0
 30
0
 70
1
  0
VERTEX
  8
LAYER_1
 10
104.1747
 20
64.0502
 42
0.004097072737
  0
VERTEX
  8
LAYER_1
 10
104.0004
 20
63.398
  0
VERTEX
  8
LAYER_1
 10
102.1383
 20
63.398
  0
VERTEX
  8
LAYER_1
 10
102.1383
 20
63.5124
 42
0.02268425921
  0
VERTEX
  8
LAYER_1
 10
102.945
 20
64.3589
 42
0.04861448536
  0
VERTEX
  8
LAYER_1
 10
103.3773
 20
64.9485
 42
0.1223309618
  0
VERTEX
  8
LAYER_1
 10
103.5673
 20
65.564
 42
0.1778168788
  0
VERTEX
  8
LAYER_1
 10
103.4069
 20
66.0571
 42
0.2219148697
  0
VERTEX
  8
LAYER_1
 10
102.9798
 20
66.2261
 42
0.1934209243
  0
VERTEX
  8
LAYER_1
 10
102.5324
 20
66.0411
 42
0.06424097733
  0
VERTEX
  8
LAYER_1
 10
102.3026
 20
65.7631
  0
VERTEX
  8
LAYER_1
 10
102.1931
 20
65.8626
  0
VERTEX
  8
LAYER_1
 10
102.4769
 20
66.2661
 42
-0.2091134798
  0
VERTEX
  8
LAYER_1
 10
103.1491
 20
66.5599
 42
-0.2423189964
  0
VERTEX
  8
LAYER_1
 10
103.8479
 20
66.1977
 42
-0.1509194835
  0
VERTEX
  8
LAYER_1
 10
103.9856
 20
65.7183
 42
-0.1457837303
  0
VERTEX
  8
LAYER_1
 10
103.8025
 20
65.0871
 42
-0.05613230619
  0
VERTEX
  8
LAYER_1
 10
103.3282
 20
64.5036
  0
VERTEX
  8
LAYER_1
 10
102.6213
 20
63.7615
  0
VERTEX
  8
LAYER_1
 10
103.5523
 20
63.7615
 42
0.1577629198
  0
VERTEX
  8
LAYER_1
 10
103.8289
 20
63.8047
 42
0.117524195
  0
VERTEX
  8
LAYER_1
 10
103.9405
 20
63.9194
 42
0.02924070496
  0
VERTEX
  8
LAYER_1
 10
104.0353
 20
64.095
  0
SEQEND
  0
POLYLINE
  8
LAYER_1
 40
0.05
 41
0.05
 66
1
 10
0
 20
0
 30
0
 70
1
  0
VERTEX
  8
LAYER_1
 10
104.9164
 20
63.398
  0
VERTEX
  8
LAYER_1
 10
104.9164
 20
63.5324
 42
0.1331686579
  0
VERTEX
  8
LAYER_1
 10
105.2953
 20
63.605
 42
0.1771000352
  0
VERTEX
  8
LAYER_1
 10
105.3692
 20
63.6962
 42
0.09344099285
  0
VERTEX
  8
LAYER_1
 10
105.3944
 20
63.9658
  0
VERTEX
  8
LAYER_1
 10
105.3944
 20
65.8826
 42
0.2280498913
  0
VERTEX
  8
LAYER_1
 10
105.3523
 20
66.1284
 42
0.1692537347
  0
VERTEX
  8
LAYER_1
 10
105.2553
 20
66.1684
 42
0.05060023529
  0
VERTEX
  8
LAYER_1
 10
105.1555
 20
66.1765
  0
VERTEX
  8
LAYER_1
 10
104.9164
 20
66.1865
  0
VERTEX
  8
LAYER_1
 10
104.9164
 20
66.3009
 42
0.05376162202
  0
VERTEX
  8
LAYER_1
 10
105.8027
 20
66.5599
  0
VERTEX
  8
LAYER_1
 10
105.8027
 20
63.9658
 42
0.1624422912
  0
VERTEX
  8
LAYER_1
 10
105.846
 20
63.6619
 42
0.1607000005
  0
VERTEX
  8
LAYER_1
 10
105.9383
 20
63.5883
 42
0.08273077261
  0
VERTEX
  8
LAYER_1
 10
106.2857
 20
63.5324
  0
VERTEX
  8
LAYER_1
 10
106.2857
 20
63.398
  0
SEQEND
  0
POLYLINE
  8
LAYER_1
 40
0.05
 41
0.05
 66
1
 10
0
 20
0
 30
0
 70
1
  0
VERTEX
  8
LAYER_1
 10
108.9692
 20
64.9514
 42
-0.0915251881
  0
VERTEX
  8
LAYER_1
 10
108.7993
 20
63.9935
 42
-0.1255531154
  0
VERTEX
  8
LAYER_1
 10
108.4435
 20
63.4972
 42
-0.1666172281
  0
VERTEX
  8
LAYER_1
 10
107.9584
 20
63.3384
 42
-0.2500922194
  0
VERTEX
  8
LAYER_1
 10
107.2488
 20
63.7127
 42
-0.05877825682
  0
VERTEX
  8
LAYER_1
 10
107.0974
 20
63.9966
 42
-0.09246634892
  0
VERTEX
  8
LAYER_1
 10
106.939
 20
64.8543
 42
-0.007023019931
  0
VERTEX
  8
LAYER_1
 10
106.9378
 20
64.9466
 42
-0.09120526558
  0
VERTEX
  8
LAYER_1
 10
107.1053
 20
65.889
 42
-0.1228897103
  0
VERTEX
  8
LAYER_1
 10
107.4597
 20
66.3919
 42
-0.1700580356
  0
VERTEX
  8
LAYER_1
 10
107.9584
 20
66.5599
 42
-0.2544003321
  0
VERTEX
  8
LAYER_1
 10
108.6623
 20
66.1793
 42
-0.111283589
  0
VERTEX
  8
LAYER_1
 10
108.9197
 20
65.5087
 42
-0.04630314885
  0
SEQEND
  0
POLYLINE
  8
LAYER_1
 40
0.05
 41
0.05
 66
1
 10
0
 20
0
 30
0
 70
1
  0
VERTEX
  8
LAYER_1
 10
107.3809
 20
64.9566
 42
0.08357996251
  0
VERTEX
  8
LAYER_1
 10
107.5389
 20
63.8836
 42
0.07970542592
  0
VERTEX
  8
LAYER_1
 10
107.6717
 20
63.6516
 42
0.2174022132
  0
VERTEX
  8
LAYER_1
 10
107.9584
 20
63.5076
 42
0.2474289097
  0
VERTEX
  8
LAYER_1
 10
108.2697
 20
63.6756
 42
0.07132948287
  0
VERTEX
  8
LAYER_1
 10
108.3846
 20
63.8935
 42
0.04823803987
  0
VERTEX
  8
LAYER_1
 10
108.4751
 20
64.2474
 42
0.04204000412
  0
VERTEX
  8
LAYER_1
 10
108.526
 20
64.9514
 42
0.04169214793
  0
VERTEX
  8
LAYER_1
 10
108.4763
 20
65.6452
 42
0.05557640452
  0
VERTEX
  8
LAYER_1
 10
108.3725
 20
66.0366
 42
0.0854318326
  0
VERTEX
  8
LAYER_1
 10
108.2389
 20
66.2618
 42
0.2137652352
  0
VERTEX
  8
LAYER_1
 10
107.9534
 20
66.3956
 42
0.2457583867
  0
VERTEX
  8
LAYER_1
 10
107.639
 20
66.2277
 42
0.0717715397
  0
VERTEX
  8
LAYER_1
 10
107.5231
 20
66.0101
 42
0.04867055306
  0
VERTEX
  8
LAYER_1
 10
107.432
 20
65.6572
 42
0.04239693939
  0
SEQEND
  0
ENDBLK
  0
BLOCK
  8
LAYER_1
  2
AIGNBL01020006
 70
64
 10
0
 20
0
 30
0
  3
AIGNBL01020006
  0
POLYLINE
  8
LAYER_1
 40
0.05
 41
0.05
 66
1
 10
0
 20
0
 30
0
 70
1
  0
VERTEX
  8
LAYER_1
 10
279.2557
 20
59.8213
 42
-0.1348005663
  0
VERTEX
  8
LAYER_1
 10
278.5891
 20
60.006
 42
-0.04217389249
  0
VERTEX
  8
LAYER_1
 10
278.4309
 20
60.1252
 42
-0.2237914042
  0
VERTEX
  8
LAYER_1
 10
278.0836
 20
60.921
 42
-0.1316596818
  0
VERTEX
  8
LAYER_1
 10
278.252
 20
61.6005
 42
-0.05611970317
  0
VERTEX
  8
LAYER_1
 10
278.3958
 20
61.7892
 42
-0.1525712275
  0
VERTEX
  8
LAYER_1
 10
278.928
 20
62.0879
 42
-0.05454312661
  0
VERTEX
  8
LAYER_1
 10
279.2557
 20
62.124
  0
VERTEX
  8
LAYER_1
 10
279.2557
 20
62.4672
  0
VERTEX
  8
LAYER_1
 10
279.636
 20
62.4672
  0
VERTEX
  8
LAYER_1
 10
279.636
 20
62.124
 42
-0.1355760779
  0
VERTEX
  8
LAYER_1
 10
280.3072
 20
61.9494
 42
-0.06452079752
  0
VERTEX
  8
LAYER_1
 10
280.5
 20
61.7892
 42
-0.1456458178
  0
VERTEX
  8
LAYER_1
 10
280.7825
 20
61.2161
 42
-0.04470044216
  0
VERTEX
  8
LAYER_1
 10
280.8101
 20
60.921
 42
-0.145045229
  0
VERTEX
  8
LAYER_1
 10
280.6295
 20
60.3068
 42
-0.06178331766
  0
VERTEX
  8
LAYER_1
 10
280.4669
 20
60.1252
 42
-0.1881076348
  0
VERTEX
  8
LAYER_1
 10
279.636
 20
59.8213
  0
VERTEX
  8
LAYER_1
 10
279.636
 20
59.4782
  0
VERTEX
  8
LAYER_1
 10
279.2557
 20
59.4782
  0
SEQEND
  0
POLYLINE
  8
LAYER_1
 40
0.05
 41
0.05
 66
1
 10
0
 20
0
 30
0
 70
1
  0
VERTEX
  8
LAYER_1
 10
279.2557
 20
61.7933
 42
0.1596087517
  0
VERTEX
  8
LAYER_1
 10
278.7116
 20
61.5833
 42
0.1742505916
  0
VERTEX
  8
LAYER_1
 10
278.504
 20
61.1646
 42
0.03913891082
  0
VERTEX
  8
LAYER_1
 10
278.4888
 20
60.9644
 42
0.1644900796
  0
VERTEX
  8
LAYER_1
 10
278.6568
 20
60.427
 42
0.01892403965
  0
VERTEX
  8
LAYER_1
 10
278.6934
 20
60.3836
 42
0.1870733868
  0
VERTEX
  8
LAYER_1
 10
279.1396
 20
60.1617
 42
0.02865784102
  0
VERTEX
  8
LAYER_1
 10
279.2557
 20
60.1521
  0
SEQEND
  0
POLYLINE
  8
LAYER_1
 40
0.05
 41
0.05
 66
1
 10
0
 20
0
 30
0
 70
1
  0
VERTEX
  8
LAYER_1
 10
279.636
 20
60.1521
 42
0.1676997489
  0
VERTEX
  8
LAYER_1
 10
280.1562
 20
60.332
 42
0.028867113
  0
VERTEX
  8
LAYER_1
 10
280.2086
 20
60.3836
 42
0.1724657973
  0
VERTEX
  8
LAYER_1
 10
280.4012
 20
60.8989
 42
0.01448494758
  0
VERTEX
  8
LAYER_1
 10
280.4029
 20
60.9644
 42
0.161547418
  0
VERTEX
  8
LAYER_1
 10
280.2379
 20
61.5185
 42
0.1721010039
  0
VERTEX
  8
LAYER_1
 10
279.8355
 20
61.7604
 42
0.03811260977
  0
VERTEX
  8
LAYER_1
 10
279.636
 20
61.7933
  0
SEQEND
  0
ENDBLK
  0
BLOCK
  8
LAYER_1
  2
AIGNBL01020007
 70
64
 10
0
 20
0
 30
0
  3
AIGNBL01020007
  0
POLYLINE
  8
LAYER_1
 40
0.05
 41
0.05
 66
1
 10
0
 20
0
 30
0
 70
1
  0
VERTEX
  8
LAYER_1
 10
270.1964
 20
150.4995
 42
-0.1348043626
  0
VERTEX
  8
LAYER_1
 10
269.5299
 20
150.6842
 42
-0.04217176526
  0
VERTEX
  8
LAYER_1
 10
269.3717
 20
150.8034
 42
-0.2237914042
  0
VERTEX
  8
LAYER_1
 10
269.0244
 20
151.5992
 42
-0.1316193338
  0
VERTEX
  8
LAYER_1
 10
269.1927
 20
152.2787
 42
-0.0561485681
  0
VERTEX
  8
LAYER_1
 10
269.3365
 20
152.4674
 42
-0.1524701107
  0
VERTEX
  8
LAYER_1
 10
269.8688
 20
152.7661
 42
-0.05456886298
  0
VERTEX
  8
LAYER_1
 10
270.1964
 20
152.8022
  0
VERTEX
  8
LAYER_1
 10
270.1964
 20
153.1453
  0
VERTEX
  8
LAYER_1
 10
270.5768
 20
153.1453
  0
VERTEX
  8
LAYER_1
 10
270.5768
 20
152.8022
 42
-0.1355812164
  0
VERTEX
  8
LAYER_1
 10
271.248
 20
152.6276
 42
-0.06447135867
  0
VERTEX
  8
LAYER_1
 10
271.4408
 20
152.4674
 42
-0.1455422777
  0
VERTEX
  8
LAYER_1
 10
271.7233
 20
151.8943
 42
-0.04472653227
  0
VERTEX
  8
LAYER_1
 10
271.7509
 20
151.5992
 42
-0.1449282974
  0
VERTEX
  8
LAYER_1
 10
271.5702
 20
150.985
 42
-0.06180805664
  0
VERTEX
  8
LAYER_1
 10
271.4077
 20
150.8034
 42
-0.1880423538
  0
VERTEX
  8
LAYER_1
 10
270.5768
 20
150.4995
  0
VERTEX
  8
LAYER_1
 10
270.5768
 20
150.1564
  0
VERTEX
  8
LAYER_1
 10
270.1964
 20
150.1564
  0
SEQEND
  0
POLYLINE
  8
LAYER_1
 40
0.05
 41
0.05
 66
1
 10
0
 20
0
 30
0
 70
1
  0
VERTEX
  8
LAYER_1
 10
270.1964
 20
152.4715
 42
0.159599797
  0
VERTEX
  8
LAYER_1
 10
269.6524
 20
152.2615
 42
0.1742409737
  0
VERTEX
  8
LAYER_1
 10
269.4447
 20
151.8428
 42
0.03915140392
  0
VERTEX
  8
LAYER_1
 10
269.4295
 20
151.6426
 42
0.1645293565
  0
VERTEX
  8
LAYER_1
 10
269.5976
 20
151.1052
 42
0.01890816122
  0
VERTEX
  8
LAYER_1
 10
269.6342
 20
151.0618
 42
0.1870037728
  0
VERTEX
  8
LAYER_1
 10
270.0803
 20
150.8398
 42
0.02863981347
  0
VERTEX
  8
LAYER_1
 10
270.1964
 20
150.8302
  0
SEQEND
  0
POLYLINE
  8
LAYER_1
 40
0.05
 41
0.05
 66
1
 10
0
 20
0
 30
0
 70
1
  0
VERTEX
  8
LAYER_1
 10
270.5768
 20
150.8302
 42
0.1676297793
  0
VERTEX
  8
LAYER_1
 10
271.0969
 20
151.0102
 42
0.02885268123
  0
VERTEX
  8
LAYER_1
 10
271.1493
 20
151.0618
 42
0.1726226213
  0
VERTEX
  8
LAYER_1
 10
271.3419
 20
151.5771
 42
0.01447170183
  0
VERTEX
  8
LAYER_1
 10
271.3436
 20
151.6426
 42
0.1615813685
  0
VERTEX
  8
LAYER_1
 10
271.1787
 20
152.1967
 42
0.172118881
  0
VERTEX
  8
LAYER_1
 10
270.7763
 20
152.4386
 42
0.03811276609
  0
VERTEX
  8
LAYER_1
 10
270.5768
 20
152.4715
  0
SEQEND
  0
ENDBLK
  0
BLOCK
  8
LAYER_1
  2
AIGNBL01020008
 70
64
 10
0
 20
0
 30
0
  3
AIGNBL01020008
  0
POLYLINE
  8
LAYER_1
 40
0.05
 41
0.05
 66
1
 10
0
 20
0
 30
0
 70
1
  0
VERTEX
  8
LAYER_1
 10
101.9638
 20
86.0681
 42
-0.134779699
  0
VERTEX
  8
LAYER_1
 10
101.2973
 20
86.2528
 42
-0.04218976099
  0
VERTEX
  8
LAYER_1
 10
101.139
 20
86.372
 42
-0.2238271477
  0
VERTEX
  8
LAYER_1
 10
100.7918
 20
87.1678
 42
-0.1316354038
  0
VERTEX
  8
LAYER_1
 10
100.9601
 20
87.8473
 42
-0.05613370854
  0
VERTEX
  8
LAYER_1
 10
101.1039
 20
88.036
 42
-0.1525712275
  0
VERTEX
  8
LAYER_1
 10
101.6361
 20
88.3347
 42
-0.05454312661
  0
VERTEX
  8
LAYER_1
 10
101.9638
 20
88.3708
  0
VERTEX
  8
LAYER_1
 10
101.9638
 20
88.714
  0
VERTEX
  8
LAYER_1
 10
102.3441
 20
88.714
  0
VERTEX
  8
LAYER_1
 10
102.3441
 20
88.3708
 42
-0.1355620999
  0
VERTEX
  8
LAYER_1
 10
103.0153
 20
88.1962
 42
-0.06448254609
  0
VERTEX
  8
LAYER_1
 10
103.2082
 20
88.036
 42
-0.1455826315
  0
VERTEX
  8
LAYER_1
 10
103.4906
 20
87.463
 42
-0.04475608913
  0
VERTEX
  8
LAYER_1
 10
103.5182
 20
87.1678
 42
-0.1450084021
  0
VERTEX
  8
LAYER_1
 10
103.3376
 20
86.5536
 42
-0.0617653536
  0
VERTEX
  8
LAYER_1
 10
103.1751
 20
86.372
 42
-0.1880371263
  0
VERTEX
  8
LAYER_1
 10
102.3441
 20
86.0681
  0
VERTEX
  8
LAYER_1
 10
102.3441
 20
85.725
  0
VERTEX
  8
LAYER_1
 10
101.9638
 20
85.725
  0
SEQEND
  0
POLYLINE
  8
LAYER_1
 40
0.05
 41
0.05
 66
1
 10
0
 20
0
 30
0
 70
1
  0
VERTEX
  8
LAYER_1
 10
101.9638
 20
88.0401
 42
0.1596087517
  0
VERTEX
  8
LAYER_1
 10
101.4197
 20
87.8301
 42
0.1742505916
  0
VERTEX
  8
LAYER_1
 10
101.2121
 20
87.4114
 42
0.03913891082
  0
VERTEX
  8
LAYER_1
 10
101.1969
 20
87.2112
 42
0.1645732547
  0
VERTEX
  8
LAYER_1
 10
101.365
 20
86.6738
 42
0.01893691811
  0
VERTEX
  8
LAYER_1
 10
101.4016
 20
86.6304
 42
0.1870752654
  0
VERTEX
  8
LAYER_1
 10
101.8477
 20
86.4085
 42
0.02866655904
  0
VERTEX
  8
LAYER_1
 10
101.9638
 20
86.3989
  0
SEQEND
  0
POLYLINE
  8
LAYER_1
 40
0.05
 41
0.05
 66
1
 10
0
 20
0
 30
0
 70
1
  0
VERTEX
  8
LAYER_1
 10
102.3441
 20
86.3989
 42
0.1677385917
  0
VERTEX
  8
LAYER_1
 10
102.8643
 20
86.5788
 42
0.02885907357
  0
VERTEX
  8
LAYER_1
 10
102.9167
 20
86.6304
 42
0.1726226213
  0
VERTEX
  8
LAYER_1
 10
103.1093
 20
87.1457
 42
0.01447170183
  0
VERTEX
  8
LAYER_1
 10
103.111
 20
87.2112
 42
0.161613736
  0
VERTEX
  8
LAYER_1
 10
102.946
 20
87.7653
 42
0.172093024
  0
VERTEX
  8
LAYER_1
 10
102.5436
 20
88.0072
 42
0.03811012921
  0
VERTEX
  8
LAYER_1
 10
102.3441
 20
88.0401
  0
SEQEND
  0
ENDBLK
  0
BLOCK
  8
LAYER_1
  2
AIGNBL01020009
 70
64
 10
0
 20
0
 30
0
  3
AIGNBL01020009
  0
POLYLINE
  8
LAYER_1
 40
0.05
 41
0.05
 66
1
 10
0
 20
0
 30
0
 70
1
  0
VERTEX
  8
LAYER_1
 10
279.2557
 20
97.6674
 42
-0.1348005663
  0
VERTEX
  8
LAYER_1
 10
278.5891
 20
97.8521
 42
-0.04217389249
  0
VERTEX
  8
LAYER_1
 10
278.4309
 20
97.9713
 42
-0.2237914042
  0
VERTEX
  8
LAYER_1
 10
278.0836
 20
98.7671
 42
-0.1316596818
  0
VERTEX
  8
LAYER_1
 10
278.252
 20
99.4466
 42
-0.05611970317
  0
VERTEX
  8
LAYER_1
 10
278.3958
 20
99.6353
 42
-0.1524737214
  0
VERTEX
  8
LAYER_1
 10
278.928
 20
99.934
 42
-0.05456893091
  0
VERTEX
  8
LAYER_1
 10
279.2557
 20
99.9701
  0
VERTEX
  8
LAYER_1
 10
279.2557
 20
100.3133
  0
VERTEX
  8
LAYER_1
 10
279.636
 20
100.3133
  0
VERTEX
  8
LAYER_1
 10
279.636
 20
99.9701
 42
-0.1355812164
  0
VERTEX
  8
LAYER_1
 10
280.3072
 20
99.7955
 42
-0.06447135867
  0
VERTEX
  8
LAYER_1
 10
280.5
 20
99.6353
 42
-0.1456458178
  0
VERTEX
  8
LAYER_1
 10
280.7825
 20
99.0622
 42
-0.04470044216
  0
VERTEX
  8
LAYER_1
 10
280.8101
 20
98.7671
 42
-0.145045229
  0
VERTEX
  8
LAYER_1
 10
280.6295
 20
98.1529
 42
-0.06178331766
  0
VERTEX
  8
LAYER_1
 10
280.4669
 20
97.9713
 42
-0.1881076348
  0
VERTEX
  8
LAYER_1
 10
279.636
 20
97.6674
  0
VERTEX
  8
LAYER_1
 10
279.636
 20
97.3243
  0
VERTEX
  8
LAYER_1
 10
279.2557
 20
97.3243
  0
SEQEND
  0
POLYLINE
  8
LAYER_1
 40
0.05
 41
0.05
 66
1
 10
0
 20
0
 30
0
 70
1
  0
VERTEX
  8
LAYER_1
 10
279.2557
 20
99.6394
 42
0.1596087517
  0
VERTEX
  8
LAYER_1
 10
278.7116
 20
99.4294
 42
0.1742505916
  0
VERTEX
  8
LAYER_1
 10
278.504
 20
99.0107
 42
0.03913891082
  0
VERTEX
  8
LAYER_1
 10
278.4888
 20
98.8105
 42
0.1644900796
  0
VERTEX
  8
LAYER_1
 10
278.6568
 20
98.2731
 42
0.01892403965
  0
VERTEX
  8
LAYER_1
 10
278.6934
 20
98.2297
 42
0.1870733868
  0
VERTEX
  8
LAYER_1
 10
279.1396
 20
98.0078
 42
0.02865784102
  0
VERTEX
  8
LAYER_1
 10
279.2557
 20
97.9982
  0
SEQEND
  0
POLYLINE
  8
LAYER_1
 40
0.05
 41
0.05
 66
1
 10
0
 20
0
 30
0
 70
1
  0
VERTEX
  8
LAYER_1
 10
279.636
 20
97.9982
 42
0.1676997489
  0
VERTEX
  8
LAYER_1
 10
280.1562
 20
98.1781
 42
0.028867113
  0
VERTEX
  8
LAYER_1
 10
280.2086
 20
98.2297
 42
0.1724657973
  0
VERTEX
  8
LAYER_1
 10
280.4012
 20
98.745
 42
0.01448494758
  0
VERTEX
  8
LAYER_1
 10
280.4029
 20
98.8105
 42
0.161547418
  0
VERTEX
  8
LAYER_1
 10
280.2379
 20
99.3646
 42
0.1721010039
  0
VERTEX
  8
LAYER_1
 10
279.8355
 20
99.6065
 42
0.03811260977
  0
VERTEX
  8
LAYER_1
 10
279.636
 20
99.6394
  0
SEQEND
  0
ENDBLK
  0
BLOCK
  8
LAYER_1
  2
AIGNBL0102000A
 70
64
 10
0
 20
0
 30
0
  3
AIGNBL0102000A
  0
POLYLINE
  8
LAYER_1
 40
0.05
 41
0.05
 66
1
 10
0
 20
0
 30
0
 70
1
  0
VERTEX
  8
LAYER_1
 10
126.2703
 20
133.2618
 42
-0.1348713125
  0
VERTEX
  8
LAYER_1
 10
125.6684
 20
132.9211
 42
-0.04211778306
  0
VERTEX
  8
LAYER_1
 10
125.4723
 20
132.8935
 42
-0.2241360983
  0
VERTEX
  8
LAYER_1
 10
124.6641
 20
133.2105
 42
-0.1317842493
  0
VERTEX
  8
LAYER_1
 10
124.3026
 20
133.8101
 42
-0.05607526876
  0
VERTEX
  8
LAYER_1
 10
124.2708
 20
134.0452
 42
-0.1524920107
  0
VERTEX
  8
LAYER_1
 10
124.4359
 20
134.6328
 42
-0.05448627859
  0
VERTEX
  8
LAYER_1
 10
124.642
 20
134.89
  0
VERTEX
  8
LAYER_1
 10
124.3995
 20
135.1325
  0
VERTEX
  8
LAYER_1
 10
124.6684
 20
135.4016
  0
VERTEX
  8
LAYER_1
 10
124.9111
 20
135.159
 42
-0.1355033616
  0
VERTEX
  8
LAYER_1
 10
125.5091
 20
135.51
 42
-0.06444424514
  0
VERTEX
  8
LAYER_1
 10
125.7587
 20
135.5332
 42
-0.1454230136
  0
VERTEX
  8
LAYER_1
 10
126.3637
 20
135.3276
 42
-0.04480659184
  0
VERTEX
  8
LAYER_1
 10
126.5919
 20
135.1383
 42
-0.1449750685
  0
VERTEX
  8
LAYER_1
 10
126.8984
 20
134.5764
 42
-0.06180848504
  0
VERTEX
  8
LAYER_1
 10
126.912
 20
134.3332
 42
-0.1878859704
  0
VERTEX
  8
LAYER_1
 10
126.5392
 20
133.5305
  0
VERTEX
  8
LAYER_1
 10
126.7819
 20
133.288
  0
VERTEX
  8
LAYER_1
 10
126.5129
 20
133.0193
  0
SEQEND
  0
POLYLINE
  8
LAYER_1
 40
0.05
 41
0.05
 66
1
 10
0
 20
0
 30
0
 70
1
  0
VERTEX
  8
LAYER_1
 10
124.8759
 20
134.656
 42
0.1596883016
  0
VERTEX
  8
LAYER_1
 10
124.6397
 20
134.123
 42
0.1742138386
  0
VERTEX
  8
LAYER_1
 10
124.7889
 20
133.6801
 42
0.03914445225
  0
VERTEX
  8
LAYER_1
 10
124.9197
 20
133.5278
 42
0.1648099391
  0
VERTEX
  8
LAYER_1
 10
125.4187
 20
133.2666
 42
0.01890790708
  0
VERTEX
  8
LAYER_1
 10
125.4752
 20
133.2618
 42
0.1870331413
  0
VERTEX
  8
LAYER_1
 10
125.9475
 20
133.4204
 42
0.02866433746
  0
VERTEX
  8
LAYER_1
 10
126.0364
 20
133.4957
  0
SEQEND
  0
POLYLINE
  8
LAYER_1
 40
0.05
 41
0.05
 66
1
 10
0
 20
0
 30
0
 70
1
  0
VERTEX
  8
LAYER_1
 10
126.3055
 20
133.7644
 42
0.167310089
  0
VERTEX
  8
LAYER_1
 10
126.546
 20
134.2597
 42
0.02885568253
  0
VERTEX
  8
LAYER_1
 10
126.5466
 20
134.3332
 42
0.1725319989
  0
VERTEX
  8
LAYER_1
 10
126.3184
 20
134.8337
 42
0.0144582985
  0
VERTEX
  8
LAYER_1
 10
126.2733
 20
134.8813
 42
0.1615783119
  0
VERTEX
  8
LAYER_1
 10
125.7647
 20
135.1564
 42
0.1720431888
  0
VERTEX
  8
LAYER_1
 10
125.3091
 20
135.0429
 42
0.03810626583
  0
VERTEX
  8
LAYER_1
 10
125.1448
 20
134.9251
  0
SEQEND
  0
ENDBLK
  0
BLOCK
  8
LAYER_1
  2
AIGNBL0102000B
 70
64
 10
0
 20
0
 30
0
  3
AIGNBL0102000B
  0
POLYLINE
  8
LAYER_1
 40
0.05
 41
0.05
 66
1
 10
0
 20
0
 30
0
 70
1
  0
VERTEX
  8
LAYER_1
 10
100.5317
 20
159.0005
 42
-0.1347297202
  0
VERTEX
  8
LAYER_1
 10
99.9298
 20
158.6596
 42
-0.04224309344
  0
VERTEX
  8
LAYER_1
 10
99.7336
 20
158.632
 42
-0.2237545883
  0
VERTEX
  8
LAYER_1
 10
98.9252
 20
158.9493
 42
-0.1316745748
  0
VERTEX
  8
LAYER_1
 10
98.5638
 20
159.5488
 42
-0.05614493919
  0
VERTEX
  8
LAYER_1
 10
98.5321
 20
159.7839
 42
-0.1526189443
  0
VERTEX
  8
LAYER_1
 10
98.6973
 20
160.3714
 42
-0.05450495192
  0
VERTEX
  8
LAYER_1
 10
98.9034
 20
160.6286
  0
VERTEX
  8
LAYER_1
 10
98.6606
 20
160.8713
  0
VERTEX
  8
LAYER_1
 10
98.9297
 20
161.1402
  0
VERTEX
  8
LAYER_1
 10
99.1722
 20
160.8977
 42
-0.1355104328
  0
VERTEX
  8
LAYER_1
 10
99.7704
 20
161.2487
 42
-0.06446905804
  0
VERTEX
  8
LAYER_1
 10
100.0201
 20
161.2718
 42
-0.1456137902
  0
VERTEX
  8
LAYER_1
 10
100.6249
 20
161.0663
 42
-0.04467721556
  0
VERTEX
  8
LAYER_1
 10
100.8531
 20
160.8772
 42
-0.1448899615
  0
VERTEX
  8
LAYER_1
 10
101.1598
 20
160.3151
 42
-0.06183332579
  0
VERTEX
  8
LAYER_1
 10
101.1733
 20
160.0717
 42
-0.1880367007
  0
VERTEX
  8
LAYER_1
 10
100.8006
 20
159.2693
  0
VERTEX
  8
LAYER_1
 10
101.0433
 20
159.0266
  0
VERTEX
  8
LAYER_1
 10
100.7742
 20
158.7578
  0
SEQEND
  0
POLYLINE
  8
LAYER_1
 40
0.05
 41
0.05
 66
1
 10
0
 20
0
 30
0
 70
1
  0
VERTEX
  8
LAYER_1
 10
99.1373
 20
160.3949
 42
0.1595856138
  0
VERTEX
  8
LAYER_1
 10
98.9011
 20
159.8616
 42
0.1741883397
  0
VERTEX
  8
LAYER_1
 10
99.0502
 20
159.4188
 42
0.03910844611
  0
VERTEX
  8
LAYER_1
 10
99.181
 20
159.2664
 42
0.1646258379
  0
VERTEX
  8
LAYER_1
 10
99.68
 20
159.0053
 42
0.0189567394
  0
VERTEX
  8
LAYER_1
 10
99.7365
 20
159.0005
 42
0.1871082404
  0
VERTEX
  8
LAYER_1
 10
100.2089
 20
159.159
 42
0.02862420667
  0
VERTEX
  8
LAYER_1
 10
100.2978
 20
159.2342
  0
SEQEND
  0
POLYLINE
  8
LAYER_1
 40
0.05
 41
0.05
 66
1
 10
0
 20
0
 30
0
 70
1
  0
VERTEX
  8
LAYER_1
 10
100.5666
 20
159.5033
 42
0.1678511457
  0
VERTEX
  8
LAYER_1
 10
100.8072
 20
159.9983
 42
0.02888474352
  0
VERTEX
  8
LAYER_1
 10
100.8078
 20
160.0717
 42
0.172734229
  0
VERTEX
  8
LAYER_1
 10
100.5797
 20
160.5723
 42
0.01447583166
  0
VERTEX
  8
LAYER_1
 10
100.5346
 20
160.6198
 42
0.1616137209
  0
VERTEX
  8
LAYER_1
 10
100.0261
 20
160.8951
 42
0.1721344607
  0
VERTEX
  8
LAYER_1
 10
99.5705
 20
160.7816
 42
0.03812034895
  0
VERTEX
  8
LAYER_1
 10
99.4062
 20
160.6638
  0
SEQEND
  0
ENDBLK
  0
BLOCK
  8
LAYER_1
  2
AIGNBL01010002
 70
64
 10
0
 20
0
 30
0
  3
AIGNBL01010002
  0
POLYLINE
  8
LAYER_1
 40
0.05
 41
0.05
 62
255
 66
1
 10
0
 20
0
 30
0
  0
VERTEX
  8
LAYER_1
 10
286.4073
 20
62.4909
  0
VERTEX
  8
LAYER_1
 10
286.4073
 20
61.3727
  0
VERTEX
  8
LAYER_1
 10
288.4537
 20
61.9215
  0
SEQEND
  0
POLYLINE
  8
LAYER_1
 40
0.05
 41
0.05
 62
255
 66
1
 10
0
 20
0
 30
0
  0
VERTEX
  8
LAYER_1
 10
276.893
 20
62.4909
  0
VERTEX
  8
LAYER_1
 10
276.893
 20
61.3727
  0
VERTEX
  8
LAYER_1
 10
274.8466
 20
61.9215
  0
SEQEND
  0
POLYLINE
  8
LAYER_1
 40
0.05
 41
0.05
 62
255
 66
1
 10
0
 20
0
 30
0
  0
VERTEX
  8
LAYER_1
 10
121.5821
 20
134.605
  0
VERTEX
  8
LAYER_1
 10
122.3836
 20
133.8244
  0
VERTEX
  8
LAYER_1
 10
120.5272
 20
132.7481
  0
SEQEND
  0
POLYLINE
  8
LAYER_1
 40
0.05
 41
0.05
 62
255
 66
1
 10
0
 20
0
 30
0
  0
VERTEX
  8
LAYER_1
 10
128.3117
 20
141.3354
  0
VERTEX
  8
LAYER_1
 10
129.0922
 20
140.5547
  0
VERTEX
  8
LAYER_1
 10
130.1681
 20
142.3903
  0
SEQEND
  0
POLYLINE
  8
LAYER_1
 40
0.05
 41
0.05
 62
255
 66
1
 10
0
 20
0
 30
0
  0
VERTEX
  8
LAYER_1
 10
237.1686
 20
148.9518
  0
VERTEX
  8
LAYER_1
 10
237.1686
 20
150.0489
  0
VERTEX
  8
LAYER_1
 10
235.1223
 20
149.5003
  0
SEQEND
  0
POLYLINE
  8
LAYER_1
 40
0.05
 41
0.05
 62
255
 66
1
 10
0
 20
0
 30
0
  0
VERTEX
  8
LAYER_1
 10
326.1107
 20
148.9518
  0
VERTEX
  8
LAYER_1
 10
326.1107
 20
150.0489
  0
VERTEX
  8
LAYER_1
 10
328.1571
 20
149.5003
  0
SEQEND
  0
POLYLINE
  8
LAYER_1
 40
0.05
 41
0.05
 62
255
 66
1
 10
0
 20
0
 30
0
  0
VERTEX
  8
LAYER_1
 10
367.7546
 20
111.1016
  0
VERTEX
  8
LAYER_1
 10
368.8519
 20
111.1016
  0
VERTEX
  8
LAYER_1
 10
368.3031
 20
113.148
  0
SEQEND
  0
POLYLINE
  8
LAYER_1
 40
0.05
 41
0.05
 62
255
 66
1
 10
0
 20
0
 30
0
  0
VERTEX
  8
LAYER_1
 10
367.7546
 20
82.0071
  0
VERTEX
  8
LAYER_1
 10
368.8519
 20
82.0071
  0
VERTEX
  8
LAYER_1
 10
368.3031
 20
79.9603
  0
SEQEND
  0
POLYLINE
  8
LAYER_1
 40
0.05
 41
0.05
 62
255
 66
1
 10
0
 20
0
 30
0
  0
VERTEX
  8
LAYER_1
 10
273.7283
 20
99.4551
  0
VERTEX
  8
LAYER_1
 10
273.7283
 20
98.3582
  0
VERTEX
  8
LAYER_1
 10
271.682
 20
98.9066
  0
SEQEND
  0
POLYLINE
  8
LAYER_1
 40
0.05
 41
0.05
 62
255
 66
1
 10
0
 20
0
 30
0
  0
VERTEX
  8
LAYER_1
 10
289.5716
 20
99.4551
  0
VERTEX
  8
LAYER_1
 10
289.5716
 20
98.3582
  0
VERTEX
  8
LAYER_1
 10
291.618
 20
98.9066
  0
SEQEND
  0
POLYLINE
  8
LAYER_1
 40
0.05
 41
0.05
 62
255
 66
1
 10
0
 20
0
 30
0
  0
VERTEX
  8
LAYER_1
 10
69.1153
 20
68.3562
  0
VERTEX
  8
LAYER_1
 10
69.1153
 20
69.4745
  0
VERTEX
  8
LAYER_1
 10
67.0689
 20
68.926
  0
SEQEND
  0
POLYLINE
  8
LAYER_1
 40
0.05
 41
0.05
 62
255
 66
1
 10
0
 20
0
 30
0
  0
VERTEX
  8
LAYER_1
 10
158.0575
 20
68.3562
  0
VERTEX
  8
LAYER_1
 10
158.0575
 20
69.4745
  0
VERTEX
  8
LAYER_1
 10
160.1249
 20
68.926
  0
SEQEND
  0
POLYLINE
  8
LAYER_1
 40
0.05
 41
0.05
 62
255
 66
1
 10
0
 20
0
 30
0
  0
VERTEX
  8
LAYER_1
 10
95.8656
 20
155.851
  0
VERTEX
  8
LAYER_1
 10
96.6461
 20
155.0703
  0
VERTEX
  8
LAYER_1
 10
94.8108
 20
153.9942
  0
SEQEND
  0
POLYLINE
  8
LAYER_1
 40
0.05
 41
0.05
 62
255
 66
1
 10
0
 20
0
 30
0
  0
VERTEX
  8
LAYER_1
 10
107.0677
 20
167.0541
  0
VERTEX
  8
LAYER_1
 10
107.8484
 20
166.2734
  0
VERTEX
  8
LAYER_1
 10
108.9243
 20
168.1091
  0
SEQEND
  0
POLYLINE
  8
LAYER_1
 40
0.1235
 41
0.1235
 66
1
 10
0
 20
0
 30
0
  0
VERTEX
  8
LAYER_1
 10
271.6823
 20
84.8551
  0
VERTEX
  8
LAYER_1
 10
272.4626
 20
84.0745
  0
SEQEND
  0
POLYLINE
  8
LAYER_1
 40
0.1235
 41
0.1235
 66
1
 10
0
 20
0
 30
0
  0
VERTEX
  8
LAYER_1
 10
273.2433
 20
83.2728
  0
VERTEX
  8
LAYER_1
 10
273.6019
 20
82.9141
  0
SEQEND
  0
POLYLINE
  8
LAYER_1
 40
0.1235
 41
0.1235
 66
1
 10
0
 20
0
 30
0
  0
VERTEX
  8
LAYER_1
 10
287.7785
 20
61.7526
  0
VERTEX
  8
LAYER_1
 10
288.0741
 20
62.0269
  0
VERTEX
  8
LAYER_1
 10
288.0951
 20
62.0269
  0
SEQEND
  0
POLYLINE
  8
LAYER_1
 40
0.1235
 41
0.1235
 66
1
 10
0
 20
0
 30
0
  0
VERTEX
  8
LAYER_1
 10
287.188
 20
61.5838
  0
VERTEX
  8
LAYER_1
 10
287.7364
 20
62.1323
  0
VERTEX
  8
LAYER_1
 10
287.7575
 20
62.1323
  0
SEQEND
  0
POLYLINE
  8
LAYER_1
 40
0.1235
 41
0.1235
 66
1
 10
0
 20
0
 30
0
  0
VERTEX
  8
LAYER_1
 10
287.9683
 20
61.7947
  0
VERTEX
  8
LAYER_1
 10
288.1795
 20
62.0059
  0
VERTEX
  8
LAYER_1
 10
288.2005
 20
62.0059
  0
SEQEND
  0
POLYLINE
  8
LAYER_1
 40
0.1235
 41
0.1235
 66
1
 10
0
 20
0
 30
0
  0
VERTEX
  8
LAYER_1
 10
287.5886
 20
61.6893
  0
VERTEX
  8
LAYER_1
 10
287.9473
 20
62.0689
  0
VERTEX
  8
LAYER_1
 10
287.9683
 20
62.0689
  0
SEQEND
  0
POLYLINE
  8
LAYER_1
 40
0.1235
 41
0.1235
 66
1
 10
0
 20
0
 30
0
  0
VERTEX
  8
LAYER_1
 10
287.3988
 20
61.6472
  0
VERTEX
  8
LAYER_1
 10
287.8419
 20
62.0903
  0
VERTEX
  8
LAYER_1
 10
287.8629
 20
62.0903
  0
SEQEND
  0
POLYLINE
  8
LAYER_1
 40
0.1235
 41
0.1235
 66
1
 10
0
 20
0
 30
0
  0
VERTEX
  8
LAYER_1
 10
286.4073
 20
62.3435
  0
VERTEX
  8
LAYER_1
 10
286.5127
 20
62.4489
  0
VERTEX
  8
LAYER_1
 10
286.5338
 20
62.4489
  0
SEQEND
  0
POLYLINE
  8
LAYER_1
 40
0.1235
 41
0.1235
 66
1
 10
0
 20
0
 30
0
  0
VERTEX
  8
LAYER_1
 10
286.9982
 20
61.5415
  0
VERTEX
  8
LAYER_1
 10
287.631
 20
62.1533
  0
VERTEX
  8
LAYER_1
 10
287.652
 20
62.1533
  0
SEQEND
  0
POLYLINE
  8
LAYER_1
 40
0.1235
 41
0.1235
 66
1
 10
0
 20
0
 30
0
  0
VERTEX
  8
LAYER_1
 10
286.8083
 20
61.4784
  0
VERTEX
  8
LAYER_1
 10
287.5042
 20
62.1747
  0
VERTEX
  8
LAYER_1
 10
287.5256
 20
62.1747
  0
SEQEND
  0
POLYLINE
  8
LAYER_1
 40
0.1235
 41
0.1235
 66
1
 10
0
 20
0
 30
0
  0
VERTEX
  8
LAYER_1
 10
286.4283
 20
61.3727
  0
VERTEX
  8
LAYER_1
 10
287.2934
 20
62.2377
  0
VERTEX
  8
LAYER_1
 10
287.3144
 20
62.2377
  0
SEQEND
  0
POLYLINE
  8
LAYER_1
 40
0.1235
 41
0.1235
 66
1
 10
0
 20
0
 30
0
  0
VERTEX
  8
LAYER_1
 10
286.4073
 20
62.2167
  0
VERTEX
  8
LAYER_1
 10
286.6182
 20
62.4279
  0
VERTEX
  8
LAYER_1
 10
286.6395
 20
62.4279
  0
SEQEND
  0
POLYLINE
  8
LAYER_1
 40
0.1235
 41
0.1235
 66
1
 10
0
 20
0
 30
0
  0
VERTEX
  8
LAYER_1
 10
286.6182
 20
61.436
  0
VERTEX
  8
LAYER_1
 10
287.3988
 20
62.2167
  0
VERTEX
  8
LAYER_1
 10
287.4198
 20
62.2167
  0
SEQEND
  0
POLYLINE
  8
LAYER_1
 40
0.1235
 41
0.1235
 66
1
 10
0
 20
0
 30
0
  0
VERTEX
  8
LAYER_1
 10
288.3483
 20
61.9001
  0
VERTEX
  8
LAYER_1
 10
288.3903
 20
61.9425
  0
VERTEX
  8
LAYER_1
 10
288.4113
 20
61.9425
  0
SEQEND
  0
POLYLINE
  8
LAYER_1
 40
0.1235
 41
0.1235
 66
1
 10
0
 20
0
 30
0
  0
VERTEX
  8
LAYER_1
 10
288.1581
 20
61.8581
  0
VERTEX
  8
LAYER_1
 10
288.2849
 20
61.9845
  0
VERTEX
  8
LAYER_1
 10
288.3059
 20
61.9845
  0
SEQEND
  0
POLYLINE
  8
LAYER_1
 40
0.1235
 41
0.1235
 66
1
 10
0
 20
0
 30
0
  0
VERTEX
  8
LAYER_1
 10
274.8466
 20
82.9141
  0
VERTEX
  8
LAYER_1
 10
274.8466
 20
82.1335
  0
SEQEND
  0
POLYLINE
  8
LAYER_1
 40
0.1235
 41
0.1235
 66
1
 10
0
 20
0
 30
0
  0
VERTEX
  8
LAYER_1
 10
274.8466
 20
81.3318
  0
VERTEX
  8
LAYER_1
 10
274.8466
 20
80.5301
  0
VERTEX
  8
LAYER_1
 10
274.8466
 20
79.9603
  0
SEQEND
  0
POLYLINE
  8
LAYER_1
 40
0.1235
 41
0.1235
 66
1
 10
0
 20
0
 30
0
  0
VERTEX
  8
LAYER_1
 10
288.4537
 20
79.9603
  0
VERTEX
  8
LAYER_1
 10
274.8466
 20
79.9603
  0
VERTEX
  8
LAYER_1
 10
274.8676
 20
79.9603
  0
SEQEND
  0
POLYLINE
  8
LAYER_1
 40
0.1235
 41
0.1235
 66
1
 10
0
 20
0
 30
0
  0
VERTEX
  8
LAYER_1
 10
291.618
 20
84.8551
  0
VERTEX
  8
LAYER_1
 10
290.8374
 20
84.0745
  0
SEQEND
  0
POLYLINE
  8
LAYER_1
 40
0.1235
 41
0.1235
 66
1
 10
0
 20
0
 30
0
  0
VERTEX
  8
LAYER_1
 10
290.0571
 20
83.2728
  0
VERTEX
  8
LAYER_1
 10
289.6984
 20
82.9141
  0
SEQEND
  0
POLYLINE
  8
LAYER_1
 40
0.1235
 41
0.1235
 66
1
 10
0
 20
0
 30
0
  0
VERTEX
  8
LAYER_1
 10
288.4537
 20
82.9141
  0
VERTEX
  8
LAYER_1
 10
288.4537
 20
82.1335
  0
SEQEND
  0
POLYLINE
  8
LAYER_1
 40
0.1235
 41
0.1235
 66
1
 10
0
 20
0
 30
0
  0
VERTEX
  8
LAYER_1
 10
288.4537
 20
81.3318
  0
VERTEX
  8
LAYER_1
 10
288.4537
 20
80.5301
  0
VERTEX
  8
LAYER_1
 10
288.4537
 20
79.9603
  0
SEQEND
  0
POLYLINE
  8
LAYER_1
 40
0.1235
 41
0.1235
 66
1
 10
0
 20
0
 30
0
  0
VERTEX
  8
LAYER_1
 10
288.4537
 20
82.9141
  0
VERTEX
  8
LAYER_1
 10
289.2344
 20
82.9141
  0
VERTEX
  8
LAYER_1
 10
289.6984
 20
82.9141
  0
SEQEND
  0
POLYLINE
  8
LAYER_1
 40
0.1235
 41
0.1235
 66
1
 10
0
 20
0
 30
0
  0
VERTEX
  8
LAYER_1
 10
273.6019
 20
82.9141
  0
VERTEX
  8
LAYER_1
 10
274.3826
 20
82.9141
  0
VERTEX
  8
LAYER_1
 10
274.8466
 20
82.9141
  0
SEQEND
  0
POLYLINE
  8
LAYER_1
 40
0.1235
 41
0.1235
 66
1
 10
0
 20
0
 30
0
  0
VERTEX
  8
LAYER_1
 10
286.4073
 20
61.4994
  0
VERTEX
  8
LAYER_1
 10
287.188
 20
62.2801
  0
VERTEX
  8
LAYER_1
 10
287.209
 20
62.2801
  0
SEQEND
  0
POLYLINE
  8
LAYER_1
 40
0.1235
 41
0.1235
 66
1
 10
0
 20
0
 30
0
  0
VERTEX
  8
LAYER_1
 10
68.7355
 20
68.462
  0
VERTEX
  8
LAYER_1
 10
69.1153
 20
68.8626
  0
VERTEX
  8
LAYER_1
 10
69.1363
 20
68.8626
  0
SEQEND
  0
POLYLINE
  8
LAYER_1
 40
0.1235
 41
0.1235
 66
1
 10
0
 20
0
 30
0
  0
VERTEX
  8
LAYER_1
 10
68.3981
 20
68.5674
  0
VERTEX
  8
LAYER_1
 10
69.1153
 20
69.2847
  0
VERTEX
  8
LAYER_1
 10
69.1363
 20
69.2847
  0
SEQEND
  0
POLYLINE
  8
LAYER_1
 40
0.1235
 41
0.1235
 66
1
 10
0
 20
0
 30
0
  0
VERTEX
  8
LAYER_1
 10
69.0731
 20
68.3776
  0
VERTEX
  8
LAYER_1
 10
69.1153
 20
68.4406
  0
VERTEX
  8
LAYER_1
 10
69.1363
 20
68.4406
  0
SEQEND
  0
POLYLINE
  8
LAYER_1
 40
0.1235
 41
0.1235
 66
1
 10
0
 20
0
 30
0
  0
VERTEX
  8
LAYER_1
 10
68.9675
 20
68.4196
  0
VERTEX
  8
LAYER_1
 10
69.1153
 20
68.5674
  0
VERTEX
  8
LAYER_1
 10
69.1363
 20
68.5674
  0
SEQEND
  0
POLYLINE
  8
LAYER_1
 40
0.1235
 41
0.1235
 66
1
 10
0
 20
0
 30
0
  0
VERTEX
  8
LAYER_1
 10
68.8409
 20
68.4406
  0
VERTEX
  8
LAYER_1
 10
69.1153
 20
68.7148
  0
VERTEX
  8
LAYER_1
 10
69.1363
 20
68.7148
  0
SEQEND
  0
POLYLINE
  8
LAYER_1
 40
0.1235
 41
0.1235
 66
1
 10
0
 20
0
 30
0
  0
VERTEX
  8
LAYER_1
 10
68.2925
 20
68.5884
  0
VERTEX
  8
LAYER_1
 10
69.1153
 20
69.4325
  0
VERTEX
  8
LAYER_1
 10
69.1363
 20
69.4325
  0
SEQEND
  0
POLYLINE
  8
LAYER_1
 40
0.1235
 41
0.1235
 66
1
 10
0
 20
0
 30
0
  0
VERTEX
  8
LAYER_1
 10
158.0575
 20
68.7152
  0
VERTEX
  8
LAYER_1
 10
158.6692
 20
69.3057
  0
VERTEX
  8
LAYER_1
 10
158.6904
 20
69.3057
  0
SEQEND
  0
POLYLINE
  8
LAYER_1
 40
0.1235
 41
0.1235
 66
1
 10
0
 20
0
 30
0
  0
VERTEX
  8
LAYER_1
 10
158.0575
 20
68.8416
  0
VERTEX
  8
LAYER_1
 10
158.5638
 20
69.348
  0
VERTEX
  8
LAYER_1
 10
158.585
 20
69.348
  0
SEQEND
  0
POLYLINE
  8
LAYER_1
 40
0.1235
 41
0.1235
 66
1
 10
0
 20
0
 30
0
  0
VERTEX
  8
LAYER_1
 10
160.1038
 20
68.926
  0
VERTEX
  8
LAYER_1
 10
160.1249
 20
68.926
  0
SEQEND
  0
POLYLINE
  8
LAYER_1
 40
0.1235
 41
0.1235
 66
1
 10
0
 20
0
 30
0
  0
VERTEX
  8
LAYER_1
 10
68.6301
 20
68.504
  0
VERTEX
  8
LAYER_1
 10
69.1153
 20
68.9894
  0
VERTEX
  8
LAYER_1
 10
69.1363
 20
68.9894
  0
SEQEND
  0
POLYLINE
  8
LAYER_1
 40
0.1235
 41
0.1235
 66
1
 10
0
 20
0
 30
0
  0
VERTEX
  8
LAYER_1
 10
68.5035
 20
68.525
  0
VERTEX
  8
LAYER_1
 10
69.1153
 20
69.1369
  0
VERTEX
  8
LAYER_1
 10
69.1363
 20
69.1369
  0
SEQEND
  0
POLYLINE
  8
LAYER_1
 40
0.1235
 41
0.1235
 66
1
 10
0
 20
0
 30
0
  0
VERTEX
  8
LAYER_1
 10
68.0604
 20
68.6518
  0
VERTEX
  8
LAYER_1
 10
68.7989
 20
69.3901
  0
VERTEX
  8
LAYER_1
 10
68.8199
 20
69.3901
  0
SEQEND
  0
POLYLINE
  8
LAYER_1
 40
0.1235
 41
0.1235
 66
1
 10
0
 20
0
 30
0
  0
VERTEX
  8
LAYER_1
 10
67.955
 20
68.6728
  0
VERTEX
  8
LAYER_1
 10
68.6089
 20
69.3267
  0
VERTEX
  8
LAYER_1
 10
68.6301
 20
69.3267
  0
SEQEND
  0
POLYLINE
  8
LAYER_1
 40
0.1235
 41
0.1235
 66
1
 10
0
 20
0
 30
0
  0
VERTEX
  8
LAYER_1
 10
67.744
 20
68.7362
  0
VERTEX
  8
LAYER_1
 10
68.2293
 20
69.2213
  0
VERTEX
  8
LAYER_1
 10
68.2503
 20
69.2213
  0
SEQEND
  0
POLYLINE
  8
LAYER_1
 40
0.1235
 41
0.1235
 66
1
 10
0
 20
0
 30
0
  0
VERTEX
  8
LAYER_1
 10
94.8108
 20
154.0154
  0
VERTEX
  8
LAYER_1
 10
108.9031
 20
168.1091
  0
VERTEX
  8
LAYER_1
 10
108.9243
 20
168.1091
  0
SEQEND
  0
POLYLINE
  8
LAYER_1
 40
0.1235
 41
0.1235
 66
1
 10
0
 20
0
 30
0
  0
VERTEX
  8
LAYER_1
 10
67.8494
 20
68.7152
  0
VERTEX
  8
LAYER_1
 10
68.4191
 20
69.2847
  0
VERTEX
  8
LAYER_1
 10
68.4403
 20
69.2847
  0
SEQEND
  0
POLYLINE
  8
LAYER_1
 40
0.1235
 41
0.1235
 66
1
 10
0
 20
0
 30
0
  0
VERTEX
  8
LAYER_1
 10
67.6174
 20
68.7782
  0
VERTEX
  8
LAYER_1
 10
68.0394
 20
69.1792
  0
VERTEX
  8
LAYER_1
 10
68.0604
 20
69.1792
  0
SEQEND
  0
POLYLINE
  8
LAYER_1
 40
0.1235
 41
0.1235
 66
1
 10
0
 20
0
 30
0
  0
VERTEX
  8
LAYER_1
 10
67.4066
 20
68.8206
  0
VERTEX
  8
LAYER_1
 10
67.6386
 20
69.0738
  0
VERTEX
  8
LAYER_1
 10
67.6596
 20
69.0738
  0
SEQEND
  0
POLYLINE
  8
LAYER_1
 40
0.1235
 41
0.1235
 66
1
 10
0
 20
0
 30
0
  0
VERTEX
  8
LAYER_1
 10
68.1871
 20
68.6304
  0
VERTEX
  8
LAYER_1
 10
68.9887
 20
69.4325
  0
VERTEX
  8
LAYER_1
 10
69.0097
 20
69.4325
  0
SEQEND
  0
POLYLINE
  8
LAYER_1
 40
0.1235
 41
0.1235
 66
1
 10
0
 20
0
 30
0
  0
VERTEX
  8
LAYER_1
 10
67.512
 20
68.7992
  0
VERTEX
  8
LAYER_1
 10
67.8494
 20
69.1159
  0
VERTEX
  8
LAYER_1
 10
67.8706
 20
69.1159
  0
SEQEND
  0
POLYLINE
  8
LAYER_1
 40
0.1235
 41
0.1235
 66
1
 10
0
 20
0
 30
0
  0
VERTEX
  8
LAYER_1
 10
67.301
 20
68.8626
  0
VERTEX
  8
LAYER_1
 10
67.4486
 20
69.0314
  0
VERTEX
  8
LAYER_1
 10
67.4698
 20
69.0314
  0
SEQEND
  0
POLYLINE
  8
LAYER_1
 40
0.1235
 41
0.1235
 66
1
 10
0
 20
0
 30
0
  0
VERTEX
  8
LAYER_1
 10
67.1744
 20
68.8837
  0
VERTEX
  8
LAYER_1
 10
67.2588
 20
68.9681
  0
VERTEX
  8
LAYER_1
 10
67.28
 20
68.9681
  0
SEQEND
  0
POLYLINE
  8
LAYER_1
 40
0.1235
 41
0.1235
 66
1
 10
0
 20
0
 30
0
  0
VERTEX
  8
LAYER_1
 10
158.374
 20
68.4406
  0
VERTEX
  8
LAYER_1
 10
159.1123
 20
69.1792
  0
VERTEX
  8
LAYER_1
 10
159.1334
 20
69.1792
  0
SEQEND
  0
POLYLINE
  8
LAYER_1
 40
0.1235
 41
0.1235
 66
1
 10
0
 20
0
 30
0
  0
VERTEX
  8
LAYER_1
 10
158.9436
 20
68.6094
  0
VERTEX
  8
LAYER_1
 10
159.4499
 20
69.0948
  0
VERTEX
  8
LAYER_1
 10
159.4709
 20
69.0948
  0
SEQEND
  0
POLYLINE
  8
LAYER_1
 40
0.1235
 41
0.1235
 66
1
 10
0
 20
0
 30
0
  0
VERTEX
  8
LAYER_1
 10
158.5638
 20
68.504
  0
VERTEX
  8
LAYER_1
 10
159.2178
 20
69.1582
  0
VERTEX
  8
LAYER_1
 10
159.2389
 20
69.1582
  0
SEQEND
  0
POLYLINE
  8
LAYER_1
 40
0.1235
 41
0.1235
 66
1
 10
0
 20
0
 30
0
  0
VERTEX
  8
LAYER_1
 10
159.7241
 20
68.8206
  0
VERTEX
  8
LAYER_1
 10
159.8929
 20
68.9894
  0
VERTEX
  8
LAYER_1
 10
159.9139
 20
68.9894
  0
SEQEND
  0
POLYLINE
  8
LAYER_1
 40
0.1235
 41
0.1235
 66
1
 10
0
 20
0
 30
0
  0
VERTEX
  8
LAYER_1
 10
159.1334
 20
68.6518
  0
VERTEX
  8
LAYER_1
 10
159.5553
 20
69.0738
  0
VERTEX
  8
LAYER_1
 10
159.5765
 20
69.0738
  0
SEQEND
  0
POLYLINE
  8
LAYER_1
 40
0.1235
 41
0.1235
 66
1
 10
0
 20
0
 30
0
  0
VERTEX
  8
LAYER_1
 10
158.7536
 20
68.5464
  0
VERTEX
  8
LAYER_1
 10
159.3233
 20
69.1369
  0
VERTEX
  8
LAYER_1
 10
159.3443
 20
69.1369
  0
SEQEND
  0
POLYLINE
  8
LAYER_1
 40
0.1235
 41
0.1235
 66
1
 10
0
 20
0
 30
0
  0
VERTEX
  8
LAYER_1
 10
95.1062
 20
154.1842
  0
VERTEX
  8
LAYER_1
 10
96.3297
 20
155.3867
  0
VERTEX
  8
LAYER_1
 10
96.3509
 20
155.3867
  0
SEQEND
  0
POLYLINE
  8
LAYER_1
 40
0.1235
 41
0.1235
 66
1
 10
0
 20
0
 30
0
  0
VERTEX
  8
LAYER_1
 10
95.1906
 20
154.6905
  0
VERTEX
  8
LAYER_1
 10
96.0977
 20
155.5977
  0
VERTEX
  8
LAYER_1
 10
96.1189
 20
155.5977
  0
SEQEND
  0
POLYLINE
  8
LAYER_1
 40
0.1235
 41
0.1235
 66
1
 10
0
 20
0
 30
0
  0
VERTEX
  8
LAYER_1
 10
95.4438
 20
154.374
  0
VERTEX
  8
LAYER_1
 10
96.3931
 20
155.3235
  0
VERTEX
  8
LAYER_1
 10
96.4141
 20
155.3235
  0
SEQEND
  0
POLYLINE
  8
LAYER_1
 40
0.1235
 41
0.1235
 66
1
 10
0
 20
0
 30
0
  0
VERTEX
  8
LAYER_1
 10
94.8319
 20
154.0364
  0
VERTEX
  8
LAYER_1
 10
96.2453
 20
155.4501
  0
VERTEX
  8
LAYER_1
 10
96.2665
 20
155.4501
  0
SEQEND
  0
POLYLINE
  8
LAYER_1
 40
0.1235
 41
0.1235
 66
1
 10
0
 20
0
 30
0
  0
VERTEX
  8
LAYER_1
 10
95.0007
 20
154.374
  0
VERTEX
  8
LAYER_1
 10
96.1821
 20
155.5345
  0
VERTEX
  8
LAYER_1
 10
96.2033
 20
155.5345
  0
SEQEND
  0
POLYLINE
  8
LAYER_1
 40
0.1235
 41
0.1235
 66
1
 10
0
 20
0
 30
0
  0
VERTEX
  8
LAYER_1
 10
158.0575
 20
69.4111
  0
VERTEX
  8
LAYER_1
 10
158.1208
 20
69.4535
  0
VERTEX
  8
LAYER_1
 10
158.1419
 20
69.4535
  0
SEQEND
  0
POLYLINE
  8
LAYER_1
 40
0.1235
 41
0.1235
 66
1
 10
0
 20
0
 30
0
  0
VERTEX
  8
LAYER_1
 10
237.0842
 20
148.973
  0
VERTEX
  8
LAYER_1
 10
237.1686
 20
149.0572
  0
VERTEX
  8
LAYER_1
 10
237.1897
 20
149.0572
  0
SEQEND
  0
POLYLINE
  8
LAYER_1
 40
0.1235
 41
0.1235
 66
1
 10
0
 20
0
 30
0
  0
VERTEX
  8
LAYER_1
 10
158.0575
 20
68.9894
  0
VERTEX
  8
LAYER_1
 10
158.4372
 20
69.3691
  0
VERTEX
  8
LAYER_1
 10
158.4584
 20
69.3691
  0
SEQEND
  0
POLYLINE
  8
LAYER_1
 40
0.1235
 41
0.1235
 66
1
 10
0
 20
0
 30
0
  0
VERTEX
  8
LAYER_1
 10
158.0575
 20
68.4196
  0
VERTEX
  8
LAYER_1
 10
158.8802
 20
69.2426
  0
VERTEX
  8
LAYER_1
 10
158.9014
 20
69.2426
  0
SEQEND
  0
POLYLINE
  8
LAYER_1
 40
0.1235
 41
0.1235
 66
1
 10
0
 20
0
 30
0
  0
VERTEX
  8
LAYER_1
 10
158.0575
 20
68.5674
  0
VERTEX
  8
LAYER_1
 10
158.7748
 20
69.2847
  0
VERTEX
  8
LAYER_1
 10
158.7958
 20
69.2847
  0
SEQEND
  0
POLYLINE
  8
LAYER_1
 40
0.1235
 41
0.1235
 66
1
 10
0
 20
0
 30
0
  0
VERTEX
  8
LAYER_1
 10
158.0575
 20
69.1369
  0
VERTEX
  8
LAYER_1
 10
158.3318
 20
69.3901
  0
VERTEX
  8
LAYER_1
 10
158.3528
 20
69.3901
  0
SEQEND
  0
POLYLINE
  8
LAYER_1
 40
0.1235
 41
0.1235
 66
1
 10
0
 20
0
 30
0
  0
VERTEX
  8
LAYER_1
 10
159.3443
 20
68.7152
  0
VERTEX
  8
LAYER_1
 10
159.6609
 20
69.0314
  0
VERTEX
  8
LAYER_1
 10
159.6819
 20
69.0314
  0
SEQEND
  0
POLYLINE
  8
LAYER_1
 40
0.1235
 41
0.1235
 66
1
 10
0
 20
0
 30
0
  0
VERTEX
  8
LAYER_1
 10
159.9139
 20
68.8626
  0
VERTEX
  8
LAYER_1
 10
159.9983
 20
68.947
  0
VERTEX
  8
LAYER_1
 10
160.0195
 20
68.947
  0
SEQEND
  0
POLYLINE
  8
LAYER_1
 40
0.1235
 41
0.1235
 66
1
 10
0
 20
0
 30
0
  0
VERTEX
  8
LAYER_1
 10
159.5343
 20
68.7572
  0
VERTEX
  8
LAYER_1
 10
159.7873
 20
69.0104
  0
VERTEX
  8
LAYER_1
 10
159.8085
 20
69.0104
  0
SEQEND
  0
POLYLINE
  8
LAYER_1
 40
0.1235
 41
0.1235
 66
1
 10
0
 20
0
 30
0
  0
VERTEX
  8
LAYER_1
 10
158.0575
 20
69.2636
  0
VERTEX
  8
LAYER_1
 10
158.2263
 20
69.4325
  0
VERTEX
  8
LAYER_1
 10
158.2474
 20
69.4325
  0
SEQEND
  0
POLYLINE
  8
LAYER_1
 40
0.1235
 41
0.1235
 66
1
 10
0
 20
0
 30
0
  0
VERTEX
  8
LAYER_1
 10
158.1841
 20
68.3986
  0
VERTEX
  8
LAYER_1
 10
159.0068
 20
69.2213
  0
VERTEX
  8
LAYER_1
 10
159.0278
 20
69.2213
  0
SEQEND
  0
POLYLINE
  8
LAYER_1
 40
0.1235
 41
0.1235
 66
1
 10
0
 20
0
 30
0
  0
VERTEX
  8
LAYER_1
 10
368.8516
 20
111.1016
  0
VERTEX
  8
LAYER_1
 10
368.3031
 20
113.148
  0
VERTEX
  8
LAYER_1
 10
368.3241
 20
113.148
  0
SEQEND
  0
POLYLINE
  8
LAYER_1
 40
0.1235
 41
0.1235
 66
1
 10
0
 20
0
 30
0
  0
VERTEX
  8
LAYER_1
 10
237.1686
 20
150.0489
  0
VERTEX
  8
LAYER_1
 10
235.1223
 20
149.5004
  0
VERTEX
  8
LAYER_1
 10
235.1433
 20
149.5004
  0
SEQEND
  0
POLYLINE
  8
LAYER_1
 40
0.1235
 41
0.1235
 66
1
 10
0
 20
0
 30
0
  0
VERTEX
  8
LAYER_1
 10
368.3031
 20
79.9603
  0
VERTEX
  8
LAYER_1
 10
368.3031
 20
111.186
  0
VERTEX
  8
LAYER_1
 10
368.3241
 20
111.186
  0
SEQEND
  0
POLYLINE
  8
LAYER_1
 40
0.1235
 41
0.1235
 66
1
 10
0
 20
0
 30
0
  0
VERTEX
  8
LAYER_1
 10
326.1107
 20
150.0489
  0
VERTEX
  8
LAYER_1
 10
326.1107
 20
148.9518
  0
VERTEX
  8
LAYER_1
 10
326.1317
 20
148.9518
  0
SEQEND
  0
POLYLINE
  8
LAYER_1
 40
0.1235
 41
0.1235
 66
1
 10
0
 20
0
 30
0
  0
VERTEX
  8
LAYER_1
 10
368.3031
 20
79.9603
  0
VERTEX
  8
LAYER_1
 10
302.2086
 20
79.9603
  0
VERTEX
  8
LAYER_1
 10
302.2296
 20
79.9603
  0
SEQEND
  0
POLYLINE
  8
LAYER_1
 40
0.1235
 41
0.1235
 66
1
 10
0
 20
0
 30
0
  0
VERTEX
  8
LAYER_1
 10
96.6461
 20
155.0703
  0
VERTEX
  8
LAYER_1
 10
95.8656
 20
155.851
  0
VERTEX
  8
LAYER_1
 10
95.8867
 20
155.851
  0
SEQEND
  0
POLYLINE
  8
LAYER_1
 40
0.1235
 41
0.1235
 66
1
 10
0
 20
0
 30
0
  0
VERTEX
  8
LAYER_1
 10
237.1686
 20
148.9518
  0
VERTEX
  8
LAYER_1
 10
235.1223
 20
149.5004
  0
VERTEX
  8
LAYER_1
 10
235.1433
 20
149.5004
  0
SEQEND
  0
POLYLINE
  8
LAYER_1
 40
0.1235
 41
0.1235
 66
1
 10
0
 20
0
 30
0
  0
VERTEX
  8
LAYER_1
 10
326.1107
 20
150.0489
  0
VERTEX
  8
LAYER_1
 10
328.1567
 20
149.5004
  0
VERTEX
  8
LAYER_1
 10
328.1781
 20
149.5004
  0
SEQEND
  0
POLYLINE
  8
LAYER_1
 40
0.1235
 41
0.1235
 66
1
 10
0
 20
0
 30
0
  0
VERTEX
  8
LAYER_1
 10
367.7546
 20
82.0071
  0
VERTEX
  8
LAYER_1
 10
368.3031
 20
79.9603
  0
VERTEX
  8
LAYER_1
 10
368.3241
 20
79.9603
  0
SEQEND
  0
POLYLINE
  8
LAYER_1
 40
0.1235
 41
0.1235
 66
1
 10
0
 20
0
 30
0
  0
VERTEX
  8
LAYER_1
 10
367.7546
 20
111.1016
  0
VERTEX
  8
LAYER_1
 10
368.3031
 20
113.148
  0
VERTEX
  8
LAYER_1
 10
368.3241
 20
113.148
  0
SEQEND
  0
POLYLINE
  8
LAYER_1
 40
0.1235
 41
0.1235
 66
1
 10
0
 20
0
 30
0
  0
VERTEX
  8
LAYER_1
 10
235.1433
 20
149.5003
  0
VERTEX
  8
LAYER_1
 10
328.1781
 20
149.5003
  0
SEQEND
  0
POLYLINE
  8
LAYER_1
 40
0.1235
 41
0.1235
 66
1
 10
0
 20
0
 30
0
  0
VERTEX
  8
LAYER_1
 10
368.8516
 20
82.0071
  0
VERTEX
  8
LAYER_1
 10
367.7546
 20
82.0071
  0
VERTEX
  8
LAYER_1
 10
367.7757
 20
82.0071
  0
SEQEND
  0
POLYLINE
  8
LAYER_1
 40
0.1235
 41
0.1235
 66
1
 10
0
 20
0
 30
0
  0
VERTEX
  8
LAYER_1
 10
95.8656
 20
155.851
  0
VERTEX
  8
LAYER_1
 10
94.8108
 20
153.9944
  0
VERTEX
  8
LAYER_1
 10
94.8319
 20
153.9944
  0
SEQEND
  0
POLYLINE
  8
LAYER_1
 40
0.1235
 41
0.1235
 66
1
 10
0
 20
0
 30
0
  0
VERTEX
  8
LAYER_1
 10
120.5272
 20
132.7481
  0
VERTEX
  8
LAYER_1
 10
128.7126
 20
140.9344
  0
VERTEX
  8
LAYER_1
 10
128.7336
 20
140.9344
  0
SEQEND
  0
POLYLINE
  8
LAYER_1
 40
0.1235
 41
0.1235
 66
1
 10
0
 20
0
 30
0
  0
VERTEX
  8
LAYER_1
 10
96.6461
 20
155.0703
  0
VERTEX
  8
LAYER_1
 10
94.8108
 20
153.9942
  0
VERTEX
  8
LAYER_1
 10
94.8319
 20
153.9942
  0
SEQEND
  0
POLYLINE
  8
LAYER_1
 40
0.1235
 41
0.1235
 66
1
 10
0
 20
0
 30
0
  0
VERTEX
  8
LAYER_1
 10
107.8484
 20
166.2734
  0
VERTEX
  8
LAYER_1
 10
107.0677
 20
167.0541
  0
VERTEX
  8
LAYER_1
 10
107.0889
 20
167.0541
  0
SEQEND
  0
POLYLINE
  8
LAYER_1
 40
0.1235
 41
0.1235
 66
1
 10
0
 20
0
 30
0
  0
VERTEX
  8
LAYER_1
 10
106.5615
 20
170.4509
  0
VERTEX
  8
LAYER_1
 10
120.6538
 20
156.3572
  0
VERTEX
  8
LAYER_1
 10
120.6748
 20
156.3572
  0
SEQEND
  0
POLYLINE
  8
LAYER_1
 40
0.1235
 41
0.1235
 66
1
 10
0
 20
0
 30
0
  0
VERTEX
  8
LAYER_1
 10
92.4691
 20
156.3574
  0
VERTEX
  8
LAYER_1
 10
106.5615
 20
142.2635
  0
VERTEX
  8
LAYER_1
 10
106.5825
 20
142.2635
  0
SEQEND
  0
POLYLINE
  8
LAYER_1
 40
0.1235
 41
0.1235
 66
1
 10
0
 20
0
 30
0
  0
VERTEX
  8
LAYER_1
 10
69.1153
 20
68.3562
  0
VERTEX
  8
LAYER_1
 10
67.0689
 20
68.926
  0
VERTEX
  8
LAYER_1
 10
67.09
 20
68.926
  0
SEQEND
  0
POLYLINE
  8
LAYER_1
 40
0.1235
 41
0.1235
 66
1
 10
0
 20
0
 30
0
  0
VERTEX
  8
LAYER_1
 10
107.0677
 20
167.0542
  0
VERTEX
  8
LAYER_1
 10
108.9243
 20
168.1091
  0
VERTEX
  8
LAYER_1
 10
108.9453
 20
168.1091
  0
SEQEND
  0
POLYLINE
  8
LAYER_1
 40
0.1235
 41
0.1235
 66
1
 10
0
 20
0
 30
0
  0
VERTEX
  8
LAYER_1
 10
69.1153
 20
69.4745
  0
VERTEX
  8
LAYER_1
 10
67.0689
 20
68.926
  0
VERTEX
  8
LAYER_1
 10
67.09
 20
68.926
  0
VERTEX
  8
LAYER_1
 10
160.146
 20
68.926
  0
SEQEND
  0
POLYLINE
  8
LAYER_1
 40
0.1235
 41
0.1235
 66
1
 10
0
 20
0
 30
0
  0
VERTEX
  8
LAYER_1
 10
69.1153
 20
69.4745
  0
VERTEX
  8
LAYER_1
 10
69.1153
 20
68.3562
  0
VERTEX
  8
LAYER_1
 10
69.1363
 20
68.3562
  0
SEQEND
  0
POLYLINE
  8
LAYER_1
 40
0.1235
 41
0.1235
 66
1
 10
0
 20
0
 30
0
  0
VERTEX
  8
LAYER_1
 10
289.5716
 20
99.4551
  0
VERTEX
  8
LAYER_1
 10
291.618
 20
98.9066
  0
VERTEX
  8
LAYER_1
 10
291.639
 20
98.9066
  0
SEQEND
  0
POLYLINE
  8
LAYER_1
 40
0.1235
 41
0.1235
 66
1
 10
0
 20
0
 30
0
  0
VERTEX
  8
LAYER_1
 10
273.7283
 20
99.4551
  0
VERTEX
  8
LAYER_1
 10
271.6823
 20
98.9066
  0
VERTEX
  8
LAYER_1
 10
271.7033
 20
98.9066
  0
SEQEND
  0
POLYLINE
  8
LAYER_1
 40
0.1235
 41
0.1235
 66
1
 10
0
 20
0
 30
0
  0
VERTEX
  8
LAYER_1
 10
328.1571
 20
152.8339
  0
VERTEX
  8
LAYER_1
 10
328.1571
 20
119.4353
  0
VERTEX
  8
LAYER_1
 10
328.1781
 20
119.4353
  0
SEQEND
  0
POLYLINE
  8
LAYER_1
 40
0.1235
 41
0.1235
 66
1
 10
0
 20
0
 30
0
  0
VERTEX
  8
LAYER_1
 10
271.6823
 20
98.9066
  0
VERTEX
  8
LAYER_1
 10
291.6394
 20
98.9066
  0
SEQEND
  0
POLYLINE
  8
LAYER_1
 40
0.1235
 41
0.1235
 66
1
 10
0
 20
0
 30
0
  0
VERTEX
  8
LAYER_1
 10
274.8466
 20
61.9215
  0
VERTEX
  8
LAYER_1
 10
288.4747
 20
61.9215
  0
SEQEND
  0
POLYLINE
  8
LAYER_1
 40
0.1235
 41
0.1235
 66
1
 10
0
 20
0
 30
0
  0
VERTEX
  8
LAYER_1
 10
273.7283
 20
98.3582
  0
VERTEX
  8
LAYER_1
 10
271.6823
 20
98.9066
  0
VERTEX
  8
LAYER_1
 10
271.7033
 20
98.9066
  0
SEQEND
  0
POLYLINE
  8
LAYER_1
 40
0.1235
 41
0.1235
 66
1
 10
0
 20
0
 30
0
  0
VERTEX
  8
LAYER_1
 10
289.5716
 20
98.3582
  0
VERTEX
  8
LAYER_1
 10
291.618
 20
98.9066
  0
VERTEX
  8
LAYER_1
 10
291.639
 20
98.9066
  0
SEQEND
  0
POLYLINE
  8
LAYER_1
 40
0.1235
 41
0.1235
 66
1
 10
0
 20
0
 30
0
  0
VERTEX
  8
LAYER_1
 10
368.8516
 20
111.1016
  0
VERTEX
  8
LAYER_1
 10
367.7546
 20
111.1016
  0
VERTEX
  8
LAYER_1
 10
367.7757
 20
111.1016
  0
SEQEND
  0
POLYLINE
  8
LAYER_1
 40
0.1235
 41
0.1235
 66
1
 10
0
 20
0
 30
0
  0
VERTEX
  8
LAYER_1
 10
326.1107
 20
148.9518
  0
VERTEX
  8
LAYER_1
 10
328.1567
 20
149.5004
  0
VERTEX
  8
LAYER_1
 10
328.1781
 20
149.5004
  0
SEQEND
  0
POLYLINE
  8
LAYER_1
 40
0.1235
 41
0.1235
 66
1
 10
0
 20
0
 30
0
  0
VERTEX
  8
LAYER_1
 10
107.8484
 20
166.2734
  0
VERTEX
  8
LAYER_1
 10
108.9243
 20
168.1089
  0
VERTEX
  8
LAYER_1
 10
108.9453
 20
168.1089
  0
SEQEND
  0
POLYLINE
  8
LAYER_1
 40
0.1235
 41
0.1235
 66
1
 10
0
 20
0
 30
0
  0
VERTEX
  8
LAYER_1
 10
273.7283
 20
98.3582
  0
VERTEX
  8
LAYER_1
 10
273.7283
 20
99.4551
  0
VERTEX
  8
LAYER_1
 10
273.7497
 20
99.4551
  0
SEQEND
  0
POLYLINE
  8
LAYER_1
 40
0.1235
 41
0.1235
 66
1
 10
0
 20
0
 30
0
  0
VERTEX
  8
LAYER_1
 10
374.9273
 20
92.5139
  0
VERTEX
  8
LAYER_1
 10
377.2056
 20
92.5139
  0
SEQEND
  0
POLYLINE
  8
LAYER_1
 40
0.1235
 41
0.1235
 66
1
 10
0
 20
0
 30
0
  0
VERTEX
  8
LAYER_1
 10
376.0456
 20
91.3746
  0
VERTEX
  8
LAYER_1
 10
376.0456
 20
93.6322
  0
VERTEX
  8
LAYER_1
 10
376.0666
 20
93.6322
  0
SEQEND
  0
POLYLINE
  8
LAYER_1
 40
0.1235
 41
0.1235
 66
1
 10
0
 20
0
 30
0
  0
VERTEX
  8
LAYER_1
 10
284.4243
 20
152.9815
  0
VERTEX
  8
LAYER_1
 10
286.7026
 20
152.9815
  0
SEQEND
  0
POLYLINE
  8
LAYER_1
 40
0.1235
 41
0.1235
 66
1
 10
0
 20
0
 30
0
  0
VERTEX
  8
LAYER_1
 10
237.1686
 20
150.0489
  0
VERTEX
  8
LAYER_1
 10
237.1686
 20
148.9518
  0
VERTEX
  8
LAYER_1
 10
237.1897
 20
148.9518
  0
SEQEND
  0
POLYLINE
  8
LAYER_1
 40
0.1235
 41
0.1235
 66
1
 10
0
 20
0
 30
0
  0
VERTEX
  8
LAYER_1
 10
374.9273
 20
90.8892
  0
VERTEX
  8
LAYER_1
 10
377.2056
 20
90.8892
  0
SEQEND
  0
POLYLINE
  8
LAYER_1
 40
0.1235
 41
0.1235
 66
1
 10
0
 20
0
 30
0
  0
VERTEX
  8
LAYER_1
 10
285.5636
 20
151.8634
  0
VERTEX
  8
LAYER_1
 10
285.5636
 20
154.1208
  0
VERTEX
  8
LAYER_1
 10
285.5846
 20
154.1208
  0
SEQEND
  0
POLYLINE
  8
LAYER_1
 40
0.1235
 41
0.1235
 66
1
 10
0
 20
0
 30
0
  0
VERTEX
  8
LAYER_1
 10
114.7046
 20
65.6346
  0
VERTEX
  8
LAYER_1
 10
116.983
 20
65.6346
  0
SEQEND
  0
POLYLINE
  8
LAYER_1
 40
0.1235
 41
0.1235
 66
1
 10
0
 20
0
 30
0
  0
VERTEX
  8
LAYER_1
 10
368.8516
 20
82.0071
  0
VERTEX
  8
LAYER_1
 10
368.3031
 20
79.9603
  0
VERTEX
  8
LAYER_1
 10
368.3241
 20
79.9603
  0
SEQEND
  0
POLYLINE
  8
LAYER_1
 40
0.1235
 41
0.1235
 66
1
 10
0
 20
0
 30
0
  0
VERTEX
  8
LAYER_1
 10
284.4243
 20
151.357
  0
VERTEX
  8
LAYER_1
 10
286.7026
 20
151.357
  0
SEQEND
  0
POLYLINE
  8
LAYER_1
 40
0.1235
 41
0.1235
 66
1
 10
0
 20
0
 30
0
  0
VERTEX
  8
LAYER_1
 10
115.8437
 20
64.4953
  0
VERTEX
  8
LAYER_1
 10
115.8437
 20
66.7529
  0
VERTEX
  8
LAYER_1
 10
115.8649
 20
66.7529
  0
SEQEND
  0
POLYLINE
  8
LAYER_1
 40
0.1235
 41
0.1235
 66
1
 10
0
 20
0
 30
0
  0
VERTEX
  8
LAYER_1
 10
114.7046
 20
64.0102
  0
VERTEX
  8
LAYER_1
 10
116.983
 20
64.0102
  0
SEQEND
  0
POLYLINE
  8
LAYER_1
 40
0.1235
 41
0.1235
 66
1
 10
0
 20
0
 30
0
  0
VERTEX
  8
LAYER_1
 10
95.7602
 20
155.6821
  0
VERTEX
  8
LAYER_1
 10
95.8867
 20
155.8087
  0
VERTEX
  8
LAYER_1
 10
95.9078
 20
155.8087
  0
SEQEND
  0
POLYLINE
  8
LAYER_1
 40
0.1235
 41
0.1235
 66
1
 10
0
 20
0
 30
0
  0
VERTEX
  8
LAYER_1
 10
107.3841
 20
166.7376
  0
VERTEX
  8
LAYER_1
 10
108.5656
 20
167.9191
  0
VERTEX
  8
LAYER_1
 10
108.5867
 20
167.9191
  0
SEQEND
  0
POLYLINE
  8
LAYER_1
 40
0.1235
 41
0.1235
 66
1
 10
0
 20
0
 30
0
  0
VERTEX
  8
LAYER_1
 10
107.1733
 20
166.9486
  0
VERTEX
  8
LAYER_1
 10
107.5741
 20
167.3495
  0
VERTEX
  8
LAYER_1
 10
107.5952
 20
167.3495
  0
SEQEND
  0
POLYLINE
  8
LAYER_1
 40
0.1235
 41
0.1235
 66
1
 10
0
 20
0
 30
0
  0
VERTEX
  8
LAYER_1
 10
107.5952
 20
166.5266
  0
VERTEX
  8
LAYER_1
 10
108.5445
 20
167.4761
  0
VERTEX
  8
LAYER_1
 10
108.5656
 20
167.4761
  0
SEQEND
  0
POLYLINE
  8
LAYER_1
 40
0.1235
 41
0.1235
 66
1
 10
0
 20
0
 30
0
  0
VERTEX
  8
LAYER_1
 10
107.4685
 20
166.6744
  0
VERTEX
  8
LAYER_1
 10
108.9031
 20
168.1091
  0
VERTEX
  8
LAYER_1
 10
108.9243
 20
168.1091
  0
SEQEND
  0
POLYLINE
  8
LAYER_1
 40
0.1235
 41
0.1235
 66
1
 10
0
 20
0
 30
0
  0
VERTEX
  8
LAYER_1
 10
107.6796
 20
166.4634
  0
VERTEX
  8
LAYER_1
 10
108.3546
 20
167.1385
  0
VERTEX
  8
LAYER_1
 10
108.3758
 20
167.1385
  0
SEQEND
  0
POLYLINE
  8
LAYER_1
 40
0.1235
 41
0.1235
 66
1
 10
0
 20
0
 30
0
  0
VERTEX
  8
LAYER_1
 10
107.1099
 20
167.033
  0
VERTEX
  8
LAYER_1
 10
107.2575
 20
167.1597
  0
VERTEX
  8
LAYER_1
 10
107.2787
 20
167.1597
  0
SEQEND
  0
POLYLINE
  8
LAYER_1
 40
0.1235
 41
0.1235
 66
1
 10
0
 20
0
 30
0
  0
VERTEX
  8
LAYER_1
 10
107.3209
 20
166.822
  0
VERTEX
  8
LAYER_1
 10
108.228
 20
167.7293
  0
VERTEX
  8
LAYER_1
 10
108.249
 20
167.7293
  0
SEQEND
  0
POLYLINE
  8
LAYER_1
 40
0.1235
 41
0.1235
 66
1
 10
0
 20
0
 30
0
  0
VERTEX
  8
LAYER_1
 10
107.2577
 20
166.8852
  0
VERTEX
  8
LAYER_1
 10
107.9116
 20
167.5395
  0
VERTEX
  8
LAYER_1
 10
107.9328
 20
167.5395
  0
SEQEND
  0
POLYLINE
  8
LAYER_1
 40
0.1235
 41
0.1235
 66
1
 10
0
 20
0
 30
0
  0
VERTEX
  8
LAYER_1
 10
95.7812
 20
154.5639
  0
VERTEX
  8
LAYER_1
 10
96.4563
 20
155.2601
  0
VERTEX
  8
LAYER_1
 10
96.4775
 20
155.2601
  0
SEQEND
  0
POLYLINE
  8
LAYER_1
 40
0.1235
 41
0.1235
 66
1
 10
0
 20
0
 30
0
  0
VERTEX
  8
LAYER_1
 10
368.3031
 20
113.148
  0
VERTEX
  8
LAYER_1
 10
334.4013
 20
113.148
  0
VERTEX
  8
LAYER_1
 10
334.4227
 20
113.148
  0
SEQEND
  0
POLYLINE
  8
LAYER_1
 40
0.1235
 41
0.1235
 66
1
 10
0
 20
0
 30
0
  0
VERTEX
  8
LAYER_1
 10
95.5702
 20
155.3445
  0
VERTEX
  8
LAYER_1
 10
95.9711
 20
155.7455
  0
VERTEX
  8
LAYER_1
 10
95.9922
 20
155.7455
  0
SEQEND
  0
POLYLINE
  8
LAYER_1
 40
0.1235
 41
0.1235
 66
1
 10
0
 20
0
 30
0
  0
VERTEX
  8
LAYER_1
 10
107.8062
 20
166.3158
  0
VERTEX
  8
LAYER_1
 10
107.9538
 20
166.4634
  0
VERTEX
  8
LAYER_1
 10
107.975
 20
166.4634
  0
SEQEND
  0
POLYLINE
  8
LAYER_1
 40
0.1235
 41
0.1235
 66
1
 10
0
 20
0
 30
0
  0
VERTEX
  8
LAYER_1
 10
95.3804
 20
155.0281
  0
VERTEX
  8
LAYER_1
 10
96.0344
 20
155.6611
  0
VERTEX
  8
LAYER_1
 10
96.0555
 20
155.6611
  0
SEQEND
  0
POLYLINE
  8
LAYER_1
 40
0.1235
 41
0.1235
 66
1
 10
0
 20
0
 30
0
  0
VERTEX
  8
LAYER_1
 10
96.4563
 20
154.9649
  0
VERTEX
  8
LAYER_1
 10
96.6039
 20
155.1125
  0
VERTEX
  8
LAYER_1
 10
96.6251
 20
155.1125
  0
SEQEND
  0
POLYLINE
  8
LAYER_1
 40
0.1235
 41
0.1235
 66
1
 10
0
 20
0
 30
0
  0
VERTEX
  8
LAYER_1
 10
107.7428
 20
166.379
  0
VERTEX
  8
LAYER_1
 10
108.1436
 20
166.801
  0
VERTEX
  8
LAYER_1
 10
108.1648
 20
166.801
  0
SEQEND
  0
POLYLINE
  8
LAYER_1
 40
0.1235
 41
0.1235
 66
1
 10
0
 20
0
 30
0
  0
VERTEX
  8
LAYER_1
 10
107.5319
 20
166.59
  0
VERTEX
  8
LAYER_1
 10
108.7344
 20
167.8137
  0
VERTEX
  8
LAYER_1
 10
108.7555
 20
167.8137
  0
SEQEND
  0
POLYLINE
  8
LAYER_1
 40
0.1235
 41
0.1235
 66
1
 10
0
 20
0
 30
0
  0
VERTEX
  8
LAYER_1
 10
160.1249
 20
65.5926
  0
VERTEX
  8
LAYER_1
 10
160.1249
 20
136.103
  0
VERTEX
  8
LAYER_1
 10
160.146
 20
136.103
  0
SEQEND
  0
POLYLINE
  8
LAYER_1
 40
0.1235
 41
0.1235
 66
1
 10
0
 20
0
 30
0
  0
VERTEX
  8
LAYER_1
 10
96.1189
 20
154.7539
  0
VERTEX
  8
LAYER_1
 10
96.5407
 20
155.1757
  0
VERTEX
  8
LAYER_1
 10
96.5619
 20
155.1757
  0
SEQEND
  0
POLYLINE
  8
LAYER_1
 40
0.1235
 41
0.1235
 66
1
 10
0
 20
0
 30
0
  0
VERTEX
  8
LAYER_1
 10
67.09
 20
65.5926
  0
VERTEX
  8
LAYER_1
 10
67.09
 20
136.103
  0
VERTEX
  8
LAYER_1
 10
67.1111
 20
136.103
  0
SEQEND
  0
POLYLINE
  8
LAYER_1
 40
0.1235
 41
0.1235
 66
1
 10
0
 20
0
 30
0
  0
VERTEX
  8
LAYER_1
 10
158.0575
 20
69.4745
  0
VERTEX
  8
LAYER_1
 10
158.0575
 20
68.3562
  0
VERTEX
  8
LAYER_1
 10
158.0786
 20
68.3562
  0
SEQEND
  0
POLYLINE
  8
LAYER_1
 40
0.1235
 41
0.1235
 66
1
 10
0
 20
0
 30
0
  0
VERTEX
  8
LAYER_1
 10
122.89
 20
130.4065
  0
VERTEX
  8
LAYER_1
 10
108.7977
 20
144.5001
  0
VERTEX
  8
LAYER_1
 10
108.8187
 20
144.5001
  0
SEQEND
  0
POLYLINE
  8
LAYER_1
 40
0.1235
 41
0.1235
 66
1
 10
0
 20
0
 30
0
  0
VERTEX
  8
LAYER_1
 10
118.8816
 20
144.036
  0
VERTEX
  8
LAYER_1
 10
126.3709
 20
151.5046
  0
VERTEX
  8
LAYER_1
 10
126.3919
 20
151.5046
  0
SEQEND
  0
POLYLINE
  8
LAYER_1
 40
0.1235
 41
0.1235
 66
1
 10
0
 20
0
 30
0
  0
VERTEX
  8
LAYER_1
 10
132.5099
 20
140.0273
  0
VERTEX
  8
LAYER_1
 10
118.4176
 20
154.1208
  0
VERTEX
  8
LAYER_1
 10
118.4386
 20
154.1208
  0
SEQEND
  0
POLYLINE
  8
LAYER_1
 40
0.1235
 41
0.1235
 66
1
 10
0
 20
0
 30
0
  0
VERTEX
  8
LAYER_1
 10
128.5437
 20
141.1032
  0
VERTEX
  8
LAYER_1
 10
129.3666
 20
141.9262
  0
VERTEX
  8
LAYER_1
 10
129.3876
 20
141.9262
  0
SEQEND
  0
POLYLINE
  8
LAYER_1
 40
0.1235
 41
0.1235
 66
1
 10
0
 20
0
 30
0
  0
VERTEX
  8
LAYER_1
 10
129.029
 20
140.5968
  0
VERTEX
  8
LAYER_1
 10
129.261
 20
140.829
  0
VERTEX
  8
LAYER_1
 10
129.2822
 20
140.829
  0
SEQEND
  0
POLYLINE
  8
LAYER_1
 40
0.1235
 41
0.1235
 66
1
 10
0
 20
0
 30
0
  0
VERTEX
  8
LAYER_1
 10
272.0406
 20
98.8012
  0
VERTEX
  8
LAYER_1
 10
272.3148
 20
99.0754
  0
VERTEX
  8
LAYER_1
 10
272.3362
 20
99.0754
  0
SEQEND
  0
POLYLINE
  8
LAYER_1
 40
0.1235
 41
0.1235
 66
1
 10
0
 20
0
 30
0
  0
VERTEX
  8
LAYER_1
 10
271.8297
 20
98.8646
  0
VERTEX
  8
LAYER_1
 10
271.9352
 20
98.97
  0
VERTEX
  8
LAYER_1
 10
271.9562
 20
98.97
  0
SEQEND
  0
POLYLINE
  8
LAYER_1
 40
0.1235
 41
0.1235
 66
1
 10
0
 20
0
 30
0
  0
VERTEX
  8
LAYER_1
 10
291.3862
 20
98.8432
  0
VERTEX
  8
LAYER_1
 10
291.4916
 20
98.949
  0
VERTEX
  8
LAYER_1
 10
291.5126
 20
98.949
  0
SEQEND
  0
POLYLINE
  8
LAYER_1
 40
0.1235
 41
0.1235
 66
1
 10
0
 20
0
 30
0
  0
VERTEX
  8
LAYER_1
 10
272.1464
 20
98.7802
  0
VERTEX
  8
LAYER_1
 10
272.505
 20
99.1178
  0
VERTEX
  8
LAYER_1
 10
272.526
 20
99.1178
  0
SEQEND
  0
POLYLINE
  8
LAYER_1
 40
0.1235
 41
0.1235
 66
1
 10
0
 20
0
 30
0
  0
VERTEX
  8
LAYER_1
 10
271.9352
 20
98.8432
  0
VERTEX
  8
LAYER_1
 10
272.125
 20
99.012
  0
VERTEX
  8
LAYER_1
 10
272.1464
 20
99.012
  0
SEQEND
  0
POLYLINE
  8
LAYER_1
 40
0.1235
 41
0.1235
 66
1
 10
0
 20
0
 30
0
  0
VERTEX
  8
LAYER_1
 10
272.2728
 20
98.7378
  0
VERTEX
  8
LAYER_1
 10
272.6948
 20
99.1809
  0
VERTEX
  8
LAYER_1
 10
272.7158
 20
99.1809
  0
SEQEND
  0
POLYLINE
  8
LAYER_1
 40
0.1235
 41
0.1235
 66
1
 10
0
 20
0
 30
0
  0
VERTEX
  8
LAYER_1
 10
128.818
 20
140.829
  0
VERTEX
  8
LAYER_1
 10
129.8517
 20
141.8418
  0
VERTEX
  8
LAYER_1
 10
129.8729
 20
141.8418
  0
SEQEND
  0
POLYLINE
  8
LAYER_1
 40
0.1235
 41
0.1235
 66
1
 10
0
 20
0
 30
0
  0
VERTEX
  8
LAYER_1
 10
128.7548
 20
140.8923
  0
VERTEX
  8
LAYER_1
 10
130.0417
 20
142.1791
  0
VERTEX
  8
LAYER_1
 10
130.0627
 20
142.1791
  0
SEQEND
  0
POLYLINE
  8
LAYER_1
 40
0.1235
 41
0.1235
 66
1
 10
0
 20
0
 30
0
  0
VERTEX
  8
LAYER_1
 10
128.3327
 20
141.3144
  0
VERTEX
  8
LAYER_1
 10
128.3961
 20
141.3774
  0
VERTEX
  8
LAYER_1
 10
128.4171
 20
141.3774
  0
SEQEND
  0
POLYLINE
  8
LAYER_1
 40
0.1235
 41
0.1235
 66
1
 10
0
 20
0
 30
0
  0
VERTEX
  8
LAYER_1
 10
129.0922
 20
140.5547
  0
VERTEX
  8
LAYER_1
 10
128.3117
 20
141.3354
  0
VERTEX
  8
LAYER_1
 10
128.3329
 20
141.3354
  0
SEQEND
  0
POLYLINE
  8
LAYER_1
 40
0.1235
 41
0.1235
 66
1
 10
0
 20
0
 30
0
  0
VERTEX
  8
LAYER_1
 10
129.0922
 20
140.5547
  0
VERTEX
  8
LAYER_1
 10
130.1683
 20
142.3903
  0
VERTEX
  8
LAYER_1
 10
130.1893
 20
142.3903
  0
SEQEND
  0
POLYLINE
  8
LAYER_1
 40
0.1235
 41
0.1235
 66
1
 10
0
 20
0
 30
0
  0
VERTEX
  8
LAYER_1
 10
128.9658
 20
140.6812
  0
VERTEX
  8
LAYER_1
 10
129.472
 20
141.1666
  0
VERTEX
  8
LAYER_1
 10
129.493
 20
141.1666
  0
SEQEND
  0
POLYLINE
  8
LAYER_1
 40
0.1235
 41
0.1235
 66
1
 10
0
 20
0
 30
0
  0
VERTEX
  8
LAYER_1
 10
128.3961
 20
141.251
  0
VERTEX
  8
LAYER_1
 10
128.7126
 20
141.5462
  0
VERTEX
  8
LAYER_1
 10
128.7336
 20
141.5462
  0
SEQEND
  0
POLYLINE
  8
LAYER_1
 40
0.1235
 41
0.1235
 66
1
 10
0
 20
0
 30
0
  0
VERTEX
  8
LAYER_1
 10
128.6071
 20
141.0398
  0
VERTEX
  8
LAYER_1
 10
129.7041
 20
142.116
  0
VERTEX
  8
LAYER_1
 10
129.7252
 20
142.116
  0
SEQEND
  0
POLYLINE
  8
LAYER_1
 40
0.1235
 41
0.1235
 66
1
 10
0
 20
0
 30
0
  0
VERTEX
  8
LAYER_1
 10
128.4805
 20
141.1666
  0
VERTEX
  8
LAYER_1
 10
129.0502
 20
141.7361
  0
VERTEX
  8
LAYER_1
 10
129.0712
 20
141.7361
  0
SEQEND
  0
POLYLINE
  8
LAYER_1
 40
0.1235
 41
0.1235
 66
1
 10
0
 20
0
 30
0
  0
VERTEX
  8
LAYER_1
 10
128.9024
 20
140.7446
  0
VERTEX
  8
LAYER_1
 10
129.6619
 20
141.5042
  0
VERTEX
  8
LAYER_1
 10
129.683
 20
141.5042
  0
SEQEND
  0
POLYLINE
  8
LAYER_1
 40
0.1235
 41
0.1235
 66
1
 10
0
 20
0
 30
0
  0
VERTEX
  8
LAYER_1
 10
128.6914
 20
140.9554
  0
VERTEX
  8
LAYER_1
 10
130.0415
 20
142.3059
  0
VERTEX
  8
LAYER_1
 10
130.0627
 20
142.3059
  0
SEQEND
  0
POLYLINE
  8
LAYER_1
 40
0.1235
 41
0.1235
 66
1
 10
0
 20
0
 30
0
  0
VERTEX
  8
LAYER_1
 10
289.5716
 20
99.1175
  0
VERTEX
  8
LAYER_1
 10
289.8249
 20
99.392
  0
VERTEX
  8
LAYER_1
 10
289.8459
 20
99.392
  0
SEQEND
  0
POLYLINE
  8
LAYER_1
 40
0.1235
 41
0.1235
 66
1
 10
0
 20
0
 30
0
  0
VERTEX
  8
LAYER_1
 10
289.5716
 20
99.2653
  0
VERTEX
  8
LAYER_1
 10
289.7194
 20
99.4131
  0
VERTEX
  8
LAYER_1
 10
289.7405
 20
99.4131
  0
SEQEND
  0
POLYLINE
  8
LAYER_1
 40
0.1235
 41
0.1235
 66
1
 10
0
 20
0
 30
0
  0
VERTEX
  8
LAYER_1
 10
291.0062
 20
98.7378
  0
VERTEX
  8
LAYER_1
 10
291.2594
 20
98.991
  0
VERTEX
  8
LAYER_1
 10
291.2804
 20
98.991
  0
SEQEND
  0
POLYLINE
  8
LAYER_1
 40
0.1235
 41
0.1235
 66
1
 10
0
 20
0
 30
0
  0
VERTEX
  8
LAYER_1
 10
272.8212
 20
98.59
  0
VERTEX
  8
LAYER_1
 10
273.6653
 20
99.4341
  0
VERTEX
  8
LAYER_1
 10
273.6863
 20
99.4341
  0
SEQEND
  0
POLYLINE
  8
LAYER_1
 40
0.1235
 41
0.1235
 66
1
 10
0
 20
0
 30
0
  0
VERTEX
  8
LAYER_1
 10
272.7158
 20
98.6324
  0
VERTEX
  8
LAYER_1
 10
273.4751
 20
99.392
  0
VERTEX
  8
LAYER_1
 10
273.4965
 20
99.392
  0
SEQEND
  0
POLYLINE
  8
LAYER_1
 40
0.1235
 41
0.1235
 66
1
 10
0
 20
0
 30
0
  0
VERTEX
  8
LAYER_1
 10
289.5716
 20
98.8432
  0
VERTEX
  8
LAYER_1
 10
290.036
 20
99.3286
  0
VERTEX
  8
LAYER_1
 10
290.0571
 20
99.3286
  0
SEQEND
  0
POLYLINE
  8
LAYER_1
 40
0.1235
 41
0.1235
 66
1
 10
0
 20
0
 30
0
  0
VERTEX
  8
LAYER_1
 10
290.4367
 20
98.59
  0
VERTEX
  8
LAYER_1
 10
290.9431
 20
99.0964
  0
VERTEX
  8
LAYER_1
 10
290.9642
 20
99.0964
  0
SEQEND
  0
POLYLINE
  8
LAYER_1
 40
0.1235
 41
0.1235
 66
1
 10
0
 20
0
 30
0
  0
VERTEX
  8
LAYER_1
 10
290.2469
 20
98.527
  0
VERTEX
  8
LAYER_1
 10
290.8164
 20
99.1175
  0
VERTEX
  8
LAYER_1
 10
290.8374
 20
99.1175
  0
SEQEND
  0
POLYLINE
  8
LAYER_1
 40
0.1235
 41
0.1235
 66
1
 10
0
 20
0
 30
0
  0
VERTEX
  8
LAYER_1
 10
289.5716
 20
98.6958
  0
VERTEX
  8
LAYER_1
 10
290.1625
 20
99.3076
  0
VERTEX
  8
LAYER_1
 10
290.1835
 20
99.3076
  0
SEQEND
  0
POLYLINE
  8
LAYER_1
 40
0.1235
 41
0.1235
 66
1
 10
0
 20
0
 30
0
  0
VERTEX
  8
LAYER_1
 10
289.5716
 20
98.991
  0
VERTEX
  8
LAYER_1
 10
289.9303
 20
99.3497
  0
VERTEX
  8
LAYER_1
 10
289.9516
 20
99.3497
  0
SEQEND
  0
POLYLINE
  8
LAYER_1
 40
0.1235
 41
0.1235
 66
1
 10
0
 20
0
 30
0
  0
VERTEX
  8
LAYER_1
 10
289.5716
 20
99.4131
  0
VERTEX
  8
LAYER_1
 10
289.593
 20
99.4551
  0
VERTEX
  8
LAYER_1
 10
289.614
 20
99.4551
  0
SEQEND
  0
POLYLINE
  8
LAYER_1
 40
0.1235
 41
0.1235
 66
1
 10
0
 20
0
 30
0
  0
VERTEX
  8
LAYER_1
 10
272.3782
 20
98.7168
  0
VERTEX
  8
LAYER_1
 10
272.8846
 20
99.2232
  0
VERTEX
  8
LAYER_1
 10
272.9057
 20
99.2232
  0
SEQEND
  0
POLYLINE
  8
LAYER_1
 40
0.1235
 41
0.1235
 66
1
 10
0
 20
0
 30
0
  0
VERTEX
  8
LAYER_1
 10
273.1589
 20
98.5056
  0
VERTEX
  8
LAYER_1
 10
273.7283
 20
99.0964
  0
VERTEX
  8
LAYER_1
 10
273.7497
 20
99.0964
  0
SEQEND
  0
POLYLINE
  8
LAYER_1
 40
0.1235
 41
0.1235
 66
1
 10
0
 20
0
 30
0
  0
VERTEX
  8
LAYER_1
 10
291.597
 20
98.9066
  0
VERTEX
  8
LAYER_1
 10
291.618
 20
98.9066
  0
SEQEND
  0
POLYLINE
  8
LAYER_1
 40
0.1235
 41
0.1235
 66
1
 10
0
 20
0
 30
0
  0
VERTEX
  8
LAYER_1
 10
291.196
 20
98.8012
  0
VERTEX
  8
LAYER_1
 10
291.3862
 20
98.97
  0
VERTEX
  8
LAYER_1
 10
291.4072
 20
98.97
  0
SEQEND
  0
POLYLINE
  8
LAYER_1
 40
0.1235
 41
0.1235
 66
1
 10
0
 20
0
 30
0
  0
VERTEX
  8
LAYER_1
 10
271.7033
 20
98.9066
  0
VERTEX
  8
LAYER_1
 10
271.7243
 20
98.9276
  0
VERTEX
  8
LAYER_1
 10
271.7453
 20
98.9276
  0
SEQEND
  0
POLYLINE
  8
LAYER_1
 40
0.1235
 41
0.1235
 66
1
 10
0
 20
0
 30
0
  0
VERTEX
  8
LAYER_1
 10
273.0534
 20
98.548
  0
VERTEX
  8
LAYER_1
 10
273.7283
 20
99.2232
  0
VERTEX
  8
LAYER_1
 10
273.7494
 20
99.2232
  0
SEQEND
  0
POLYLINE
  8
LAYER_1
 40
0.1235
 41
0.1235
 66
1
 10
0
 20
0
 30
0
  0
VERTEX
  8
LAYER_1
 10
272.6104
 20
98.6534
  0
VERTEX
  8
LAYER_1
 10
273.2853
 20
99.3286
  0
VERTEX
  8
LAYER_1
 10
273.3067
 20
99.3286
  0
SEQEND
  0
POLYLINE
  8
LAYER_1
 40
0.1235
 41
0.1235
 66
1
 10
0
 20
0
 30
0
  0
VERTEX
  8
LAYER_1
 10
272.4836
 20
98.6958
  0
VERTEX
  8
LAYER_1
 10
273.0745
 20
99.2863
  0
VERTEX
  8
LAYER_1
 10
273.0955
 20
99.2863
  0
SEQEND
  0
POLYLINE
  8
LAYER_1
 40
0.1235
 41
0.1235
 66
1
 10
0
 20
0
 30
0
  0
VERTEX
  8
LAYER_1
 10
272.9267
 20
98.569
  0
VERTEX
  8
LAYER_1
 10
273.7283
 20
99.3707
  0
VERTEX
  8
LAYER_1
 10
273.7497
 20
99.3707
  0
SEQEND
  0
POLYLINE
  8
LAYER_1
 40
0.1235
 41
0.1235
 66
1
 10
0
 20
0
 30
0
  0
VERTEX
  8
LAYER_1
 10
273.3697
 20
98.4426
  0
VERTEX
  8
LAYER_1
 10
273.7283
 20
98.8012
  0
VERTEX
  8
LAYER_1
 10
273.7497
 20
98.8012
  0
SEQEND
  0
POLYLINE
  8
LAYER_1
 40
0.1235
 41
0.1235
 66
1
 10
0
 20
0
 30
0
  0
VERTEX
  8
LAYER_1
 10
273.2643
 20
98.4846
  0
VERTEX
  8
LAYER_1
 10
273.7283
 20
98.949
  0
VERTEX
  8
LAYER_1
 10
273.7494
 20
98.949
  0
SEQEND
  0
POLYLINE
  8
LAYER_1
 40
0.1235
 41
0.1235
 66
1
 10
0
 20
0
 30
0
  0
VERTEX
  8
LAYER_1
 10
128.3117
 20
141.3354
  0
VERTEX
  8
LAYER_1
 10
130.1681
 20
142.3903
  0
VERTEX
  8
LAYER_1
 10
130.1893
 20
142.3903
  0
SEQEND
  0
POLYLINE
  8
LAYER_1
 40
0.1235
 41
0.1235
 66
1
 10
0
 20
0
 30
0
  0
VERTEX
  8
LAYER_1
 10
275.1208
 20
61.8581
  0
VERTEX
  8
LAYER_1
 10
275.3317
 20
62.0689
  0
VERTEX
  8
LAYER_1
 10
275.3527
 20
62.0689
  0
SEQEND
  0
POLYLINE
  8
LAYER_1
 40
0.1235
 41
0.1235
 66
1
 10
0
 20
0
 30
0
  0
VERTEX
  8
LAYER_1
 10
275.0154
 20
61.8791
  0
VERTEX
  8
LAYER_1
 10
275.1419
 20
62.0059
  0
VERTEX
  8
LAYER_1
 10
275.1629
 20
62.0059
  0
SEQEND
  0
POLYLINE
  8
LAYER_1
 40
0.1235
 41
0.1235
 66
1
 10
0
 20
0
 30
0
  0
VERTEX
  8
LAYER_1
 10
274.8886
 20
61.9215
  0
VERTEX
  8
LAYER_1
 10
274.931
 20
61.9635
  0
VERTEX
  8
LAYER_1
 10
274.952
 20
61.9635
  0
SEQEND
  0
POLYLINE
  8
LAYER_1
 40
0.1235
 41
0.1235
 66
1
 10
0
 20
0
 30
0
  0
VERTEX
  8
LAYER_1
 10
276.6818
 20
61.436
  0
VERTEX
  8
LAYER_1
 10
276.893
 20
61.6472
  0
VERTEX
  8
LAYER_1
 10
276.914
 20
61.6472
  0
SEQEND
  0
POLYLINE
  8
LAYER_1
 40
0.1235
 41
0.1235
 66
1
 10
0
 20
0
 30
0
  0
VERTEX
  8
LAYER_1
 10
276.3442
 20
61.5204
  0
VERTEX
  8
LAYER_1
 10
276.893
 20
62.0689
  0
VERTEX
  8
LAYER_1
 10
276.914
 20
62.0689
  0
SEQEND
  0
POLYLINE
  8
LAYER_1
 40
0.1235
 41
0.1235
 66
1
 10
0
 20
0
 30
0
  0
VERTEX
  8
LAYER_1
 10
275.2263
 20
61.8157
  0
VERTEX
  8
LAYER_1
 10
275.5215
 20
62.1113
  0
VERTEX
  8
LAYER_1
 10
275.5425
 20
62.1113
  0
SEQEND
  0
POLYLINE
  8
LAYER_1
 40
0.1235
 41
0.1235
 66
1
 10
0
 20
0
 30
0
  0
VERTEX
  8
LAYER_1
 10
276.1123
 20
61.5838
  0
VERTEX
  8
LAYER_1
 10
276.893
 20
62.3645
  0
VERTEX
  8
LAYER_1
 10
276.914
 20
62.3645
  0
SEQEND
  0
POLYLINE
  8
LAYER_1
 40
0.1235
 41
0.1235
 66
1
 10
0
 20
0
 30
0
  0
VERTEX
  8
LAYER_1
 10
275.7957
 20
61.6682
  0
VERTEX
  8
LAYER_1
 10
276.492
 20
62.3645
  0
VERTEX
  8
LAYER_1
 10
276.513
 20
62.3645
  0
SEQEND
  0
POLYLINE
  8
LAYER_1
 40
0.1235
 41
0.1235
 66
1
 10
0
 20
0
 30
0
  0
VERTEX
  8
LAYER_1
 10
276.2388
 20
61.5628
  0
VERTEX
  8
LAYER_1
 10
276.893
 20
62.2167
  0
VERTEX
  8
LAYER_1
 10
276.914
 20
62.2167
  0
SEQEND
  0
POLYLINE
  8
LAYER_1
 40
0.1235
 41
0.1235
 66
1
 10
0
 20
0
 30
0
  0
VERTEX
  8
LAYER_1
 10
276.0069
 20
61.6049
  0
VERTEX
  8
LAYER_1
 10
276.8716
 20
62.4699
  0
VERTEX
  8
LAYER_1
 10
276.893
 20
62.4699
  0
SEQEND
  0
POLYLINE
  8
LAYER_1
 40
0.1235
 41
0.1235
 66
1
 10
0
 20
0
 30
0
  0
VERTEX
  8
LAYER_1
 10
275.9015
 20
61.6472
  0
VERTEX
  8
LAYER_1
 10
276.6818
 20
62.4279
  0
VERTEX
  8
LAYER_1
 10
276.7032
 20
62.4279
  0
SEQEND
  0
POLYLINE
  8
LAYER_1
 40
0.1235
 41
0.1235
 66
1
 10
0
 20
0
 30
0
  0
VERTEX
  8
LAYER_1
 10
286.4073
 20
61.7947
  0
VERTEX
  8
LAYER_1
 10
286.9558
 20
62.3431
  0
VERTEX
  8
LAYER_1
 10
286.9768
 20
62.3431
  0
SEQEND
  0
POLYLINE
  8
LAYER_1
 40
0.1235
 41
0.1235
 66
1
 10
0
 20
0
 30
0
  0
VERTEX
  8
LAYER_1
 10
288.4537
 20
60.0225
  0
VERTEX
  8
LAYER_1
 10
288.4537
 20
76.6268
  0
VERTEX
  8
LAYER_1
 10
288.4747
 20
76.6268
  0
SEQEND
  0
POLYLINE
  8
LAYER_1
 40
0.1235
 41
0.1235
 66
1
 10
0
 20
0
 30
0
  0
VERTEX
  8
LAYER_1
 10
286.4073
 20
61.6472
  0
VERTEX
  8
LAYER_1
 10
287.0612
 20
62.3011
  0
VERTEX
  8
LAYER_1
 10
287.0826
 20
62.3011
  0
SEQEND
  0
POLYLINE
  8
LAYER_1
 40
0.1235
 41
0.1235
 66
1
 10
0
 20
0
 30
0
  0
VERTEX
  8
LAYER_1
 10
286.4073
 20
61.9215
  0
VERTEX
  8
LAYER_1
 10
286.8504
 20
62.3645
  0
VERTEX
  8
LAYER_1
 10
286.8714
 20
62.3645
  0
SEQEND
  0
POLYLINE
  8
LAYER_1
 40
0.1235
 41
0.1235
 66
1
 10
0
 20
0
 30
0
  0
VERTEX
  8
LAYER_1
 10
286.4073
 20
62.0689
  0
VERTEX
  8
LAYER_1
 10
286.7236
 20
62.3855
  0
VERTEX
  8
LAYER_1
 10
286.7449
 20
62.3855
  0
SEQEND
  0
POLYLINE
  8
LAYER_1
 40
0.1235
 41
0.1235
 66
1
 10
0
 20
0
 30
0
  0
VERTEX
  8
LAYER_1
 10
286.4073
 20
61.3727
  0
VERTEX
  8
LAYER_1
 10
286.4073
 20
62.4909
  0
VERTEX
  8
LAYER_1
 10
286.4283
 20
62.4909
  0
SEQEND
  0
POLYLINE
  8
LAYER_1
 40
0.1235
 41
0.1235
 66
1
 10
0
 20
0
 30
0
  0
VERTEX
  8
LAYER_1
 10
276.45
 20
61.4994
  0
VERTEX
  8
LAYER_1
 10
276.893
 20
61.9425
  0
VERTEX
  8
LAYER_1
 10
276.914
 20
61.9425
  0
SEQEND
  0
POLYLINE
  8
LAYER_1
 40
0.1235
 41
0.1235
 66
1
 10
0
 20
0
 30
0
  0
VERTEX
  8
LAYER_1
 10
276.7872
 20
61.415
  0
VERTEX
  8
LAYER_1
 10
276.893
 20
61.5204
  0
VERTEX
  8
LAYER_1
 10
276.914
 20
61.5204
  0
SEQEND
  0
POLYLINE
  8
LAYER_1
 40
0.1235
 41
0.1235
 66
1
 10
0
 20
0
 30
0
  0
VERTEX
  8
LAYER_1
 10
276.5554
 20
61.4571
  0
VERTEX
  8
LAYER_1
 10
276.893
 20
61.7947
  0
VERTEX
  8
LAYER_1
 10
276.914
 20
61.7947
  0
SEQEND
  0
POLYLINE
  8
LAYER_1
 40
0.1235
 41
0.1235
 66
1
 10
0
 20
0
 30
0
  0
VERTEX
  8
LAYER_1
 10
286.4073
 20
61.3727
  0
VERTEX
  8
LAYER_1
 10
288.4537
 20
61.9215
  0
VERTEX
  8
LAYER_1
 10
288.4747
 20
61.9215
  0
SEQEND
  0
POLYLINE
  8
LAYER_1
 40
0.1235
 41
0.1235
 66
1
 10
0
 20
0
 30
0
  0
VERTEX
  8
LAYER_1
 10
286.4073
 20
62.4909
  0
VERTEX
  8
LAYER_1
 10
288.4537
 20
61.9215
  0
VERTEX
  8
LAYER_1
 10
288.4747
 20
61.9215
  0
SEQEND
  0
POLYLINE
  8
LAYER_1
 40
0.1235
 41
0.1235
 66
1
 10
0
 20
0
 30
0
  0
VERTEX
  8
LAYER_1
 10
121.5399
 20
134.4996
  0
VERTEX
  8
LAYER_1
 10
121.6031
 20
134.584
  0
VERTEX
  8
LAYER_1
 10
121.6243
 20
134.584
  0
SEQEND
  0
POLYLINE
  8
LAYER_1
 40
0.1235
 41
0.1235
 66
1
 10
0
 20
0
 30
0
  0
VERTEX
  8
LAYER_1
 10
120.9702
 20
133.5078
  0
VERTEX
  8
LAYER_1
 10
121.8351
 20
134.3728
  0
VERTEX
  8
LAYER_1
 10
121.8563
 20
134.3728
  0
SEQEND
  0
POLYLINE
  8
LAYER_1
 40
0.1235
 41
0.1235
 66
1
 10
0
 20
0
 30
0
  0
VERTEX
  8
LAYER_1
 10
121.3499
 20
134.162
  0
VERTEX
  8
LAYER_1
 10
121.6875
 20
134.4996
  0
VERTEX
  8
LAYER_1
 10
121.7085
 20
134.4996
  0
SEQEND
  0
POLYLINE
  8
LAYER_1
 40
0.1235
 41
0.1235
 66
1
 10
0
 20
0
 30
0
  0
VERTEX
  8
LAYER_1
 10
121.0968
 20
133.0858
  0
VERTEX
  8
LAYER_1
 10
122.1093
 20
134.0776
  0
VERTEX
  8
LAYER_1
 10
122.1305
 20
134.0776
  0
SEQEND
  0
POLYLINE
  8
LAYER_1
 40
0.1235
 41
0.1235
 66
1
 10
0
 20
0
 30
0
  0
VERTEX
  8
LAYER_1
 10
120.7804
 20
133.1702
  0
VERTEX
  8
LAYER_1
 10
121.8985
 20
134.2884
  0
VERTEX
  8
LAYER_1
 10
121.9195
 20
134.2884
  0
SEQEND
  0
POLYLINE
  8
LAYER_1
 40
0.1235
 41
0.1235
 66
1
 10
0
 20
0
 30
0
  0
VERTEX
  8
LAYER_1
 10
121.16
 20
133.8454
  0
VERTEX
  8
LAYER_1
 10
121.7507
 20
134.4362
  0
VERTEX
  8
LAYER_1
 10
121.7719
 20
134.4362
  0
SEQEND
  0
POLYLINE
  8
LAYER_1
 40
0.1235
 41
0.1235
 66
1
 10
0
 20
0
 30
0
  0
VERTEX
  8
LAYER_1
 10
122.3836
 20
133.8244
  0
VERTEX
  8
LAYER_1
 10
120.5272
 20
132.7481
  0
VERTEX
  8
LAYER_1
 10
120.5484
 20
132.7481
  0
SEQEND
  0
POLYLINE
  8
LAYER_1
 40
0.1235
 41
0.1235
 66
1
 10
0
 20
0
 30
0
  0
VERTEX
  8
LAYER_1
 10
122.3836
 20
133.8244
  0
VERTEX
  8
LAYER_1
 10
121.5821
 20
134.605
  0
VERTEX
  8
LAYER_1
 10
121.6031
 20
134.605
  0
SEQEND
  0
POLYLINE
  8
LAYER_1
 40
0.1235
 41
0.1235
 66
1
 10
0
 20
0
 30
0
  0
VERTEX
  8
LAYER_1
 10
121.5821
 20
134.605
  0
VERTEX
  8
LAYER_1
 10
120.5272
 20
132.7485
  0
VERTEX
  8
LAYER_1
 10
120.5482
 20
132.7485
  0
SEQEND
  0
POLYLINE
  8
LAYER_1
 40
0.1235
 41
0.1235
 66
1
 10
0
 20
0
 30
0
  0
VERTEX
  8
LAYER_1
 10
121.7719
 20
133.4658
  0
VERTEX
  8
LAYER_1
 10
122.2571
 20
133.9508
  0
VERTEX
  8
LAYER_1
 10
122.2782
 20
133.9508
  0
SEQEND
  0
POLYLINE
  8
LAYER_1
 40
0.1235
 41
0.1235
 66
1
 10
0
 20
0
 30
0
  0
VERTEX
  8
LAYER_1
 10
122.1093
 20
133.6766
  0
VERTEX
  8
LAYER_1
 10
122.3204
 20
133.8664
  0
VERTEX
  8
LAYER_1
 10
122.3415
 20
133.8664
  0
SEQEND
  0
POLYLINE
  8
LAYER_1
 40
0.1235
 41
0.1235
 66
1
 10
0
 20
0
 30
0
  0
VERTEX
  8
LAYER_1
 10
275.5639
 20
61.7313
  0
VERTEX
  8
LAYER_1
 10
276.0913
 20
62.2591
  0
VERTEX
  8
LAYER_1
 10
276.1123
 20
62.2591
  0
SEQEND
  0
POLYLINE
  8
LAYER_1
 40
0.1235
 41
0.1235
 66
1
 10
0
 20
0
 30
0
  0
VERTEX
  8
LAYER_1
 10
274.8466
 20
60.0225
  0
VERTEX
  8
LAYER_1
 10
274.8466
 20
76.6268
  0
VERTEX
  8
LAYER_1
 10
274.8676
 20
76.6268
  0
SEQEND
  0
POLYLINE
  8
LAYER_1
 40
0.1235
 41
0.1235
 66
1
 10
0
 20
0
 30
0
  0
VERTEX
  8
LAYER_1
 10
275.6693
 20
61.7103
  0
VERTEX
  8
LAYER_1
 10
276.2812
 20
62.3221
  0
VERTEX
  8
LAYER_1
 10
276.3022
 20
62.3221
  0
SEQEND
  0
POLYLINE
  8
LAYER_1
 40
0.1235
 41
0.1235
 66
1
 10
0
 20
0
 30
0
  0
VERTEX
  8
LAYER_1
 10
275.4585
 20
61.7737
  0
VERTEX
  8
LAYER_1
 10
275.9015
 20
62.2167
  0
VERTEX
  8
LAYER_1
 10
275.9225
 20
62.2167
  0
SEQEND
  0
POLYLINE
  8
LAYER_1
 40
0.1235
 41
0.1235
 66
1
 10
0
 20
0
 30
0
  0
VERTEX
  8
LAYER_1
 10
275.3317
 20
61.7947
  0
VERTEX
  8
LAYER_1
 10
275.7113
 20
62.1747
  0
VERTEX
  8
LAYER_1
 10
275.7327
 20
62.1747
  0
SEQEND
  0
POLYLINE
  8
LAYER_1
 40
0.1235
 41
0.1235
 66
1
 10
0
 20
0
 30
0
  0
VERTEX
  8
LAYER_1
 10
276.893
 20
61.3727
  0
VERTEX
  8
LAYER_1
 10
276.893
 20
62.4909
  0
VERTEX
  8
LAYER_1
 10
276.914
 20
62.4909
  0
SEQEND
  0
POLYLINE
  8
LAYER_1
 40
0.1235
 41
0.1235
 66
1
 10
0
 20
0
 30
0
  0
VERTEX
  8
LAYER_1
 10
120.5904
 20
132.8539
  0
VERTEX
  8
LAYER_1
 10
121.9617
 20
134.2251
  0
VERTEX
  8
LAYER_1
 10
121.9829
 20
134.2251
  0
SEQEND
  0
POLYLINE
  8
LAYER_1
 40
0.1235
 41
0.1235
 66
1
 10
0
 20
0
 30
0
  0
VERTEX
  8
LAYER_1
 10
121.4343
 20
133.2759
  0
VERTEX
  8
LAYER_1
 10
122.1727
 20
134.0142
  0
VERTEX
  8
LAYER_1
 10
122.1937
 20
134.0142
  0
SEQEND
  0
POLYLINE
  8
LAYER_1
 40
0.1235
 41
0.1235
 66
1
 10
0
 20
0
 30
0
  0
VERTEX
  8
LAYER_1
 10
120.7804
 20
132.8959
  0
VERTEX
  8
LAYER_1
 10
122.0461
 20
134.162
  0
VERTEX
  8
LAYER_1
 10
122.0673
 20
134.162
  0
SEQEND
  0
POLYLINE
  8
LAYER_1
 40
0.1235
 41
0.1235
 66
1
 10
0
 20
0
 30
0
  0
VERTEX
  8
LAYER_1
 10
276.893
 20
62.4909
  0
VERTEX
  8
LAYER_1
 10
274.8466
 20
61.9215
  0
VERTEX
  8
LAYER_1
 10
274.8676
 20
61.9215
  0
SEQEND
  0
POLYLINE
  8
LAYER_1
 40
0.1235
 41
0.1235
 66
1
 10
0
 20
0
 30
0
  0
VERTEX
  8
LAYER_1
 10
276.893
 20
61.3727
  0
VERTEX
  8
LAYER_1
 10
274.8466
 20
61.9215
  0
VERTEX
  8
LAYER_1
 10
274.8676
 20
61.9215
  0
SEQEND
  0
POLYLINE
  8
LAYER_1
 40
0.1235
 41
0.1235
 66
1
 10
0
 20
0
 30
0
  0
VERTEX
  8
LAYER_1
 10
290.8164
 20
98.6958
  0
VERTEX
  8
LAYER_1
 10
291.154
 20
99.0334
  0
VERTEX
  8
LAYER_1
 10
291.175
 20
99.0334
  0
SEQEND
  0
POLYLINE
  8
LAYER_1
 40
0.1235
 41
0.1235
 66
1
 10
0
 20
0
 30
0
  0
VERTEX
  8
LAYER_1
 10
368.0079
 20
112.0297
  0
VERTEX
  8
LAYER_1
 10
368.4719
 20
112.4941
  0
VERTEX
  8
LAYER_1
 10
368.4929
 20
112.4941
  0
SEQEND
  0
POLYLINE
  8
LAYER_1
 40
0.1235
 41
0.1235
 66
1
 10
0
 20
0
 30
0
  0
VERTEX
  8
LAYER_1
 10
368.1553
 20
112.5995
  0
VERTEX
  8
LAYER_1
 10
368.3875
 20
112.8314
  0
VERTEX
  8
LAYER_1
 10
368.4085
 20
112.8314
  0
SEQEND
  0
POLYLINE
  8
LAYER_1
 40
0.1235
 41
0.1235
 66
1
 10
0
 20
0
 30
0
  0
VERTEX
  8
LAYER_1
 10
367.839
 20
111.4392
  0
VERTEX
  8
LAYER_1
 10
368.5773
 20
112.1565
  0
VERTEX
  8
LAYER_1
 10
368.5983
 20
112.1565
  0
SEQEND
  0
POLYLINE
  8
LAYER_1
 40
0.1235
 41
0.1235
 66
1
 10
0
 20
0
 30
0
  0
VERTEX
  8
LAYER_1
 10
367.9445
 20
111.8188
  0
VERTEX
  8
LAYER_1
 10
368.5139
 20
112.3883
  0
VERTEX
  8
LAYER_1
 10
368.535
 20
112.3883
  0
SEQEND
  0
POLYLINE
  8
LAYER_1
 40
0.1235
 41
0.1235
 66
1
 10
0
 20
0
 30
0
  0
VERTEX
  8
LAYER_1
 10
367.797
 20
111.249
  0
VERTEX
  8
LAYER_1
 10
368.5987
 20
112.051
  0
VERTEX
  8
LAYER_1
 10
368.6197
 20
112.051
  0
SEQEND
  0
POLYLINE
  8
LAYER_1
 40
0.1235
 41
0.1235
 66
1
 10
0
 20
0
 30
0
  0
VERTEX
  8
LAYER_1
 10
368.1977
 20
112.7893
  0
VERTEX
  8
LAYER_1
 10
368.3665
 20
112.9371
  0
VERTEX
  8
LAYER_1
 10
368.3875
 20
112.9371
  0
SEQEND
  0
POLYLINE
  8
LAYER_1
 40
0.1235
 41
0.1235
 66
1
 10
0
 20
0
 30
0
  0
VERTEX
  8
LAYER_1
 10
367.9231
 20
81.3528
  0
VERTEX
  8
LAYER_1
 10
368.5983
 20
82.0071
  0
VERTEX
  8
LAYER_1
 10
368.6194
 20
82.0071
  0
SEQEND
  0
POLYLINE
  8
LAYER_1
 40
0.1235
 41
0.1235
 66
1
 10
0
 20
0
 30
0
  0
VERTEX
  8
LAYER_1
 10
367.9024
 20
81.4582
  0
VERTEX
  8
LAYER_1
 10
368.4509
 20
82.0071
  0
VERTEX
  8
LAYER_1
 10
368.4719
 20
82.0071
  0
SEQEND
  0
POLYLINE
  8
LAYER_1
 40
0.1235
 41
0.1235
 66
1
 10
0
 20
0
 30
0
  0
VERTEX
  8
LAYER_1
 10
368.0285
 20
81.0152
  0
VERTEX
  8
LAYER_1
 10
368.7882
 20
81.7959
  0
VERTEX
  8
LAYER_1
 10
368.8092
 20
81.7959
  0
SEQEND
  0
POLYLINE
  8
LAYER_1
 40
0.1235
 41
0.1235
 66
1
 10
0
 20
0
 30
0
  0
VERTEX
  8
LAYER_1
 10
368.0499
 20
112.2195
  0
VERTEX
  8
LAYER_1
 10
368.4509
 20
112.6205
  0
VERTEX
  8
LAYER_1
 10
368.4719
 20
112.6205
  0
SEQEND
  0
POLYLINE
  8
LAYER_1
 40
0.1235
 41
0.1235
 66
1
 10
0
 20
0
 30
0
  0
VERTEX
  8
LAYER_1
 10
368.1133
 20
112.4097
  0
VERTEX
  8
LAYER_1
 10
368.4085
 20
112.7259
  0
VERTEX
  8
LAYER_1
 10
368.4299
 20
112.7259
  0
SEQEND
  0
POLYLINE
  8
LAYER_1
 40
0.1235
 41
0.1235
 66
1
 10
0
 20
0
 30
0
  0
VERTEX
  8
LAYER_1
 10
368.2607
 20
80.1291
  0
VERTEX
  8
LAYER_1
 10
368.3875
 20
80.2559
  0
VERTEX
  8
LAYER_1
 10
368.4085
 20
80.2559
  0
SEQEND
  0
POLYLINE
  8
LAYER_1
 40
0.1235
 41
0.1235
 66
1
 10
0
 20
0
 30
0
  0
VERTEX
  8
LAYER_1
 10
368.1767
 20
80.4668
  0
VERTEX
  8
LAYER_1
 10
368.5353
 20
80.8254
  0
VERTEX
  8
LAYER_1
 10
368.5563
 20
80.8254
  0
SEQEND
  0
POLYLINE
  8
LAYER_1
 40
0.1235
 41
0.1235
 66
1
 10
0
 20
0
 30
0
  0
VERTEX
  8
LAYER_1
 10
368.2821
 20
80.0237
  0
VERTEX
  8
LAYER_1
 10
368.3241
 20
80.0657
  0
VERTEX
  8
LAYER_1
 10
368.3455
 20
80.0657
  0
SEQEND
  0
POLYLINE
  8
LAYER_1
 40
0.1235
 41
0.1235
 66
1
 10
0
 20
0
 30
0
  0
VERTEX
  8
LAYER_1
 10
368.2187
 20
80.2346
  0
VERTEX
  8
LAYER_1
 10
368.4299
 20
80.4457
  0
VERTEX
  8
LAYER_1
 10
368.4509
 20
80.4457
  0
SEQEND
  0
POLYLINE
  8
LAYER_1
 40
0.1235
 41
0.1235
 66
1
 10
0
 20
0
 30
0
  0
VERTEX
  8
LAYER_1
 10
368.1977
 20
80.3613
  0
VERTEX
  8
LAYER_1
 10
368.4929
 20
80.6356
  0
VERTEX
  8
LAYER_1
 10
368.5143
 20
80.6356
  0
SEQEND
  0
POLYLINE
  8
LAYER_1
 40
0.1235
 41
0.1235
 66
1
 10
0
 20
0
 30
0
  0
VERTEX
  8
LAYER_1
 10
368.0709
 20
80.8044
  0
VERTEX
  8
LAYER_1
 10
368.7038
 20
81.4162
  0
VERTEX
  8
LAYER_1
 10
368.7251
 20
81.4162
  0
SEQEND
  0
POLYLINE
  8
LAYER_1
 40
0.1235
 41
0.1235
 66
1
 10
0
 20
0
 30
0
  0
VERTEX
  8
LAYER_1
 10
368.2607
 20
112.9792
  0
VERTEX
  8
LAYER_1
 10
368.3241
 20
113.0636
  0
VERTEX
  8
LAYER_1
 10
368.3451
 20
113.0636
  0
SEQEND
  0
POLYLINE
  8
LAYER_1
 40
0.1235
 41
0.1235
 66
1
 10
0
 20
0
 30
0
  0
VERTEX
  8
LAYER_1
 10
367.9024
 20
111.629
  0
VERTEX
  8
LAYER_1
 10
368.5353
 20
112.2829
  0
VERTEX
  8
LAYER_1
 10
368.5563
 20
112.2829
  0
SEQEND
  0
POLYLINE
  8
LAYER_1
 40
0.1235
 41
0.1235
 66
1
 10
0
 20
0
 30
0
  0
VERTEX
  8
LAYER_1
 10
368.1133
 20
80.6776
  0
VERTEX
  8
LAYER_1
 10
368.6407
 20
81.2264
  0
VERTEX
  8
LAYER_1
 10
368.6617
 20
81.2264
  0
SEQEND
  0
POLYLINE
  8
LAYER_1
 40
0.1235
 41
0.1235
 66
1
 10
0
 20
0
 30
0
  0
VERTEX
  8
LAYER_1
 10
368.0499
 20
80.9098
  0
VERTEX
  8
LAYER_1
 10
368.7461
 20
81.606
  0
VERTEX
  8
LAYER_1
 10
368.7672
 20
81.606
  0
SEQEND
  0
POLYLINE
  8
LAYER_1
 40
0.1235
 41
0.1235
 66
1
 10
0
 20
0
 30
0
  0
VERTEX
  8
LAYER_1
 10
368.1343
 20
80.5722
  0
VERTEX
  8
LAYER_1
 10
368.5983
 20
81.0362
  0
VERTEX
  8
LAYER_1
 10
368.6194
 20
81.0362
  0
SEQEND
  0
POLYLINE
  8
LAYER_1
 40
0.1235
 41
0.1235
 66
1
 10
0
 20
0
 30
0
  0
VERTEX
  8
LAYER_1
 10
158.0575
 20
69.4745
  0
VERTEX
  8
LAYER_1
 10
160.1249
 20
68.926
  0
VERTEX
  8
LAYER_1
 10
160.146
 20
68.926
  0
SEQEND
  0
POLYLINE
  8
LAYER_1
 40
0.1235
 41
0.1235
 66
1
 10
0
 20
0
 30
0
  0
VERTEX
  8
LAYER_1
 10
271.6823
 20
98.9066
  0
VERTEX
  8
LAYER_1
 10
291.6394
 20
98.9066
  0
SEQEND
  0
POLYLINE
  8
LAYER_1
 40
0.1235
 41
0.1235
 66
1
 10
0
 20
0
 30
0
  0
VERTEX
  8
LAYER_1
 10
368.0709
 20
111.1016
  0
VERTEX
  8
LAYER_1
 10
368.6828
 20
111.7134
  0
VERTEX
  8
LAYER_1
 10
368.7038
 20
111.7134
  0
SEQEND
  0
POLYLINE
  8
LAYER_1
 40
0.1235
 41
0.1235
 66
1
 10
0
 20
0
 30
0
  0
VERTEX
  8
LAYER_1
 10
367.7757
 20
111.1016
  0
VERTEX
  8
LAYER_1
 10
368.6197
 20
111.9453
  0
VERTEX
  8
LAYER_1
 10
368.6407
 20
111.9453
  0
SEQEND
  0
POLYLINE
  8
LAYER_1
 40
0.1235
 41
0.1235
 66
1
 10
0
 20
0
 30
0
  0
VERTEX
  8
LAYER_1
 10
368.1977
 20
111.1016
  0
VERTEX
  8
LAYER_1
 10
368.7251
 20
111.608
  0
VERTEX
  8
LAYER_1
 10
368.7461
 20
111.608
  0
SEQEND
  0
POLYLINE
  8
LAYER_1
 40
0.1235
 41
0.1235
 66
1
 10
0
 20
0
 30
0
  0
VERTEX
  8
LAYER_1
 10
291.618
 20
88.9272
  0
VERTEX
  8
LAYER_1
 10
291.618
 20
99.8981
  0
VERTEX
  8
LAYER_1
 10
291.639
 20
99.8981
  0
SEQEND
  0
POLYLINE
  8
LAYER_1
 40
0.1235
 41
0.1235
 66
1
 10
0
 20
0
 30
0
  0
VERTEX
  8
LAYER_1
 10
289.5716
 20
98.3582
  0
VERTEX
  8
LAYER_1
 10
289.5716
 20
99.4551
  0
VERTEX
  8
LAYER_1
 10
289.593
 20
99.4551
  0
SEQEND
  0
POLYLINE
  8
LAYER_1
 40
0.1235
 41
0.1235
 66
1
 10
0
 20
0
 30
0
  0
VERTEX
  8
LAYER_1
 10
235.1433
 20
152.8339
  0
VERTEX
  8
LAYER_1
 10
235.1433
 20
119.4353
  0
VERTEX
  8
LAYER_1
 10
235.1643
 20
119.4353
  0
SEQEND
  0
POLYLINE
  8
LAYER_1
 40
0.1235
 41
0.1235
 66
1
 10
0
 20
0
 30
0
  0
VERTEX
  8
LAYER_1
 10
235.4385
 20
113.148
  0
VERTEX
  8
LAYER_1
 10
327.8825
 20
113.148
  0
SEQEND
  0
POLYLINE
  8
LAYER_1
 40
0.1235
 41
0.1235
 66
1
 10
0
 20
0
 30
0
  0
VERTEX
  8
LAYER_1
 10
158.0575
 20
68.3562
  0
VERTEX
  8
LAYER_1
 10
160.1249
 20
68.926
  0
VERTEX
  8
LAYER_1
 10
160.146
 20
68.926
  0
SEQEND
  0
POLYLINE
  8
LAYER_1
 40
0.1235
 41
0.1235
 66
1
 10
0
 20
0
 30
0
  0
VERTEX
  8
LAYER_1
 10
271.6823
 20
99.8981
  0
VERTEX
  8
LAYER_1
 10
271.6823
 20
88.9272
  0
VERTEX
  8
LAYER_1
 10
271.7033
 20
88.9272
  0
SEQEND
  0
POLYLINE
  8
LAYER_1
 40
0.1235
 41
0.1235
 66
1
 10
0
 20
0
 30
0
  0
VERTEX
  8
LAYER_1
 10
367.7757
 20
81.9016
  0
VERTEX
  8
LAYER_1
 10
367.8811
 20
82.0071
  0
VERTEX
  8
LAYER_1
 10
367.9024
 20
82.0071
  0
SEQEND
  0
POLYLINE
  8
LAYER_1
 40
0.1235
 41
0.1235
 66
1
 10
0
 20
0
 30
0
  0
VERTEX
  8
LAYER_1
 10
367.839
 20
81.6904
  0
VERTEX
  8
LAYER_1
 10
368.1763
 20
82.0071
  0
VERTEX
  8
LAYER_1
 10
368.1977
 20
82.0071
  0
SEQEND
  0
POLYLINE
  8
LAYER_1
 40
0.1235
 41
0.1235
 66
1
 10
0
 20
0
 30
0
  0
VERTEX
  8
LAYER_1
 10
367.8601
 20
81.564
  0
VERTEX
  8
LAYER_1
 10
368.3031
 20
82.0071
  0
VERTEX
  8
LAYER_1
 10
368.3241
 20
82.0071
  0
SEQEND
  0
POLYLINE
  8
LAYER_1
 40
0.1235
 41
0.1235
 66
1
 10
0
 20
0
 30
0
  0
VERTEX
  8
LAYER_1
 10
367.9868
 20
81.1206
  0
VERTEX
  8
LAYER_1
 10
368.8516
 20
81.9857
  0
VERTEX
  8
LAYER_1
 10
368.8729
 20
81.9857
  0
SEQEND
  0
POLYLINE
  8
LAYER_1
 40
0.1235
 41
0.1235
 66
1
 10
0
 20
0
 30
0
  0
VERTEX
  8
LAYER_1
 10
367.9655
 20
81.2474
  0
VERTEX
  8
LAYER_1
 10
368.7251
 20
82.0071
  0
VERTEX
  8
LAYER_1
 10
368.7461
 20
82.0071
  0
SEQEND
  0
POLYLINE
  8
LAYER_1
 40
0.1235
 41
0.1235
 66
1
 10
0
 20
0
 30
0
  0
VERTEX
  8
LAYER_1
 10
367.8177
 20
81.7959
  0
VERTEX
  8
LAYER_1
 10
368.0289
 20
82.0071
  0
VERTEX
  8
LAYER_1
 10
368.0499
 20
82.0071
  0
SEQEND
  0
POLYLINE
  8
LAYER_1
 40
0.1235
 41
0.1235
 66
1
 10
0
 20
0
 30
0
  0
VERTEX
  8
LAYER_1
 10
368.3455
 20
111.1016
  0
VERTEX
  8
LAYER_1
 10
368.7465
 20
111.5022
  0
VERTEX
  8
LAYER_1
 10
368.7675
 20
111.5022
  0
SEQEND
  0
POLYLINE
  8
LAYER_1
 40
0.1235
 41
0.1235
 66
1
 10
0
 20
0
 30
0
  0
VERTEX
  8
LAYER_1
 10
367.9231
 20
111.1016
  0
VERTEX
  8
LAYER_1
 10
368.6617
 20
111.8399
  0
VERTEX
  8
LAYER_1
 10
368.6828
 20
111.8399
  0
SEQEND
  0
POLYLINE
  8
LAYER_1
 40
0.1235
 41
0.1235
 66
1
 10
0
 20
0
 30
0
  0
VERTEX
  8
LAYER_1
 10
368.7672
 20
111.1016
  0
VERTEX
  8
LAYER_1
 10
368.8305
 20
111.1646
  0
VERTEX
  8
LAYER_1
 10
368.8516
 20
111.1646
  0
SEQEND
  0
POLYLINE
  8
LAYER_1
 40
0.1235
 41
0.1235
 66
1
 10
0
 20
0
 30
0
  0
VERTEX
  8
LAYER_1
 10
368.6197
 20
111.1016
  0
VERTEX
  8
LAYER_1
 10
368.8095
 20
111.2704
  0
VERTEX
  8
LAYER_1
 10
368.8305
 20
111.2704
  0
SEQEND
  0
POLYLINE
  8
LAYER_1
 40
0.1235
 41
0.1235
 66
1
 10
0
 20
0
 30
0
  0
VERTEX
  8
LAYER_1
 10
368.4929
 20
111.1016
  0
VERTEX
  8
LAYER_1
 10
368.7672
 20
111.3968
  0
VERTEX
  8
LAYER_1
 10
368.7882
 20
111.3968
  0
SEQEND
  0
POLYLINE
  8
LAYER_1
 40
0.1235
 41
0.1235
 66
1
 10
0
 20
0
 30
0
  0
VERTEX
  8
LAYER_1
 10
326.3635
 20
149.0152
  0
VERTEX
  8
LAYER_1
 10
327.1232
 20
149.7957
  0
VERTEX
  8
LAYER_1
 10
327.1442
 20
149.7957
  0
SEQEND
  0
POLYLINE
  8
LAYER_1
 40
0.1235
 41
0.1235
 66
1
 10
0
 20
0
 30
0
  0
VERTEX
  8
LAYER_1
 10
235.1856
 20
149.4792
  0
VERTEX
  8
LAYER_1
 10
235.2487
 20
149.5426
  0
VERTEX
  8
LAYER_1
 10
235.27
 20
149.5426
  0
SEQEND
  0
POLYLINE
  8
LAYER_1
 40
0.1235
 41
0.1235
 66
1
 10
0
 20
0
 30
0
  0
VERTEX
  8
LAYER_1
 10
235.966
 20
149.2682
  0
VERTEX
  8
LAYER_1
 10
236.5988
 20
149.9013
  0
VERTEX
  8
LAYER_1
 10
236.6202
 20
149.9013
  0
SEQEND
  0
POLYLINE
  8
LAYER_1
 40
0.1235
 41
0.1235
 66
1
 10
0
 20
0
 30
0
  0
VERTEX
  8
LAYER_1
 10
235.3121
 20
149.4582
  0
VERTEX
  8
LAYER_1
 10
235.4385
 20
149.5847
  0
VERTEX
  8
LAYER_1
 10
235.4599
 20
149.5847
  0
SEQEND
  0
POLYLINE
  8
LAYER_1
 40
0.1235
 41
0.1235
 66
1
 10
0
 20
0
 30
0
  0
VERTEX
  8
LAYER_1
 10
328.0937
 20
149.4792
  0
VERTEX
  8
LAYER_1
 10
328.1147
 20
149.5215
  0
VERTEX
  8
LAYER_1
 10
328.1357
 20
149.5215
  0
SEQEND
  0
POLYLINE
  8
LAYER_1
 40
0.1235
 41
0.1235
 66
1
 10
0
 20
0
 30
0
  0
VERTEX
  8
LAYER_1
 10
327.9038
 20
149.437
  0
VERTEX
  8
LAYER_1
 10
328.0093
 20
149.5426
  0
VERTEX
  8
LAYER_1
 10
328.0303
 20
149.5426
  0
SEQEND
  0
POLYLINE
  8
LAYER_1
 40
0.1235
 41
0.1235
 66
1
 10
0
 20
0
 30
0
  0
VERTEX
  8
LAYER_1
 10
236.7466
 20
149.0572
  0
VERTEX
  8
LAYER_1
 10
237.1686
 20
149.4792
  0
VERTEX
  8
LAYER_1
 10
237.1897
 20
149.4792
  0
SEQEND
  0
POLYLINE
  8
LAYER_1
 40
0.1235
 41
0.1235
 66
1
 10
0
 20
0
 30
0
  0
VERTEX
  8
LAYER_1
 10
236.5148
 20
149.1206
  0
VERTEX
  8
LAYER_1
 10
237.1686
 20
149.7747
  0
VERTEX
  8
LAYER_1
 10
237.1897
 20
149.7747
  0
SEQEND
  0
POLYLINE
  8
LAYER_1
 40
0.1235
 41
0.1235
 66
1
 10
0
 20
0
 30
0
  0
VERTEX
  8
LAYER_1
 10
236.1982
 20
149.226
  0
VERTEX
  8
LAYER_1
 10
236.9788
 20
150.0067
  0
VERTEX
  8
LAYER_1
 10
236.9998
 20
150.0067
  0
SEQEND
  0
POLYLINE
  8
LAYER_1
 40
0.1235
 41
0.1235
 66
1
 10
0
 20
0
 30
0
  0
VERTEX
  8
LAYER_1
 10
236.852
 20
149.0362
  0
VERTEX
  8
LAYER_1
 10
237.1686
 20
149.3526
  0
VERTEX
  8
LAYER_1
 10
237.1897
 20
149.3526
  0
SEQEND
  0
POLYLINE
  8
LAYER_1
 40
0.1235
 41
0.1235
 66
1
 10
0
 20
0
 30
0
  0
VERTEX
  8
LAYER_1
 10
236.6412
 20
149.0994
  0
VERTEX
  8
LAYER_1
 10
237.1686
 20
149.6269
  0
VERTEX
  8
LAYER_1
 10
237.1897
 20
149.6269
  0
SEQEND
  0
POLYLINE
  8
LAYER_1
 40
0.1235
 41
0.1235
 66
1
 10
0
 20
0
 30
0
  0
VERTEX
  8
LAYER_1
 10
236.9578
 20
149.0152
  0
VERTEX
  8
LAYER_1
 10
237.1686
 20
149.205
  0
VERTEX
  8
LAYER_1
 10
237.1897
 20
149.205
  0
SEQEND
  0
POLYLINE
  8
LAYER_1
 40
0.1235
 41
0.1235
 66
1
 10
0
 20
0
 30
0
  0
VERTEX
  8
LAYER_1
 10
289.5716
 20
98.569
  0
VERTEX
  8
LAYER_1
 10
290.2679
 20
99.2653
  0
VERTEX
  8
LAYER_1
 10
290.2889
 20
99.2653
  0
SEQEND
  0
POLYLINE
  8
LAYER_1
 40
0.1235
 41
0.1235
 66
1
 10
0
 20
0
 30
0
  0
VERTEX
  8
LAYER_1
 10
289.8459
 20
98.4216
  0
VERTEX
  8
LAYER_1
 10
290.6055
 20
99.1809
  0
VERTEX
  8
LAYER_1
 10
290.6265
 20
99.1809
  0
SEQEND
  0
POLYLINE
  8
LAYER_1
 40
0.1235
 41
0.1235
 66
1
 10
0
 20
0
 30
0
  0
VERTEX
  8
LAYER_1
 10
289.5716
 20
98.4216
  0
VERTEX
  8
LAYER_1
 10
290.3733
 20
99.2442
  0
VERTEX
  8
LAYER_1
 10
290.3947
 20
99.2442
  0
SEQEND
  0
POLYLINE
  8
LAYER_1
 40
0.1235
 41
0.1235
 66
1
 10
0
 20
0
 30
0
  0
VERTEX
  8
LAYER_1
 10
290.6265
 20
98.6324
  0
VERTEX
  8
LAYER_1
 10
291.0486
 20
99.0544
  0
VERTEX
  8
LAYER_1
 10
291.0696
 20
99.0544
  0
SEQEND
  0
POLYLINE
  8
LAYER_1
 40
0.1235
 41
0.1235
 66
1
 10
0
 20
0
 30
0
  0
VERTEX
  8
LAYER_1
 10
290.036
 20
98.4846
  0
VERTEX
  8
LAYER_1
 10
290.7109
 20
99.1388
  0
VERTEX
  8
LAYER_1
 10
290.732
 20
99.1388
  0
SEQEND
  0
POLYLINE
  8
LAYER_1
 40
0.1235
 41
0.1235
 66
1
 10
0
 20
0
 30
0
  0
VERTEX
  8
LAYER_1
 10
289.656
 20
98.3792
  0
VERTEX
  8
LAYER_1
 10
290.4787
 20
99.2022
  0
VERTEX
  8
LAYER_1
 10
290.5001
 20
99.2022
  0
SEQEND
  0
POLYLINE
  8
LAYER_1
 40
0.1235
 41
0.1235
 66
1
 10
0
 20
0
 30
0
  0
VERTEX
  8
LAYER_1
 10
235.7551
 20
149.3316
  0
VERTEX
  8
LAYER_1
 10
236.2192
 20
149.7957
  0
VERTEX
  8
LAYER_1
 10
236.2405
 20
149.7957
  0
SEQEND
  0
POLYLINE
  8
LAYER_1
 40
0.1235
 41
0.1235
 66
1
 10
0
 20
0
 30
0
  0
VERTEX
  8
LAYER_1
 10
235.4175
 20
149.416
  0
VERTEX
  8
LAYER_1
 10
235.6287
 20
149.6481
  0
VERTEX
  8
LAYER_1
 10
235.6497
 20
149.6481
  0
SEQEND
  0
POLYLINE
  8
LAYER_1
 40
0.1235
 41
0.1235
 66
1
 10
0
 20
0
 30
0
  0
VERTEX
  8
LAYER_1
 10
235.8605
 20
149.3104
  0
VERTEX
  8
LAYER_1
 10
236.409
 20
149.8591
  0
VERTEX
  8
LAYER_1
 10
236.43
 20
149.8591
  0
SEQEND
  0
POLYLINE
  8
LAYER_1
 40
0.1235
 41
0.1235
 66
1
 10
0
 20
0
 30
0
  0
VERTEX
  8
LAYER_1
 10
235.6287
 20
149.3738
  0
VERTEX
  8
LAYER_1
 10
236.0083
 20
149.7535
  0
VERTEX
  8
LAYER_1
 10
236.0293
 20
149.7535
  0
SEQEND
  0
POLYLINE
  8
LAYER_1
 40
0.1235
 41
0.1235
 66
1
 10
0
 20
0
 30
0
  0
VERTEX
  8
LAYER_1
 10
235.5233
 20
149.3948
  0
VERTEX
  8
LAYER_1
 10
235.8185
 20
149.6903
  0
VERTEX
  8
LAYER_1
 10
235.8395
 20
149.6903
  0
SEQEND
  0
POLYLINE
  8
LAYER_1
 40
0.1235
 41
0.1235
 66
1
 10
0
 20
0
 30
0
  0
VERTEX
  8
LAYER_1
 10
327.1232
 20
149.226
  0
VERTEX
  8
LAYER_1
 10
327.5662
 20
149.6691
  0
VERTEX
  8
LAYER_1
 10
327.5872
 20
149.6691
  0
SEQEND
  0
POLYLINE
  8
LAYER_1
 40
0.1235
 41
0.1235
 66
1
 10
0
 20
0
 30
0
  0
VERTEX
  8
LAYER_1
 10
326.9334
 20
149.1838
  0
VERTEX
  8
LAYER_1
 10
327.4608
 20
149.6903
  0
VERTEX
  8
LAYER_1
 10
327.4818
 20
149.6903
  0
SEQEND
  0
POLYLINE
  8
LAYER_1
 40
0.1235
 41
0.1235
 66
1
 10
0
 20
0
 30
0
  0
VERTEX
  8
LAYER_1
 10
326.1107
 20
149.205
  0
VERTEX
  8
LAYER_1
 10
326.7856
 20
149.8801
  0
VERTEX
  8
LAYER_1
 10
326.8066
 20
149.8801
  0
SEQEND
  0
POLYLINE
  8
LAYER_1
 40
0.1235
 41
0.1235
 66
1
 10
0
 20
0
 30
0
  0
VERTEX
  8
LAYER_1
 10
326.1107
 20
150.0489
  0
VERTEX
  8
LAYER_1
 10
326.1317
 20
150.0489
  0
SEQEND
  0
POLYLINE
  8
LAYER_1
 40
0.1235
 41
0.1235
 66
1
 10
0
 20
0
 30
0
  0
VERTEX
  8
LAYER_1
 10
273.7073
 20
98.3582
  0
VERTEX
  8
LAYER_1
 10
273.7283
 20
98.3792
  0
VERTEX
  8
LAYER_1
 10
273.7497
 20
98.3792
  0
SEQEND
  0
POLYLINE
  8
LAYER_1
 40
0.1235
 41
0.1235
 66
1
 10
0
 20
0
 30
0
  0
VERTEX
  8
LAYER_1
 10
327.5028
 20
149.3316
  0
VERTEX
  8
LAYER_1
 10
327.7771
 20
149.6059
  0
VERTEX
  8
LAYER_1
 10
327.7981
 20
149.6059
  0
SEQEND
  0
POLYLINE
  8
LAYER_1
 40
0.1235
 41
0.1235
 66
1
 10
0
 20
0
 30
0
  0
VERTEX
  8
LAYER_1
 10
326.1107
 20
149.0572
  0
VERTEX
  8
LAYER_1
 10
326.891
 20
149.8379
  0
VERTEX
  8
LAYER_1
 10
326.912
 20
149.8379
  0
SEQEND
  0
POLYLINE
  8
LAYER_1
 40
0.1235
 41
0.1235
 66
1
 10
0
 20
0
 30
0
  0
VERTEX
  8
LAYER_1
 10
326.5534
 20
149.0784
  0
VERTEX
  8
LAYER_1
 10
327.2286
 20
149.7535
  0
VERTEX
  8
LAYER_1
 10
327.2496
 20
149.7535
  0
SEQEND
  0
POLYLINE
  8
LAYER_1
 40
0.1235
 41
0.1235
 66
1
 10
0
 20
0
 30
0
  0
VERTEX
  8
LAYER_1
 10
326.1527
 20
148.973
  0
VERTEX
  8
LAYER_1
 10
327.0178
 20
149.8169
  0
VERTEX
  8
LAYER_1
 10
327.0388
 20
149.8169
  0
SEQEND
  0
POLYLINE
  8
LAYER_1
 40
0.1235
 41
0.1235
 66
1
 10
0
 20
0
 30
0
  0
VERTEX
  8
LAYER_1
 10
327.313
 20
149.2894
  0
VERTEX
  8
LAYER_1
 10
327.6716
 20
149.6269
  0
VERTEX
  8
LAYER_1
 10
327.6927
 20
149.6269
  0
SEQEND
  0
POLYLINE
  8
LAYER_1
 40
0.1235
 41
0.1235
 66
1
 10
0
 20
0
 30
0
  0
VERTEX
  8
LAYER_1
 10
326.7435
 20
149.1206
  0
VERTEX
  8
LAYER_1
 10
327.334
 20
149.7325
  0
VERTEX
  8
LAYER_1
 10
327.355
 20
149.7325
  0
SEQEND
  0
POLYLINE
  8
LAYER_1
 40
0.1235
 41
0.1235
 66
1
 10
0
 20
0
 30
0
  0
VERTEX
  8
LAYER_1
 10
327.7137
 20
149.3738
  0
VERTEX
  8
LAYER_1
 10
327.9038
 20
149.5847
  0
VERTEX
  8
LAYER_1
 10
327.9249
 20
149.5847
  0
SEQEND
  0
POLYLINE
  8
LAYER_1
 40
0.1235
 41
0.1235
 66
1
 10
0
 20
0
 30
0
  0
VERTEX
  8
LAYER_1
 10
326.1107
 20
149.627
  0
VERTEX
  8
LAYER_1
 10
326.4479
 20
149.9645
  0
VERTEX
  8
LAYER_1
 10
326.4693
 20
149.9645
  0
SEQEND
  0
POLYLINE
  8
LAYER_1
 40
0.1235
 41
0.1235
 66
1
 10
0
 20
0
 30
0
  0
VERTEX
  8
LAYER_1
 10
236.3036
 20
149.1838
  0
VERTEX
  8
LAYER_1
 10
237.1686
 20
150.0489
  0
VERTEX
  8
LAYER_1
 10
237.1897
 20
150.0489
  0
SEQEND
  0
POLYLINE
  8
LAYER_1
 40
0.1235
 41
0.1235
 66
1
 10
0
 20
0
 30
0
  0
VERTEX
  8
LAYER_1
 10
236.0717
 20
149.2472
  0
VERTEX
  8
LAYER_1
 10
236.789
 20
149.9645
  0
VERTEX
  8
LAYER_1
 10
236.81
 20
149.9645
  0
SEQEND
  0
POLYLINE
  8
LAYER_1
 40
0.1235
 41
0.1235
 66
1
 10
0
 20
0
 30
0
  0
VERTEX
  8
LAYER_1
 10
236.409
 20
149.1628
  0
VERTEX
  8
LAYER_1
 10
237.1686
 20
149.9013
  0
VERTEX
  8
LAYER_1
 10
237.1897
 20
149.9013
  0
SEQEND
  0
POLYLINE
  8
LAYER_1
 40
0.1235
 41
0.1235
 66
1
 10
0
 20
0
 30
0
  0
VERTEX
  8
LAYER_1
 10
326.1107
 20
149.7535
  0
VERTEX
  8
LAYER_1
 10
326.3425
 20
149.9857
  0
VERTEX
  8
LAYER_1
 10
326.3635
 20
149.9857
  0
SEQEND
  0
POLYLINE
  8
LAYER_1
 40
0.1235
 41
0.1235
 66
1
 10
0
 20
0
 30
0
  0
VERTEX
  8
LAYER_1
 10
273.6019
 20
98.3792
  0
VERTEX
  8
LAYER_1
 10
273.7283
 20
98.527
  0
VERTEX
  8
LAYER_1
 10
273.7494
 20
98.527
  0
SEQEND
  0
POLYLINE
  8
LAYER_1
 40
0.1235
 41
0.1235
 66
1
 10
0
 20
0
 30
0
  0
VERTEX
  8
LAYER_1
 10
273.4965
 20
98.4216
  0
VERTEX
  8
LAYER_1
 10
273.7283
 20
98.6744
  0
VERTEX
  8
LAYER_1
 10
273.7494
 20
98.6744
  0
SEQEND
  0
POLYLINE
  8
LAYER_1
 40
0.1235
 41
0.1235
 66
1
 10
0
 20
0
 30
0
  0
VERTEX
  8
LAYER_1
 10
326.1107
 20
149.9013
  0
VERTEX
  8
LAYER_1
 10
326.2371
 20
150.0279
  0
VERTEX
  8
LAYER_1
 10
326.2581
 20
150.0279
  0
SEQEND
  0
POLYLINE
  8
LAYER_1
 40
0.1235
 41
0.1235
 66
1
 10
0
 20
0
 30
0
  0
VERTEX
  8
LAYER_1
 10
326.1107
 20
149.3316
  0
VERTEX
  8
LAYER_1
 10
326.6801
 20
149.9013
  0
VERTEX
  8
LAYER_1
 10
326.7012
 20
149.9013
  0
SEQEND
  0
POLYLINE
  8
LAYER_1
 40
0.1235
 41
0.1235
 66
1
 10
0
 20
0
 30
0
  0
VERTEX
  8
LAYER_1
 10
326.1107
 20
149.4792
  0
VERTEX
  8
LAYER_1
 10
326.5747
 20
149.9435
  0
VERTEX
  8
LAYER_1
 10
326.5957
 20
149.9435
  0
SEQEND
  0
POLYLINE
  8
LAYER_1
 40
0.1235
 41
0.1235
 66
1
 10
0
 20
0
 30
0
  0
VERTEX
  8
LAYER_1
 10
160.1249
 20
149.3104
  0
VERTEX
  8
LAYER_1
 10
160.1249
 20
150.0489
  0
VERTEX
  8
LAYER_1
 10
160.1038
 20
150.4287
  0
VERTEX
  8
LAYER_1
 10
160.1038
 20
150.7874
  0
VERTEX
  8
LAYER_1
 10
160.0827
 20
151.146
  0
VERTEX
  8
LAYER_1
 10
160.0615
 20
151.5258
  0
VERTEX
  8
LAYER_1
 10
160.0405
 20
151.8844
  0
VERTEX
  8
LAYER_1
 10
160.0193
 20
152.2643
  0
VERTEX
  8
LAYER_1
 10
159.9983
 20
152.6229
  0
VERTEX
  8
LAYER_1
 10
159.9771
 20
153.0027
  0
VERTEX
  8
LAYER_1
 10
159.9351
 20
153.3614
  0
VERTEX
  8
LAYER_1
 10
159.9139
 20
153.72
  0
VERTEX
  8
LAYER_1
 10
159.8717
 20
154.0998
  0
VERTEX
  8
LAYER_1
 10
159.8295
 20
154.4584
  0
VERTEX
  8
LAYER_1
 10
159.7873
 20
154.8171
  0
VERTEX
  8
LAYER_1
 10
159.7451
 20
155.1969
  0
VERTEX
  8
LAYER_1
 10
159.7029
 20
155.5555
  0
VERTEX
  8
LAYER_1
 10
159.6397
 20
155.9143
  0
VERTEX
  8
LAYER_1
 10
159.5975
 20
156.294
  0
VERTEX
  8
LAYER_1
 10
159.5343
 20
156.6526
  0
VERTEX
  8
LAYER_1
 10
159.4709
 20
157.0114
  0
VERTEX
  8
LAYER_1
 10
159.4077
 20
157.3701
  0
VERTEX
  8
LAYER_1
 10
159.3443
 20
157.7287
  0
VERTEX
  8
LAYER_1
 10
159.2811
 20
158.1085
  0
VERTEX
  8
LAYER_1
 10
159.2178
 20
158.4672
  0
VERTEX
  8
LAYER_1
 10
159.1334
 20
158.8258
  0
VERTEX
  8
LAYER_1
 10
159.07
 20
159.1844
  0
VERTEX
  8
LAYER_1
 10
158.9856
 20
159.5431
  0
VERTEX
  8
LAYER_1
 10
158.9014
 20
159.9019
  0
VERTEX
  8
LAYER_1
 10
158.817
 20
160.2605
  0
VERTEX
  8
LAYER_1
 10
158.7326
 20
160.6191
  0
VERTEX
  8
LAYER_1
 10
158.627
 20
160.9778
  0
VERTEX
  8
LAYER_1
 10
158.5426
 20
161.3366
  0
VERTEX
  8
LAYER_1
 10
158.4372
 20
161.674
  0
VERTEX
  8
LAYER_1
 10
158.3528
 20
162.0328
  0
VERTEX
  8
LAYER_1
 10
158.2474
 20
162.3915
  0
VERTEX
  8
LAYER_1
 10
158.1419
 20
162.7501
  0
VERTEX
  8
LAYER_1
 10
158.0363
 20
163.0877
  0
VERTEX
  8
LAYER_1
 10
157.9309
 20
163.4464
  0
VERTEX
  8
LAYER_1
 10
157.8043
 20
163.805
  0
VERTEX
  8
LAYER_1
 10
157.6989
 20
164.1426
  0
VERTEX
  8
LAYER_1
 10
157.5723
 20
164.5012
  0
VERTEX
  8
LAYER_1
 10
157.4457
 20
164.8389
  0
VERTEX
  8
LAYER_1
 10
157.3191
 20
165.1975
  0
VERTEX
  8
LAYER_1
 10
157.1925
 20
165.5351
  0
VERTEX
  8
LAYER_1
 10
157.066
 20
165.8726
  0
VERTEX
  8
LAYER_1
 10
156.9394
 20
166.2314
  0
VERTEX
  8
LAYER_1
 10
156.8128
 20
166.5688
  0
VERTEX
  8
LAYER_1
 10
156.665
 20
166.9064
  0
VERTEX
  8
LAYER_1
 10
156.5174
 20
167.2441
  0
VERTEX
  8
LAYER_1
 10
156.3908
 20
167.5817
  0
VERTEX
  8
LAYER_1
 10
156.2432
 20
167.9191
  0
VERTEX
  8
LAYER_1
 10
156.0956
 20
168.2567
  0
VERTEX
  8
LAYER_1
 10
155.9267
 20
168.5944
  0
VERTEX
  8
LAYER_1
 10
155.7791
 20
168.932
  0
VERTEX
  8
LAYER_1
 10
155.6313
 20
169.2694
  0
VERTEX
  8
LAYER_1
 10
155.4627
 20
169.607
  0
VERTEX
  8
LAYER_1
 10
155.2939
 20
169.9235
  0
VERTEX
  8
LAYER_1
 10
155.1463
 20
170.2611
  0
VERTEX
  8
LAYER_1
 10
154.9774
 20
170.5775
  0
VERTEX
  8
LAYER_1
 10
154.8086
 20
170.9151
  0
VERTEX
  8
LAYER_1
 10
154.6398
 20
171.2316
  0
VERTEX
  8
LAYER_1
 10
154.45
 20
171.5692
  0
VERTEX
  8
LAYER_1
 10
154.2812
 20
171.8856
  0
VERTEX
  8
LAYER_1
 10
154.0914
 20
172.2021
  0
VERTEX
  8
LAYER_1
 10
153.9226
 20
172.5187
  0
VERTEX
  8
LAYER_1
 10
153.7327
 20
172.8351
  0
VERTEX
  8
LAYER_1
 10
153.5429
 20
173.1727
  0
VERTEX
  8
LAYER_1
 10
153.3531
 20
173.468
  0
VERTEX
  8
LAYER_1
 10
153.1631
 20
173.7846
  0
VERTEX
  8
LAYER_1
 10
152.9733
 20
174.101
  0
VERTEX
  8
LAYER_1
 10
152.7623
 20
174.4174
  0
VERTEX
  8
LAYER_1
 10
152.5724
 20
174.7339
  0
VERTEX
  8
LAYER_1
 10
152.3614
 20
175.0293
  0
VERTEX
  8
LAYER_1
 10
152.1506
 20
175.3457
  0
VERTEX
  8
LAYER_1
 10
151.9606
 20
175.6411
  0
VERTEX
  8
LAYER_1
 10
151.7497
 20
175.9365
  0
VERTEX
  8
LAYER_1
 10
151.5387
 20
176.253
  0
VERTEX
  8
LAYER_1
 10
151.3277
 20
176.5484
  0
VERTEX
  8
LAYER_1
 10
151.0957
 20
176.8438
  0
VERTEX
  8
LAYER_1
 10
150.8847
 20
177.1391
  0
VERTEX
  8
LAYER_1
 10
150.6526
 20
177.4345
  0
VERTEX
  8
LAYER_1
 10
150.4418
 20
177.7299
  0
VERTEX
  8
LAYER_1
 10
150.2096
 20
178.0253
  0
VERTEX
  8
LAYER_1
 10
149.9776
 20
178.2995
  0
VERTEX
  8
LAYER_1
 10
149.7456
 20
178.595
  0
VERTEX
  8
LAYER_1
 10
149.5135
 20
178.8692
  0
VERTEX
  8
LAYER_1
 10
149.2815
 20
179.1646
  0
VERTEX
  8
LAYER_1
 10
149.0493
 20
179.4388
  0
VERTEX
  8
LAYER_1
 10
148.8173
 20
179.7131
  0
VERTEX
  8
LAYER_1
 10
148.5642
 20
180.0085
  0
VERTEX
  8
LAYER_1
 10
148.311
 20
180.2827
  0
VERTEX
  8
LAYER_1
 10
148.079
 20
180.5571
  0
VERTEX
  8
LAYER_1
 10
147.8258
 20
180.8313
  0
VERTEX
  8
LAYER_1
 10
147.5726
 20
181.0846
  0
VERTEX
  8
LAYER_1
 10
147.3195
 20
181.3588
  0
VERTEX
  8
LAYER_1
 10
147.0663
 20
181.633
  0
VERTEX
  8
LAYER_1
 10
146.8131
 20
181.8862
  0
VERTEX
  8
LAYER_1
 10
146.56
 20
182.1605
  0
VERTEX
  8
LAYER_1
 10
146.2858
 20
182.4137
  0
VERTEX
  8
LAYER_1
 10
146.0326
 20
182.6669
  0
VERTEX
  8
LAYER_1
 10
145.7584
 20
182.9201
  0
VERTEX
  8
LAYER_1
 10
145.5052
 20
183.1733
  0
VERTEX
  8
LAYER_1
 10
145.2309
 20
183.4264
  0
VERTEX
  8
LAYER_1
 10
144.9567
 20
183.6796
  0
VERTEX
  8
LAYER_1
 10
144.6825
 20
183.9328
  0
VERTEX
  8
LAYER_1
 10
144.4082
 20
184.1648
  0
VERTEX
  8
LAYER_1
 10
144.134
 20
184.418
  0
VERTEX
  8
LAYER_1
 10
143.8596
 20
184.6501
  0
VERTEX
  8
LAYER_1
 10
143.5644
 20
184.8823
  0
VERTEX
  8
LAYER_1
 10
143.2901
 20
185.1353
  0
VERTEX
  8
LAYER_1
 10
143.0159
 20
185.3675
  0
VERTEX
  8
LAYER_1
 10
142.7205
 20
185.5995
  0
VERTEX
  8
LAYER_1
 10
142.4251
 20
185.8316
  0
VERTEX
  8
LAYER_1
 10
142.1508
 20
186.0426
  0
VERTEX
  8
LAYER_1
 10
141.8556
 20
186.2748
  0
VERTEX
  8
LAYER_1
 10
141.5602
 20
186.5068
  0
VERTEX
  8
LAYER_1
 10
141.2648
 20
186.7178
  0
VERTEX
  8
LAYER_1
 10
140.9695
 20
186.9288
  0
VERTEX
  8
LAYER_1
 10
140.6741
 20
187.1397
  0
VERTEX
  8
LAYER_1
 10
140.3577
 20
187.3719
  0
VERTEX
  8
LAYER_1
 10
140.0624
 20
187.5827
  0
VERTEX
  8
LAYER_1
 10
139.767
 20
187.7727
  0
VERTEX
  8
LAYER_1
 10
139.4506
 20
187.9837
  0
VERTEX
  8
LAYER_1
 10
139.1552
 20
188.1947
  0
VERTEX
  8
LAYER_1
 10
138.8387
 20
188.3845
  0
VERTEX
  8
LAYER_1
 10
138.5223
 20
188.5956
  0
VERTEX
  8
LAYER_1
 10
138.227
 20
188.7854
  0
VERTEX
  8
LAYER_1
 10
137.9104
 20
188.9752
  0
VERTEX
  8
LAYER_1
 10
137.594
 20
189.1652
  0
VERTEX
  8
LAYER_1
 10
137.2776
 20
189.355
  0
VERTEX
  8
LAYER_1
 10
136.9611
 20
189.545
  0
VERTEX
  8
LAYER_1
 10
136.6447
 20
189.7348
  0
VERTEX
  8
LAYER_1
 10
136.3073
 20
189.9037
  0
VERTEX
  8
LAYER_1
 10
135.9907
 20
190.0935
  0
VERTEX
  8
LAYER_1
 10
135.6744
 20
190.2623
  0
VERTEX
  8
LAYER_1
 10
135.3368
 20
190.4311
  0
VERTEX
  8
LAYER_1
 10
135.0204
 20
190.5999
  0
VERTEX
  8
LAYER_1
 10
134.6827
 20
190.7687
  0
VERTEX
  8
LAYER_1
 10
134.3663
 20
190.9374
  0
VERTEX
  8
LAYER_1
 10
134.0289
 20
191.1062
  0
VERTEX
  8
LAYER_1
 10
133.6912
 20
191.275
  0
VERTEX
  8
LAYER_1
 10
133.3748
 20
191.4226
  0
VERTEX
  8
LAYER_1
 10
133.0372
 20
191.5704
  0
VERTEX
  8
LAYER_1
 10
132.6997
 20
191.7392
  0
VERTEX
  8
LAYER_1
 10
132.3623
 20
191.8868
  0
VERTEX
  8
LAYER_1
 10
132.0247
 20
192.0344
  0
VERTEX
  8
LAYER_1
 10
131.6871
 20
192.1822
  0
VERTEX
  8
LAYER_1
 10
131.3496
 20
192.3088
  0
VERTEX
  8
LAYER_1
 10
131.012
 20
192.4565
  0
VERTEX
  8
LAYER_1
 10
130.6745
 20
192.5831
  0
VERTEX
  8
LAYER_1
 10
130.3159
 20
192.7307
  0
VERTEX
  8
LAYER_1
 10
129.9783
 20
192.8573
  0
VERTEX
  8
LAYER_1
 10
129.6408
 20
192.9839
  0
VERTEX
  8
LAYER_1
 10
129.2822
 20
193.1105
  0
VERTEX
  8
LAYER_1
 10
128.9446
 20
193.2371
  0
VERTEX
  8
LAYER_1
 10
128.5859
 20
193.3425
  0
VERTEX
  8
LAYER_1
 10
128.2485
 20
193.4692
  0
VERTEX
  8
LAYER_1
 10
127.8899
 20
193.5747
  0
VERTEX
  8
LAYER_1
 10
127.5312
 20
193.7014
  0
VERTEX
  8
LAYER_1
 10
127.1936
 20
193.8068
  0
VERTEX
  8
LAYER_1
 10
126.835
 20
193.9124
  0
VERTEX
  8
LAYER_1
 10
126.4763
 20
194.0178
  0
VERTEX
  8
LAYER_1
 10
126.1387
 20
194.1232
  0
VERTEX
  8
LAYER_1
 10
125.7801
 20
194.2076
  0
VERTEX
  8
LAYER_1
 10
125.4215
 20
194.3132
  0
VERTEX
  8
LAYER_1
 10
125.0628
 20
194.3976
  0
VERTEX
  8
LAYER_1
 10
124.7042
 20
194.4818
  0
VERTEX
  8
LAYER_1
 10
124.3456
 20
194.5662
  0
VERTEX
  8
LAYER_1
 10
123.9869
 20
194.6507
  0
VERTEX
  8
LAYER_1
 10
123.6283
 20
194.7351
  0
VERTEX
  8
LAYER_1
 10
123.2697
 20
194.8195
  0
VERTEX
  8
LAYER_1
 10
122.911
 20
194.8829
  0
VERTEX
  8
LAYER_1
 10
122.5524
 20
194.9673
  0
VERTEX
  8
LAYER_1
 10
122.1937
 20
195.0305
  0
VERTEX
  8
LAYER_1
 10
121.8141
 20
195.0937
  0
VERTEX
  8
LAYER_1
 10
121.4555
 20
195.1571
  0
VERTEX
  8
LAYER_1
 10
121.0968
 20
195.2203
  0
VERTEX
  8
LAYER_1
 10
120.7382
 20
195.2837
  0
VERTEX
  8
LAYER_1
 10
120.3796
 20
195.3469
  0
VERTEX
  8
LAYER_1
 10
119.9997
 20
195.3891
  0
VERTEX
  8
LAYER_1
 10
119.6411
 20
195.4313
  0
VERTEX
  8
LAYER_1
 10
119.2825
 20
195.4947
  0
VERTEX
  8
LAYER_1
 10
118.9028
 20
195.5369
  0
VERTEX
  8
LAYER_1
 10
118.5442
 20
195.5791
  0
VERTEX
  8
LAYER_1
 10
118.1856
 20
195.6001
  0
VERTEX
  8
LAYER_1
 10
117.8057
 20
195.6423
  0
VERTEX
  8
LAYER_1
 10
117.4471
 20
195.6635
  0
VERTEX
  8
LAYER_1
 10
117.0674
 20
195.7055
  0
VERTEX
  8
LAYER_1
 10
116.7088
 20
195.7267
  0
VERTEX
  8
LAYER_1
 10
116.3502
 20
195.7479
  0
VERTEX
  8
LAYER_1
 10
115.9704
 20
195.7689
  0
VERTEX
  8
LAYER_1
 10
115.6117
 20
195.7899
  0
VERTEX
  8
LAYER_1
 10
115.2321
 20
195.8111
  0
VERTEX
  8
LAYER_1
 10
114.8734
 20
195.8111
  0
VERTEX
  8
LAYER_1
 10
114.4936
 20
195.8321
  0
VERTEX
  8
LAYER_1
 10
113.0381
 20
195.8321
  0
VERTEX
  8
LAYER_1
 10
112.6582
 20
195.8111
  0
VERTEX
  8
LAYER_1
 10
111.92
 20
195.8111
  0
VERTEX
  8
LAYER_1
 10
111.5613
 20
195.7899
  0
VERTEX
  8
LAYER_1
 10
111.1815
 20
195.7689
  0
VERTEX
  8
LAYER_1
 10
110.8229
 20
195.7479
  0
VERTEX
  8
LAYER_1
 10
110.4642
 20
195.7267
  0
VERTEX
  8
LAYER_1
 10
110.0846
 20
195.7055
  0
VERTEX
  8
LAYER_1
 10
109.7259
 20
195.6635
  0
VERTEX
  8
LAYER_1
 10
109.3461
 20
195.6423
  0
VERTEX
  8
LAYER_1
 10
108.9875
 20
195.6001
  0
VERTEX
  8
LAYER_1
 10
108.6289
 20
195.5579
  0
VERTEX
  8
LAYER_1
 10
108.2492
 20
195.5157
  0
VERTEX
  8
LAYER_1
 10
107.8906
 20
195.4735
  0
VERTEX
  8
LAYER_1
 10
107.5319
 20
195.4313
  0
VERTEX
  8
LAYER_1
 10
107.1521
 20
195.3891
  0
VERTEX
  8
LAYER_1
 10
106.7935
 20
195.3259
  0
VERTEX
  8
LAYER_1
 10
106.4348
 20
195.2837
  0
VERTEX
  8
LAYER_1
 10
106.0762
 20
195.2203
  0
VERTEX
  8
LAYER_1
 10
105.6966
 20
195.1571
  0
VERTEX
  8
LAYER_1
 10
105.3379
 20
195.0937
  0
VERTEX
  8
LAYER_1
 10
104.9793
 20
195.0305
  0
VERTEX
  8
LAYER_1
 10
104.6207
 20
194.9461
  0
VERTEX
  8
LAYER_1
 10
104.262
 20
194.8829
  0
VERTEX
  8
LAYER_1
 10
103.9034
 20
194.7984
  0
VERTEX
  8
LAYER_1
 10
103.5448
 20
194.7351
  0
VERTEX
  8
LAYER_1
 10
103.1861
 20
194.6507
  0
VERTEX
  8
LAYER_1
 10
102.8275
 20
194.5662
  0
VERTEX
  8
LAYER_1
 10
102.4687
 20
194.4818
  0
VERTEX
  8
LAYER_1
 10
102.11
 20
194.3764
  0
VERTEX
  8
LAYER_1
 10
101.7514
 20
194.292
  0
VERTEX
  8
LAYER_1
 10
101.3928
 20
194.2076
  0
VERTEX
  8
LAYER_1
 10
101.0341
 20
194.1022
  0
VERTEX
  8
LAYER_1
 10
100.6755
 20
193.9966
  0
VERTEX
  8
LAYER_1
 10
100.3381
 20
193.8912
  0
VERTEX
  8
LAYER_1
 10
99.9794
 20
193.7858
  0
VERTEX
  8
LAYER_1
 10
99.6208
 20
193.6802
  0
VERTEX
  8
LAYER_1
 10
99.2832
 20
193.5747
  0
VERTEX
  8
LAYER_1
 10
98.9245
 20
193.4481
  0
VERTEX
  8
LAYER_1
 10
98.5871
 20
193.3425
  0
VERTEX
  8
LAYER_1
 10
98.2285
 20
193.2161
  0
VERTEX
  8
LAYER_1
 10
97.8908
 20
193.0895
  0
VERTEX
  8
LAYER_1
 10
97.5322
 20
192.9629
  0
VERTEX
  8
LAYER_1
 10
97.1948
 20
192.8363
  0
VERTEX
  8
LAYER_1
 10
96.8571
 20
192.7097
  0
VERTEX
  8
LAYER_1
 10
96.4985
 20
192.5619
  0
VERTEX
  8
LAYER_1
 10
96.1609
 20
192.4355
  0
VERTEX
  8
LAYER_1
 10
95.8234
 20
192.2877
  0
VERTEX
  8
LAYER_1
 10
95.4858
 20
192.1611
  0
VERTEX
  8
LAYER_1
 10
95.1484
 20
192.0134
  0
VERTEX
  8
LAYER_1
 10
94.8108
 20
191.8658
  0
VERTEX
  8
LAYER_1
 10
94.4733
 20
191.718
  0
VERTEX
  8
LAYER_1
 10
94.1357
 20
191.5492
  0
VERTEX
  8
LAYER_1
 10
93.7982
 20
191.4016
  0
VERTEX
  8
LAYER_1
 10
93.4606
 20
191.254
  0
VERTEX
  8
LAYER_1
 10
93.1442
 20
191.0851
  0
VERTEX
  8
LAYER_1
 10
92.8067
 20
190.9163
  0
VERTEX
  8
LAYER_1
 10
92.4691
 20
190.7475
  0
VERTEX
  8
LAYER_1
 10
92.1527
 20
190.5787
  0
VERTEX
  8
LAYER_1
 10
91.8151
 20
190.4099
  0
VERTEX
  8
LAYER_1
 10
91.4986
 20
190.2411
  0
VERTEX
  8
LAYER_1
 10
91.1822
 20
190.0725
  0
VERTEX
  8
LAYER_1
 10
90.8448
 20
189.8825
  0
VERTEX
  8
LAYER_1
 10
90.5283
 20
189.7137
  0
VERTEX
  8
LAYER_1
 10
90.2119
 20
189.5238
  0
VERTEX
  8
LAYER_1
 10
89.8955
 20
189.334
  0
VERTEX
  8
LAYER_1
 10
89.5789
 20
189.144
  0
VERTEX
  8
LAYER_1
 10
89.2624
 20
188.9542
  0
VERTEX
  8
LAYER_1
 10
88.946
 20
188.7644
  0
VERTEX
  8
LAYER_1
 10
88.6504
 20
188.5533
  0
VERTEX
  8
LAYER_1
 10
88.334
 20
188.3634
  0
VERTEX
  8
LAYER_1
 10
88.0175
 20
188.1525
  0
VERTEX
  8
LAYER_1
 10
87.7221
 20
187.9625
  0
VERTEX
  8
LAYER_1
 10
87.4057
 20
187.7515
  0
VERTEX
  8
LAYER_1
 10
87.1104
 20
187.5407
  0
VERTEX
  8
LAYER_1
 10
86.815
 20
187.3297
  0
VERTEX
  8
LAYER_1
 10
86.4986
 20
187.1186
  0
VERTEX
  8
LAYER_1
 10
86.2032
 20
186.9076
  0
VERTEX
  8
LAYER_1
 10
85.9079
 20
186.6756
  0
VERTEX
  8
LAYER_1
 10
85.6125
 20
186.4646
  0
VERTEX
  8
LAYER_1
 10
85.3173
 20
186.2326
  0
VERTEX
  8
LAYER_1
 10
85.043
 20
186.0215
  0
VERTEX
  8
LAYER_1
 10
84.7476
 20
185.7895
  0
VERTEX
  8
LAYER_1
 10
84.4522
 20
185.5573
  0
VERTEX
  8
LAYER_1
 10
84.178
 20
185.3253
  0
VERTEX
  8
LAYER_1
 10
83.8827
 20
185.0933
  0
VERTEX
  8
LAYER_1
 10
83.6083
 20
184.8611
  0
VERTEX
  8
LAYER_1
 10
83.3131
 20
184.629
  0
VERTEX
  8
LAYER_1
 10
83.0389
 20
184.3758
  0
VERTEX
  8
LAYER_1
 10
82.7646
 20
184.1438
  0
VERTEX
  8
LAYER_1
 10
82.4904
 20
183.8906
  0
VERTEX
  8
LAYER_1
 10
82.216
 20
183.6374
  0
VERTEX
  8
LAYER_1
 10
81.9418
 20
183.3842
  0
VERTEX
  8
LAYER_1
 10
81.6887
 20
183.1311
  0
VERTEX
  8
LAYER_1
 10
81.4143
 20
182.8779
  0
VERTEX
  8
LAYER_1
 10
81.1401
 20
182.6247
  0
VERTEX
  8
LAYER_1
 10
80.8871
 20
182.3715
  0
VERTEX
  8
LAYER_1
 10
80.6338
 20
182.1184
  0
VERTEX
  8
LAYER_1
 10
80.3596
 20
181.844
  0
VERTEX
  8
LAYER_1
 10
80.1064
 20
181.5908
  0
VERTEX
  8
LAYER_1
 10
79.8534
 20
181.3166
  0
VERTEX
  8
LAYER_1
 10
79.6001
 20
181.0424
  0
VERTEX
  8
LAYER_1
 10
79.3469
 20
180.7891
  0
VERTEX
  8
LAYER_1
 10
79.1149
 20
180.5149
  0
VERTEX
  8
LAYER_1
 10
78.8617
 20
180.2405
  0
VERTEX
  8
LAYER_1
 10
78.6086
 20
179.9663
  0
VERTEX
  8
LAYER_1
 10
78.3766
 20
179.692
  0
VERTEX
  8
LAYER_1
 10
78.1444
 20
179.3966
  0
VERTEX
  8
LAYER_1
 10
77.8914
 20
179.1224
  0
VERTEX
  8
LAYER_1
 10
77.6593
 20
178.827
  0
VERTEX
  8
LAYER_1
 10
77.4271
 20
178.5528
  0
VERTEX
  8
LAYER_1
 10
77.1951
 20
178.2573
  0
VERTEX
  8
LAYER_1
 10
76.9631
 20
177.9831
  0
VERTEX
  8
LAYER_1
 10
76.7521
 20
177.6877
  0
VERTEX
  8
LAYER_1
 10
76.52
 20
177.3923
  0
VERTEX
  8
LAYER_1
 10
76.309
 20
177.0969
  0
VERTEX
  8
LAYER_1
 10
76.077
 20
176.8016
  0
VERTEX
  8
LAYER_1
 10
75.8662
 20
176.5062
  0
VERTEX
  8
LAYER_1
 10
75.6552
 20
176.2108
  0
VERTEX
  8
LAYER_1
 10
75.4441
 20
175.8943
  0
VERTEX
  8
LAYER_1
 10
75.2331
 20
175.5989
  0
VERTEX
  8
LAYER_1
 10
75.0223
 20
175.3035
  0
VERTEX
  8
LAYER_1
 10
74.8113
 20
174.9871
  0
VERTEX
  8
LAYER_1
 10
74.6215
 20
174.6706
  0
VERTEX
  8
LAYER_1
 10
74.4104
 20
174.3752
  0
VERTEX
  8
LAYER_1
 10
74.2206
 20
174.0588
  0
VERTEX
  8
LAYER_1
 10
74.0308
 20
173.7424
  0
VERTEX
  8
LAYER_1
 10
73.8408
 20
173.4258
  0
VERTEX
  8
LAYER_1
 10
73.651
 20
173.1093
  0
VERTEX
  8
LAYER_1
 10
73.4611
 20
172.7929
  0
VERTEX
  8
LAYER_1
 10
73.2713
 20
172.4765
  0
VERTEX
  8
LAYER_1
 10
73.1025
 20
172.1599
  0
VERTEX
  8
LAYER_1
 10
72.9127
 20
171.8434
  0
VERTEX
  8
LAYER_1
 10
72.7439
 20
171.527
  0
VERTEX
  8
LAYER_1
 10
72.5541
 20
171.1894
  0
VERTEX
  8
LAYER_1
 10
72.3852
 20
170.8729
  0
VERTEX
  8
LAYER_1
 10
72.2164
 20
170.5353
  0
VERTEX
  8
LAYER_1
 10
72.0476
 20
170.2189
  0
VERTEX
  8
LAYER_1
 10
71.9
 20
169.8813
  0
VERTEX
  8
LAYER_1
 10
71.7312
 20
169.5438
  0
VERTEX
  8
LAYER_1
 10
71.5624
 20
169.2272
  0
VERTEX
  8
LAYER_1
 10
71.4148
 20
168.8896
  0
VERTEX
  8
LAYER_1
 10
71.2671
 20
168.5522
  0
VERTEX
  8
LAYER_1
 10
71.0983
 20
168.2145
  0
VERTEX
  8
LAYER_1
 10
70.9507
 20
167.8769
  0
VERTEX
  8
LAYER_1
 10
70.8241
 20
167.5395
  0
VERTEX
  8
LAYER_1
 10
70.6765
 20
167.2019
  0
VERTEX
  8
LAYER_1
 10
70.5287
 20
166.8642
  0
VERTEX
  8
LAYER_1
 10
70.4021
 20
166.5266
  0
VERTEX
  8
LAYER_1
 10
70.2545
 20
166.168
  0
VERTEX
  8
LAYER_1
 10
70.1278
 20
165.8304
  0
VERTEX
  8
LAYER_1
 10
70.0012
 20
165.4929
  0
VERTEX
  8
LAYER_1
 10
69.8748
 20
165.1343
  0
VERTEX
  8
LAYER_1
 10
69.7482
 20
164.7967
  0
VERTEX
  8
LAYER_1
 10
69.6216
 20
164.438
  0
VERTEX
  8
LAYER_1
 10
69.5162
 20
164.1004
  0
VERTEX
  8
LAYER_1
 10
69.3896
 20
163.7418
  0
VERTEX
  8
LAYER_1
 10
69.284
 20
163.4042
  0
VERTEX
  8
LAYER_1
 10
69.1786
 20
163.0455
  0
VERTEX
  8
LAYER_1
 10
69.0519
 20
162.6869
  0
VERTEX
  8
LAYER_1
 10
68.9675
 20
162.3493
  0
VERTEX
  8
LAYER_1
 10
68.8621
 20
161.9906
  0
VERTEX
  8
LAYER_1
 10
68.7567
 20
161.6318
  0
VERTEX
  8
LAYER_1
 10
68.6511
 20
161.2732
  0
VERTEX
  8
LAYER_1
 10
68.5667
 20
160.9146
  0
VERTEX
  8
LAYER_1
 10
68.4823
 20
160.5559
  0
VERTEX
  8
LAYER_1
 10
68.3981
 20
160.1973
  0
VERTEX
  8
LAYER_1
 10
68.3137
 20
159.8385
  0
VERTEX
  8
LAYER_1
 10
68.2293
 20
159.4798
  0
VERTEX
  8
LAYER_1
 10
68.1448
 20
159.1212
  0
VERTEX
  8
LAYER_1
 10
68.0604
 20
158.7626
  0
VERTEX
  8
LAYER_1
 10
67.9972
 20
158.4038
  0
VERTEX
  8
LAYER_1
 10
67.9128
 20
158.0451
  0
VERTEX
  8
LAYER_1
 10
67.8494
 20
157.6865
  0
VERTEX
  8
LAYER_1
 10
67.7862
 20
157.3279
  0
VERTEX
  8
LAYER_1
 10
67.723
 20
156.9692
  0
VERTEX
  8
LAYER_1
 10
67.6596
 20
156.5894
  0
VERTEX
  8
LAYER_1
 10
67.6174
 20
156.2308
  0
VERTEX
  8
LAYER_1
 10
67.5542
 20
155.872
  0
VERTEX
  8
LAYER_1
 10
67.512
 20
155.5133
  0
VERTEX
  8
LAYER_1
 10
67.4698
 20
155.1337
  0
VERTEX
  8
LAYER_1
 10
67.4276
 20
154.7749
  0
VERTEX
  8
LAYER_1
 10
67.3854
 20
154.4162
  0
VERTEX
  8
LAYER_1
 10
67.3432
 20
154.0364
  0
VERTEX
  8
LAYER_1
 10
67.301
 20
153.6778
  0
VERTEX
  8
LAYER_1
 10
67.2588
 20
153.2981
  0
VERTEX
  8
LAYER_1
 10
67.2378
 20
152.9393
  0
VERTEX
  8
LAYER_1
 10
67.2166
 20
152.5807
  0
VERTEX
  8
LAYER_1
 10
67.1956
 20
152.2009
  0
VERTEX
  8
LAYER_1
 10
67.1744
 20
151.8422
  0
VERTEX
  8
LAYER_1
 10
67.1534
 20
151.4626
  0
VERTEX
  8
LAYER_1
 10
67.1322
 20
151.1038
  0
VERTEX
  8
LAYER_1
 10
67.1111
 20
150.7241
  0
VERTEX
  8
LAYER_1
 10
67.1111
 20
150.0067
  0
VERTEX
  8
LAYER_1
 10
67.09
 20
149.627
  0
VERTEX
  8
LAYER_1
 10
67.09
 20
148.8886
  0
VERTEX
  8
LAYER_1
 10
67.1111
 20
148.5298
  0
SEQEND
  0
POLYLINE
  8
LAYER_1
 40
0.1235
 41
0.1235
 66
1
 10
0
 20
0
 30
0
  0
VERTEX
  8
LAYER_1
 10
67.1111
 20
148.5298
  0
VERTEX
  8
LAYER_1
 10
67.1111
 20
147.7915
  0
VERTEX
  8
LAYER_1
 10
67.1322
 20
147.4115
  0
VERTEX
  8
LAYER_1
 10
67.1534
 20
147.0529
  0
VERTEX
  8
LAYER_1
 10
67.1744
 20
146.6942
  0
VERTEX
  8
LAYER_1
 10
67.1956
 20
146.3146
  0
VERTEX
  8
LAYER_1
 10
67.2166
 20
145.9559
  0
VERTEX
  8
LAYER_1
 10
67.2378
 20
145.576
  0
VERTEX
  8
LAYER_1
 10
67.28
 20
145.2173
  0
VERTEX
  8
LAYER_1
 10
67.301
 20
144.8587
  0
VERTEX
  8
LAYER_1
 10
67.3432
 20
144.479
  0
VERTEX
  8
LAYER_1
 10
67.3854
 20
144.1204
  0
VERTEX
  8
LAYER_1
 10
67.4276
 20
143.7618
  0
VERTEX
  8
LAYER_1
 10
67.4698
 20
143.3818
  0
VERTEX
  8
LAYER_1
 10
67.533
 20
143.0231
  0
VERTEX
  8
LAYER_1
 10
67.5752
 20
142.6645
  0
VERTEX
  8
LAYER_1
 10
67.6386
 20
142.2849
  0
VERTEX
  8
LAYER_1
 10
67.6808
 20
141.9262
  0
VERTEX
  8
LAYER_1
 10
67.744
 20
141.5672
  0
VERTEX
  8
LAYER_1
 10
67.8072
 20
141.2086
  0
VERTEX
  8
LAYER_1
 10
67.8706
 20
140.85
  0
VERTEX
  8
LAYER_1
 10
67.9338
 20
140.4703
  0
VERTEX
  8
LAYER_1
 10
68.0182
 20
140.1117
  0
VERTEX
  8
LAYER_1
 10
68.0816
 20
139.7531
  0
VERTEX
  8
LAYER_1
 10
68.1659
 20
139.3944
  0
VERTEX
  8
LAYER_1
 10
68.2503
 20
139.0358
  0
VERTEX
  8
LAYER_1
 10
68.3347
 20
138.6768
  0
VERTEX
  8
LAYER_1
 10
68.4191
 20
138.3182
  0
VERTEX
  8
LAYER_1
 10
68.5035
 20
137.9595
  0
VERTEX
  8
LAYER_1
 10
68.5879
 20
137.6009
  0
VERTEX
  8
LAYER_1
 10
68.6933
 20
137.2423
  0
VERTEX
  8
LAYER_1
 10
68.7777
 20
136.9046
  0
VERTEX
  8
LAYER_1
 10
68.8833
 20
136.546
  0
VERTEX
  8
LAYER_1
 10
68.9887
 20
136.1874
  0
VERTEX
  8
LAYER_1
 10
69.0941
 20
135.8287
  0
VERTEX
  8
LAYER_1
 10
69.1997
 20
135.4911
  0
VERTEX
  8
LAYER_1
 10
69.3052
 20
135.1325
  0
VERTEX
  8
LAYER_1
 10
69.4318
 20
134.7739
  0
VERTEX
  8
LAYER_1
 10
69.5372
 20
134.4362
  0
VERTEX
  8
LAYER_1
 10
69.6638
 20
134.0776
  0
VERTEX
  8
LAYER_1
 10
69.7904
 20
133.74
  0
VERTEX
  8
LAYER_1
 10
69.917
 20
133.3814
  0
VERTEX
  8
LAYER_1
 10
70.0434
 20
133.0437
  0
VERTEX
  8
LAYER_1
 10
70.17
 20
132.7061
  0
VERTEX
  8
LAYER_1
 10
70.2967
 20
132.3475
  0
VERTEX
  8
LAYER_1
 10
70.4233
 20
132.0099
  0
VERTEX
  8
LAYER_1
 10
70.5709
 20
131.6722
  0
VERTEX
  8
LAYER_1
 10
70.7185
 20
131.3346
  0
VERTEX
  8
LAYER_1
 10
70.8663
 20
130.997
  0
VERTEX
  8
LAYER_1
 10
70.9929
 20
130.6597
  0
VERTEX
  8
LAYER_1
 10
71.1615
 20
130.3221
  0
VERTEX
  8
LAYER_1
 10
71.3093
 20
129.9845
  0
VERTEX
  8
LAYER_1
 10
71.457
 20
129.6469
  0
VERTEX
  8
LAYER_1
 10
71.6046
 20
129.3092
  0
VERTEX
  8
LAYER_1
 10
71.7734
 20
128.993
  0
VERTEX
  8
LAYER_1
 10
71.9422
 20
128.6554
  0
VERTEX
  8
LAYER_1
 10
72.111
 20
128.3177
  0
VERTEX
  8
LAYER_1
 10
72.2586
 20
128.0011
  0
VERTEX
  8
LAYER_1
 10
72.4485
 20
127.6635
  0
VERTEX
  8
LAYER_1
 10
72.6173
 20
127.3473
  0
VERTEX
  8
LAYER_1
 10
72.7861
 20
127.0096
  0
VERTEX
  8
LAYER_1
 10
72.9547
 20
126.693
  0
VERTEX
  8
LAYER_1
 10
73.1447
 20
126.3768
  0
VERTEX
  8
LAYER_1
 10
73.3345
 20
126.0602
  0
VERTEX
  8
LAYER_1
 10
73.5034
 20
125.7436
  0
VERTEX
  8
LAYER_1
 10
73.6932
 20
125.4273
  0
VERTEX
  8
LAYER_1
 10
73.883
 20
125.1107
  0
VERTEX
  8
LAYER_1
 10
74.094
 20
124.7941
  0
VERTEX
  8
LAYER_1
 10
74.2838
 20
124.4778
  0
VERTEX
  8
LAYER_1
 10
74.4737
 20
124.1612
  0
VERTEX
  8
LAYER_1
 10
74.6847
 20
123.866
  0
VERTEX
  8
LAYER_1
 10
74.8745
 20
123.5494
  0
VERTEX
  8
LAYER_1
 10
75.0855
 20
123.2541
  0
VERTEX
  8
LAYER_1
 10
75.2965
 20
122.9375
  0
VERTEX
  8
LAYER_1
 10
75.5075
 20
122.6423
  0
VERTEX
  8
LAYER_1
 10
75.7184
 20
122.3467
  0
VERTEX
  8
LAYER_1
 10
75.9294
 20
122.0304
  0
VERTEX
  8
LAYER_1
 10
76.1404
 20
121.7349
  0
VERTEX
  8
LAYER_1
 10
76.3724
 20
121.4396
  0
VERTEX
  8
LAYER_1
 10
76.5834
 20
121.1444
  0
VERTEX
  8
LAYER_1
 10
76.8155
 20
120.8701
  0
VERTEX
  8
LAYER_1
 10
77.0475
 20
120.5746
  0
VERTEX
  8
LAYER_1
 10
77.2585
 20
120.2793
  0
VERTEX
  8
LAYER_1
 10
77.4905
 20
120.0051
  0
VERTEX
  8
LAYER_1
 10
77.7226
 20
119.7095
  0
VERTEX
  8
LAYER_1
 10
77.9758
 20
119.4353
  0
VERTEX
  8
LAYER_1
 10
78.2078
 20
119.14
  0
VERTEX
  8
LAYER_1
 10
78.4398
 20
118.8658
  0
VERTEX
  8
LAYER_1
 10
78.693
 20
118.5912
  0
VERTEX
  8
LAYER_1
 10
78.9251
 20
118.317
  0
VERTEX
  8
LAYER_1
 10
79.1783
 20
118.0428
  0
VERTEX
  8
LAYER_1
 10
79.4313
 20
117.7685
  0
VERTEX
  8
LAYER_1
 10
79.6845
 20
117.4943
  0
VERTEX
  8
LAYER_1
 10
79.9376
 20
117.2411
  0
VERTEX
  8
LAYER_1
 10
80.1908
 20
116.9668
  0
VERTEX
  8
LAYER_1
 10
80.444
 20
116.6926
  0
VERTEX
  8
LAYER_1
 10
80.6971
 20
116.4394
  0
VERTEX
  8
LAYER_1
 10
80.9715
 20
116.1862
  0
VERTEX
  8
LAYER_1
 10
81.2245
 20
115.933
  0
VERTEX
  8
LAYER_1
 10
81.4987
 20
115.6587
  0
VERTEX
  8
LAYER_1
 10
81.7519
 20
115.4055
  0
VERTEX
  8
LAYER_1
 10
82.0262
 20
115.1733
  0
VERTEX
  8
LAYER_1
 10
82.3004
 20
114.9201
  0
VERTEX
  8
LAYER_1
 10
82.5746
 20
114.6672
  0
VERTEX
  8
LAYER_1
 10
82.849
 20
114.414
  0
VERTEX
  8
LAYER_1
 10
83.1233
 20
114.1818
  0
VERTEX
  8
LAYER_1
 10
83.3975
 20
113.9496
  0
VERTEX
  8
LAYER_1
 10
83.6927
 20
113.6964
  0
VERTEX
  8
LAYER_1
 10
83.9671
 20
113.4646
  0
VERTEX
  8
LAYER_1
 10
84.2414
 20
113.2324
  0
VERTEX
  8
LAYER_1
 10
84.5366
 20
113.0005
  0
VERTEX
  8
LAYER_1
 10
84.832
 20
112.7683
  0
VERTEX
  8
LAYER_1
 10
85.1063
 20
112.5361
  0
VERTEX
  8
LAYER_1
 10
85.4017
 20
112.3253
  0
VERTEX
  8
LAYER_1
 10
85.6969
 20
112.0931
  0
VERTEX
  8
LAYER_1
 10
85.9923
 20
111.8822
  0
VERTEX
  8
LAYER_1
 10
86.2876
 20
111.671
  0
VERTEX
  8
LAYER_1
 10
86.604
 20
111.4392
  0
VERTEX
  8
LAYER_1
 10
86.8994
 20
111.228
  0
VERTEX
  8
LAYER_1
 10
87.1948
 20
111.0172
  0
VERTEX
  8
LAYER_1
 10
87.4901
 20
110.8273
  0
VERTEX
  8
LAYER_1
 10
87.8065
 20
110.6162
  0
VERTEX
  8
LAYER_1
 10
88.123
 20
110.4053
  0
VERTEX
  8
LAYER_1
 10
88.4184
 20
110.2155
  0
VERTEX
  8
LAYER_1
 10
88.7348
 20
110.0043
  0
VERTEX
  8
LAYER_1
 10
89.0516
 20
109.8145
  0
VERTEX
  8
LAYER_1
 10
89.368
 20
109.6247
  0
VERTEX
  8
LAYER_1
 10
89.6633
 20
109.4348
  0
VERTEX
  8
LAYER_1
 10
89.9797
 20
109.2447
  0
VERTEX
  8
LAYER_1
 10
90.3173
 20
109.0548
  0
VERTEX
  8
LAYER_1
 10
90.6337
 20
108.865
  0
VERTEX
  8
LAYER_1
 10
90.9502
 20
108.6962
  0
VERTEX
  8
LAYER_1
 10
91.2666
 20
108.5064
  0
VERTEX
  8
LAYER_1
 10
91.583
 20
108.3376
  0
VERTEX
  8
LAYER_1
 10
91.9207
 20
108.1688
  0
VERTEX
  8
LAYER_1
 10
92.2371
 20
108
  0
VERTEX
  8
LAYER_1
 10
92.5745
 20
107.8311
  0
VERTEX
  8
LAYER_1
 10
92.891
 20
107.6623
  0
VERTEX
  8
LAYER_1
 10
93.2286
 20
107.4935
  0
VERTEX
  8
LAYER_1
 10
93.566
 20
107.3461
  0
VERTEX
  8
LAYER_1
 10
93.9037
 20
107.1773
  0
VERTEX
  8
LAYER_1
 10
94.2201
 20
107.0295
  0
VERTEX
  8
LAYER_1
 10
94.5577
 20
106.8817
  0
VERTEX
  8
LAYER_1
 10
94.8952
 20
106.7342
  0
VERTEX
  8
LAYER_1
 10
95.2328
 20
106.5864
  0
VERTEX
  8
LAYER_1
 10
95.5702
 20
106.4386
  0
VERTEX
  8
LAYER_1
 10
95.9289
 20
106.2912
  0
VERTEX
  8
LAYER_1
 10
96.2665
 20
106.1644
  0
VERTEX
  8
LAYER_1
 10
96.6039
 20
106.017
  0
VERTEX
  8
LAYER_1
 10
96.9415
 20
105.8902
  0
VERTEX
  8
LAYER_1
 10
97.2792
 20
105.7637
  0
VERTEX
  8
LAYER_1
 10
97.6378
 20
105.637
  0
VERTEX
  8
LAYER_1
 10
97.9752
 20
105.5105
  0
VERTEX
  8
LAYER_1
 10
98.3339
 20
105.3837
  0
VERTEX
  8
LAYER_1
 10
98.6715
 20
105.2573
  0
VERTEX
  8
LAYER_1
 10
99.0301
 20
105.1519
  0
VERTEX
  8
LAYER_1
 10
99.3676
 20
105.0251
  0
VERTEX
  8
LAYER_1
 10
99.7262
 20
104.9197
  0
VERTEX
  8
LAYER_1
 10
100.0848
 20
104.8143
  0
VERTEX
  8
LAYER_1
 10
100.4225
 20
104.7089
  0
VERTEX
  8
LAYER_1
 10
100.7811
 20
104.6031
  0
VERTEX
  8
LAYER_1
 10
101.1397
 20
104.4977
  0
VERTEX
  8
LAYER_1
 10
101.4984
 20
104.4133
  0
VERTEX
  8
LAYER_1
 10
101.857
 20
104.3078
  0
VERTEX
  8
LAYER_1
 10
102.2156
 20
104.2234
  0
VERTEX
  8
LAYER_1
 10
102.5743
 20
104.118
  0
VERTEX
  8
LAYER_1
 10
102.9117
 20
104.0336
  0
VERTEX
  8
LAYER_1
 10
103.2704
 20
103.9492
  0
VERTEX
  8
LAYER_1
 10
103.6502
 20
103.8858
  0
VERTEX
  8
LAYER_1
 10
104.0088
 20
103.8014
  0
VERTEX
  8
LAYER_1
 10
104.3674
 20
103.717
  0
VERTEX
  8
LAYER_1
 10
104.7261
 20
103.6536
  0
VERTEX
  8
LAYER_1
 10
105.0847
 20
103.5906
  0
VERTEX
  8
LAYER_1
 10
105.4433
 20
103.5272
  0
VERTEX
  8
LAYER_1
 10
105.802
 20
103.4638
  0
VERTEX
  8
LAYER_1
 10
106.1816
 20
103.4008
  0
VERTEX
  8
LAYER_1
 10
106.5403
 20
103.3374
  0
VERTEX
  8
LAYER_1
 10
106.8989
 20
103.274
  0
VERTEX
  8
LAYER_1
 10
107.2575
 20
103.2319
  0
VERTEX
  8
LAYER_1
 10
107.6374
 20
103.1896
  0
VERTEX
  8
LAYER_1
 10
107.996
 20
103.1475
  0
VERTEX
  8
LAYER_1
 10
108.3546
 20
103.1052
  0
VERTEX
  8
LAYER_1
 10
108.7344
 20
103.0631
  0
VERTEX
  8
LAYER_1
 10
109.0931
 20
103.0208
  0
VERTEX
  8
LAYER_1
 10
109.4517
 20
102.9787
  0
VERTEX
  8
LAYER_1
 10
109.8314
 20
102.9577
  0
VERTEX
  8
LAYER_1
 10
110.19
 20
102.9153
  0
VERTEX
  8
LAYER_1
 10
110.5697
 20
102.8943
  0
VERTEX
  8
LAYER_1
 10
110.9283
 20
102.8733
  0
VERTEX
  8
LAYER_1
 10
111.2869
 20
102.8519
  0
VERTEX
  8
LAYER_1
 10
111.6667
 20
102.8309
  0
VERTEX
  8
LAYER_1
 10
112.0254
 20
102.8309
  0
VERTEX
  8
LAYER_1
 10
112.4052
 20
102.8099
  0
VERTEX
  8
LAYER_1
 10
113.1435
 20
102.8099
  0
VERTEX
  8
LAYER_1
 10
113.5021
 20
102.7889
  0
VERTEX
  8
LAYER_1
 10
113.8818
 20
102.7889
  0
VERTEX
  8
LAYER_1
 10
114.2404
 20
102.8099
  0
VERTEX
  8
LAYER_1
 10
114.9789
 20
102.8099
  0
VERTEX
  8
LAYER_1
 10
115.3375
 20
102.8309
  0
VERTEX
  8
LAYER_1
 10
115.7173
 20
102.8519
  0
VERTEX
  8
LAYER_1
 10
116.0759
 20
102.8733
  0
VERTEX
  8
LAYER_1
 10
116.4556
 20
102.8943
  0
VERTEX
  8
LAYER_1
 10
116.8142
 20
102.9153
  0
VERTEX
  8
LAYER_1
 10
117.1729
 20
102.9364
  0
VERTEX
  8
LAYER_1
 10
117.5527
 20
102.9577
  0
VERTEX
  8
LAYER_1
 10
117.9113
 20
102.9997
  0
VERTEX
  8
LAYER_1
 10
118.291
 20
103.0421
  0
VERTEX
  8
LAYER_1
 10
118.6496
 20
103.0631
  0
VERTEX
  8
LAYER_1
 10
119.0082
 20
103.1052
  0
VERTEX
  8
LAYER_1
 10
119.3881
 20
103.1475
  0
VERTEX
  8
LAYER_1
 10
119.7467
 20
103.2106
  0
VERTEX
  8
LAYER_1
 10
120.1053
 20
103.253
  0
VERTEX
  8
LAYER_1
 10
120.464
 20
103.3163
  0
VERTEX
  8
LAYER_1
 10
120.8436
 20
103.3584
  0
VERTEX
  8
LAYER_1
 10
121.2022
 20
103.4218
  0
VERTEX
  8
LAYER_1
 10
121.5609
 20
103.4852
  0
VERTEX
  8
LAYER_1
 10
121.9195
 20
103.5482
  0
VERTEX
  8
LAYER_1
 10
122.2993
 20
103.6116
  0
VERTEX
  8
LAYER_1
 10
122.658
 20
103.675
  0
VERTEX
  8
LAYER_1
 10
123.0166
 20
103.7594
  0
VERTEX
  8
LAYER_1
 10
123.3752
 20
103.8438
  0
VERTEX
  8
LAYER_1
 10
123.7339
 20
103.9068
  0
VERTEX
  8
LAYER_1
 10
124.0925
 20
103.9912
  0
VERTEX
  8
LAYER_1
 10
124.4511
 20
104.0756
  0
VERTEX
  8
LAYER_1
 10
124.8098
 20
104.1601
  0
VERTEX
  8
LAYER_1
 10
125.1684
 20
104.2655
  0
VERTEX
  8
LAYER_1
 10
125.527
 20
104.3499
  0
VERTEX
  8
LAYER_1
 10
125.8857
 20
104.4343
  0
VERTEX
  8
LAYER_1
 10
126.2231
 20
104.54
  0
VERTEX
  8
LAYER_1
 10
126.5818
 20
104.6455
  0
VERTEX
  8
LAYER_1
 10
126.9404
 20
104.7509
  0
VERTEX
  8
LAYER_1
 10
127.299
 20
104.8563
  0
VERTEX
  8
LAYER_1
 10
127.6367
 20
104.9617
  0
VERTEX
  8
LAYER_1
 10
127.9953
 20
105.0675
  0
VERTEX
  8
LAYER_1
 10
128.3327
 20
105.1939
  0
VERTEX
  8
LAYER_1
 10
128.6914
 20
105.3207
  0
VERTEX
  8
LAYER_1
 10
129.029
 20
105.4261
  0
VERTEX
  8
LAYER_1
 10
129.3876
 20
105.5526
  0
VERTEX
  8
LAYER_1
 10
129.7252
 20
105.6793
  0
VERTEX
  8
LAYER_1
 10
130.0837
 20
105.8058
  0
VERTEX
  8
LAYER_1
 10
130.4213
 20
105.9326
  0
VERTEX
  8
LAYER_1
 10
130.7589
 20
106.08
  0
VERTEX
  8
LAYER_1
 10
131.0964
 20
106.2068
  0
VERTEX
  8
LAYER_1
 10
131.455
 20
106.3542
  0
VERTEX
  8
LAYER_1
 10
131.7926
 20
106.502
  0
VERTEX
  8
LAYER_1
 10
132.1301
 20
106.6498
  0
VERTEX
  8
LAYER_1
 10
132.4677
 20
106.7973
  0
VERTEX
  8
LAYER_1
 10
132.8052
 20
106.9451
  0
VERTEX
  8
LAYER_1
 10
133.1216
 20
107.0929
  0
VERTEX
  8
LAYER_1
 10
133.4592
 20
107.2407
  0
VERTEX
  8
LAYER_1
 10
133.7968
 20
107.4091
  0
VERTEX
  8
LAYER_1
 10
134.1343
 20
107.5779
  0
VERTEX
  8
LAYER_1
 10
134.4507
 20
107.7257
  0
VERTEX
  8
LAYER_1
 10
134.7883
 20
107.8945
  0
VERTEX
  8
LAYER_1
 10
135.1048
 20
108.0633
  0
VERTEX
  8
LAYER_1
 10
135.4422
 20
108.2322
  0
VERTEX
  8
LAYER_1
 10
135.7586
 20
108.422
  0
VERTEX
  8
LAYER_1
 10
136.0963
 20
108.5908
  0
VERTEX
  8
LAYER_1
 10
136.4127
 20
108.7596
  0
VERTEX
  8
LAYER_1
 10
136.7291
 20
108.9494
  0
VERTEX
  8
LAYER_1
 10
137.0456
 20
109.1392
  0
VERTEX
  8
LAYER_1
 10
137.362
 20
109.3291
  0
VERTEX
  8
LAYER_1
 10
137.6784
 20
109.5192
  0
VERTEX
  8
LAYER_1
 10
137.9948
 20
109.7091
  0
VERTEX
  8
LAYER_1
 10
138.3113
 20
109.8989
  0
VERTEX
  8
LAYER_1
 10
138.6279
 20
110.0887
  0
VERTEX
  8
LAYER_1
 10
138.9231
 20
110.2999
  0
VERTEX
  8
LAYER_1
 10
139.2396
 20
110.4897
  0
VERTEX
  8
LAYER_1
 10
139.535
 20
110.7006
  0
VERTEX
  8
LAYER_1
 10
139.8514
 20
110.9117
  0
VERTEX
  8
LAYER_1
 10
140.1467
 20
111.1226
  0
VERTEX
  8
LAYER_1
 10
140.4421
 20
111.3334
  0
VERTEX
  8
LAYER_1
 10
140.7585
 20
111.5446
  0
VERTEX
  8
LAYER_1
 10
141.0539
 20
111.7555
  0
VERTEX
  8
LAYER_1
 10
141.3492
 20
111.9666
  0
VERTEX
  8
LAYER_1
 10
141.6446
 20
112.1985
  0
VERTEX
  8
LAYER_1
 10
141.9398
 20
112.4097
  0
VERTEX
  8
LAYER_1
 10
142.2352
 20
112.6415
  0
VERTEX
  8
LAYER_1
 10
142.5095
 20
112.8737
  0
VERTEX
  8
LAYER_1
 10
142.8049
 20
113.1059
  0
VERTEX
  8
LAYER_1
 10
143.0791
 20
113.3378
  0
VERTEX
  8
LAYER_1
 10
143.3745
 20
113.57
  0
VERTEX
  8
LAYER_1
 10
143.6488
 20
113.8022
  0
VERTEX
  8
LAYER_1
 10
143.944
 20
114.034
  0
VERTEX
  8
LAYER_1
 10
144.2182
 20
114.2873
  0
VERTEX
  8
LAYER_1
 10
144.4926
 20
114.5195
  0
VERTEX
  8
LAYER_1
 10
144.7669
 20
114.7727
  0
VERTEX
  8
LAYER_1
 10
145.0411
 20
115.0259
  0
VERTEX
  8
LAYER_1
 10
145.3153
 20
115.2791
  0
VERTEX
  8
LAYER_1
 10
145.5685
 20
115.532
  0
VERTEX
  8
LAYER_1
 10
145.8428
 20
115.7852
  0
VERTEX
  8
LAYER_1
 10
146.0958
 20
116.0384
  0
VERTEX
  8
LAYER_1
 10
146.37
 20
116.2916
  0
VERTEX
  8
LAYER_1
 10
146.6233
 20
116.5448
  0
VERTEX
  8
LAYER_1
 10
146.8765
 20
116.8191
  0
VERTEX
  8
LAYER_1
 10
147.1507
 20
117.0723
  0
VERTEX
  8
LAYER_1
 10
147.4039
 20
117.3465
  0
VERTEX
  8
LAYER_1
 10
147.657
 20
117.6207
  0
VERTEX
  8
LAYER_1
 10
147.889
 20
117.8953
  0
VERTEX
  8
LAYER_1
 10
148.1422
 20
118.1482
  0
VERTEX
  8
LAYER_1
 10
148.3954
 20
118.4227
  0
VERTEX
  8
LAYER_1
 10
148.6274
 20
118.718
  0
VERTEX
  8
LAYER_1
 10
148.8807
 20
118.9922
  0
VERTEX
  8
LAYER_1
 10
149.1127
 20
119.2664
  0
VERTEX
  8
LAYER_1
 10
149.3447
 20
119.5407
  0
VERTEX
  8
LAYER_1
 10
149.5767
 20
119.8363
  0
VERTEX
  8
LAYER_1
 10
149.8088
 20
120.1105
  0
VERTEX
  8
LAYER_1
 10
150.041
 20
120.4057
  0
VERTEX
  8
LAYER_1
 10
150.273
 20
120.7013
  0
VERTEX
  8
LAYER_1
 10
150.505
 20
120.9966
  0
VERTEX
  8
LAYER_1
 10
150.716
 20
121.2708
  0
VERTEX
  8
LAYER_1
 10
150.9481
 20
121.5664
  0
VERTEX
  8
LAYER_1
 10
151.1591
 20
121.8616
  0
VERTEX
  8
LAYER_1
 10
151.3699
 20
122.1782
  0
VERTEX
  8
LAYER_1
 10
151.6019
 20
122.4735
  0
VERTEX
  8
LAYER_1
 10
151.813
 20
122.7687
  0
VERTEX
  8
LAYER_1
 10
152.024
 20
123.0643
  0
VERTEX
  8
LAYER_1
 10
152.2138
 20
123.3806
  0
VERTEX
  8
LAYER_1
 10
152.4248
 20
123.6762
  0
VERTEX
  8
LAYER_1
 10
152.6356
 20
123.9924
  0
VERTEX
  8
LAYER_1
 10
152.8256
 20
124.309
  0
VERTEX
  8
LAYER_1
 10
153.0155
 20
124.6043
  0
VERTEX
  8
LAYER_1
 10
153.2265
 20
124.9209
  0
VERTEX
  8
LAYER_1
 10
153.4163
 20
125.2375
  0
VERTEX
  8
LAYER_1
 10
153.6061
 20
125.5537
  0
VERTEX
  8
LAYER_1
 10
153.7749
 20
125.8704
  0
VERTEX
  8
LAYER_1
 10
153.9648
 20
126.1866
  0
VERTEX
  8
LAYER_1
 10
154.1546
 20
126.5032
  0
VERTEX
  8
LAYER_1
 10
154.3234
 20
126.8408
  0
VERTEX
  8
LAYER_1
 10
154.5132
 20
127.1574
  0
VERTEX
  8
LAYER_1
 10
154.682
 20
127.4737
  0
VERTEX
  8
LAYER_1
 10
154.8508
 20
127.8113
  0
VERTEX
  8
LAYER_1
 10
155.0197
 20
128.1279
  0
VERTEX
  8
LAYER_1
 10
155.1885
 20
128.4655
  0
VERTEX
  8
LAYER_1
 10
155.3571
 20
128.8028
  0
VERTEX
  8
LAYER_1
 10
155.5049
 20
129.1194
  0
VERTEX
  8
LAYER_1
 10
155.6735
 20
129.457
  0
VERTEX
  8
LAYER_1
 10
155.8213
 20
129.7947
  0
VERTEX
  8
LAYER_1
 10
155.9689
 20
130.1323
  0
VERTEX
  8
LAYER_1
 10
156.1378
 20
130.4696
  0
VERTEX
  8
LAYER_1
 10
156.2854
 20
130.8072
  0
VERTEX
  8
LAYER_1
 10
156.433
 20
131.1448
  0
VERTEX
  8
LAYER_1
 10
156.5596
 20
131.4824
  0
VERTEX
  8
LAYER_1
 10
156.7074
 20
131.82
  0
VERTEX
  8
LAYER_1
 10
156.8338
 20
132.1577
  0
VERTEX
  8
LAYER_1
 10
156.9816
 20
132.4953
  0
VERTEX
  8
LAYER_1
 10
157.1081
 20
132.8539
  0
VERTEX
  8
LAYER_1
 10
157.2347
 20
133.1915
  0
VERTEX
  8
LAYER_1
 10
157.3613
 20
133.5291
  0
VERTEX
  8
LAYER_1
 10
157.4879
 20
133.8878
  0
VERTEX
  8
LAYER_1
 10
157.6145
 20
134.2251
  0
VERTEX
  8
LAYER_1
 10
157.7199
 20
134.584
  0
VERTEX
  8
LAYER_1
 10
157.8465
 20
134.9213
  0
VERTEX
  8
LAYER_1
 10
157.9519
 20
135.2799
  0
VERTEX
  8
LAYER_1
 10
158.0575
 20
135.6389
  0
VERTEX
  8
LAYER_1
 10
158.163
 20
135.9762
  0
VERTEX
  8
LAYER_1
 10
158.2684
 20
136.3352
  0
VERTEX
  8
LAYER_1
 10
158.374
 20
136.6938
  0
VERTEX
  8
LAYER_1
 10
158.4794
 20
137.0524
  0
VERTEX
  8
LAYER_1
 10
158.5638
 20
137.4111
  0
VERTEX
  8
LAYER_1
 10
158.6692
 20
137.7487
  0
VERTEX
  8
LAYER_1
 10
158.7536
 20
138.1073
  0
VERTEX
  8
LAYER_1
 10
158.838
 20
138.466
  0
VERTEX
  8
LAYER_1
 10
158.9224
 20
138.8246
  0
VERTEX
  8
LAYER_1
 10
159.0068
 20
139.1832
  0
VERTEX
  8
LAYER_1
 10
159.0912
 20
139.5419
  0
VERTEX
  8
LAYER_1
 10
159.1545
 20
139.9005
  0
VERTEX
  8
LAYER_1
 10
159.2389
 20
140.2805
  0
VERTEX
  8
LAYER_1
 10
159.3021
 20
140.6391
  0
VERTEX
  8
LAYER_1
 10
159.3655
 20
140.9978
  0
VERTEX
  8
LAYER_1
 10
159.4287
 20
141.3564
  0
VERTEX
  8
LAYER_1
 10
159.4921
 20
141.715
  0
VERTEX
  8
LAYER_1
 10
159.5553
 20
142.095
  0
VERTEX
  8
LAYER_1
 10
159.6185
 20
142.4537
  0
VERTEX
  8
LAYER_1
 10
159.6607
 20
142.8123
  0
VERTEX
  8
LAYER_1
 10
159.7241
 20
143.1709
  0
VERTEX
  8
LAYER_1
 10
159.7663
 20
143.5506
  0
VERTEX
  8
LAYER_1
 10
159.8085
 20
143.9092
  0
VERTEX
  8
LAYER_1
 10
159.8507
 20
144.2679
  0
VERTEX
  8
LAYER_1
 10
159.8929
 20
144.6478
  0
VERTEX
  8
LAYER_1
 10
159.9139
 20
145.0065
  0
VERTEX
  8
LAYER_1
 10
159.9561
 20
145.3651
  0
VERTEX
  8
LAYER_1
 10
159.9771
 20
145.7448
  0
VERTEX
  8
LAYER_1
 10
160.0193
 20
146.1034
  0
VERTEX
  8
LAYER_1
 10
160.0405
 20
146.4834
  0
VERTEX
  8
LAYER_1
 10
160.0615
 20
146.842
  0
VERTEX
  8
LAYER_1
 10
160.0827
 20
147.2217
  0
VERTEX
  8
LAYER_1
 10
160.0827
 20
147.5803
  0
VERTEX
  8
LAYER_1
 10
160.1038
 20
147.9389
  0
VERTEX
  8
LAYER_1
 10
160.1038
 20
148.3189
  0
VERTEX
  8
LAYER_1
 10
160.1249
 20
148.6776
  0
VERTEX
  8
LAYER_1
 10
160.1249
 20
149.3104
  0
SEQEND
  0
POLYLINE
  8
LAYER_1
 40
0.1235
 41
0.1235
 66
1
 10
0
 20
0
 30
0
  0
VERTEX
  8
LAYER_1
 10
155.8001
 20
149.3104
  0
VERTEX
  8
LAYER_1
 10
155.8001
 20
150.0489
  0
VERTEX
  8
LAYER_1
 10
155.7791
 20
150.4287
  0
VERTEX
  8
LAYER_1
 10
155.7791
 20
150.7874
  0
VERTEX
  8
LAYER_1
 10
155.7579
 20
151.146
  0
VERTEX
  8
LAYER_1
 10
155.7369
 20
151.5258
  0
VERTEX
  8
LAYER_1
 10
155.7157
 20
151.8844
  0
VERTEX
  8
LAYER_1
 10
155.6947
 20
152.2643
  0
VERTEX
  8
LAYER_1
 10
155.6735
 20
152.6229
  0
VERTEX
  8
LAYER_1
 10
155.6315
 20
152.9815
  0
VERTEX
  8
LAYER_1
 10
155.6103
 20
153.3614
  0
VERTEX
  8
LAYER_1
 10
155.5681
 20
153.72
  0
VERTEX
  8
LAYER_1
 10
155.5259
 20
154.0998
  0
VERTEX
  8
LAYER_1
 10
155.4837
 20
154.4584
  0
VERTEX
  8
LAYER_1
 10
155.4415
 20
154.8171
  0
VERTEX
  8
LAYER_1
 10
155.3993
 20
155.1969
  0
VERTEX
  8
LAYER_1
 10
155.3361
 20
155.5555
  0
VERTEX
  8
LAYER_1
 10
155.2727
 20
155.9143
  0
VERTEX
  8
LAYER_1
 10
155.2305
 20
156.273
  0
VERTEX
  8
LAYER_1
 10
155.1673
 20
156.6316
  0
VERTEX
  8
LAYER_1
 10
155.1041
 20
157.0114
  0
VERTEX
  8
LAYER_1
 10
155.0197
 20
157.3701
  0
VERTEX
  8
LAYER_1
 10
154.9563
 20
157.7287
  0
VERTEX
  8
LAYER_1
 10
154.8719
 20
158.0873
  0
VERTEX
  8
LAYER_1
 10
154.8086
 20
158.446
  0
VERTEX
  8
LAYER_1
 10
154.7242
 20
158.8048
  0
VERTEX
  8
LAYER_1
 10
154.6398
 20
159.1634
  0
VERTEX
  8
LAYER_1
 10
154.5554
 20
159.522
  0
VERTEX
  8
LAYER_1
 10
154.45
 20
159.8807
  0
VERTEX
  8
LAYER_1
 10
154.3656
 20
160.2393
  0
VERTEX
  8
LAYER_1
 10
154.2602
 20
160.5981
  0
VERTEX
  8
LAYER_1
 10
154.1758
 20
160.9356
  0
VERTEX
  8
LAYER_1
 10
154.0704
 20
161.2944
  0
VERTEX
  8
LAYER_1
 10
153.9648
 20
161.653
  0
VERTEX
  8
LAYER_1
 10
153.8593
 20
162.0116
  0
VERTEX
  8
LAYER_1
 10
153.7327
 20
162.3493
  0
VERTEX
  8
LAYER_1
 10
153.6273
 20
162.7079
  0
VERTEX
  8
LAYER_1
 10
153.5007
 20
163.0455
  0
VERTEX
  8
LAYER_1
 10
153.3741
 20
163.4042
  0
VERTEX
  8
LAYER_1
 10
153.2475
 20
163.7418
  0
VERTEX
  8
LAYER_1
 10
153.1209
 20
164.1004
  0
VERTEX
  8
LAYER_1
 10
152.9945
 20
164.438
  0
VERTEX
  8
LAYER_1
 10
152.8678
 20
164.7755
  0
VERTEX
  8
LAYER_1
 10
152.72
 20
165.1131
  0
VERTEX
  8
LAYER_1
 10
152.5936
 20
165.4717
  0
VERTEX
  8
LAYER_1
 10
152.4458
 20
165.8093
  0
VERTEX
  8
LAYER_1
 10
152.2982
 20
166.147
  0
VERTEX
  8
LAYER_1
 10
152.1506
 20
166.4844
  0
VERTEX
  8
LAYER_1
 10
152.0028
 20
166.822
  0
VERTEX
  8
LAYER_1
 10
151.8552
 20
167.1385
  0
VERTEX
  8
LAYER_1
 10
151.6863
 20
167.4761
  0
VERTEX
  8
LAYER_1
 10
151.5387
 20
167.8137
  0
VERTEX
  8
LAYER_1
 10
151.3699
 20
168.1513
  0
VERTEX
  8
LAYER_1
 10
151.2011
 20
168.4678
  0
VERTEX
  8
LAYER_1
 10
151.0325
 20
168.8054
  0
VERTEX
  8
LAYER_1
 10
150.8637
 20
169.1218
  0
VERTEX
  8
LAYER_1
 10
150.6948
 20
169.4594
  0
VERTEX
  8
LAYER_1
 10
150.505
 20
169.7759
  0
VERTEX
  8
LAYER_1
 10
150.3362
 20
170.0923
  0
VERTEX
  8
LAYER_1
 10
150.1464
 20
170.4087
  0
VERTEX
  8
LAYER_1
 10
149.9566
 20
170.7253
  0
VERTEX
  8
LAYER_1
 10
149.7666
 20
171.0418
  0
VERTEX
  8
LAYER_1
 10
149.5767
 20
171.3582
  0
VERTEX
  8
LAYER_1
 10
149.3869
 20
171.6746
  0
VERTEX
  8
LAYER_1
 10
149.1971
 20
171.9912
  0
VERTEX
  8
LAYER_1
 10
148.9861
 20
172.2865
  0
VERTEX
  8
LAYER_1
 10
148.7963
 20
172.6031
  0
VERTEX
  8
LAYER_1
 10
148.5852
 20
172.9195
  0
VERTEX
  8
LAYER_1
 10
148.3742
 20
173.2149
  0
VERTEX
  8
LAYER_1
 10
148.1634
 20
173.5102
  0
VERTEX
  8
LAYER_1
 10
147.9524
 20
173.8268
  0
VERTEX
  8
LAYER_1
 10
147.7414
 20
174.122
  0
VERTEX
  8
LAYER_1
 10
147.5304
 20
174.4174
  0
VERTEX
  8
LAYER_1
 10
147.2983
 20
174.7128
  0
VERTEX
  8
LAYER_1
 10
147.0875
 20
175.0083
  0
VERTEX
  8
LAYER_1
 10
146.8553
 20
175.3035
  0
VERTEX
  8
LAYER_1
 10
146.6233
 20
175.5779
  0
VERTEX
  8
LAYER_1
 10
146.3912
 20
175.8732
  0
VERTEX
  8
LAYER_1
 10
146.1592
 20
176.1476
  0
VERTEX
  8
LAYER_1
 10
145.9272
 20
176.4428
  0
VERTEX
  8
LAYER_1
 10
145.695
 20
176.7172
  0
VERTEX
  8
LAYER_1
 10
145.463
 20
176.9914
  0
VERTEX
  8
LAYER_1
 10
145.2099
 20
177.2657
  0
VERTEX
  8
LAYER_1
 10
144.9567
 20
177.5401
  0
VERTEX
  8
LAYER_1
 10
144.7247
 20
177.8143
  0
VERTEX
  8
LAYER_1
 10
144.4715
 20
178.0885
  0
VERTEX
  8
LAYER_1
 10
144.2182
 20
178.3628
  0
VERTEX
  8
LAYER_1
 10
143.9652
 20
178.6372
  0
VERTEX
  8
LAYER_1
 10
143.712
 20
178.8904
  0
VERTEX
  8
LAYER_1
 10
143.4378
 20
179.1434
  0
VERTEX
  8
LAYER_1
 10
143.1845
 20
179.4178
  0
VERTEX
  8
LAYER_1
 10
142.9103
 20
179.6709
  0
VERTEX
  8
LAYER_1
 10
142.6573
 20
179.9241
  0
VERTEX
  8
LAYER_1
 10
142.3829
 20
180.1773
  0
VERTEX
  8
LAYER_1
 10
142.1086
 20
180.4305
  0
VERTEX
  8
LAYER_1
 10
141.8344
 20
180.6625
  0
VERTEX
  8
LAYER_1
 10
141.5602
 20
180.9157
  0
VERTEX
  8
LAYER_1
 10
141.2859
 20
181.169
  0
VERTEX
  8
LAYER_1
 10
141.0117
 20
181.401
  0
VERTEX
  8
LAYER_1
 10
140.7375
 20
181.633
  0
VERTEX
  8
LAYER_1
 10
140.4421
 20
181.8652
  0
VERTEX
  8
LAYER_1
 10
140.1678
 20
182.0972
  0
VERTEX
  8
LAYER_1
 10
139.8724
 20
182.3293
  0
VERTEX
  8
LAYER_1
 10
139.5772
 20
182.5615
  0
VERTEX
  8
LAYER_1
 10
139.303
 20
182.7935
  0
VERTEX
  8
LAYER_1
 10
139.0075
 20
183.0045
  0
VERTEX
  8
LAYER_1
 10
138.7121
 20
183.2365
  0
VERTEX
  8
LAYER_1
 10
138.4169
 20
183.4475
  0
VERTEX
  8
LAYER_1
 10
138.1004
 20
183.6586
  0
VERTEX
  8
LAYER_1
 10
137.805
 20
183.8906
  0
VERTEX
  8
LAYER_1
 10
137.5096
 20
184.0804
  0
VERTEX
  8
LAYER_1
 10
137.1932
 20
184.2914
  0
VERTEX
  8
LAYER_1
 10
136.8979
 20
184.5024
  0
VERTEX
  8
LAYER_1
 10
136.5815
 20
184.7134
  0
VERTEX
  8
LAYER_1
 10
136.2861
 20
184.9033
  0
VERTEX
  8
LAYER_1
 10
135.9697
 20
185.0933
  0
VERTEX
  8
LAYER_1
 10
135.6532
 20
185.2831
  0
VERTEX
  8
LAYER_1
 10
135.3368
 20
185.4941
  0
VERTEX
  8
LAYER_1
 10
135.0204
 20
185.6629
  0
VERTEX
  8
LAYER_1
 10
134.7039
 20
185.8527
  0
VERTEX
  8
LAYER_1
 10
134.3875
 20
186.0426
  0
VERTEX
  8
LAYER_1
 10
134.0711
 20
186.2114
  0
VERTEX
  8
LAYER_1
 10
133.7334
 20
186.4014
  0
VERTEX
  8
LAYER_1
 10
133.417
 20
186.57
  0
VERTEX
  8
LAYER_1
 10
133.1006
 20
186.7388
  0
VERTEX
  8
LAYER_1
 10
132.763
 20
186.9076
  0
VERTEX
  8
LAYER_1
 10
132.4255
 20
187.0764
  0
VERTEX
  8
LAYER_1
 10
132.1091
 20
187.2452
  0
VERTEX
  8
LAYER_1
 10
131.7715
 20
187.3929
  0
VERTEX
  8
LAYER_1
 10
131.434
 20
187.5617
  0
VERTEX
  8
LAYER_1
 10
131.0964
 20
187.7095
  0
VERTEX
  8
LAYER_1
 10
130.78
 20
187.8571
  0
VERTEX
  8
LAYER_1
 10
130.4425
 20
188.0047
  0
VERTEX
  8
LAYER_1
 10
130.1049
 20
188.1525
  0
VERTEX
  8
LAYER_1
 10
129.7463
 20
188.3001
  0
VERTEX
  8
LAYER_1
 10
129.4088
 20
188.4478
  0
VERTEX
  8
LAYER_1
 10
129.0712
 20
188.5744
  0
VERTEX
  8
LAYER_1
 10
128.7336
 20
188.701
  0
VERTEX
  8
LAYER_1
 10
128.3961
 20
188.8488
  0
VERTEX
  8
LAYER_1
 10
128.0375
 20
188.9752
  0
VERTEX
  8
LAYER_1
 10
127.6999
 20
189.0808
  0
VERTEX
  8
LAYER_1
 10
127.3412
 20
189.2074
  0
VERTEX
  8
LAYER_1
 10
127.0038
 20
189.334
  0
VERTEX
  8
LAYER_1
 10
126.6452
 20
189.4394
  0
VERTEX
  8
LAYER_1
 10
126.3075
 20
189.566
  0
VERTEX
  8
LAYER_1
 10
125.9489
 20
189.6715
  0
VERTEX
  8
LAYER_1
 10
125.5903
 20
189.777
  0
VERTEX
  8
LAYER_1
 10
125.2316
 20
189.8825
  0
VERTEX
  8
LAYER_1
 10
124.8942
 20
189.9669
  0
VERTEX
  8
LAYER_1
 10
124.5356
 20
190.0725
  0
VERTEX
  8
LAYER_1
 10
124.1769
 20
190.1779
  0
VERTEX
  8
LAYER_1
 10
123.8183
 20
190.2623
  0
VERTEX
  8
LAYER_1
 10
123.4596
 20
190.3467
  0
VERTEX
  8
LAYER_1
 10
123.101
 20
190.4311
  0
VERTEX
  8
LAYER_1
 10
122.7422
 20
190.5155
  0
VERTEX
  8
LAYER_1
 10
122.3836
 20
190.5999
  0
VERTEX
  8
LAYER_1
 10
122.0249
 20
190.6631
  0
VERTEX
  8
LAYER_1
 10
121.6663
 20
190.7263
  0
VERTEX
  8
LAYER_1
 10
121.3077
 20
190.8107
  0
VERTEX
  8
LAYER_1
 10
120.928
 20
190.8741
  0
VERTEX
  8
LAYER_1
 10
120.5694
 20
190.9374
  0
VERTEX
  8
LAYER_1
 10
120.2108
 20
191.0007
  0
VERTEX
  8
LAYER_1
 10
119.8521
 20
191.0429
  0
VERTEX
  8
LAYER_1
 10
119.4725
 20
191.1062
  0
VERTEX
  8
LAYER_1
 10
119.1137
 20
191.1484
  0
VERTEX
  8
LAYER_1
 10
118.755
 20
191.1906
  0
VERTEX
  8
LAYER_1
 10
118.3754
 20
191.2328
  0
VERTEX
  8
LAYER_1
 10
118.0167
 20
191.275
  0
VERTEX
  8
LAYER_1
 10
117.6581
 20
191.3172
  0
VERTEX
  8
LAYER_1
 10
117.2783
 20
191.3594
  0
VERTEX
  8
LAYER_1
 10
116.9197
 20
191.3806
  0
VERTEX
  8
LAYER_1
 10
116.561
 20
191.4016
  0
VERTEX
  8
LAYER_1
 10
116.1814
 20
191.4226
  0
VERTEX
  8
LAYER_1
 10
115.8227
 20
191.4438
  0
VERTEX
  8
LAYER_1
 10
115.4429
 20
191.465
  0
VERTEX
  8
LAYER_1
 10
115.0843
 20
191.486
  0
VERTEX
  8
LAYER_1
 10
114.7046
 20
191.507
  0
VERTEX
  8
LAYER_1
 10
112.5106
 20
191.507
  0
VERTEX
  8
LAYER_1
 10
112.1308
 20
191.486
  0
VERTEX
  8
LAYER_1
 10
111.7722
 20
191.465
  0
VERTEX
  8
LAYER_1
 10
111.3925
 20
191.4438
  0
VERTEX
  8
LAYER_1
 10
111.0339
 20
191.4226
  0
VERTEX
  8
LAYER_1
 10
110.6752
 20
191.4016
  0
VERTEX
  8
LAYER_1
 10
110.2954
 20
191.3806
  0
VERTEX
  8
LAYER_1
 10
109.9368
 20
191.3594
  0
VERTEX
  8
LAYER_1
 10
109.5571
 20
191.3172
  0
VERTEX
  8
LAYER_1
 10
109.1985
 20
191.275
  0
VERTEX
  8
LAYER_1
 10
108.8399
 20
191.2328
  0
VERTEX
  8
LAYER_1
 10
108.46
 20
191.1906
  0
VERTEX
  8
LAYER_1
 10
108.1014
 20
191.1484
  0
VERTEX
  8
LAYER_1
 10
107.7428
 20
191.1062
  0
VERTEX
  8
LAYER_1
 10
107.3631
 20
191.0429
  0
VERTEX
  8
LAYER_1
 10
107.0045
 20
191.0007
  0
VERTEX
  8
LAYER_1
 10
106.6459
 20
190.9374
  0
VERTEX
  8
LAYER_1
 10
106.2872
 20
190.8741
  0
VERTEX
  8
LAYER_1
 10
105.9286
 20
190.8107
  0
VERTEX
  8
LAYER_1
 10
105.5488
 20
190.7263
  0
VERTEX
  8
LAYER_1
 10
105.1901
 20
190.6631
  0
VERTEX
  8
LAYER_1
 10
104.8315
 20
190.5999
  0
VERTEX
  8
LAYER_1
 10
104.4729
 20
190.5155
  0
VERTEX
  8
LAYER_1
 10
104.1142
 20
190.4311
  0
VERTEX
  8
LAYER_1
 10
103.7556
 20
190.3467
  0
VERTEX
  8
LAYER_1
 10
103.397
 20
190.2623
  0
VERTEX
  8
LAYER_1
 10
103.0383
 20
190.1779
  0
VERTEX
  8
LAYER_1
 10
102.6797
 20
190.0725
  0
VERTEX
  8
LAYER_1
 10
102.3422
 20
189.9669
  0
VERTEX
  8
LAYER_1
 10
101.9836
 20
189.8825
  0
VERTEX
  8
LAYER_1
 10
101.625
 20
189.777
  0
VERTEX
  8
LAYER_1
 10
101.2663
 20
189.6715
  0
VERTEX
  8
LAYER_1
 10
100.9287
 20
189.566
  0
VERTEX
  8
LAYER_1
 10
100.5701
 20
189.4394
  0
VERTEX
  8
LAYER_1
 10
100.2115
 20
189.334
  0
VERTEX
  8
LAYER_1
 10
99.874
 20
189.2074
  0
VERTEX
  8
LAYER_1
 10
99.5154
 20
189.1018
  0
VERTEX
  8
LAYER_1
 10
99.1778
 20
188.9752
  0
VERTEX
  8
LAYER_1
 10
98.8401
 20
188.8488
  0
VERTEX
  8
LAYER_1
 10
98.4815
 20
188.701
  0
VERTEX
  8
LAYER_1
 10
98.1441
 20
188.5744
  0
VERTEX
  8
LAYER_1
 10
97.8064
 20
188.4478
  0
VERTEX
  8
LAYER_1
 10
97.469
 20
188.3001
  0
VERTEX
  8
LAYER_1
 10
97.1314
 20
188.1525
  0
VERTEX
  8
LAYER_1
 10
96.7939
 20
188.0047
  0
VERTEX
  8
LAYER_1
 10
96.4563
 20
187.8571
  0
VERTEX
  8
LAYER_1
 10
96.1189
 20
187.7095
  0
VERTEX
  8
LAYER_1
 10
95.7812
 20
187.5617
  0
VERTEX
  8
LAYER_1
 10
95.4436
 20
187.3929
  0
VERTEX
  8
LAYER_1
 10
95.1062
 20
187.2452
  0
VERTEX
  8
LAYER_1
 10
94.7897
 20
187.0764
  0
VERTEX
  8
LAYER_1
 10
94.4521
 20
186.9076
  0
VERTEX
  8
LAYER_1
 10
94.1357
 20
186.7388
  0
VERTEX
  8
LAYER_1
 10
93.7982
 20
186.57
  0
VERTEX
  8
LAYER_1
 10
93.4818
 20
186.4014
  0
VERTEX
  8
LAYER_1
 10
93.1442
 20
186.2114
  0
VERTEX
  8
LAYER_1
 10
92.8278
 20
186.0426
  0
VERTEX
  8
LAYER_1
 10
92.5113
 20
185.8527
  0
VERTEX
  8
LAYER_1
 10
92.1949
 20
185.6839
  0
VERTEX
  8
LAYER_1
 10
91.8785
 20
185.4941
  0
VERTEX
  8
LAYER_1
 10
91.562
 20
185.3041
  0
VERTEX
  8
LAYER_1
 10
91.2456
 20
185.0933
  0
VERTEX
  8
LAYER_1
 10
90.9292
 20
184.9033
  0
VERTEX
  8
LAYER_1
 10
90.6337
 20
184.7134
  0
VERTEX
  8
LAYER_1
 10
90.3173
 20
184.5024
  0
VERTEX
  8
LAYER_1
 10
90.0219
 20
184.2914
  0
VERTEX
  8
LAYER_1
 10
89.7055
 20
184.1016
  0
VERTEX
  8
LAYER_1
 10
89.4102
 20
183.8906
  0
VERTEX
  8
LAYER_1
 10
89.1148
 20
183.6586
  0
VERTEX
  8
LAYER_1
 10
88.8192
 20
183.4475
  0
VERTEX
  8
LAYER_1
 10
88.5028
 20
183.2365
  0
VERTEX
  8
LAYER_1
 10
88.2074
 20
183.0255
  0
VERTEX
  8
LAYER_1
 10
87.9331
 20
182.7935
  0
VERTEX
  8
LAYER_1
 10
87.6379
 20
182.5615
  0
VERTEX
  8
LAYER_1
 10
87.3425
 20
182.3293
  0
VERTEX
  8
LAYER_1
 10
87.0471
 20
182.1184
  0
VERTEX
  8
LAYER_1
 10
86.7728
 20
181.8862
  0
VERTEX
  8
LAYER_1
 10
86.4986
 20
181.633
  0
VERTEX
  8
LAYER_1
 10
86.2032
 20
181.401
  0
VERTEX
  8
LAYER_1
 10
85.9289
 20
181.169
  0
VERTEX
  8
LAYER_1
 10
85.6547
 20
180.9157
  0
VERTEX
  8
LAYER_1
 10
85.3805
 20
180.6837
  0
VERTEX
  8
LAYER_1
 10
85.1063
 20
180.4305
  0
VERTEX
  8
LAYER_1
 10
84.832
 20
180.1773
  0
VERTEX
  8
LAYER_1
 10
84.5578
 20
179.9241
  0
VERTEX
  8
LAYER_1
 10
84.3046
 20
179.6709
  0
VERTEX
  8
LAYER_1
 10
84.0304
 20
179.4178
  0
VERTEX
  8
LAYER_1
 10
83.7771
 20
179.1434
  0
VERTEX
  8
LAYER_1
 10
83.5241
 20
178.8904
  0
VERTEX
  8
LAYER_1
 10
83.2497
 20
178.6372
  0
VERTEX
  8
LAYER_1
 10
82.9967
 20
178.3628
  0
VERTEX
  8
LAYER_1
 10
82.7434
 20
178.0885
  0
VERTEX
  8
LAYER_1
 10
82.5114
 20
177.8143
  0
VERTEX
  8
LAYER_1
 10
82.2582
 20
177.5611
  0
VERTEX
  8
LAYER_1
 10
82.0052
 20
177.2869
  0
VERTEX
  8
LAYER_1
 10
81.7731
 20
176.9914
  0
VERTEX
  8
LAYER_1
 10
81.5199
 20
176.7172
  0
VERTEX
  8
LAYER_1
 10
81.2879
 20
176.4428
  0
VERTEX
  8
LAYER_1
 10
81.0557
 20
176.1476
  0
VERTEX
  8
LAYER_1
 10
80.8237
 20
175.8732
  0
VERTEX
  8
LAYER_1
 10
80.5916
 20
175.5779
  0
VERTEX
  8
LAYER_1
 10
80.3596
 20
175.3035
  0
VERTEX
  8
LAYER_1
 10
80.1276
 20
175.0083
  0
VERTEX
  8
LAYER_1
 10
79.9166
 20
174.7128
  0
VERTEX
  8
LAYER_1
 10
79.6845
 20
174.4174
  0
VERTEX
  8
LAYER_1
 10
79.4735
 20
174.122
  0
VERTEX
  8
LAYER_1
 10
79.2625
 20
173.8268
  0
VERTEX
  8
LAYER_1
 10
79.0517
 20
173.5102
  0
VERTEX
  8
LAYER_1
 10
78.8407
 20
173.2149
  0
VERTEX
  8
LAYER_1
 10
78.6297
 20
172.9195
  0
VERTEX
  8
LAYER_1
 10
78.4188
 20
172.6031
  0
VERTEX
  8
LAYER_1
 10
78.2288
 20
172.3077
  0
VERTEX
  8
LAYER_1
 10
78.018
 20
171.9912
  0
VERTEX
  8
LAYER_1
 10
77.828
 20
171.6746
  0
VERTEX
  8
LAYER_1
 10
77.6382
 20
171.3582
  0
VERTEX
  8
LAYER_1
 10
77.4483
 20
171.0418
  0
VERTEX
  8
LAYER_1
 10
77.2585
 20
170.7253
  0
VERTEX
  8
LAYER_1
 10
77.0685
 20
170.4087
  0
VERTEX
  8
LAYER_1
 10
76.8787
 20
170.0923
  0
VERTEX
  8
LAYER_1
 10
76.7099
 20
169.7759
  0
VERTEX
  8
LAYER_1
 10
76.52
 20
169.4594
  0
VERTEX
  8
LAYER_1
 10
76.3512
 20
169.1218
  0
VERTEX
  8
LAYER_1
 10
76.1826
 20
168.8054
  0
VERTEX
  8
LAYER_1
 10
76.0138
 20
168.4678
  0
VERTEX
  8
LAYER_1
 10
75.845
 20
168.1513
  0
VERTEX
  8
LAYER_1
 10
75.6762
 20
167.8137
  0
VERTEX
  8
LAYER_1
 10
75.5286
 20
167.4761
  0
VERTEX
  8
LAYER_1
 10
75.3597
 20
167.1597
  0
VERTEX
  8
LAYER_1
 10
75.2121
 20
166.822
  0
VERTEX
  8
LAYER_1
 10
75.0645
 20
166.4844
  0
VERTEX
  8
LAYER_1
 10
74.9167
 20
166.147
  0
VERTEX
  8
LAYER_1
 10
74.7691
 20
165.8093
  0
VERTEX
  8
LAYER_1
 10
74.6215
 20
165.4717
  0
VERTEX
  8
LAYER_1
 10
74.4948
 20
165.1131
  0
VERTEX
  8
LAYER_1
 10
74.3472
 20
164.7755
  0
VERTEX
  8
LAYER_1
 10
74.2206
 20
164.438
  0
VERTEX
  8
LAYER_1
 10
74.094
 20
164.1004
  0
VERTEX
  8
LAYER_1
 10
73.9674
 20
163.7418
  0
VERTEX
  8
LAYER_1
 10
73.8408
 20
163.4042
  0
VERTEX
  8
LAYER_1
 10
73.7142
 20
163.0455
  0
VERTEX
  8
LAYER_1
 10
73.5878
 20
162.7079
  0
VERTEX
  8
LAYER_1
 10
73.4822
 20
162.3493
  0
VERTEX
  8
LAYER_1
 10
73.3767
 20
162.0116
  0
VERTEX
  8
LAYER_1
 10
73.2501
 20
161.653
  0
VERTEX
  8
LAYER_1
 10
73.1447
 20
161.2944
  0
VERTEX
  8
LAYER_1
 10
73.0603
 20
160.9568
  0
VERTEX
  8
LAYER_1
 10
72.9547
 20
160.5981
  0
VERTEX
  8
LAYER_1
 10
72.8493
 20
160.2393
  0
VERTEX
  8
LAYER_1
 10
72.7649
 20
159.8807
  0
VERTEX
  8
LAYER_1
 10
72.6595
 20
159.522
  0
VERTEX
  8
LAYER_1
 10
72.5751
 20
159.1634
  0
VERTEX
  8
LAYER_1
 10
72.4907
 20
158.8048
  0
VERTEX
  8
LAYER_1
 10
72.4063
 20
158.446
  0
VERTEX
  8
LAYER_1
 10
72.343
 20
158.0873
  0
VERTEX
  8
LAYER_1
 10
72.2586
 20
157.7287
  0
VERTEX
  8
LAYER_1
 10
72.1954
 20
157.3701
  0
VERTEX
  8
LAYER_1
 10
72.132
 20
157.0114
  0
VERTEX
  8
LAYER_1
 10
72.0476
 20
156.6526
  0
VERTEX
  8
LAYER_1
 10
71.9844
 20
156.273
  0
VERTEX
  8
LAYER_1
 10
71.9422
 20
155.9143
  0
VERTEX
  8
LAYER_1
 10
71.8788
 20
155.5555
  0
VERTEX
  8
LAYER_1
 10
71.8156
 20
155.1969
  0
VERTEX
  8
LAYER_1
 10
71.7734
 20
154.8171
  0
VERTEX
  8
LAYER_1
 10
71.7312
 20
154.4584
  0
VERTEX
  8
LAYER_1
 10
71.689
 20
154.0998
  0
VERTEX
  8
LAYER_1
 10
71.6468
 20
153.72
  0
VERTEX
  8
LAYER_1
 10
71.6046
 20
153.3614
  0
VERTEX
  8
LAYER_1
 10
71.5836
 20
153.0027
  0
VERTEX
  8
LAYER_1
 10
71.5414
 20
152.6229
  0
VERTEX
  8
LAYER_1
 10
71.5202
 20
152.2643
  0
VERTEX
  8
LAYER_1
 10
71.4992
 20
151.8844
  0
VERTEX
  8
LAYER_1
 10
71.478
 20
151.5258
  0
VERTEX
  8
LAYER_1
 10
71.457
 20
151.1672
  0
VERTEX
  8
LAYER_1
 10
71.4358
 20
150.7874
  0
VERTEX
  8
LAYER_1
 10
71.4358
 20
150.4287
  0
VERTEX
  8
LAYER_1
 10
71.4148
 20
150.0489
  0
VERTEX
  8
LAYER_1
 10
71.4148
 20
148.572
  0
VERTEX
  8
LAYER_1
 10
71.4358
 20
148.2133
  0
SEQEND
  0
POLYLINE
  8
LAYER_1
 40
0.1235
 41
0.1235
 66
1
 10
0
 20
0
 30
0
  0
VERTEX
  8
LAYER_1
 10
71.4358
 20
148.2133
  0
VERTEX
  8
LAYER_1
 10
71.4358
 20
147.8335
  0
VERTEX
  8
LAYER_1
 10
71.457
 20
147.4749
  0
VERTEX
  8
LAYER_1
 10
71.478
 20
147.1163
  0
VERTEX
  8
LAYER_1
 10
71.4992
 20
146.7366
  0
VERTEX
  8
LAYER_1
 10
71.5202
 20
146.378
  0
VERTEX
  8
LAYER_1
 10
71.5414
 20
145.998
  0
VERTEX
  8
LAYER_1
 10
71.5836
 20
145.6393
  0
VERTEX
  8
LAYER_1
 10
71.6046
 20
145.2807
  0
VERTEX
  8
LAYER_1
 10
71.6468
 20
144.9011
  0
VERTEX
  8
LAYER_1
 10
71.689
 20
144.5424
  0
VERTEX
  8
LAYER_1
 10
71.7312
 20
144.1834
  0
VERTEX
  8
LAYER_1
 10
71.7734
 20
143.8038
  0
VERTEX
  8
LAYER_1
 10
71.8156
 20
143.4452
  0
VERTEX
  8
LAYER_1
 10
71.8788
 20
143.0865
  0
VERTEX
  8
LAYER_1
 10
71.9422
 20
142.7069
  0
VERTEX
  8
LAYER_1
 10
71.9844
 20
142.3479
  0
VERTEX
  8
LAYER_1
 10
72.0476
 20
141.9893
  0
VERTEX
  8
LAYER_1
 10
72.111
 20
141.6306
  0
VERTEX
  8
LAYER_1
 10
72.1954
 20
141.272
  0
VERTEX
  8
LAYER_1
 10
72.2586
 20
140.9134
  0
VERTEX
  8
LAYER_1
 10
72.343
 20
140.5337
  0
VERTEX
  8
LAYER_1
 10
72.4063
 20
140.1751
  0
VERTEX
  8
LAYER_1
 10
72.4907
 20
139.8161
  0
VERTEX
  8
LAYER_1
 10
72.5751
 20
139.4575
  0
VERTEX
  8
LAYER_1
 10
72.6595
 20
139.0988
  0
VERTEX
  8
LAYER_1
 10
72.7649
 20
138.7612
  0
VERTEX
  8
LAYER_1
 10
72.8493
 20
138.4026
  0
VERTEX
  8
LAYER_1
 10
72.9547
 20
138.0439
  0
VERTEX
  8
LAYER_1
 10
73.0391
 20
137.6853
  0
VERTEX
  8
LAYER_1
 10
73.1447
 20
137.3267
  0
VERTEX
  8
LAYER_1
 10
73.2501
 20
136.9891
  0
VERTEX
  8
LAYER_1
 10
73.3767
 20
136.6304
  0
VERTEX
  8
LAYER_1
 10
73.4822
 20
136.2718
  0
VERTEX
  8
LAYER_1
 10
73.5878
 20
135.9342
  0
VERTEX
  8
LAYER_1
 10
73.7142
 20
135.5755
  0
VERTEX
  8
LAYER_1
 10
73.8408
 20
135.2379
  0
VERTEX
  8
LAYER_1
 10
73.9674
 20
134.8793
  0
VERTEX
  8
LAYER_1
 10
74.094
 20
134.5417
  0
VERTEX
  8
LAYER_1
 10
74.2206
 20
134.204
  0
VERTEX
  8
LAYER_1
 10
74.3472
 20
133.8454
  0
VERTEX
  8
LAYER_1
 10
74.4948
 20
133.5078
  0
VERTEX
  8
LAYER_1
 10
74.6215
 20
133.1702
  0
VERTEX
  8
LAYER_1
 10
74.7691
 20
132.8329
  0
VERTEX
  8
LAYER_1
 10
74.9167
 20
132.4953
  0
VERTEX
  8
LAYER_1
 10
75.0645
 20
132.1577
  0
VERTEX
  8
LAYER_1
 10
75.2121
 20
131.82
  0
VERTEX
  8
LAYER_1
 10
75.3597
 20
131.4824
  0
VERTEX
  8
LAYER_1
 10
75.5286
 20
131.1448
  0
VERTEX
  8
LAYER_1
 10
75.6762
 20
130.8285
  0
VERTEX
  8
LAYER_1
 10
75.845
 20
130.4909
  0
VERTEX
  8
LAYER_1
 10
76.0138
 20
130.1533
  0
VERTEX
  8
LAYER_1
 10
76.1826
 20
129.8367
  0
VERTEX
  8
LAYER_1
 10
76.3512
 20
129.4991
  0
VERTEX
  8
LAYER_1
 10
76.52
 20
129.1828
  0
VERTEX
  8
LAYER_1
 10
76.7099
 20
128.8662
  0
VERTEX
  8
LAYER_1
 10
76.8787
 20
128.5286
  0
VERTEX
  8
LAYER_1
 10
77.0685
 20
128.2123
  0
VERTEX
  8
LAYER_1
 10
77.2585
 20
127.8957
  0
VERTEX
  8
LAYER_1
 10
77.4483
 20
127.5791
  0
VERTEX
  8
LAYER_1
 10
77.6382
 20
127.2629
  0
VERTEX
  8
LAYER_1
 10
77.828
 20
126.9463
  0
VERTEX
  8
LAYER_1
 10
78.018
 20
126.651
  0
VERTEX
  8
LAYER_1
 10
78.2288
 20
126.3344
  0
VERTEX
  8
LAYER_1
 10
78.4188
 20
126.0181
  0
VERTEX
  8
LAYER_1
 10
78.6297
 20
125.7226
  0
VERTEX
  8
LAYER_1
 10
78.8407
 20
125.406
  0
VERTEX
  8
LAYER_1
 10
79.0517
 20
125.1107
  0
VERTEX
  8
LAYER_1
 10
79.2625
 20
124.8155
  0
VERTEX
  8
LAYER_1
 10
79.4735
 20
124.5199
  0
VERTEX
  8
LAYER_1
 10
79.6845
 20
124.2246
  0
VERTEX
  8
LAYER_1
 10
79.9166
 20
123.9294
  0
VERTEX
  8
LAYER_1
 10
80.1276
 20
123.6338
  0
VERTEX
  8
LAYER_1
 10
80.3596
 20
123.3386
  0
VERTEX
  8
LAYER_1
 10
80.5916
 20
123.043
  0
VERTEX
  8
LAYER_1
 10
80.8237
 20
122.7687
  0
VERTEX
  8
LAYER_1
 10
81.0557
 20
122.4735
  0
VERTEX
  8
LAYER_1
 10
81.2879
 20
122.1993
  0
VERTEX
  8
LAYER_1
 10
81.5199
 20
121.9037
  0
VERTEX
  8
LAYER_1
 10
81.7731
 20
121.6294
  0
VERTEX
  8
LAYER_1
 10
82.0052
 20
121.3552
  0
VERTEX
  8
LAYER_1
 10
82.2582
 20
121.081
  0
VERTEX
  8
LAYER_1
 10
82.4904
 20
120.8068
  0
VERTEX
  8
LAYER_1
 10
82.7434
 20
120.5325
  0
VERTEX
  8
LAYER_1
 10
82.9967
 20
120.2793
  0
VERTEX
  8
LAYER_1
 10
83.2497
 20
120.0051
  0
VERTEX
  8
LAYER_1
 10
83.5029
 20
119.7308
  0
VERTEX
  8
LAYER_1
 10
83.7771
 20
119.4776
  0
VERTEX
  8
LAYER_1
 10
84.0304
 20
119.2244
  0
VERTEX
  8
LAYER_1
 10
84.3046
 20
118.9712
  0
VERTEX
  8
LAYER_1
 10
84.5578
 20
118.718
  0
VERTEX
  8
LAYER_1
 10
84.832
 20
118.4648
  0
VERTEX
  8
LAYER_1
 10
85.1063
 20
118.2116
  0
VERTEX
  8
LAYER_1
 10
85.3805
 20
117.9583
  0
VERTEX
  8
LAYER_1
 10
85.6547
 20
117.7051
  0
VERTEX
  8
LAYER_1
 10
85.9289
 20
117.4733
  0
VERTEX
  8
LAYER_1
 10
86.2032
 20
117.2201
  0
VERTEX
  8
LAYER_1
 10
86.4776
 20
116.9879
  0
VERTEX
  8
LAYER_1
 10
86.7728
 20
116.7557
  0
VERTEX
  8
LAYER_1
 10
87.0471
 20
116.5238
  0
VERTEX
  8
LAYER_1
 10
87.3425
 20
116.2916
  0
VERTEX
  8
LAYER_1
 10
87.6379
 20
116.0598
  0
VERTEX
  8
LAYER_1
 10
87.9121
 20
115.8486
  0
VERTEX
  8
LAYER_1
 10
88.2074
 20
115.6164
  0
VERTEX
  8
LAYER_1
 10
88.5028
 20
115.4055
  0
VERTEX
  8
LAYER_1
 10
88.798
 20
115.1733
  0
VERTEX
  8
LAYER_1
 10
89.1148
 20
114.9625
  0
VERTEX
  8
LAYER_1
 10
89.4102
 20
114.7513
  0
VERTEX
  8
LAYER_1
 10
89.7055
 20
114.5405
  0
VERTEX
  8
LAYER_1
 10
90.0219
 20
114.3296
  0
VERTEX
  8
LAYER_1
 10
90.3173
 20
114.1184
  0
VERTEX
  8
LAYER_1
 10
90.6337
 20
113.9286
  0
VERTEX
  8
LAYER_1
 10
90.9292
 20
113.7178
  0
VERTEX
  8
LAYER_1
 10
91.2456
 20
113.5276
  0
VERTEX
  8
LAYER_1
 10
91.562
 20
113.3378
  0
VERTEX
  8
LAYER_1
 10
91.8785
 20
113.148
  0
VERTEX
  8
LAYER_1
 10
92.1949
 20
112.9581
  0
VERTEX
  8
LAYER_1
 10
92.5113
 20
112.7683
  0
VERTEX
  8
LAYER_1
 10
92.8278
 20
112.5995
  0
VERTEX
  8
LAYER_1
 10
93.1442
 20
112.4097
  0
VERTEX
  8
LAYER_1
 10
93.4818
 20
112.2409
  0
VERTEX
  8
LAYER_1
 10
93.7982
 20
112.051
  0
VERTEX
  8
LAYER_1
 10
94.1147
 20
111.8822
  0
VERTEX
  8
LAYER_1
 10
94.4521
 20
111.7134
  0
VERTEX
  8
LAYER_1
 10
94.7897
 20
111.5446
  0
VERTEX
  8
LAYER_1
 10
95.1062
 20
111.3968
  0
VERTEX
  8
LAYER_1
 10
95.4436
 20
111.228
  0
VERTEX
  8
LAYER_1
 10
95.7812
 20
111.0802
  0
VERTEX
  8
LAYER_1
 10
96.1189
 20
110.9117
  0
VERTEX
  8
LAYER_1
 10
96.4353
 20
110.764
  0
VERTEX
  8
LAYER_1
 10
96.7727
 20
110.6162
  0
VERTEX
  8
LAYER_1
 10
97.1104
 20
110.4684
  0
VERTEX
  8
LAYER_1
 10
97.469
 20
110.3209
  0
VERTEX
  8
LAYER_1
 10
97.8064
 20
110.1941
  0
VERTEX
  8
LAYER_1
 10
98.1441
 20
110.0467
  0
VERTEX
  8
LAYER_1
 10
98.4815
 20
109.9199
  0
VERTEX
  8
LAYER_1
 10
98.8191
 20
109.7935
  0
VERTEX
  8
LAYER_1
 10
99.1778
 20
109.6667
  0
VERTEX
  8
LAYER_1
 10
99.5154
 20
109.5403
  0
VERTEX
  8
LAYER_1
 10
99.874
 20
109.4135
  0
VERTEX
  8
LAYER_1
 10
100.2115
 20
109.3081
  0
VERTEX
  8
LAYER_1
 10
100.5701
 20
109.1816
  0
VERTEX
  8
LAYER_1
 10
100.9077
 20
109.0762
  0
VERTEX
  8
LAYER_1
 10
101.2663
 20
108.9704
  0
VERTEX
  8
LAYER_1
 10
101.625
 20
108.865
  0
VERTEX
  8
LAYER_1
 10
101.9836
 20
108.7596
  0
VERTEX
  8
LAYER_1
 10
102.3211
 20
108.6542
  0
VERTEX
  8
LAYER_1
 10
102.6797
 20
108.5488
  0
VERTEX
  8
LAYER_1
 10
103.0383
 20
108.4644
  0
VERTEX
  8
LAYER_1
 10
103.397
 20
108.3799
  0
VERTEX
  8
LAYER_1
 10
103.7556
 20
108.2742
  0
VERTEX
  8
LAYER_1
 10
104.1142
 20
108.1898
  0
VERTEX
  8
LAYER_1
 10
104.4729
 20
108.1267
  0
VERTEX
  8
LAYER_1
 10
104.8315
 20
108.0423
  0
VERTEX
  8
LAYER_1
 10
105.1901
 20
107.9579
  0
VERTEX
  8
LAYER_1
 10
105.5488
 20
107.8945
  0
VERTEX
  8
LAYER_1
 10
105.9074
 20
107.8311
  0
VERTEX
  8
LAYER_1
 10
106.2872
 20
107.7681
  0
VERTEX
  8
LAYER_1
 10
106.6459
 20
107.7047
  0
VERTEX
  8
LAYER_1
 10
107.0045
 20
107.6413
  0
VERTEX
  8
LAYER_1
 10
107.3631
 20
107.5779
  0
VERTEX
  8
LAYER_1
 10
107.7428
 20
107.5359
  0
VERTEX
  8
LAYER_1
 10
108.1014
 20
107.4725
  0
VERTEX
  8
LAYER_1
 10
108.46
 20
107.4305
  0
VERTEX
  8
LAYER_1
 10
108.8187
 20
107.3881
  0
VERTEX
  8
LAYER_1
 10
109.1985
 20
107.3461
  0
VERTEX
  8
LAYER_1
 10
109.5571
 20
107.3037
  0
VERTEX
  8
LAYER_1
 10
109.9368
 20
107.2827
  0
VERTEX
  8
LAYER_1
 10
110.2954
 20
107.2407
  0
VERTEX
  8
LAYER_1
 10
110.6541
 20
107.2193
  0
VERTEX
  8
LAYER_1
 10
111.0339
 20
107.1983
  0
VERTEX
  8
LAYER_1
 10
111.3925
 20
107.1773
  0
VERTEX
  8
LAYER_1
 10
111.7722
 20
107.1562
  0
VERTEX
  8
LAYER_1
 10
112.1308
 20
107.1349
  0
VERTEX
  8
LAYER_1
 10
112.5106
 20
107.1349
  0
VERTEX
  8
LAYER_1
 10
112.8693
 20
107.1139
  0
VERTEX
  8
LAYER_1
 10
114.346
 20
107.1139
  0
VERTEX
  8
LAYER_1
 10
114.7046
 20
107.1349
  0
VERTEX
  8
LAYER_1
 10
115.0843
 20
107.1349
  0
VERTEX
  8
LAYER_1
 10
115.4429
 20
107.1562
  0
VERTEX
  8
LAYER_1
 10
115.8227
 20
107.1773
  0
VERTEX
  8
LAYER_1
 10
116.1814
 20
107.1983
  0
VERTEX
  8
LAYER_1
 10
116.54
 20
107.2193
  0
VERTEX
  8
LAYER_1
 10
116.9197
 20
107.2407
  0
VERTEX
  8
LAYER_1
 10
117.2783
 20
107.2827
  0
VERTEX
  8
LAYER_1
 10
117.6581
 20
107.3037
  0
VERTEX
  8
LAYER_1
 10
118.0167
 20
107.3461
  0
VERTEX
  8
LAYER_1
 10
118.3754
 20
107.3881
  0
VERTEX
  8
LAYER_1
 10
118.755
 20
107.4305
  0
VERTEX
  8
LAYER_1
 10
119.1137
 20
107.4725
  0
VERTEX
  8
LAYER_1
 10
119.4725
 20
107.5359
  0
VERTEX
  8
LAYER_1
 10
119.8521
 20
107.5779
  0
VERTEX
  8
LAYER_1
 10
120.2108
 20
107.6413
  0
VERTEX
  8
LAYER_1
 10
120.5694
 20
107.7047
  0
VERTEX
  8
LAYER_1
 10
120.928
 20
107.7681
  0
VERTEX
  8
LAYER_1
 10
121.2867
 20
107.8311
  0
VERTEX
  8
LAYER_1
 10
121.6663
 20
107.8945
  0
VERTEX
  8
LAYER_1
 10
122.0249
 20
107.9579
  0
VERTEX
  8
LAYER_1
 10
122.3836
 20
108.0423
  0
VERTEX
  8
LAYER_1
 10
122.7422
 20
108.1267
  0
VERTEX
  8
LAYER_1
 10
123.101
 20
108.1898
  0
VERTEX
  8
LAYER_1
 10
123.4596
 20
108.2742
  0
VERTEX
  8
LAYER_1
 10
123.8183
 20
108.3799
  0
VERTEX
  8
LAYER_1
 10
124.1769
 20
108.4644
  0
VERTEX
  8
LAYER_1
 10
124.5356
 20
108.5488
  0
VERTEX
  8
LAYER_1
 10
124.873
 20
108.6542
  0
VERTEX
  8
LAYER_1
 10
125.2316
 20
108.7596
  0
VERTEX
  8
LAYER_1
 10
125.5903
 20
108.844
  0
VERTEX
  8
LAYER_1
 10
125.9489
 20
108.9704
  0
VERTEX
  8
LAYER_1
 10
126.2865
 20
109.0762
  0
VERTEX
  8
LAYER_1
 10
126.6452
 20
109.1816
  0
VERTEX
  8
LAYER_1
 10
127.0038
 20
109.287
  0
VERTEX
  8
LAYER_1
 10
127.3412
 20
109.4135
  0
VERTEX
  8
LAYER_1
 10
127.6999
 20
109.5403
  0
VERTEX
  8
LAYER_1
 10
128.0375
 20
109.6667
  0
VERTEX
  8
LAYER_1
 10
128.3749
 20
109.7935
  0
VERTEX
  8
LAYER_1
 10
128.7336
 20
109.9199
  0
VERTEX
  8
LAYER_1
 10
129.0712
 20
110.0467
  0
VERTEX
  8
LAYER_1
 10
129.4088
 20
110.1941
  0
VERTEX
  8
LAYER_1
 10
129.7463
 20
110.3209
  0
VERTEX
  8
LAYER_1
 10
130.0839
 20
110.4684
  0
VERTEX
  8
LAYER_1
 10
130.4213
 20
110.6162
  0
VERTEX
  8
LAYER_1
 10
130.7589
 20
110.764
  0
VERTEX
  8
LAYER_1
 10
131.0964
 20
110.9117
  0
VERTEX
  8
LAYER_1
 10
131.434
 20
111.0592
  0
VERTEX
  8
LAYER_1
 10
131.7715
 20
111.228
  0
VERTEX
  8
LAYER_1
 10
132.1091
 20
111.3758
  0
VERTEX
  8
LAYER_1
 10
132.4255
 20
111.5446
  0
VERTEX
  8
LAYER_1
 10
132.763
 20
111.7134
  0
VERTEX
  8
LAYER_1
 10
133.0796
 20
111.8822
  0
VERTEX
  8
LAYER_1
 10
133.417
 20
112.051
  0
VERTEX
  8
LAYER_1
 10
133.7334
 20
112.2199
  0
VERTEX
  8
LAYER_1
 10
134.0711
 20
112.4097
  0
VERTEX
  8
LAYER_1
 10
134.3875
 20
112.5785
  0
VERTEX
  8
LAYER_1
 10
134.7039
 20
112.7683
  0
VERTEX
  8
LAYER_1
 10
135.0204
 20
112.9581
  0
VERTEX
  8
LAYER_1
 10
135.3368
 20
113.148
  0
VERTEX
  8
LAYER_1
 10
135.6532
 20
113.3378
  0
VERTEX
  8
LAYER_1
 10
135.9697
 20
113.5276
  0
VERTEX
  8
LAYER_1
 10
136.2861
 20
113.7178
  0
VERTEX
  8
LAYER_1
 10
136.5815
 20
113.9286
  0
VERTEX
  8
LAYER_1
 10
136.8979
 20
114.1184
  0
VERTEX
  8
LAYER_1
 10
137.1932
 20
114.3296
  0
VERTEX
  8
LAYER_1
 10
137.5096
 20
114.5405
  0
VERTEX
  8
LAYER_1
 10
137.805
 20
114.7513
  0
VERTEX
  8
LAYER_1
 10
138.1004
 20
114.9625
  0
VERTEX
  8
LAYER_1
 10
138.3957
 20
115.1733
  0
VERTEX
  8
LAYER_1
 10
138.7121
 20
115.3845
  0
VERTEX
  8
LAYER_1
 10
139.0075
 20
115.6164
  0
VERTEX
  8
LAYER_1
 10
139.2818
 20
115.8276
  0
VERTEX
  8
LAYER_1
 10
139.5772
 20
116.0598
  0
VERTEX
  8
LAYER_1
 10
139.8724
 20
116.2916
  0
VERTEX
  8
LAYER_1
 10
140.1678
 20
116.5238
  0
VERTEX
  8
LAYER_1
 10
140.4421
 20
116.7557
  0
VERTEX
  8
LAYER_1
 10
140.7375
 20
116.9879
  0
VERTEX
  8
LAYER_1
 10
141.0117
 20
117.2201
  0
VERTEX
  8
LAYER_1
 10
141.2859
 20
117.4733
  0
VERTEX
  8
LAYER_1
 10
141.5602
 20
117.7051
  0
VERTEX
  8
LAYER_1
 10
141.8344
 20
117.9583
  0
VERTEX
  8
LAYER_1
 10
142.1086
 20
118.1905
  0
VERTEX
  8
LAYER_1
 10
142.3829
 20
118.4438
  0
VERTEX
  8
LAYER_1
 10
142.6573
 20
118.697
  0
VERTEX
  8
LAYER_1
 10
142.9103
 20
118.9502
  0
VERTEX
  8
LAYER_1
 10
143.1845
 20
119.2244
  0
VERTEX
  8
LAYER_1
 10
143.4378
 20
119.4776
  0
VERTEX
  8
LAYER_1
 10
143.691
 20
119.7308
  0
VERTEX
  8
LAYER_1
 10
143.9652
 20
120.0051
  0
VERTEX
  8
LAYER_1
 10
144.2182
 20
120.2583
  0
VERTEX
  8
LAYER_1
 10
144.4715
 20
120.5325
  0
VERTEX
  8
LAYER_1
 10
144.7247
 20
120.8068
  0
VERTEX
  8
LAYER_1
 10
144.9567
 20
121.081
  0
VERTEX
  8
LAYER_1
 10
145.2099
 20
121.3552
  0
VERTEX
  8
LAYER_1
 10
145.4419
 20
121.6294
  0
VERTEX
  8
LAYER_1
 10
145.695
 20
121.9037
  0
VERTEX
  8
LAYER_1
 10
145.9272
 20
122.1782
  0
VERTEX
  8
LAYER_1
 10
146.1592
 20
122.4735
  0
VERTEX
  8
LAYER_1
 10
146.3912
 20
122.7477
  0
VERTEX
  8
LAYER_1
 10
146.6233
 20
123.043
  0
VERTEX
  8
LAYER_1
 10
146.8553
 20
123.3386
  0
VERTEX
  8
LAYER_1
 10
147.0875
 20
123.6338
  0
VERTEX
  8
LAYER_1
 10
147.2983
 20
123.908
  0
VERTEX
  8
LAYER_1
 10
147.5304
 20
124.2036
  0
VERTEX
  8
LAYER_1
 10
147.7414
 20
124.4989
  0
VERTEX
  8
LAYER_1
 10
147.9524
 20
124.8155
  0
VERTEX
  8
LAYER_1
 10
148.1634
 20
125.1107
  0
VERTEX
  8
LAYER_1
 10
148.3742
 20
125.406
  0
VERTEX
  8
LAYER_1
 10
148.5852
 20
125.7226
  0
VERTEX
  8
LAYER_1
 10
148.7963
 20
126.0181
  0
VERTEX
  8
LAYER_1
 10
148.9861
 20
126.3344
  0
VERTEX
  8
LAYER_1
 10
149.1971
 20
126.63
  0
VERTEX
  8
LAYER_1
 10
149.3869
 20
126.9463
  0
VERTEX
  8
LAYER_1
 10
149.5767
 20
127.2629
  0
VERTEX
  8
LAYER_1
 10
149.7666
 20
127.5791
  0
VERTEX
  8
LAYER_1
 10
149.9566
 20
127.8957
  0
VERTEX
  8
LAYER_1
 10
150.1464
 20
128.2123
  0
VERTEX
  8
LAYER_1
 10
150.3362
 20
128.5286
  0
VERTEX
  8
LAYER_1
 10
150.505
 20
128.8452
  0
VERTEX
  8
LAYER_1
 10
150.6948
 20
129.1828
  0
VERTEX
  8
LAYER_1
 10
150.8637
 20
129.4991
  0
VERTEX
  8
LAYER_1
 10
151.0325
 20
129.8367
  0
VERTEX
  8
LAYER_1
 10
151.2011
 20
130.1533
  0
VERTEX
  8
LAYER_1
 10
151.3699
 20
130.4909
  0
VERTEX
  8
LAYER_1
 10
151.5387
 20
130.8072
  0
VERTEX
  8
LAYER_1
 10
151.6863
 20
131.1448
  0
VERTEX
  8
LAYER_1
 10
151.8552
 20
131.4824
  0
VERTEX
  8
LAYER_1
 10
152.0028
 20
131.82
  0
VERTEX
  8
LAYER_1
 10
152.1506
 20
132.1577
  0
VERTEX
  8
LAYER_1
 10
152.2982
 20
132.4953
  0
VERTEX
  8
LAYER_1
 10
152.4458
 20
132.8329
  0
VERTEX
  8
LAYER_1
 10
152.5936
 20
133.1702
  0
VERTEX
  8
LAYER_1
 10
152.72
 20
133.5078
  0
VERTEX
  8
LAYER_1
 10
152.8678
 20
133.8454
  0
VERTEX
  8
LAYER_1
 10
152.9945
 20
134.183
  0
VERTEX
  8
LAYER_1
 10
153.1209
 20
134.5417
  0
VERTEX
  8
LAYER_1
 10
153.2475
 20
134.8793
  0
VERTEX
  8
LAYER_1
 10
153.3741
 20
135.2169
  0
VERTEX
  8
LAYER_1
 10
153.5007
 20
135.5755
  0
VERTEX
  8
LAYER_1
 10
153.6273
 20
135.9132
  0
VERTEX
  8
LAYER_1
 10
153.7327
 20
136.2718
  0
VERTEX
  8
LAYER_1
 10
153.8382
 20
136.6304
  0
VERTEX
  8
LAYER_1
 10
153.9648
 20
136.968
  0
VERTEX
  8
LAYER_1
 10
154.0704
 20
137.3267
  0
VERTEX
  8
LAYER_1
 10
154.1758
 20
137.6853
  0
VERTEX
  8
LAYER_1
 10
154.2602
 20
138.0439
  0
VERTEX
  8
LAYER_1
 10
154.3656
 20
138.3816
  0
VERTEX
  8
LAYER_1
 10
154.45
 20
138.7402
  0
VERTEX
  8
LAYER_1
 10
154.5554
 20
139.0988
  0
VERTEX
  8
LAYER_1
 10
154.6398
 20
139.4575
  0
VERTEX
  8
LAYER_1
 10
154.7242
 20
139.8161
  0
VERTEX
  8
LAYER_1
 10
154.8086
 20
140.1751
  0
VERTEX
  8
LAYER_1
 10
154.8719
 20
140.5337
  0
VERTEX
  8
LAYER_1
 10
154.9563
 20
140.8923
  0
VERTEX
  8
LAYER_1
 10
155.0197
 20
141.251
  0
VERTEX
  8
LAYER_1
 10
155.1041
 20
141.6306
  0
VERTEX
  8
LAYER_1
 10
155.1673
 20
141.9893
  0
VERTEX
  8
LAYER_1
 10
155.2305
 20
142.3479
  0
VERTEX
  8
LAYER_1
 10
155.2727
 20
142.7069
  0
VERTEX
  8
LAYER_1
 10
155.3361
 20
143.0655
  0
VERTEX
  8
LAYER_1
 10
155.3993
 20
143.4452
  0
VERTEX
  8
LAYER_1
 10
155.4415
 20
143.8038
  0
VERTEX
  8
LAYER_1
 10
155.4837
 20
144.1624
  0
VERTEX
  8
LAYER_1
 10
155.5259
 20
144.5424
  0
VERTEX
  8
LAYER_1
 10
155.5681
 20
144.9011
  0
VERTEX
  8
LAYER_1
 10
155.6103
 20
145.2597
  0
VERTEX
  8
LAYER_1
 10
155.6315
 20
145.6393
  0
VERTEX
  8
LAYER_1
 10
155.6735
 20
145.998
  0
VERTEX
  8
LAYER_1
 10
155.6947
 20
146.3566
  0
VERTEX
  8
LAYER_1
 10
155.7157
 20
146.7366
  0
VERTEX
  8
LAYER_1
 10
155.7369
 20
147.0952
  0
VERTEX
  8
LAYER_1
 10
155.7579
 20
147.4749
  0
VERTEX
  8
LAYER_1
 10
155.7791
 20
147.8335
  0
VERTEX
  8
LAYER_1
 10
155.7791
 20
148.2133
  0
VERTEX
  8
LAYER_1
 10
155.8001
 20
148.572
  0
VERTEX
  8
LAYER_1
 10
155.8001
 20
149.3104
  0
SEQEND
  0
POLYLINE
  8
LAYER_1
 40
0.1235
 41
0.1235
 66
1
 10
0
 20
0
 30
0
  0
VERTEX
  8
LAYER_1
 10
252.9486
 20
215.9811
  0
VERTEX
  8
LAYER_1
 10
253.2862
 20
215.8123
  0
VERTEX
  8
LAYER_1
 10
253.6024
 20
215.6435
  0
VERTEX
  8
LAYER_1
 10
253.9401
 20
215.4747
  0
VERTEX
  8
LAYER_1
 10
254.2777
 20
215.3059
  0
VERTEX
  8
LAYER_1
 10
254.5943
 20
215.1583
  0
VERTEX
  8
LAYER_1
 10
254.9316
 20
215.0105
  0
VERTEX
  8
LAYER_1
 10
255.2692
 20
214.8417
  0
VERTEX
  8
LAYER_1
 10
255.6068
 20
214.694
  0
VERTEX
  8
LAYER_1
 10
255.9444
 20
214.5464
  0
VERTEX
  8
LAYER_1
 10
256.2817
 20
214.3986
  0
VERTEX
  8
LAYER_1
 10
256.6193
 20
214.251
  0
VERTEX
  8
LAYER_1
 10
256.9569
 20
214.1034
  0
VERTEX
  8
LAYER_1
 10
257.2945
 20
213.9556
  0
VERTEX
  8
LAYER_1
 10
257.6318
 20
213.829
  0
VERTEX
  8
LAYER_1
 10
257.9694
 20
213.6814
  0
VERTEX
  8
LAYER_1
 10
258.3281
 20
213.5548
  0
VERTEX
  8
LAYER_1
 10
258.6657
 20
213.4071
  0
VERTEX
  8
LAYER_1
 10
259.0033
 20
213.2805
  0
VERTEX
  8
LAYER_1
 10
259.3409
 20
213.1539
  0
VERTEX
  8
LAYER_1
 10
259.6996
 20
213.0273
  0
VERTEX
  8
LAYER_1
 10
260.0368
 20
212.9007
  0
VERTEX
  8
LAYER_1
 10
260.3955
 20
212.7741
  0
VERTEX
  8
LAYER_1
 10
260.7331
 20
212.6687
  0
VERTEX
  8
LAYER_1
 10
261.0917
 20
212.5421
  0
VERTEX
  8
LAYER_1
 10
261.4293
 20
212.4155
  0
VERTEX
  8
LAYER_1
 10
261.788
 20
212.31
  0
VERTEX
  8
LAYER_1
 10
262.1256
 20
212.2044
  0
VERTEX
  8
LAYER_1
 10
262.4842
 20
212.099
  0
VERTEX
  8
LAYER_1
 10
262.8429
 20
211.9724
  0
VERTEX
  8
LAYER_1
 10
263.2015
 20
211.8668
  0
VERTEX
  8
LAYER_1
 10
263.5388
 20
211.7824
  0
VERTEX
  8
LAYER_1
 10
263.8978
 20
211.677
  0
VERTEX
  8
LAYER_1
 10
264.256
 20
211.5716
  0
VERTEX
  8
LAYER_1
 10
264.615
 20
211.4872
  0
VERTEX
  8
LAYER_1
 10
264.9737
 20
211.3816
  0
VERTEX
  8
LAYER_1
 10
265.3323
 20
211.2972
  0
VERTEX
  8
LAYER_1
 10
265.6909
 20
211.2129
  0
VERTEX
  8
LAYER_1
 10
266.0282
 20
211.1074
  0
VERTEX
  8
LAYER_1
 10
266.3868
 20
211.023
  0
VERTEX
  8
LAYER_1
 10
266.7455
 20
210.9385
  0
VERTEX
  8
LAYER_1
 10
267.1041
 20
210.8753
  0
VERTEX
  8
LAYER_1
 10
267.4841
 20
210.7909
  0
VERTEX
  8
LAYER_1
 10
267.8427
 20
210.7065
  0
VERTEX
  8
LAYER_1
 10
268.2014
 20
210.6431
  0
VERTEX
  8
LAYER_1
 10
268.56
 20
210.5799
  0
VERTEX
  8
LAYER_1
 10
268.9186
 20
210.4955
  0
VERTEX
  8
LAYER_1
 10
269.2773
 20
210.4323
  0
VERTEX
  8
LAYER_1
 10
269.6359
 20
210.3689
  0
VERTEX
  8
LAYER_1
 10
270.0156
 20
210.3057
  0
VERTEX
  8
LAYER_1
 10
270.3742
 20
210.2423
  0
VERTEX
  8
LAYER_1
 10
270.7328
 20
210.1791
  0
VERTEX
  8
LAYER_1
 10
271.0915
 20
210.1369
  0
VERTEX
  8
LAYER_1
 10
271.4711
 20
210.0735
  0
VERTEX
  8
LAYER_1
 10
271.8297
 20
210.0313
  0
VERTEX
  8
LAYER_1
 10
272.1884
 20
209.9892
  0
VERTEX
  8
LAYER_1
 10
272.547
 20
209.9259
  0
VERTEX
  8
LAYER_1
 10
272.9267
 20
209.8837
  0
VERTEX
  8
LAYER_1
 10
273.2853
 20
209.8415
  0
VERTEX
  8
LAYER_1
 10
273.6439
 20
209.7993
  0
VERTEX
  8
LAYER_1
 10
274.0239
 20
209.7782
  0
VERTEX
  8
LAYER_1
 10
274.3826
 20
209.736
  0
VERTEX
  8
LAYER_1
 10
274.7622
 20
209.7148
  0
VERTEX
  8
LAYER_1
 10
275.1208
 20
209.6726
  0
VERTEX
  8
LAYER_1
 10
275.4795
 20
209.6516
  0
VERTEX
  8
LAYER_1
 10
275.8591
 20
209.6304
  0
VERTEX
  8
LAYER_1
 10
276.2178
 20
209.5882
  0
VERTEX
  8
LAYER_1
 10
276.5974
 20
209.5672
  0
VERTEX
  8
LAYER_1
 10
276.956
 20
209.5672
  0
VERTEX
  8
LAYER_1
 10
277.3147
 20
209.546
  0
VERTEX
  8
LAYER_1
 10
277.6947
 20
209.525
  0
VERTEX
  8
LAYER_1
 10
278.0533
 20
209.525
  0
VERTEX
  8
LAYER_1
 10
278.433
 20
209.5038
  0
VERTEX
  8
LAYER_1
 10
279.1712
 20
209.5038
  0
VERTEX
  8
LAYER_1
 10
279.5299
 20
209.4828
  0
VERTEX
  8
LAYER_1
 10
279.9095
 20
209.4828
  0
VERTEX
  8
LAYER_1
 10
280.2682
 20
209.5038
  0
VERTEX
  8
LAYER_1
 10
281.0068
 20
209.5038
  0
VERTEX
  8
LAYER_1
 10
281.3654
 20
209.525
  0
VERTEX
  8
LAYER_1
 10
281.6397
 20
209.525
  0
SEQEND
  0
POLYLINE
  8
LAYER_1
 40
0.1235
 41
0.1235
 66
1
 10
0
 20
0
 30
0
  0
VERTEX
  8
LAYER_1
 10
241.1136
 20
224.547
  0
VERTEX
  8
LAYER_1
 10
241.3668
 20
224.2726
  0
VERTEX
  8
LAYER_1
 10
241.6411
 20
224.0196
  0
VERTEX
  8
LAYER_1
 10
241.8943
 20
223.7664
  0
VERTEX
  8
LAYER_1
 10
242.1685
 20
223.5131
  0
VERTEX
  8
LAYER_1
 10
242.4217
 20
223.2599
  0
VERTEX
  8
LAYER_1
 10
242.696
 20
223.0069
  0
VERTEX
  8
LAYER_1
 10
242.9702
 20
222.7537
  0
VERTEX
  8
LAYER_1
 10
243.2444
 20
222.5215
  0
VERTEX
  8
LAYER_1
 10
243.5186
 20
222.2684
  0
VERTEX
  8
LAYER_1
 10
243.7929
 20
222.0362
  0
VERTEX
  8
LAYER_1
 10
244.0881
 20
221.7832
  0
VERTEX
  8
LAYER_1
 10
244.3623
 20
221.551
  0
VERTEX
  8
LAYER_1
 10
244.6366
 20
221.319
  0
VERTEX
  8
LAYER_1
 10
244.9322
 20
221.0869
  0
VERTEX
  8
LAYER_1
 10
245.2274
 20
220.8547
  0
VERTEX
  8
LAYER_1
 10
245.5016
 20
220.6227
  0
VERTEX
  8
LAYER_1
 10
245.7969
 20
220.4117
  0
VERTEX
  8
LAYER_1
 10
246.0925
 20
220.1797
  0
VERTEX
  8
LAYER_1
 10
246.3877
 20
219.9687
  0
VERTEX
  8
LAYER_1
 10
246.683
 20
219.7576
  0
VERTEX
  8
LAYER_1
 10
246.9996
 20
219.5256
  0
VERTEX
  8
LAYER_1
 10
247.2948
 20
219.3146
  0
VERTEX
  8
LAYER_1
 10
247.5901
 20
219.1036
  0
VERTEX
  8
LAYER_1
 10
247.9067
 20
218.9138
  0
VERTEX
  8
LAYER_1
 10
248.2019
 20
218.7028
  0
VERTEX
  8
LAYER_1
 10
248.5185
 20
218.4917
  0
VERTEX
  8
LAYER_1
 10
248.8138
 20
218.3019
  0
VERTEX
  8
LAYER_1
 10
249.13
 20
218.1119
  0
VERTEX
  8
LAYER_1
 10
249.4466
 20
217.9011
  0
VERTEX
  8
LAYER_1
 10
249.7632
 20
217.7111
  0
VERTEX
  8
LAYER_1
 10
250.0795
 20
217.5213
  0
VERTEX
  8
LAYER_1
 10
250.3961
 20
217.3525
  0
VERTEX
  8
LAYER_1
 10
250.7123
 20
217.1626
  0
VERTEX
  8
LAYER_1
 10
251.0289
 20
216.9728
  0
VERTEX
  8
LAYER_1
 10
251.3666
 20
216.804
  0
VERTEX
  8
LAYER_1
 10
251.6828
 20
216.6352
  0
VERTEX
  8
LAYER_1
 10
251.9994
 20
216.4452
  0
VERTEX
  8
LAYER_1
 10
252.3367
 20
216.2764
  0
VERTEX
  8
LAYER_1
 10
252.6533
 20
216.1077
  0
VERTEX
  8
LAYER_1
 10
252.9486
 20
215.9811
  0
SEQEND
  0
POLYLINE
  8
LAYER_1
 40
0.1235
 41
0.1235
 66
1
 10
0
 20
0
 30
0
  0
VERTEX
  8
LAYER_1
 10
237.4639
 20
226.066
  0
VERTEX
  8
LAYER_1
 10
237.5907
 20
225.7073
  0
VERTEX
  8
LAYER_1
 10
237.7171
 20
225.3697
  0
VERTEX
  8
LAYER_1
 10
237.8649
 20
225.0323
  0
VERTEX
  8
LAYER_1
 10
237.9913
 20
224.6946
  0
VERTEX
  8
LAYER_1
 10
238.1391
 20
224.336
  0
VERTEX
  8
LAYER_1
 10
238.2866
 20
223.9984
  0
VERTEX
  8
LAYER_1
 10
238.4344
 20
223.6608
  0
VERTEX
  8
LAYER_1
 10
238.5822
 20
223.3233
  0
VERTEX
  8
LAYER_1
 10
238.7296
 20
222.9857
  0
VERTEX
  8
LAYER_1
 10
238.8774
 20
222.6693
  0
VERTEX
  8
LAYER_1
 10
239.0462
 20
222.3316
  0
VERTEX
  8
LAYER_1
 10
239.1937
 20
221.994
  0
VERTEX
  8
LAYER_1
 10
239.3625
 20
221.6564
  0
VERTEX
  8
LAYER_1
 10
239.5103
 20
221.34
  0
VERTEX
  8
LAYER_1
 10
239.6791
 20
221.0025
  0
VERTEX
  8
LAYER_1
 10
239.8479
 20
220.6859
  0
VERTEX
  8
LAYER_1
 10
240.0377
 20
220.3483
  0
VERTEX
  8
LAYER_1
 10
240.2065
 20
220.0319
  0
VERTEX
  8
LAYER_1
 10
240.3753
 20
219.6944
  0
VERTEX
  8
LAYER_1
 10
240.5652
 20
219.3778
  0
VERTEX
  8
LAYER_1
 10
240.734
 20
219.0614
  0
VERTEX
  8
LAYER_1
 10
240.9238
 20
218.745
  0
VERTEX
  8
LAYER_1
 10
241.1136
 20
218.4284
  0
VERTEX
  8
LAYER_1
 10
241.3034
 20
218.1119
  0
VERTEX
  8
LAYER_1
 10
241.4933
 20
217.7955
  0
VERTEX
  8
LAYER_1
 10
241.6831
 20
217.4791
  0
VERTEX
  8
LAYER_1
 10
241.8729
 20
217.1626
  0
VERTEX
  8
LAYER_1
 10
242.0841
 20
216.8672
  0
VERTEX
  8
LAYER_1
 10
242.2739
 20
216.5508
  0
VERTEX
  8
LAYER_1
 10
242.4848
 20
216.2554
  0
VERTEX
  8
LAYER_1
 10
242.696
 20
215.9389
  0
VERTEX
  8
LAYER_1
 10
242.9068
 20
215.6435
  0
VERTEX
  8
LAYER_1
 10
243.1176
 20
215.3271
  0
VERTEX
  8
LAYER_1
 10
243.3288
 20
215.0317
  0
VERTEX
  8
LAYER_1
 10
243.5397
 20
214.7362
  0
VERTEX
  8
LAYER_1
 10
243.7505
 20
214.4408
  0
VERTEX
  8
LAYER_1
 10
243.9827
 20
214.1454
  0
VERTEX
  8
LAYER_1
 10
244.1935
 20
213.8502
  0
VERTEX
  8
LAYER_1
 10
244.4257
 20
213.5548
  0
VERTEX
  8
LAYER_1
 10
244.6576
 20
213.2805
  0
VERTEX
  8
LAYER_1
 10
244.8898
 20
212.9851
  0
VERTEX
  8
LAYER_1
 10
245.122
 20
212.6897
  0
VERTEX
  8
LAYER_1
 10
245.3538
 20
212.4155
  0
VERTEX
  8
LAYER_1
 10
245.586
 20
212.12
  0
VERTEX
  8
LAYER_1
 10
245.8179
 20
211.8458
  0
VERTEX
  8
LAYER_1
 10
246.0711
 20
211.5716
  0
VERTEX
  8
LAYER_1
 10
246.3033
 20
211.2972
  0
VERTEX
  8
LAYER_1
 10
246.5565
 20
211.023
  0
VERTEX
  8
LAYER_1
 10
246.7884
 20
210.7487
  0
VERTEX
  8
LAYER_1
 10
247.0416
 20
210.4743
  0
VERTEX
  8
LAYER_1
 10
247.2948
 20
210.2001
  0
VERTEX
  8
LAYER_1
 10
247.548
 20
209.9469
  0
VERTEX
  8
LAYER_1
 10
247.8012
 20
209.6726
  0
VERTEX
  8
LAYER_1
 10
248.0541
 20
209.3984
  0
VERTEX
  8
LAYER_1
 10
248.3287
 20
209.1452
  0
VERTEX
  8
LAYER_1
 10
248.5816
 20
208.892
  0
VERTEX
  8
LAYER_1
 10
248.8558
 20
208.6388
  0
VERTEX
  8
LAYER_1
 10
249.109
 20
208.3857
  0
VERTEX
  8
LAYER_1
 10
249.3832
 20
208.1325
  0
VERTEX
  8
LAYER_1
 10
249.6575
 20
207.8793
  0
VERTEX
  8
LAYER_1
 10
249.9317
 20
207.6261
  0
VERTEX
  8
LAYER_1
 10
250.2063
 20
207.3729
  0
VERTEX
  8
LAYER_1
 10
250.4805
 20
207.1408
  0
VERTEX
  8
LAYER_1
 10
250.7547
 20
206.8876
  0
VERTEX
  8
LAYER_1
 10
251.0289
 20
206.6556
  0
VERTEX
  8
LAYER_1
 10
251.3032
 20
206.4024
  0
VERTEX
  8
LAYER_1
 10
251.5984
 20
206.1704
  0
VERTEX
  8
LAYER_1
 10
251.8727
 20
205.9382
  0
VERTEX
  8
LAYER_1
 10
252.1679
 20
205.7061
  0
VERTEX
  8
LAYER_1
 10
252.4421
 20
205.4741
  0
VERTEX
  8
LAYER_1
 10
252.7377
 20
205.2631
  0
VERTEX
  8
LAYER_1
 10
253.033
 20
205.0311
  0
VERTEX
  8
LAYER_1
 10
253.3282
 20
204.7989
  0
VERTEX
  8
LAYER_1
 10
253.6238
 20
204.588
  0
VERTEX
  8
LAYER_1
 10
253.919
 20
204.377
  0
VERTEX
  8
LAYER_1
 10
254.2143
 20
204.145
  0
VERTEX
  8
LAYER_1
 10
254.5099
 20
203.934
  0
VERTEX
  8
LAYER_1
 10
254.8261
 20
203.723
  0
VERTEX
  8
LAYER_1
 10
255.1214
 20
203.512
  0
VERTEX
  8
LAYER_1
 10
255.417
 20
203.3221
  0
VERTEX
  8
LAYER_1
 10
255.7332
 20
203.1111
  0
VERTEX
  8
LAYER_1
 10
256.0498
 20
202.9001
  0
VERTEX
  8
LAYER_1
 10
256.3451
 20
202.7103
  0
VERTEX
  8
LAYER_1
 10
256.6617
 20
202.5203
  0
VERTEX
  8
LAYER_1
 10
256.9779
 20
202.3305
  0
VERTEX
  8
LAYER_1
 10
257.2945
 20
202.1194
  0
VERTEX
  8
LAYER_1
 10
257.6108
 20
201.9506
  0
VERTEX
  8
LAYER_1
 10
257.9274
 20
201.7608
  0
VERTEX
  8
LAYER_1
 10
258.2437
 20
201.5708
  0
VERTEX
  8
LAYER_1
 10
258.5603
 20
201.381
  0
VERTEX
  8
LAYER_1
 10
258.8765
 20
201.2122
  0
VERTEX
  8
LAYER_1
 10
259.2142
 20
201.0434
  0
VERTEX
  8
LAYER_1
 10
259.5308
 20
200.8535
  0
VERTEX
  8
LAYER_1
 10
259.868
 20
200.6847
  0
VERTEX
  8
LAYER_1
 10
260.1846
 20
200.5159
  0
VERTEX
  8
LAYER_1
 10
260.5223
 20
200.3471
  0
VERTEX
  8
LAYER_1
 10
260.8385
 20
200.1785
  0
VERTEX
  8
LAYER_1
 10
261.1761
 20
200.0307
  0
VERTEX
  8
LAYER_1
 10
261.5138
 20
199.8619
  0
VERTEX
  8
LAYER_1
 10
261.8514
 20
199.7143
  0
VERTEX
  8
LAYER_1
 10
262.1676
 20
199.5666
  0
VERTEX
  8
LAYER_1
 10
262.5053
 20
199.4188
  0
VERTEX
  8
LAYER_1
 10
262.8429
 20
199.25
  0
VERTEX
  8
LAYER_1
 10
263.1801
 20
199.1234
  0
VERTEX
  8
LAYER_1
 10
263.5178
 20
198.9758
  0
VERTEX
  8
LAYER_1
 10
263.8764
 20
198.8282
  0
VERTEX
  8
LAYER_1
 10
264.214
 20
198.7016
  0
VERTEX
  8
LAYER_1
 10
264.5516
 20
198.5539
  0
VERTEX
  8
LAYER_1
 10
264.8893
 20
198.4273
  0
VERTEX
  8
LAYER_1
 10
265.2479
 20
198.3007
  0
VERTEX
  8
LAYER_1
 10
265.5852
 20
198.1741
  0
VERTEX
  8
LAYER_1
 10
265.9228
 20
198.0475
  0
VERTEX
  8
LAYER_1
 10
266.2814
 20
197.9209
  0
VERTEX
  8
LAYER_1
 10
266.619
 20
197.8155
  0
VERTEX
  8
LAYER_1
 10
266.9777
 20
197.6889
  0
VERTEX
  8
LAYER_1
 10
267.3363
 20
197.5833
  0
VERTEX
  8
LAYER_1
 10
267.6739
 20
197.4567
  0
VERTEX
  8
LAYER_1
 10
268.0326
 20
197.3513
  0
VERTEX
  8
LAYER_1
 10
268.3912
 20
197.2458
  0
VERTEX
  8
LAYER_1
 10
268.7285
 20
197.1614
  0
VERTEX
  8
LAYER_1
 10
269.0871
 20
197.0558
  0
VERTEX
  8
LAYER_1
 10
269.4457
 20
196.9504
  0
VERTEX
  8
LAYER_1
 10
269.8047
 20
196.866
  0
VERTEX
  8
LAYER_1
 10
270.163
 20
196.7604
  0
VERTEX
  8
LAYER_1
 10
270.522
 20
196.676
  0
VERTEX
  8
LAYER_1
 10
270.8803
 20
196.5916
  0
VERTEX
  8
LAYER_1
 10
271.2393
 20
196.5074
  0
VERTEX
  8
LAYER_1
 10
271.5975
 20
196.444
  0
VERTEX
  8
LAYER_1
 10
271.9565
 20
196.3596
  0
VERTEX
  8
LAYER_1
 10
272.3148
 20
196.2752
  0
VERTEX
  8
LAYER_1
 10
272.6738
 20
196.212
  0
VERTEX
  8
LAYER_1
 10
273.0324
 20
196.1486
  0
VERTEX
  8
LAYER_1
 10
273.3911
 20
196.0854
  0
VERTEX
  8
LAYER_1
 10
273.7707
 20
196.0221
  0
VERTEX
  8
LAYER_1
 10
274.1293
 20
195.9588
  0
VERTEX
  8
LAYER_1
 10
274.488
 20
195.8955
  0
VERTEX
  8
LAYER_1
 10
274.8466
 20
195.8321
  0
VERTEX
  8
LAYER_1
 10
275.2263
 20
195.7899
  0
VERTEX
  8
LAYER_1
 10
275.5849
 20
195.7477
  0
VERTEX
  8
LAYER_1
 10
275.9435
 20
195.7055
  0
VERTEX
  8
LAYER_1
 10
276.3232
 20
195.6423
  0
VERTEX
  8
LAYER_1
 10
276.6818
 20
195.6211
  0
VERTEX
  8
LAYER_1
 10
277.0405
 20
195.5789
  0
VERTEX
  8
LAYER_1
 10
277.4204
 20
195.5367
  0
VERTEX
  8
LAYER_1
 10
277.7791
 20
195.5157
  0
VERTEX
  8
LAYER_1
 10
278.1377
 20
195.4735
  0
VERTEX
  8
LAYER_1
 10
278.5174
 20
195.4523
  0
VERTEX
  8
LAYER_1
 10
278.876
 20
195.4313
  0
VERTEX
  8
LAYER_1
 10
279.2557
 20
195.4103
  0
VERTEX
  8
LAYER_1
 10
279.6143
 20
195.3891
  0
VERTEX
  8
LAYER_1
 10
279.9939
 20
195.3891
  0
VERTEX
  8
LAYER_1
 10
280.3526
 20
195.3679
  0
VERTEX
  8
LAYER_1
 10
280.7112
 20
195.3679
  0
VERTEX
  8
LAYER_1
 10
281.0912
 20
195.3469
  0
VERTEX
  8
LAYER_1
 10
282.1881
 20
195.3469
  0
VERTEX
  8
LAYER_1
 10
282.5678
 20
195.3679
  0
VERTEX
  8
LAYER_1
 10
283.306
 20
195.3679
  0
VERTEX
  8
LAYER_1
 10
283.6647
 20
195.3891
  0
VERTEX
  8
LAYER_1
 10
284.0233
 20
195.4103
  0
VERTEX
  8
LAYER_1
 10
284.4033
 20
195.4313
  0
VERTEX
  8
LAYER_1
 10
284.7619
 20
195.4523
  0
VERTEX
  8
LAYER_1
 10
285.1416
 20
195.4735
  0
VERTEX
  8
LAYER_1
 10
285.5002
 20
195.5157
  0
VERTEX
  8
LAYER_1
 10
285.8799
 20
195.5367
  0
VERTEX
  8
LAYER_1
 10
286.2385
 20
195.5789
  0
VERTEX
  8
LAYER_1
 10
286.5971
 20
195.6001
  0
VERTEX
  8
LAYER_1
 10
286.9768
 20
195.6423
  0
VERTEX
  8
LAYER_1
 10
287.3354
 20
195.6845
  0
VERTEX
  8
LAYER_1
 10
287.6941
 20
195.7477
  0
VERTEX
  8
LAYER_1
 10
288.0741
 20
195.7899
  0
VERTEX
  8
LAYER_1
 10
288.4327
 20
195.8321
  0
VERTEX
  8
LAYER_1
 10
288.7913
 20
195.8955
  0
VERTEX
  8
LAYER_1
 10
289.15
 20
195.9588
  0
VERTEX
  8
LAYER_1
 10
289.5296
 20
196.001
  0
VERTEX
  8
LAYER_1
 10
289.8882
 20
196.0642
  0
VERTEX
  8
LAYER_1
 10
290.2469
 20
196.1486
  0
VERTEX
  8
LAYER_1
 10
290.6055
 20
196.212
  0
VERTEX
  8
LAYER_1
 10
290.9642
 20
196.2752
  0
VERTEX
  8
LAYER_1
 10
291.3228
 20
196.3596
  0
VERTEX
  8
LAYER_1
 10
291.6814
 20
196.423
  0
VERTEX
  8
LAYER_1
 10
292.0401
 20
196.5074
  0
VERTEX
  8
LAYER_1
 10
292.3987
 20
196.5916
  0
VERTEX
  8
LAYER_1
 10
292.7573
 20
196.676
  0
VERTEX
  8
LAYER_1
 10
293.116
 20
196.7604
  0
VERTEX
  8
LAYER_1
 10
293.4746
 20
196.866
  0
VERTEX
  8
LAYER_1
 10
293.8332
 20
196.9504
  0
VERTEX
  8
LAYER_1
 10
294.1919
 20
197.0558
  0
VERTEX
  8
LAYER_1
 10
294.5505
 20
197.1402
  0
VERTEX
  8
LAYER_1
 10
294.9091
 20
197.2458
  0
VERTEX
  8
LAYER_1
 10
295.2468
 20
197.3513
  0
VERTEX
  8
LAYER_1
 10
295.6054
 20
197.4567
  0
VERTEX
  8
LAYER_1
 10
295.964
 20
197.5623
  0
VERTEX
  8
LAYER_1
 10
296.3016
 20
197.6889
  0
VERTEX
  8
LAYER_1
 10
296.6603
 20
197.7943
  0
VERTEX
  8
LAYER_1
 10
296.9975
 20
197.9209
  0
VERTEX
  8
LAYER_1
 10
297.3562
 20
198.0475
  0
VERTEX
  8
LAYER_1
 10
297.6938
 20
198.1741
  0
VERTEX
  8
LAYER_1
 10
298.0524
 20
198.3007
  0
VERTEX
  8
LAYER_1
 10
298.3901
 20
198.4273
  0
VERTEX
  8
LAYER_1
 10
298.7277
 20
198.5539
  0
VERTEX
  8
LAYER_1
 10
299.0649
 20
198.6804
  0
VERTEX
  8
LAYER_1
 10
299.4236
 20
198.8282
  0
VERTEX
  8
LAYER_1
 10
299.7612
 20
198.9758
  0
VERTEX
  8
LAYER_1
 10
300.0988
 20
199.1024
  0
VERTEX
  8
LAYER_1
 10
300.4364
 20
199.25
  0
VERTEX
  8
LAYER_1
 10
300.7741
 20
199.3978
  0
VERTEX
  8
LAYER_1
 10
301.1113
 20
199.5454
  0
VERTEX
  8
LAYER_1
 10
301.449
 20
199.7143
  0
VERTEX
  8
LAYER_1
 10
301.7866
 20
199.8619
  0
VERTEX
  8
LAYER_1
 10
302.1028
 20
200.0307
  0
VERTEX
  8
LAYER_1
 10
302.4405
 20
200.1785
  0
VERTEX
  8
LAYER_1
 10
302.7781
 20
200.3471
  0
VERTEX
  8
LAYER_1
 10
303.0943
 20
200.5159
  0
VERTEX
  8
LAYER_1
 10
303.432
 20
200.6847
  0
VERTEX
  8
LAYER_1
 10
303.7486
 20
200.8535
  0
VERTEX
  8
LAYER_1
 10
304.0862
 20
201.0224
  0
VERTEX
  8
LAYER_1
 10
304.4024
 20
201.2122
  0
VERTEX
  8
LAYER_1
 10
304.7187
 20
201.381
  0
VERTEX
  8
LAYER_1
 10
305.0353
 20
201.5708
  0
VERTEX
  8
LAYER_1
 10
305.3519
 20
201.7396
  0
VERTEX
  8
LAYER_1
 10
305.6682
 20
201.9296
  0
VERTEX
  8
LAYER_1
 10
305.9848
 20
202.1194
  0
VERTEX
  8
LAYER_1
 10
306.301
 20
202.3094
  0
VERTEX
  8
LAYER_1
 10
306.6176
 20
202.4993
  0
VERTEX
  8
LAYER_1
 10
306.9339
 20
202.7103
  0
VERTEX
  8
LAYER_1
 10
307.2505
 20
202.9001
  0
VERTEX
  8
LAYER_1
 10
307.5457
 20
203.1111
  0
VERTEX
  8
LAYER_1
 10
307.8623
 20
203.3009
  0
VERTEX
  8
LAYER_1
 10
308.1576
 20
203.512
  0
VERTEX
  8
LAYER_1
 10
308.4742
 20
203.723
  0
VERTEX
  8
LAYER_1
 10
308.7694
 20
203.934
  0
VERTEX
  8
LAYER_1
 10
309.0647
 20
204.145
  0
VERTEX
  8
LAYER_1
 10
309.3599
 20
204.3558
  0
VERTEX
  8
LAYER_1
 10
309.6555
 20
204.5668
  0
VERTEX
  8
LAYER_1
 10
309.9508
 20
204.7989
  0
VERTEX
  8
LAYER_1
 10
310.246
 20
205.0099
  0
VERTEX
  8
LAYER_1
 10
310.5416
 20
205.2421
  0
VERTEX
  8
LAYER_1
 10
310.8368
 20
205.4741
  0
VERTEX
  8
LAYER_1
 10
311.1321
 20
205.7061
  0
VERTEX
  8
LAYER_1
 10
311.4063
 20
205.9382
  0
VERTEX
  8
LAYER_1
 10
311.7019
 20
206.1704
  0
VERTEX
  8
LAYER_1
 10
311.9761
 20
206.4024
  0
VERTEX
  8
LAYER_1
 10
312.2504
 20
206.6344
  0
VERTEX
  8
LAYER_1
 10
312.5456
 20
206.8876
  0
VERTEX
  8
LAYER_1
 10
312.8198
 20
207.1198
  0
VERTEX
  8
LAYER_1
 10
313.0941
 20
207.3729
  0
VERTEX
  8
LAYER_1
 10
313.3683
 20
207.6051
  0
VERTEX
  8
LAYER_1
 10
313.6425
 20
207.8581
  0
VERTEX
  8
LAYER_1
 10
313.8957
 20
208.1113
  0
VERTEX
  8
LAYER_1
 10
314.17
 20
208.3645
  0
VERTEX
  8
LAYER_1
 10
314.4442
 20
208.6178
  0
VERTEX
  8
LAYER_1
 10
314.6974
 20
208.871
  0
VERTEX
  8
LAYER_1
 10
314.9716
 20
209.1452
  0
VERTEX
  8
LAYER_1
 10
315.2249
 20
209.3984
  0
VERTEX
  8
LAYER_1
 10
315.4781
 20
209.6516
  0
VERTEX
  8
LAYER_1
 10
315.7313
 20
209.9259
  0
VERTEX
  8
LAYER_1
 10
315.9842
 20
210.2001
  0
VERTEX
  8
LAYER_1
 10
316.2374
 20
210.4533
  0
VERTEX
  8
LAYER_1
 10
316.4906
 20
210.7275
  0
VERTEX
  8
LAYER_1
 10
316.7438
 20
211.0018
  0
VERTEX
  8
LAYER_1
 10
316.9757
 20
211.2762
  0
VERTEX
  8
LAYER_1
 10
317.2289
 20
211.5504
  0
VERTEX
  8
LAYER_1
 10
317.4611
 20
211.8458
  0
VERTEX
  8
LAYER_1
 10
317.6933
 20
212.12
  0
VERTEX
  8
LAYER_1
 10
317.9461
 20
212.3943
  0
VERTEX
  8
LAYER_1
 10
318.1783
 20
212.6897
  0
VERTEX
  8
LAYER_1
 10
318.4105
 20
212.9639
  0
VERTEX
  8
LAYER_1
 10
318.6424
 20
213.2593
  0
VERTEX
  8
LAYER_1
 10
318.8532
 20
213.5548
  0
VERTEX
  8
LAYER_1
 10
319.0854
 20
213.8502
  0
VERTEX
  8
LAYER_1
 10
319.3176
 20
214.1244
  0
VERTEX
  8
LAYER_1
 10
319.5285
 20
214.4198
  0
VERTEX
  8
LAYER_1
 10
319.7393
 20
214.7152
  0
VERTEX
  8
LAYER_1
 10
319.9715
 20
215.0317
  0
VERTEX
  8
LAYER_1
 10
320.1824
 20
215.3271
  0
VERTEX
  8
LAYER_1
 10
320.3935
 20
215.6223
  0
VERTEX
  8
LAYER_1
 10
320.6044
 20
215.9389
  0
VERTEX
  8
LAYER_1
 10
320.7942
 20
216.2342
  0
VERTEX
  8
LAYER_1
 10
321.0054
 20
216.5508
  0
VERTEX
  8
LAYER_1
 10
321.2162
 20
216.846
  0
VERTEX
  8
LAYER_1
 10
321.406
 20
217.1626
  0
VERTEX
  8
LAYER_1
 10
321.5959
 20
217.4791
  0
VERTEX
  8
LAYER_1
 10
321.8071
 20
217.7745
  0
VERTEX
  8
LAYER_1
 10
321.9969
 20
218.0909
  0
VERTEX
  8
LAYER_1
 10
322.1867
 20
218.4073
  0
VERTEX
  8
LAYER_1
 10
322.3765
 20
218.7238
  0
VERTEX
  8
LAYER_1
 10
322.5453
 20
219.0402
  0
VERTEX
  8
LAYER_1
 10
322.7352
 20
219.3778
  0
VERTEX
  8
LAYER_1
 10
322.904
 20
219.6944
  0
VERTEX
  8
LAYER_1
 10
323.0938
 20
220.0109
  0
VERTEX
  8
LAYER_1
 10
323.2626
 20
220.3483
  0
VERTEX
  8
LAYER_1
 10
323.4314
 20
220.6649
  0
VERTEX
  8
LAYER_1
 10
323.5999
 20
220.9813
  0
VERTEX
  8
LAYER_1
 10
323.7687
 20
221.319
  0
VERTEX
  8
LAYER_1
 10
323.9375
 20
221.6564
  0
VERTEX
  8
LAYER_1
 10
324.1063
 20
221.973
  0
VERTEX
  8
LAYER_1
 10
324.2541
 20
222.3105
  0
VERTEX
  8
LAYER_1
 10
324.4019
 20
222.6481
  0
VERTEX
  8
LAYER_1
 10
324.5704
 20
222.9857
  0
VERTEX
  8
LAYER_1
 10
324.7182
 20
223.3233
  0
VERTEX
  8
LAYER_1
 10
324.866
 20
223.6608
  0
VERTEX
  8
LAYER_1
 10
325.0134
 20
223.9984
  0
VERTEX
  8
LAYER_1
 10
325.1612
 20
224.336
  0
VERTEX
  8
LAYER_1
 10
325.2876
 20
224.6736
  0
VERTEX
  8
LAYER_1
 10
325.4354
 20
225.0111
  0
VERTEX
  8
LAYER_1
 10
325.5619
 20
225.3487
  0
VERTEX
  8
LAYER_1
 10
325.7097
 20
225.7073
  0
VERTEX
  8
LAYER_1
 10
325.7941
 20
225.9605
  0
SEQEND
  0
POLYLINE
  8
LAYER_1
 40
0.1235
 41
0.1235
 66
1
 10
0
 20
0
 30
0
  0
VERTEX
  8
LAYER_1
 10
123.5651
 20
149.3104
  0
VERTEX
  8
LAYER_1
 10
123.5651
 20
149.6903
  0
VERTEX
  8
LAYER_1
 10
123.5439
 20
150.0489
  0
VERTEX
  8
LAYER_1
 10
123.5019
 20
150.4075
  0
VERTEX
  8
LAYER_1
 10
123.4596
 20
150.7874
  0
VERTEX
  8
LAYER_1
 10
123.3963
 20
151.146
  0
VERTEX
  8
LAYER_1
 10
123.333
 20
151.5046
  0
VERTEX
  8
LAYER_1
 10
123.2486
 20
151.8634
  0
VERTEX
  8
LAYER_1
 10
123.1432
 20
152.2221
  0
VERTEX
  8
LAYER_1
 10
123.0166
 20
152.5597
  0
VERTEX
  8
LAYER_1
 10
122.89
 20
152.9183
  0
VERTEX
  8
LAYER_1
 10
122.7634
 20
153.2559
  0
VERTEX
  8
LAYER_1
 10
122.6158
 20
153.5934
  0
VERTEX
  8
LAYER_1
 10
122.447
 20
153.91
  0
VERTEX
  8
LAYER_1
 10
122.2782
 20
154.2474
  0
VERTEX
  8
LAYER_1
 10
122.0883
 20
154.5639
  0
VERTEX
  8
LAYER_1
 10
121.8773
 20
154.8593
  0
VERTEX
  8
LAYER_1
 10
121.6665
 20
155.1759
  0
VERTEX
  8
LAYER_1
 10
121.4555
 20
155.4711
  0
VERTEX
  8
LAYER_1
 10
121.2234
 20
155.7455
  0
VERTEX
  8
LAYER_1
 10
120.9702
 20
156.0198
  0
VERTEX
  8
LAYER_1
 10
120.717
 20
156.294
  0
VERTEX
  8
LAYER_1
 10
120.464
 20
156.5472
  0
VERTEX
  8
LAYER_1
 10
120.1897
 20
156.8004
  0
VERTEX
  8
LAYER_1
 10
119.8943
 20
157.0324
  0
VERTEX
  8
LAYER_1
 10
119.6201
 20
157.2645
  0
VERTEX
  8
LAYER_1
 10
119.3247
 20
157.4755
  0
VERTEX
  8
LAYER_1
 10
119.0082
 20
157.6865
  0
VERTEX
  8
LAYER_1
 10
118.6918
 20
157.8763
  0
VERTEX
  8
LAYER_1
 10
118.3754
 20
158.0663
  0
VERTEX
  8
LAYER_1
 10
118.0589
 20
158.2351
  0
VERTEX
  8
LAYER_1
 10
117.7213
 20
158.3828
  0
VERTEX
  8
LAYER_1
 10
117.3839
 20
158.5304
  0
VERTEX
  8
LAYER_1
 10
117.0463
 20
158.6782
  0
VERTEX
  8
LAYER_1
 10
116.6876
 20
158.7836
  0
VERTEX
  8
LAYER_1
 10
116.329
 20
158.9102
  0
VERTEX
  8
LAYER_1
 10
115.9915
 20
158.9946
  0
VERTEX
  8
LAYER_1
 10
115.6329
 20
159.079
  0
VERTEX
  8
LAYER_1
 10
115.2531
 20
159.1422
  0
VERTEX
  8
LAYER_1
 10
114.8945
 20
159.2056
  0
VERTEX
  8
LAYER_1
 10
114.5358
 20
159.2478
  0
VERTEX
  8
LAYER_1
 10
114.1562
 20
159.2688
  0
VERTEX
  8
LAYER_1
 10
113.7975
 20
159.29
  0
VERTEX
  8
LAYER_1
 10
113.4389
 20
159.29
  0
VERTEX
  8
LAYER_1
 10
113.0591
 20
159.2688
  0
VERTEX
  8
LAYER_1
 10
112.7004
 20
159.2478
  0
VERTEX
  8
LAYER_1
 10
112.3208
 20
159.2056
  0
VERTEX
  8
LAYER_1
 10
111.9622
 20
159.1422
  0
VERTEX
  8
LAYER_1
 10
111.6035
 20
159.079
  0
VERTEX
  8
LAYER_1
 10
111.2449
 20
158.9946
  0
VERTEX
  8
LAYER_1
 10
110.8863
 20
158.9102
  0
VERTEX
  8
LAYER_1
 10
110.5276
 20
158.8048
  0
VERTEX
  8
LAYER_1
 10
110.19
 20
158.6782
  0
VERTEX
  8
LAYER_1
 10
109.8526
 20
158.5516
  0
VERTEX
  8
LAYER_1
 10
109.4939
 20
158.4038
  0
VERTEX
  8
LAYER_1
 10
109.1775
 20
158.2351
  0
VERTEX
  8
LAYER_1
 10
108.8399
 20
158.0663
  0
VERTEX
  8
LAYER_1
 10
108.5234
 20
157.8975
  0
VERTEX
  8
LAYER_1
 10
108.207
 20
157.6865
  0
VERTEX
  8
LAYER_1
 10
107.9116
 20
157.4967
  0
VERTEX
  8
LAYER_1
 10
107.6163
 20
157.2857
  0
VERTEX
  8
LAYER_1
 10
107.3209
 20
157.0536
  0
VERTEX
  8
LAYER_1
 10
107.0255
 20
156.8004
  0
VERTEX
  8
LAYER_1
 10
106.7725
 20
156.5682
  0
VERTEX
  8
LAYER_1
 10
106.4982
 20
156.3152
  0
VERTEX
  8
LAYER_1
 10
106.245
 20
156.0408
  0
VERTEX
  8
LAYER_1
 10
106.013
 20
155.7665
  0
VERTEX
  8
LAYER_1
 10
105.781
 20
155.4711
  0
VERTEX
  8
LAYER_1
 10
105.5488
 20
155.1759
  0
VERTEX
  8
LAYER_1
 10
105.3379
 20
154.8805
  0
VERTEX
  8
LAYER_1
 10
105.1479
 20
154.5639
  0
VERTEX
  8
LAYER_1
 10
104.9581
 20
154.2474
  0
VERTEX
  8
LAYER_1
 10
104.7683
 20
153.931
  0
VERTEX
  8
LAYER_1
 10
104.5995
 20
153.5934
  0
VERTEX
  8
LAYER_1
 10
104.4519
 20
153.2769
  0
VERTEX
  8
LAYER_1
 10
104.3252
 20
152.9183
  0
VERTEX
  8
LAYER_1
 10
104.1986
 20
152.5807
  0
VERTEX
  8
LAYER_1
 10
104.072
 20
152.2221
  0
VERTEX
  8
LAYER_1
 10
103.9666
 20
151.8844
  0
VERTEX
  8
LAYER_1
 10
103.8822
 20
151.5258
  0
VERTEX
  8
LAYER_1
 10
103.819
 20
151.1672
  0
VERTEX
  8
LAYER_1
 10
103.7556
 20
150.7874
  0
VERTEX
  8
LAYER_1
 10
103.6924
 20
150.4287
  0
VERTEX
  8
LAYER_1
 10
103.6712
 20
150.0701
  0
VERTEX
  8
LAYER_1
 10
103.6502
 20
149.6903
  0
VERTEX
  8
LAYER_1
 10
103.6292
 20
149.3316
  0
VERTEX
  8
LAYER_1
 10
103.6502
 20
148.9518
  0
VERTEX
  8
LAYER_1
 10
103.6712
 20
148.5932
  0
VERTEX
  8
LAYER_1
 10
103.6924
 20
148.2345
  0
VERTEX
  8
LAYER_1
 10
103.7346
 20
147.8545
  0
VERTEX
  8
LAYER_1
 10
103.7978
 20
147.4959
  0
VERTEX
  8
LAYER_1
 10
103.8822
 20
147.1373
  0
VERTEX
  8
LAYER_1
 10
103.9666
 20
146.7786
  0
VERTEX
  8
LAYER_1
 10
104.072
 20
146.42
  0
VERTEX
  8
LAYER_1
 10
104.1776
 20
146.0824
  0
VERTEX
  8
LAYER_1
 10
104.3042
 20
145.7237
  0
VERTEX
  8
LAYER_1
 10
104.4519
 20
145.3861
  0
VERTEX
  8
LAYER_1
 10
104.5995
 20
145.0485
  0
VERTEX
  8
LAYER_1
 10
104.7683
 20
144.7323
  0
VERTEX
  8
LAYER_1
 10
104.9371
 20
144.3946
  0
VERTEX
  8
LAYER_1
 10
105.1269
 20
144.078
  0
VERTEX
  8
LAYER_1
 10
105.3167
 20
143.7828
  0
VERTEX
  8
LAYER_1
 10
105.5278
 20
143.4662
  0
VERTEX
  8
LAYER_1
 10
105.7598
 20
143.1709
  0
VERTEX
  8
LAYER_1
 10
105.9918
 20
142.8967
  0
VERTEX
  8
LAYER_1
 10
106.224
 20
142.6225
  0
VERTEX
  8
LAYER_1
 10
106.477
 20
142.3479
  0
VERTEX
  8
LAYER_1
 10
106.7513
 20
142.095
  0
VERTEX
  8
LAYER_1
 10
107.0045
 20
141.8418
  0
VERTEX
  8
LAYER_1
 10
107.2999
 20
141.6096
  0
VERTEX
  8
LAYER_1
 10
107.5741
 20
141.3774
  0
VERTEX
  8
LAYER_1
 10
107.8906
 20
141.1456
  0
VERTEX
  8
LAYER_1
 10
108.1858
 20
140.9554
  0
VERTEX
  8
LAYER_1
 10
108.5022
 20
140.7446
  0
VERTEX
  8
LAYER_1
 10
108.8189
 20
140.5757
  0
VERTEX
  8
LAYER_1
 10
109.1353
 20
140.4069
  0
VERTEX
  8
LAYER_1
 10
109.4727
 20
140.2381
  0
VERTEX
  8
LAYER_1
 10
109.8104
 20
140.0907
  0
VERTEX
  8
LAYER_1
 10
110.1478
 20
139.9639
  0
VERTEX
  8
LAYER_1
 10
110.5064
 20
139.8375
  0
VERTEX
  8
LAYER_1
 10
110.8651
 20
139.7317
  0
VERTEX
  8
LAYER_1
 10
111.2027
 20
139.6476
  0
VERTEX
  8
LAYER_1
 10
111.5823
 20
139.5632
  0
VERTEX
  8
LAYER_1
 10
111.941
 20
139.4788
  0
VERTEX
  8
LAYER_1
 10
112.2996
 20
139.4365
  0
VERTEX
  8
LAYER_1
 10
112.6582
 20
139.3944
  0
VERTEX
  8
LAYER_1
 10
113.0381
 20
139.3731
  0
VERTEX
  8
LAYER_1
 10
113.3967
 20
139.352
  0
VERTEX
  8
LAYER_1
 10
114.135
 20
139.352
  0
VERTEX
  8
LAYER_1
 10
114.4936
 20
139.3944
  0
VERTEX
  8
LAYER_1
 10
114.8734
 20
139.4365
  0
VERTEX
  8
LAYER_1
 10
115.2321
 20
139.4788
  0
VERTEX
  8
LAYER_1
 10
115.5907
 20
139.5419
  0
VERTEX
  8
LAYER_1
 10
115.9493
 20
139.6263
  0
VERTEX
  8
LAYER_1
 10
116.308
 20
139.7107
  0
VERTEX
  8
LAYER_1
 10
116.6666
 20
139.8375
  0
VERTEX
  8
LAYER_1
 10
117.0041
 20
139.9429
  0
VERTEX
  8
LAYER_1
 10
117.3627
 20
140.0693
  0
VERTEX
  8
LAYER_1
 10
117.7003
 20
140.2171
  0
VERTEX
  8
LAYER_1
 10
118.0167
 20
140.3859
  0
VERTEX
  8
LAYER_1
 10
118.3544
 20
140.5547
  0
VERTEX
  8
LAYER_1
 10
118.6708
 20
140.7235
  0
VERTEX
  8
LAYER_1
 10
118.9872
 20
140.9344
  0
VERTEX
  8
LAYER_1
 10
119.2825
 20
141.1242
  0
VERTEX
  8
LAYER_1
 10
119.5989
 20
141.3354
  0
VERTEX
  8
LAYER_1
 10
119.8731
 20
141.5672
  0
VERTEX
  8
LAYER_1
 10
120.1685
 20
141.7994
  0
VERTEX
  8
LAYER_1
 10
120.4428
 20
142.0527
  0
VERTEX
  8
LAYER_1
 10
120.696
 20
142.3059
  0
VERTEX
  8
LAYER_1
 10
120.9492
 20
142.5801
  0
VERTEX
  8
LAYER_1
 10
121.2022
 20
142.8543
  0
VERTEX
  8
LAYER_1
 10
121.4343
 20
143.1499
  0
VERTEX
  8
LAYER_1
 10
121.6453
 20
143.4241
  0
VERTEX
  8
LAYER_1
 10
121.8563
 20
143.7404
  0
VERTEX
  8
LAYER_1
 10
122.0673
 20
144.036
  0
VERTEX
  8
LAYER_1
 10
122.2571
 20
144.3523
  0
VERTEX
  8
LAYER_1
 10
122.4259
 20
144.6899
  0
VERTEX
  8
LAYER_1
 10
122.5946
 20
145.0065
  0
VERTEX
  8
LAYER_1
 10
122.7424
 20
145.3441
  0
VERTEX
  8
LAYER_1
 10
122.89
 20
145.6817
  0
VERTEX
  8
LAYER_1
 10
123.0166
 20
146.0404
  0
VERTEX
  8
LAYER_1
 10
123.122
 20
146.378
  0
VERTEX
  8
LAYER_1
 10
123.2274
 20
146.7366
  0
VERTEX
  8
LAYER_1
 10
123.3119
 20
147.0952
  0
VERTEX
  8
LAYER_1
 10
123.3963
 20
147.4539
  0
VERTEX
  8
LAYER_1
 10
123.4596
 20
147.8125
  0
VERTEX
  8
LAYER_1
 10
123.5019
 20
148.1923
  0
VERTEX
  8
LAYER_1
 10
123.5439
 20
148.551
  0
VERTEX
  8
LAYER_1
 10
123.5651
 20
148.9096
  0
VERTEX
  8
LAYER_1
 10
123.5651
 20
149.3104
  0
SEQEND
  0
POLYLINE
  8
LAYER_1
 40
0.1235
 41
0.1235
 66
1
 10
0
 20
0
 30
0
  0
VERTEX
  8
LAYER_1
 10
285.9643
 20
211.7614
  0
VERTEX
  8
LAYER_1
 10
285.7745
 20
212.0568
  0
VERTEX
  8
LAYER_1
 10
285.5423
 20
212.3522
  0
VERTEX
  8
LAYER_1
 10
285.3104
 20
212.6265
  0
VERTEX
  8
LAYER_1
 10
285.0572
 20
212.9007
  0
VERTEX
  8
LAYER_1
 10
284.7619
 20
213.1329
  0
VERTEX
  8
LAYER_1
 10
284.4664
 20
213.3437
  0
VERTEX
  8
LAYER_1
 10
284.1501
 20
213.5548
  0
VERTEX
  8
LAYER_1
 10
283.8335
 20
213.7236
  0
VERTEX
  8
LAYER_1
 10
283.4962
 20
213.8712
  0
VERTEX
  8
LAYER_1
 10
283.1372
 20
213.9768
  0
VERTEX
  8
LAYER_1
 10
282.8
 20
214.0822
  0
VERTEX
  8
LAYER_1
 10
282.42
 20
214.1456
  0
VERTEX
  8
LAYER_1
 10
282.0613
 20
214.1878
  0
VERTEX
  8
LAYER_1
 10
281.7027
 20
214.2088
  0
VERTEX
  8
LAYER_1
 10
281.3231
 20
214.1878
  0
VERTEX
  8
LAYER_1
 10
280.9644
 20
214.1456
  0
VERTEX
  8
LAYER_1
 10
280.6058
 20
214.0612
  0
VERTEX
  8
LAYER_1
 10
280.2471
 20
213.9768
  0
VERTEX
  8
LAYER_1
 10
279.8885
 20
213.8502
  0
VERTEX
  8
LAYER_1
 10
279.5723
 20
213.7025
  0
VERTEX
  8
LAYER_1
 10
279.2346
 20
213.5337
  0
VERTEX
  8
LAYER_1
 10
278.918
 20
213.3227
  0
VERTEX
  8
LAYER_1
 10
278.6228
 20
213.1117
  0
VERTEX
  8
LAYER_1
 10
278.3486
 20
212.8585
  0
VERTEX
  8
LAYER_1
 10
278.0953
 20
212.6055
  0
VERTEX
  8
LAYER_1
 10
277.8635
 20
212.3311
  0
VERTEX
  8
LAYER_1
 10
277.6313
 20
212.0356
  0
VERTEX
  8
LAYER_1
 10
277.4415
 20
211.7192
  0
VERTEX
  8
LAYER_1
 10
277.3991
 20
211.6348
  0
SEQEND
  0
POLYLINE
  8
LAYER_1
 40
0.1235
 41
0.1235
 66
1
 10
0
 20
0
 30
0
  0
VERTEX
  8
LAYER_1
 10
287.4622
 20
212.8375
  0
VERTEX
  8
LAYER_1
 10
287.5253
 20
213.0485
  0
VERTEX
  8
LAYER_1
 10
287.5886
 20
213.2593
  0
VERTEX
  8
LAYER_1
 10
287.6097
 20
213.4915
  0
VERTEX
  8
LAYER_1
 10
287.6097
 20
213.9346
  0
VERTEX
  8
LAYER_1
 10
287.5676
 20
214.1456
  0
VERTEX
  8
LAYER_1
 10
287.5042
 20
214.3566
  0
VERTEX
  8
LAYER_1
 10
287.4198
 20
214.5674
  0
VERTEX
  8
LAYER_1
 10
287.3144
 20
214.7996
  0
VERTEX
  8
LAYER_1
 10
287.1666
 20
214.9895
  0
VERTEX
  8
LAYER_1
 10
287.0192
 20
215.2005
  0
VERTEX
  8
LAYER_1
 10
286.8504
 20
215.3903
  0
VERTEX
  8
LAYER_1
 10
286.6605
 20
215.5803
  0
VERTEX
  8
LAYER_1
 10
286.4494
 20
215.7701
  0
VERTEX
  8
LAYER_1
 10
286.2385
 20
215.9389
  0
VERTEX
  8
LAYER_1
 10
285.9853
 20
216.1077
  0
VERTEX
  8
LAYER_1
 10
285.7321
 20
216.2554
  0
VERTEX
  8
LAYER_1
 10
285.4368
 20
216.403
  0
VERTEX
  8
LAYER_1
 10
285.1626
 20
216.5296
  0
VERTEX
  8
LAYER_1
 10
284.846
 20
216.6562
  0
VERTEX
  8
LAYER_1
 10
284.5297
 20
216.7828
  0
VERTEX
  8
LAYER_1
 10
284.2131
 20
216.8672
  0
VERTEX
  8
LAYER_1
 10
283.8759
 20
216.9726
  0
VERTEX
  8
LAYER_1
 10
283.5172
 20
217.036
  0
VERTEX
  8
LAYER_1
 10
283.1796
 20
217.0992
  0
VERTEX
  8
LAYER_1
 10
282.821
 20
217.1626
  0
VERTEX
  8
LAYER_1
 10
282.4413
 20
217.1836
  0
VERTEX
  8
LAYER_1
 10
282.0827
 20
217.2048
  0
VERTEX
  8
LAYER_1
 10
281.7241
 20
217.2258
  0
VERTEX
  8
LAYER_1
 10
281.3441
 20
217.2258
  0
VERTEX
  8
LAYER_1
 10
280.9854
 20
217.2048
  0
VERTEX
  8
LAYER_1
 10
280.6058
 20
217.1626
  0
VERTEX
  8
LAYER_1
 10
280.2471
 20
217.1204
  0
VERTEX
  8
LAYER_1
 10
279.9095
 20
217.057
  0
VERTEX
  8
LAYER_1
 10
279.5509
 20
216.9938
  0
VERTEX
  8
LAYER_1
 10
279.2136
 20
216.9094
  0
VERTEX
  8
LAYER_1
 10
278.876
 20
216.804
  0
VERTEX
  8
LAYER_1
 10
278.5594
 20
216.6984
  0
VERTEX
  8
LAYER_1
 10
278.2431
 20
216.593
  0
VERTEX
  8
LAYER_1
 10
277.9475
 20
216.4452
  0
VERTEX
  8
LAYER_1
 10
277.6733
 20
216.3186
  0
VERTEX
  8
LAYER_1
 10
277.3991
 20
216.1499
  0
VERTEX
  8
LAYER_1
 10
277.1462
 20
216.0021
  0
VERTEX
  8
LAYER_1
 10
276.914
 20
215.8333
  0
VERTEX
  8
LAYER_1
 10
276.7032
 20
215.6435
  0
VERTEX
  8
LAYER_1
 10
276.513
 20
215.4537
  0
VERTEX
  8
LAYER_1
 10
276.3442
 20
215.2637
  0
VERTEX
  8
LAYER_1
 10
276.1757
 20
215.0739
  0
VERTEX
  8
LAYER_1
 10
276.049
 20
214.8629
  0
VERTEX
  8
LAYER_1
 10
275.9225
 20
214.6518
  0
VERTEX
  8
LAYER_1
 10
275.8381
 20
214.441
  0
VERTEX
  8
LAYER_1
 10
275.7747
 20
214.2088
  0
VERTEX
  8
LAYER_1
 10
275.7113
 20
213.9978
  0
VERTEX
  8
LAYER_1
 10
275.6903
 20
213.7868
  0
VERTEX
  8
LAYER_1
 10
275.6903
 20
213.5548
  0
VERTEX
  8
LAYER_1
 10
275.7113
 20
213.3437
  0
VERTEX
  8
LAYER_1
 10
275.7537
 20
213.1117
  0
VERTEX
  8
LAYER_1
 10
275.8171
 20
212.9007
  0
VERTEX
  8
LAYER_1
 10
275.9015
 20
212.6897
  0
VERTEX
  8
LAYER_1
 10
276.0069
 20
212.4787
  0
VERTEX
  8
LAYER_1
 10
276.1334
 20
212.2678
  0
VERTEX
  8
LAYER_1
 10
276.3022
 20
212.0778
  0
VERTEX
  8
LAYER_1
 10
276.471
 20
211.8668
  0
VERTEX
  8
LAYER_1
 10
276.6188
 20
211.7192
  0
SEQEND
  0
POLYLINE
  8
LAYER_1
 40
0.1235
 41
0.1235
 66
1
 10
0
 20
0
 30
0
  0
VERTEX
  8
LAYER_1
 10
289.0866
 20
215.4115
  0
VERTEX
  8
LAYER_1
 10
289.0866
 20
215.6435
  0
VERTEX
  8
LAYER_1
 10
289.0442
 20
215.8545
  0
VERTEX
  8
LAYER_1
 10
289.0022
 20
216.0655
  0
VERTEX
  8
LAYER_1
 10
288.9388
 20
216.2976
  0
VERTEX
  8
LAYER_1
 10
288.8334
 20
216.5086
  0
VERTEX
  8
LAYER_1
 10
288.749
 20
216.7196
  0
VERTEX
  8
LAYER_1
 10
288.6225
 20
216.9094
  0
VERTEX
  8
LAYER_1
 10
288.4747
 20
217.1204
  0
VERTEX
  8
LAYER_1
 10
288.3269
 20
217.3102
  0
VERTEX
  8
LAYER_1
 10
288.1581
 20
217.5213
  0
VERTEX
  8
LAYER_1
 10
287.9683
 20
217.6901
  0
VERTEX
  8
LAYER_1
 10
287.7575
 20
217.8799
  0
VERTEX
  8
LAYER_1
 10
287.5466
 20
218.0487
  0
VERTEX
  8
LAYER_1
 10
287.3144
 20
218.2175
  0
VERTEX
  8
LAYER_1
 10
287.0612
 20
218.3863
  0
VERTEX
  8
LAYER_1
 10
286.808
 20
218.5339
  0
VERTEX
  8
LAYER_1
 10
286.5338
 20
218.6816
  0
VERTEX
  8
LAYER_1
 10
286.2595
 20
218.8294
  0
VERTEX
  8
LAYER_1
 10
285.9643
 20
218.956
  0
VERTEX
  8
LAYER_1
 10
285.6477
 20
219.0614
  0
VERTEX
  8
LAYER_1
 10
285.3314
 20
219.167
  0
VERTEX
  8
LAYER_1
 10
285.0148
 20
219.2724
  0
VERTEX
  8
LAYER_1
 10
284.6775
 20
219.3568
  0
VERTEX
  8
LAYER_1
 10
284.3399
 20
219.4412
  0
VERTEX
  8
LAYER_1
 10
284.0023
 20
219.5044
  0
VERTEX
  8
LAYER_1
 10
283.6437
 20
219.5678
  0
VERTEX
  8
LAYER_1
 10
283.285
 20
219.61
  0
VERTEX
  8
LAYER_1
 10
282.9264
 20
219.6522
  0
VERTEX
  8
LAYER_1
 10
282.5678
 20
219.6944
  0
VERTEX
  8
LAYER_1
 10
282.1881
 20
219.6944
  0
VERTEX
  8
LAYER_1
 10
281.8295
 20
219.7154
  0
VERTEX
  8
LAYER_1
 10
281.4498
 20
219.6944
  0
VERTEX
  8
LAYER_1
 10
281.0909
 20
219.6732
  0
VERTEX
  8
LAYER_1
 10
280.7326
 20
219.6522
  0
VERTEX
  8
LAYER_1
 10
280.3526
 20
219.61
  0
VERTEX
  8
LAYER_1
 10
279.9939
 20
219.5678
  0
VERTEX
  8
LAYER_1
 10
279.6353
 20
219.5044
  0
VERTEX
  8
LAYER_1
 10
279.2977
 20
219.4412
  0
VERTEX
  8
LAYER_1
 10
278.939
 20
219.3568
  0
VERTEX
  8
LAYER_1
 10
278.6018
 20
219.2724
  0
VERTEX
  8
LAYER_1
 10
278.2642
 20
219.167
  0
VERTEX
  8
LAYER_1
 10
277.9475
 20
219.0614
  0
VERTEX
  8
LAYER_1
 10
277.6313
 20
218.9348
  0
VERTEX
  8
LAYER_1
 10
277.336
 20
218.8082
  0
VERTEX
  8
LAYER_1
 10
277.0405
 20
218.6816
  0
VERTEX
  8
LAYER_1
 10
276.7452
 20
218.5339
  0
VERTEX
  8
LAYER_1
 10
276.471
 20
218.3651
  0
VERTEX
  8
LAYER_1
 10
276.2178
 20
218.2175
  0
VERTEX
  8
LAYER_1
 10
275.9859
 20
218.0487
  0
VERTEX
  8
LAYER_1
 10
275.7537
 20
217.8589
  0
VERTEX
  8
LAYER_1
 10
275.5215
 20
217.6901
  0
VERTEX
  8
LAYER_1
 10
275.3317
 20
217.5002
  0
VERTEX
  8
LAYER_1
 10
275.1419
 20
217.3102
  0
VERTEX
  8
LAYER_1
 10
274.9731
 20
217.0992
  0
VERTEX
  8
LAYER_1
 10
274.8042
 20
216.9094
  0
VERTEX
  8
LAYER_1
 10
274.6778
 20
216.6984
  0
VERTEX
  8
LAYER_1
 10
274.551
 20
216.4874
  0
VERTEX
  8
LAYER_1
 10
274.4456
 20
216.2764
  0
VERTEX
  8
LAYER_1
 10
274.3612
 20
216.0655
  0
VERTEX
  8
LAYER_1
 10
274.2982
 20
215.8333
  0
VERTEX
  8
LAYER_1
 10
274.2558
 20
215.6223
  0
VERTEX
  8
LAYER_1
 10
274.2138
 20
215.3903
  0
VERTEX
  8
LAYER_1
 10
274.1924
 20
215.1793
  0
VERTEX
  8
LAYER_1
 10
274.2138
 20
214.9473
  0
VERTEX
  8
LAYER_1
 10
274.2348
 20
214.7362
  0
VERTEX
  8
LAYER_1
 10
274.2768
 20
214.5252
  0
VERTEX
  8
LAYER_1
 10
274.3192
 20
214.2932
  0
VERTEX
  8
LAYER_1
 10
274.4036
 20
214.0822
  0
VERTEX
  8
LAYER_1
 10
274.509
 20
213.8712
  0
VERTEX
  8
LAYER_1
 10
274.6144
 20
213.6603
  0
VERTEX
  8
LAYER_1
 10
274.7409
 20
213.4493
  0
VERTEX
  8
LAYER_1
 10
274.8886
 20
213.2593
  0
VERTEX
  8
LAYER_1
 10
275.0575
 20
213.0695
  0
VERTEX
  8
LAYER_1
 10
275.2263
 20
212.8797
  0
VERTEX
  8
LAYER_1
 10
275.4161
 20
212.6897
  0
VERTEX
  8
LAYER_1
 10
275.6269
 20
212.4999
  0
VERTEX
  8
LAYER_1
 10
275.8591
 20
212.3311
  0
VERTEX
  8
LAYER_1
 10
276.0913
 20
212.1622
  0
VERTEX
  8
LAYER_1
 10
276.3442
 20
212.0146
  0
VERTEX
  8
LAYER_1
 10
276.5974
 20
211.8668
  0
VERTEX
  8
LAYER_1
 10
276.893
 20
211.7192
  0
VERTEX
  8
LAYER_1
 10
277.1672
 20
211.5926
  0
VERTEX
  8
LAYER_1
 10
277.4625
 20
211.466
  0
VERTEX
  8
LAYER_1
 10
277.7791
 20
211.3606
  0
VERTEX
  8
LAYER_1
 10
278.0953
 20
211.255
  0
VERTEX
  8
LAYER_1
 10
278.433
 20
211.1496
  0
VERTEX
  8
LAYER_1
 10
278.7706
 20
211.0652
  0
VERTEX
  8
LAYER_1
 10
279.1079
 20
211.0019
  0
VERTEX
  8
LAYER_1
 10
279.4665
 20
210.9175
  0
VERTEX
  8
LAYER_1
 10
279.8041
 20
210.8753
  0
VERTEX
  8
LAYER_1
 10
280.1627
 20
210.8331
  0
VERTEX
  8
LAYER_1
 10
280.5424
 20
210.7909
  0
VERTEX
  8
LAYER_1
 10
280.901
 20
210.7697
  0
VERTEX
  8
LAYER_1
 10
281.9983
 20
210.7697
  0
VERTEX
  8
LAYER_1
 10
282.3779
 20
210.7909
  0
VERTEX
  8
LAYER_1
 10
282.7366
 20
210.8331
  0
VERTEX
  8
LAYER_1
 10
283.0952
 20
210.8753
  0
VERTEX
  8
LAYER_1
 10
283.4538
 20
210.9175
  0
VERTEX
  8
LAYER_1
 10
283.8125
 20
210.9807
  0
VERTEX
  8
LAYER_1
 10
284.1501
 20
211.0652
  0
VERTEX
  8
LAYER_1
 10
284.5087
 20
211.1496
  0
VERTEX
  8
LAYER_1
 10
284.846
 20
211.234
  0
VERTEX
  8
LAYER_1
 10
285.1626
 20
211.3394
  0
VERTEX
  8
LAYER_1
 10
285.4792
 20
211.466
  0
VERTEX
  8
LAYER_1
 10
285.7955
 20
211.5926
  0
VERTEX
  8
LAYER_1
 10
286.0907
 20
211.7192
  0
VERTEX
  8
LAYER_1
 10
286.3863
 20
211.8668
  0
VERTEX
  8
LAYER_1
 10
286.6605
 20
212.0146
  0
VERTEX
  8
LAYER_1
 10
286.9348
 20
212.1622
  0
VERTEX
  8
LAYER_1
 10
287.188
 20
212.3311
  0
VERTEX
  8
LAYER_1
 10
287.4198
 20
212.4999
  0
VERTEX
  8
LAYER_1
 10
287.652
 20
212.6687
  0
VERTEX
  8
LAYER_1
 10
287.8629
 20
212.8585
  0
VERTEX
  8
LAYER_1
 10
288.0527
 20
213.0485
  0
VERTEX
  8
LAYER_1
 10
288.2425
 20
213.2593
  0
VERTEX
  8
LAYER_1
 10
288.3903
 20
213.4493
  0
VERTEX
  8
LAYER_1
 10
288.5381
 20
213.6603
  0
VERTEX
  8
LAYER_1
 10
288.6856
 20
213.8712
  0
VERTEX
  8
LAYER_1
 10
288.7913
 20
214.0822
  0
VERTEX
  8
LAYER_1
 10
288.8968
 20
214.2932
  0
VERTEX
  8
LAYER_1
 10
288.9598
 20
214.5042
  0
VERTEX
  8
LAYER_1
 10
289.0232
 20
214.7362
  0
VERTEX
  8
LAYER_1
 10
289.0656
 20
214.9473
  0
VERTEX
  8
LAYER_1
 10
289.0866
 20
215.1583
  0
VERTEX
  8
LAYER_1
 10
289.0866
 20
215.4115
  0
SEQEND
  0
POLYLINE
  8
LAYER_1
 40
0.1235
 41
0.1235
 66
1
 10
0
 20
0
 30
0
  0
VERTEX
  8
LAYER_1
 10
120.4218
 20
149.3104
  0
VERTEX
  8
LAYER_1
 10
120.4006
 20
149.6903
  0
VERTEX
  8
LAYER_1
 10
120.3796
 20
150.0489
  0
VERTEX
  8
LAYER_1
 10
120.3162
 20
150.4075
  0
VERTEX
  8
LAYER_1
 10
120.253
 20
150.7663
  0
VERTEX
  8
LAYER_1
 10
120.1685
 20
151.125
  0
VERTEX
  8
LAYER_1
 10
120.0631
 20
151.4836
  0
VERTEX
  8
LAYER_1
 10
119.9365
 20
151.8212
  0
VERTEX
  8
LAYER_1
 10
119.7889
 20
152.1799
  0
VERTEX
  8
LAYER_1
 10
119.6201
 20
152.4963
  0
VERTEX
  8
LAYER_1
 10
119.4513
 20
152.8127
  0
VERTEX
  8
LAYER_1
 10
119.2403
 20
153.1293
  0
VERTEX
  8
LAYER_1
 10
119.0294
 20
153.4246
  0
VERTEX
  8
LAYER_1
 10
118.7972
 20
153.72
  0
VERTEX
  8
LAYER_1
 10
118.5652
 20
153.9944
  0
VERTEX
  8
LAYER_1
 10
118.291
 20
154.2474
  0
VERTEX
  8
LAYER_1
 10
118.0167
 20
154.5006
  0
VERTEX
  8
LAYER_1
 10
117.7425
 20
154.7327
  0
VERTEX
  8
LAYER_1
 10
117.4471
 20
154.9437
  0
VERTEX
  8
LAYER_1
 10
117.1307
 20
155.1337
  0
VERTEX
  8
LAYER_1
 10
116.8142
 20
155.3235
  0
VERTEX
  8
LAYER_1
 10
116.4766
 20
155.4923
  0
VERTEX
  8
LAYER_1
 10
116.1392
 20
155.6399
  0
VERTEX
  8
LAYER_1
 10
115.8015
 20
155.7665
  0
VERTEX
  8
LAYER_1
 10
115.4429
 20
155.872
  0
VERTEX
  8
LAYER_1
 10
115.0843
 20
155.9564
  0
VERTEX
  8
LAYER_1
 10
114.7256
 20
156.0408
  0
VERTEX
  8
LAYER_1
 10
114.367
 20
156.083
  0
VERTEX
  8
LAYER_1
 10
113.9874
 20
156.1252
  0
VERTEX
  8
LAYER_1
 10
113.2489
 20
156.1252
  0
VERTEX
  8
LAYER_1
 10
112.8903
 20
156.083
  0
VERTEX
  8
LAYER_1
 10
112.5316
 20
156.0408
  0
VERTEX
  8
LAYER_1
 10
112.173
 20
155.9776
  0
VERTEX
  8
LAYER_1
 10
111.8144
 20
155.8932
  0
VERTEX
  8
LAYER_1
 10
111.4557
 20
155.7877
  0
VERTEX
  8
LAYER_1
 10
111.1183
 20
155.6611
  0
VERTEX
  8
LAYER_1
 10
110.7596
 20
155.5133
  0
VERTEX
  8
LAYER_1
 10
110.4432
 20
155.3445
  0
VERTEX
  8
LAYER_1
 10
110.1268
 20
155.1547
  0
VERTEX
  8
LAYER_1
 10
109.8104
 20
154.9649
  0
VERTEX
  8
LAYER_1
 10
109.5149
 20
154.7539
  0
VERTEX
  8
LAYER_1
 10
109.2195
 20
154.5218
  0
VERTEX
  8
LAYER_1
 10
108.9453
 20
154.2896
  0
VERTEX
  8
LAYER_1
 10
108.6922
 20
154.0154
  0
VERTEX
  8
LAYER_1
 10
108.439
 20
153.7412
  0
VERTEX
  8
LAYER_1
 10
108.207
 20
153.4668
  0
VERTEX
  8
LAYER_1
 10
107.996
 20
153.1715
  0
VERTEX
  8
LAYER_1
 10
107.785
 20
152.8549
  0
VERTEX
  8
LAYER_1
 10
107.5952
 20
152.5385
  0
VERTEX
  8
LAYER_1
 10
107.4475
 20
152.2009
  0
VERTEX
  8
LAYER_1
 10
107.2999
 20
151.8634
  0
VERTEX
  8
LAYER_1
 10
107.1733
 20
151.5258
  0
VERTEX
  8
LAYER_1
 10
107.0467
 20
151.1672
  0
VERTEX
  8
LAYER_1
 10
106.9623
 20
150.8085
  0
VERTEX
  8
LAYER_1
 10
106.8989
 20
150.4497
  0
VERTEX
  8
LAYER_1
 10
106.8357
 20
150.0911
  0
VERTEX
  8
LAYER_1
 10
106.8147
 20
149.7325
  0
VERTEX
  8
LAYER_1
 10
106.7935
 20
149.3526
  0
VERTEX
  8
LAYER_1
 10
106.7935
 20
148.994
  0
VERTEX
  8
LAYER_1
 10
106.8357
 20
148.6142
  0
VERTEX
  8
LAYER_1
 10
106.8779
 20
148.2556
  0
VERTEX
  8
LAYER_1
 10
106.9411
 20
147.8969
  0
VERTEX
  8
LAYER_1
 10
107.0255
 20
147.5383
  0
VERTEX
  8
LAYER_1
 10
107.1311
 20
147.1796
  0
VERTEX
  8
LAYER_1
 10
107.2575
 20
146.842
  0
VERTEX
  8
LAYER_1
 10
107.4053
 20
146.5044
  0
VERTEX
  8
LAYER_1
 10
107.5741
 20
146.1668
  0
VERTEX
  8
LAYER_1
 10
107.7428
 20
145.8502
  0
VERTEX
  8
LAYER_1
 10
107.9328
 20
145.5339
  0
VERTEX
  8
LAYER_1
 10
108.1436
 20
145.2383
  0
VERTEX
  8
LAYER_1
 10
108.3758
 20
144.9431
  0
VERTEX
  8
LAYER_1
 10
108.6289
 20
144.6689
  0
VERTEX
  8
LAYER_1
 10
108.8821
 20
144.3946
  0
VERTEX
  8
LAYER_1
 10
109.1563
 20
144.1624
  0
VERTEX
  8
LAYER_1
 10
109.4517
 20
143.9306
  0
VERTEX
  8
LAYER_1
 10
109.747
 20
143.6984
  0
VERTEX
  8
LAYER_1
 10
110.0424
 20
143.5086
  0
VERTEX
  8
LAYER_1
 10
110.3588
 20
143.3187
  0
VERTEX
  8
LAYER_1
 10
110.6963
 20
143.1499
  0
VERTEX
  8
LAYER_1
 10
111.0339
 20
143.0021
  0
VERTEX
  8
LAYER_1
 10
111.3713
 20
142.8753
  0
VERTEX
  8
LAYER_1
 10
111.73
 20
142.7699
  0
VERTEX
  8
LAYER_1
 10
112.0886
 20
142.6855
  0
VERTEX
  8
LAYER_1
 10
112.4472
 20
142.6011
  0
VERTEX
  8
LAYER_1
 10
112.8059
 20
142.5591
  0
VERTEX
  8
LAYER_1
 10
113.1857
 20
142.5167
  0
VERTEX
  8
LAYER_1
 10
113.5443
 20
142.4957
  0
VERTEX
  8
LAYER_1
 10
113.903
 20
142.5167
  0
VERTEX
  8
LAYER_1
 10
114.2828
 20
142.5381
  0
VERTEX
  8
LAYER_1
 10
114.6414
 20
142.5801
  0
VERTEX
  8
LAYER_1
 10
115
 20
142.6435
  0
VERTEX
  8
LAYER_1
 10
115.3587
 20
142.7279
  0
VERTEX
  8
LAYER_1
 10
115.7173
 20
142.8333
  0
VERTEX
  8
LAYER_1
 10
116.0548
 20
142.9597
  0
VERTEX
  8
LAYER_1
 10
116.4134
 20
143.1075
  0
VERTEX
  8
LAYER_1
 10
116.7298
 20
143.2553
  0
VERTEX
  8
LAYER_1
 10
117.0674
 20
143.4452
  0
VERTEX
  8
LAYER_1
 10
117.3627
 20
143.635
  0
VERTEX
  8
LAYER_1
 10
117.6791
 20
143.8462
  0
VERTEX
  8
LAYER_1
 10
117.9535
 20
144.078
  0
VERTEX
  8
LAYER_1
 10
118.2278
 20
144.3102
  0
VERTEX
  8
LAYER_1
 10
118.502
 20
144.5845
  0
VERTEX
  8
LAYER_1
 10
118.755
 20
144.8587
  0
VERTEX
  8
LAYER_1
 10
118.9872
 20
145.1329
  0
VERTEX
  8
LAYER_1
 10
119.1981
 20
145.4285
  0
VERTEX
  8
LAYER_1
 10
119.4091
 20
145.7448
  0
VERTEX
  8
LAYER_1
 10
119.5779
 20
146.0614
  0
VERTEX
  8
LAYER_1
 10
119.7467
 20
146.378
  0
VERTEX
  8
LAYER_1
 10
119.8943
 20
146.7152
  0
VERTEX
  8
LAYER_1
 10
120.0419
 20
147.0742
  0
VERTEX
  8
LAYER_1
 10
120.1475
 20
147.4115
  0
VERTEX
  8
LAYER_1
 10
120.2318
 20
147.7705
  0
VERTEX
  8
LAYER_1
 10
120.3162
 20
148.1291
  0
VERTEX
  8
LAYER_1
 10
120.3584
 20
148.4876
  0
VERTEX
  8
LAYER_1
 10
120.4006
 20
148.8674
  0
VERTEX
  8
LAYER_1
 10
120.4218
 20
149.226
  0
VERTEX
  8
LAYER_1
 10
120.4218
 20
149.3104
  0
SEQEND
  0
POLYLINE
  8
LAYER_1
 40
0.1235
 41
0.1235
 66
1
 10
0
 20
0
 30
0
  0
VERTEX
  8
LAYER_1
 10
237.5483
 20
112.8527
  0
VERTEX
  8
LAYER_1
 10
237.5907
 20
112.4727
  0
VERTEX
  8
LAYER_1
 10
237.6327
 20
112.1141
  0
VERTEX
  8
LAYER_1
 10
237.6751
 20
111.7555
  0
VERTEX
  8
LAYER_1
 10
237.7171
 20
111.3968
  0
VERTEX
  8
LAYER_1
 10
237.7805
 20
111.0172
  0
VERTEX
  8
LAYER_1
 10
237.8015
 20
110.8694
  0
SEQEND
  0
POLYLINE
  8
LAYER_1
 40
0.1235
 41
0.1235
 66
1
 10
0
 20
0
 30
0
  0
VERTEX
  8
LAYER_1
 10
237.9493
 20
110.0677
  0
VERTEX
  8
LAYER_1
 10
237.9703
 20
109.9409
  0
VERTEX
  8
LAYER_1
 10
238.0334
 20
109.5823
  0
VERTEX
  8
LAYER_1
 10
238.1178
 20
109.2237
  0
VERTEX
  8
LAYER_1
 10
238.2022
 20
108.865
  0
VERTEX
  8
LAYER_1
 10
238.2866
 20
108.5064
  0
VERTEX
  8
LAYER_1
 10
238.371
 20
108.1477
  0
VERTEX
  8
LAYER_1
 10
238.392
 20
108.0844
  0
SEQEND
  0
POLYLINE
  8
LAYER_1
 40
0.1235
 41
0.1235
 66
1
 10
0
 20
0
 30
0
  0
VERTEX
  8
LAYER_1
 10
238.6032
 20
107.2827
  0
VERTEX
  8
LAYER_1
 10
238.6662
 20
107.0718
  0
VERTEX
  8
LAYER_1
 10
238.772
 20
106.7132
  0
VERTEX
  8
LAYER_1
 10
238.8774
 20
106.3756
  0
VERTEX
  8
LAYER_1
 10
239.0038
 20
106.017
  0
VERTEX
  8
LAYER_1
 10
239.1093
 20
105.6793
  0
VERTEX
  8
LAYER_1
 10
239.236
 20
105.3207
  0
VERTEX
  8
LAYER_1
 10
239.236
 20
105.2993
  0
SEQEND
  0
POLYLINE
  8
LAYER_1
 40
0.1235
 41
0.1235
 66
1
 10
0
 20
0
 30
0
  0
VERTEX
  8
LAYER_1
 10
239.5523
 20
104.4977
  0
VERTEX
  8
LAYER_1
 10
239.6367
 20
104.2868
  0
VERTEX
  8
LAYER_1
 10
239.7635
 20
103.9492
  0
VERTEX
  8
LAYER_1
 10
239.9109
 20
103.6116
  0
VERTEX
  8
LAYER_1
 10
240.0587
 20
103.274
  0
VERTEX
  8
LAYER_1
 10
240.2065
 20
102.9364
  0
VERTEX
  8
LAYER_1
 10
240.3753
 20
102.5987
  0
VERTEX
  8
LAYER_1
 10
240.4174
 20
102.5143
  0
SEQEND
  0
POLYLINE
  8
LAYER_1
 40
0.1235
 41
0.1235
 66
1
 10
0
 20
0
 30
0
  0
VERTEX
  8
LAYER_1
 10
240.797
 20
101.7127
  0
VERTEX
  8
LAYER_1
 10
240.8604
 20
101.6072
  0
VERTEX
  8
LAYER_1
 10
241.0292
 20
101.2906
  0
VERTEX
  8
LAYER_1
 10
241.198
 20
100.953
  0
VERTEX
  8
LAYER_1
 10
241.3668
 20
100.6368
  0
VERTEX
  8
LAYER_1
 10
241.5567
 20
100.3201
  0
VERTEX
  8
LAYER_1
 10
241.7465
 20
100.0039
  0
VERTEX
  8
LAYER_1
 10
241.9153
 20
99.7293
  0
SEQEND
  0
POLYLINE
  8
LAYER_1
 40
0.1235
 41
0.1235
 66
1
 10
0
 20
0
 30
0
  0
VERTEX
  8
LAYER_1
 10
242.4004
 20
98.9276
  0
VERTEX
  8
LAYER_1
 10
242.5271
 20
98.7588
  0
VERTEX
  8
LAYER_1
 10
242.717
 20
98.4426
  0
VERTEX
  8
LAYER_1
 10
242.9278
 20
98.147
  0
VERTEX
  8
LAYER_1
 10
243.139
 20
97.8307
  0
VERTEX
  8
LAYER_1
 10
243.3498
 20
97.5351
  0
VERTEX
  8
LAYER_1
 10
243.5817
 20
97.2399
  0
VERTEX
  8
LAYER_1
 10
243.7929
 20
96.9446
  0
SEQEND
  0
POLYLINE
  8
LAYER_1
 40
0.1235
 41
0.1235
 66
1
 10
0
 20
0
 30
0
  0
VERTEX
  8
LAYER_1
 10
244.4468
 20
96.1426
  0
VERTEX
  8
LAYER_1
 10
244.4891
 20
96.0796
  0
VERTEX
  8
LAYER_1
 10
244.721
 20
95.8053
  0
VERTEX
  8
LAYER_1
 10
244.9532
 20
95.5098
  0
VERTEX
  8
LAYER_1
 10
245.2064
 20
95.2355
  0
VERTEX
  8
LAYER_1
 10
245.4382
 20
94.9613
  0
VERTEX
  8
LAYER_1
 10
245.6915
 20
94.6871
  0
VERTEX
  8
LAYER_1
 10
245.9447
 20
94.4339
  0
VERTEX
  8
LAYER_1
 10
246.1979
 20
94.1596
  0
SEQEND
  0
POLYLINE
  8
LAYER_1
 40
0.1235
 41
0.1235
 66
1
 10
0
 20
0
 30
0
  0
VERTEX
  8
LAYER_1
 10
246.9996
 20
93.358
  0
VERTEX
  8
LAYER_1
 10
247.2524
 20
93.1258
  0
VERTEX
  8
LAYER_1
 10
247.5267
 20
92.8725
  0
VERTEX
  8
LAYER_1
 10
247.8009
 20
92.6193
  0
VERTEX
  8
LAYER_1
 10
248.0755
 20
92.3871
  0
VERTEX
  8
LAYER_1
 10
248.3497
 20
92.1343
  0
VERTEX
  8
LAYER_1
 10
248.6239
 20
91.9021
  0
VERTEX
  8
LAYER_1
 10
248.9192
 20
91.6699
  0
VERTEX
  8
LAYER_1
 10
248.9826
 20
91.6068
  0
SEQEND
  0
POLYLINE
  8
LAYER_1
 40
0.1235
 41
0.1235
 66
1
 10
0
 20
0
 30
0
  0
VERTEX
  8
LAYER_1
 10
249.7842
 20
90.9946
  0
VERTEX
  8
LAYER_1
 10
250.0795
 20
90.7628
  0
VERTEX
  8
LAYER_1
 10
250.3747
 20
90.5516
  0
VERTEX
  8
LAYER_1
 10
250.6703
 20
90.3407
  0
VERTEX
  8
LAYER_1
 10
250.9656
 20
90.1299
  0
VERTEX
  8
LAYER_1
 10
251.2822
 20
89.9187
  0
VERTEX
  8
LAYER_1
 10
251.5984
 20
89.7289
  0
VERTEX
  8
LAYER_1
 10
251.7672
 20
89.6025
  0
SEQEND
  0
POLYLINE
  8
LAYER_1
 40
0.1235
 41
0.1235
 66
1
 10
0
 20
0
 30
0
  0
VERTEX
  8
LAYER_1
 10
252.0204
 20
89.4336
  0
VERTEX
  8
LAYER_1
 10
252.3581
 20
89.2648
  0
VERTEX
  8
LAYER_1
 10
252.6743
 20
89.096
  0
VERTEX
  8
LAYER_1
 10
252.9909
 20
88.9272
  0
VERTEX
  8
LAYER_1
 10
253.3282
 20
88.7584
  0
VERTEX
  8
LAYER_1
 10
253.6658
 20
88.5896
  0
VERTEX
  8
LAYER_1
 10
253.9824
 20
88.4418
  0
VERTEX
  8
LAYER_1
 10
254.0034
 20
88.4418
  0
SEQEND
  0
POLYLINE
  8
LAYER_1
 40
0.1235
 41
0.1235
 66
1
 10
0
 20
0
 30
0
  0
VERTEX
  8
LAYER_1
 10
254.8051
 20
88.0622
  0
VERTEX
  8
LAYER_1
 10
254.9949
 20
87.9777
  0
VERTEX
  8
LAYER_1
 10
255.3326
 20
87.83
  0
VERTEX
  8
LAYER_1
 10
255.6702
 20
87.7035
  0
VERTEX
  8
LAYER_1
 10
256.0075
 20
87.5557
  0
VERTEX
  8
LAYER_1
 10
256.3661
 20
87.4079
  0
VERTEX
  8
LAYER_1
 10
256.7037
 20
87.2815
  0
VERTEX
  8
LAYER_1
 10
256.7881
 20
87.2605
  0
SEQEND
  0
POLYLINE
  8
LAYER_1
 40
0.1235
 41
0.1235
 66
1
 10
0
 20
0
 30
0
  0
VERTEX
  8
LAYER_1
 10
257.5898
 20
86.9649
  0
VERTEX
  8
LAYER_1
 10
257.7376
 20
86.9018
  0
VERTEX
  8
LAYER_1
 10
258.0962
 20
86.7961
  0
VERTEX
  8
LAYER_1
 10
258.4335
 20
86.6696
  0
VERTEX
  8
LAYER_1
 10
258.7921
 20
86.5642
  0
VERTEX
  8
LAYER_1
 10
259.1297
 20
86.4588
  0
VERTEX
  8
LAYER_1
 10
259.4884
 20
86.353
  0
VERTEX
  8
LAYER_1
 10
259.5728
 20
86.332
  0
SEQEND
  0
POLYLINE
  8
LAYER_1
 40
0.1235
 41
0.1235
 66
1
 10
0
 20
0
 30
0
  0
VERTEX
  8
LAYER_1
 10
260.3745
 20
86.0998
  0
VERTEX
  8
LAYER_1
 10
260.5643
 20
86.0578
  0
VERTEX
  8
LAYER_1
 10
260.9229
 20
85.9524
  0
VERTEX
  8
LAYER_1
 10
261.2816
 20
85.868
  0
VERTEX
  8
LAYER_1
 10
261.6402
 20
85.7836
  0
VERTEX
  8
LAYER_1
 10
261.9988
 20
85.6992
  0
VERTEX
  8
LAYER_1
 10
262.3575
 20
85.6358
  0
SEQEND
  0
POLYLINE
  8
LAYER_1
 40
0.1235
 41
0.1235
 66
1
 10
0
 20
0
 30
0
  0
VERTEX
  8
LAYER_1
 10
263.1591
 20
85.467
  0
VERTEX
  8
LAYER_1
 10
263.4334
 20
85.4249
  0
VERTEX
  8
LAYER_1
 10
263.792
 20
85.3615
  0
VERTEX
  8
LAYER_1
 10
264.1506
 20
85.2982
  0
VERTEX
  8
LAYER_1
 10
264.5303
 20
85.2351
  0
VERTEX
  8
LAYER_1
 10
264.8893
 20
85.1927
  0
VERTEX
  8
LAYER_1
 10
265.1421
 20
85.1507
  0
SEQEND
  0
POLYLINE
  8
LAYER_1
 40
0.1235
 41
0.1235
 66
1
 10
0
 20
0
 30
0
  0
VERTEX
  8
LAYER_1
 10
265.9438
 20
85.0449
  0
VERTEX
  8
LAYER_1
 10
265.9862
 20
85.0449
  0
VERTEX
  8
LAYER_1
 10
266.3448
 20
85.0029
  0
VERTEX
  8
LAYER_1
 10
266.7245
 20
84.9819
  0
VERTEX
  8
LAYER_1
 10
267.0831
 20
84.9395
  0
VERTEX
  8
LAYER_1
 10
267.4417
 20
84.9185
  0
VERTEX
  8
LAYER_1
 10
267.8214
 20
84.8975
  0
VERTEX
  8
LAYER_1
 10
267.9271
 20
84.8975
  0
SEQEND
  0
POLYLINE
  8
LAYER_1
 40
0.1235
 41
0.1235
 66
1
 10
0
 20
0
 30
0
  0
VERTEX
  8
LAYER_1
 10
268.7285
 20
84.8551
  0
VERTEX
  8
LAYER_1
 10
268.9186
 20
84.8341
  0
VERTEX
  8
LAYER_1
 10
269.2983
 20
84.8341
  0
VERTEX
  8
LAYER_1
 10
269.6569
 20
84.8341
  0
VERTEX
  8
LAYER_1
 10
270.0156
 20
84.8131
  0
VERTEX
  8
LAYER_1
 10
270.3952
 20
84.8131
  0
VERTEX
  8
LAYER_1
 10
270.7118
 20
84.8341
  0
SEQEND
  0
POLYLINE
  8
LAYER_1
 40
0.1235
 41
0.1235
 66
1
 10
0
 20
0
 30
0
  0
VERTEX
  8
LAYER_1
 10
271.5135
 20
84.8551
  0
VERTEX
  8
LAYER_1
 10
271.682
 20
84.8551
  0
SEQEND
  0
POLYLINE
  8
LAYER_1
 40
0.1235
 41
0.1235
 66
1
 10
0
 20
0
 30
0
  0
VERTEX
  8
LAYER_1
 10
266.4712
 20
81.1206
  0
VERTEX
  8
LAYER_1
 10
266.8299
 20
81.0366
  0
VERTEX
  8
LAYER_1
 10
267.1885
 20
80.9732
  0
VERTEX
  8
LAYER_1
 10
267.5682
 20
80.8888
  0
VERTEX
  8
LAYER_1
 10
267.9268
 20
80.8254
  0
VERTEX
  8
LAYER_1
 10
268.2854
 20
80.762
  0
VERTEX
  8
LAYER_1
 10
268.6441
 20
80.699
  0
VERTEX
  8
LAYER_1
 10
269.0027
 20
80.6356
  0
VERTEX
  8
LAYER_1
 10
269.3617
 20
80.5722
  0
VERTEX
  8
LAYER_1
 10
269.7413
 20
80.5088
  0
VERTEX
  8
LAYER_1
 10
270.1
 20
80.4457
  0
VERTEX
  8
LAYER_1
 10
270.4586
 20
80.4034
  0
VERTEX
  8
LAYER_1
 10
270.8172
 20
80.3613
  0
VERTEX
  8
LAYER_1
 10
271.1969
 20
80.2979
  0
VERTEX
  8
LAYER_1
 10
271.5555
 20
80.2559
  0
VERTEX
  8
LAYER_1
 10
271.9142
 20
80.2135
  0
VERTEX
  8
LAYER_1
 10
272.2938
 20
80.1715
  0
VERTEX
  8
LAYER_1
 10
272.6524
 20
80.1291
  0
VERTEX
  8
LAYER_1
 10
273.0111
 20
80.1081
  0
VERTEX
  8
LAYER_1
 10
273.3911
 20
80.0657
  0
VERTEX
  8
LAYER_1
 10
273.7494
 20
80.0447
  0
VERTEX
  8
LAYER_1
 10
274.1293
 20
80.0027
  0
VERTEX
  8
LAYER_1
 10
274.488
 20
79.9813
  0
VERTEX
  8
LAYER_1
 10
274.8466
 20
79.9603
  0
SEQEND
  0
POLYLINE
  8
LAYER_1
 40
0.1235
 41
0.1235
 66
1
 10
0
 20
0
 30
0
  0
VERTEX
  8
LAYER_1
 10
237.232
 20
234.8008
  0
VERTEX
  8
LAYER_1
 10
237.253
 20
234.5898
  0
VERTEX
  8
LAYER_1
 10
237.253
 20
234.3576
  0
VERTEX
  8
LAYER_1
 10
237.2741
 20
234.1466
  0
VERTEX
  8
LAYER_1
 10
237.2951
 20
233.9358
  0
VERTEX
  8
LAYER_1
 10
237.3375
 20
233.7036
  0
VERTEX
  8
LAYER_1
 10
237.3585
 20
233.4927
  0
VERTEX
  8
LAYER_1
 10
237.3795
 20
233.2605
  0
VERTEX
  8
LAYER_1
 10
237.4219
 20
233.0495
  0
VERTEX
  8
LAYER_1
 10
237.4639
 20
232.8175
  0
VERTEX
  8
LAYER_1
 10
237.5063
 20
232.6065
  0
VERTEX
  8
LAYER_1
 10
237.5483
 20
232.3955
  0
VERTEX
  8
LAYER_1
 10
237.5907
 20
232.1634
  0
VERTEX
  8
LAYER_1
 10
237.6327
 20
231.9524
  0
VERTEX
  8
LAYER_1
 10
237.6961
 20
231.7204
  0
VERTEX
  8
LAYER_1
 10
237.7381
 20
231.5094
  0
VERTEX
  8
LAYER_1
 10
237.8015
 20
231.2984
  0
VERTEX
  8
LAYER_1
 10
237.8649
 20
231.0663
  0
VERTEX
  8
LAYER_1
 10
237.9279
 20
230.8553
  0
VERTEX
  8
LAYER_1
 10
237.9913
 20
230.6443
  0
VERTEX
  8
LAYER_1
 10
238.0547
 20
230.4335
  0
VERTEX
  8
LAYER_1
 10
238.1178
 20
230.2013
  0
VERTEX
  8
LAYER_1
 10
238.2022
 20
229.9903
  0
VERTEX
  8
LAYER_1
 10
238.2866
 20
229.7793
  0
VERTEX
  8
LAYER_1
 10
238.35
 20
229.5684
  0
VERTEX
  8
LAYER_1
 10
238.4344
 20
229.3362
  0
VERTEX
  8
LAYER_1
 10
238.5188
 20
229.1254
  0
VERTEX
  8
LAYER_1
 10
238.6242
 20
228.9144
  0
VERTEX
  8
LAYER_1
 10
238.7086
 20
228.7034
  0
VERTEX
  8
LAYER_1
 10
238.793
 20
228.4923
  0
VERTEX
  8
LAYER_1
 10
238.8984
 20
228.2813
  0
VERTEX
  8
LAYER_1
 10
239.0038
 20
228.0703
  0
VERTEX
  8
LAYER_1
 10
239.1096
 20
227.8595
  0
VERTEX
  8
LAYER_1
 10
239.215
 20
227.6273
  0
VERTEX
  8
LAYER_1
 10
239.3204
 20
227.4163
  0
VERTEX
  8
LAYER_1
 10
239.4259
 20
227.2054
  0
VERTEX
  8
LAYER_1
 10
239.5313
 20
227.0154
  0
VERTEX
  8
LAYER_1
 10
239.6581
 20
226.8044
  0
VERTEX
  8
LAYER_1
 10
239.7845
 20
226.5936
  0
VERTEX
  8
LAYER_1
 10
239.8899
 20
226.3826
  0
VERTEX
  8
LAYER_1
 10
240.0167
 20
226.1716
  0
VERTEX
  8
LAYER_1
 10
240.1431
 20
225.9605
  0
VERTEX
  8
LAYER_1
 10
240.2909
 20
225.7495
  0
VERTEX
  8
LAYER_1
 10
240.4174
 20
225.5597
  0
VERTEX
  8
LAYER_1
 10
240.5441
 20
225.3487
  0
VERTEX
  8
LAYER_1
 10
240.6916
 20
225.1377
  0
VERTEX
  8
LAYER_1
 10
240.8394
 20
224.9267
  0
VERTEX
  8
LAYER_1
 10
240.9658
 20
224.7368
  0
VERTEX
  8
LAYER_1
 10
241.1136
 20
224.547
  0
SEQEND
  0
POLYLINE
  8
LAYER_1
 40
0.1235
 41
0.1235
 66
1
 10
0
 20
0
 30
0
  0
VERTEX
  8
LAYER_1
 10
281.6397
 20
209.525
  0
VERTEX
  8
LAYER_1
 10
282.0193
 20
209.5038
  0
VERTEX
  8
LAYER_1
 10
283.1162
 20
209.5038
  0
VERTEX
  8
LAYER_1
 10
283.4962
 20
209.4828
  0
VERTEX
  8
LAYER_1
 10
283.8545
 20
209.4828
  0
VERTEX
  8
LAYER_1
 10
284.2345
 20
209.5038
  0
VERTEX
  8
LAYER_1
 10
284.9728
 20
209.5038
  0
VERTEX
  8
LAYER_1
 10
285.3314
 20
209.525
  0
VERTEX
  8
LAYER_1
 10
285.6901
 20
209.525
  0
VERTEX
  8
LAYER_1
 10
286.0697
 20
209.546
  0
VERTEX
  8
LAYER_1
 10
286.4283
 20
209.5672
  0
VERTEX
  8
LAYER_1
 10
286.8083
 20
209.5882
  0
VERTEX
  8
LAYER_1
 10
287.1666
 20
209.6094
  0
VERTEX
  8
LAYER_1
 10
287.5466
 20
209.6304
  0
VERTEX
  8
LAYER_1
 10
287.9053
 20
209.6516
  0
VERTEX
  8
LAYER_1
 10
288.2639
 20
209.6726
  0
VERTEX
  8
LAYER_1
 10
288.6435
 20
209.7148
  0
VERTEX
  8
LAYER_1
 10
289.0022
 20
209.736
  0
VERTEX
  8
LAYER_1
 10
289.3818
 20
209.7782
  0
VERTEX
  8
LAYER_1
 10
289.7405
 20
209.8204
  0
VERTEX
  8
LAYER_1
 10
290.0991
 20
209.8626
  0
VERTEX
  8
LAYER_1
 10
290.4787
 20
209.9048
  0
VERTEX
  8
LAYER_1
 10
290.8377
 20
209.9469
  0
VERTEX
  8
LAYER_1
 10
291.196
 20
209.9892
  0
VERTEX
  8
LAYER_1
 10
291.555
 20
210.0525
  0
VERTEX
  8
LAYER_1
 10
291.9346
 20
210.0947
  0
VERTEX
  8
LAYER_1
 10
292.2933
 20
210.1369
  0
VERTEX
  8
LAYER_1
 10
292.6519
 20
210.2001
  0
VERTEX
  8
LAYER_1
 10
293.0316
 20
210.2635
  0
VERTEX
  8
LAYER_1
 10
293.3902
 20
210.3267
  0
VERTEX
  8
LAYER_1
 10
293.7488
 20
210.3901
  0
VERTEX
  8
LAYER_1
 10
294.1075
 20
210.4533
  0
VERTEX
  8
LAYER_1
 10
294.4661
 20
210.5167
  0
VERTEX
  8
LAYER_1
 10
294.8247
 20
210.5799
  0
VERTEX
  8
LAYER_1
 10
295.2044
 20
210.6643
  0
VERTEX
  8
LAYER_1
 10
295.563
 20
210.7275
  0
VERTEX
  8
LAYER_1
 10
295.9216
 20
210.8119
  0
VERTEX
  8
LAYER_1
 10
296.2803
 20
210.8963
  0
VERTEX
  8
LAYER_1
 10
296.6389
 20
210.9597
  0
VERTEX
  8
LAYER_1
 10
296.9975
 20
211.0441
  0
VERTEX
  8
LAYER_1
 10
297.3562
 20
211.1285
  0
VERTEX
  8
LAYER_1
 10
297.7148
 20
211.234
  0
VERTEX
  8
LAYER_1
 10
298.0735
 20
211.3184
  0
VERTEX
  8
LAYER_1
 10
298.4321
 20
211.4028
  0
VERTEX
  8
LAYER_1
 10
298.7697
 20
211.5082
  0
VERTEX
  8
LAYER_1
 10
299.1283
 20
211.5926
  0
VERTEX
  8
LAYER_1
 10
299.487
 20
211.6982
  0
VERTEX
  8
LAYER_1
 10
299.8456
 20
211.8036
  0
VERTEX
  8
LAYER_1
 10
300.2042
 20
211.9092
  0
VERTEX
  8
LAYER_1
 10
300.5419
 20
212.0146
  0
VERTEX
  8
LAYER_1
 10
300.9005
 20
212.12
  0
VERTEX
  8
LAYER_1
 10
301.2591
 20
212.2256
  0
VERTEX
  8
LAYER_1
 10
301.5968
 20
212.3311
  0
VERTEX
  8
LAYER_1
 10
301.9554
 20
212.4577
  0
VERTEX
  8
LAYER_1
 10
302.2927
 20
212.5631
  0
VERTEX
  8
LAYER_1
 10
302.6516
 20
212.6897
  0
VERTEX
  8
LAYER_1
 10
302.9889
 20
212.8163
  0
VERTEX
  8
LAYER_1
 10
303.3475
 20
212.9429
  0
VERTEX
  8
LAYER_1
 10
303.6852
 20
213.0485
  0
VERTEX
  8
LAYER_1
 10
304.0438
 20
213.1961
  0
VERTEX
  8
LAYER_1
 10
304.3814
 20
213.3227
  0
VERTEX
  8
LAYER_1
 10
304.719
 20
213.4493
  0
VERTEX
  8
LAYER_1
 10
305.0777
 20
213.5759
  0
VERTEX
  8
LAYER_1
 10
305.4149
 20
213.7236
  0
VERTEX
  8
LAYER_1
 10
305.7526
 20
213.8502
  0
VERTEX
  8
LAYER_1
 10
306.0902
 20
213.9978
  0
VERTEX
  8
LAYER_1
 10
306.4278
 20
214.1456
  0
VERTEX
  8
LAYER_1
 10
306.7651
 20
214.2932
  0
VERTEX
  8
LAYER_1
 10
307.1027
 20
214.4408
  0
VERTEX
  8
LAYER_1
 10
307.4403
 20
214.5886
  0
VERTEX
  8
LAYER_1
 10
307.7779
 20
214.7362
  0
VERTEX
  8
LAYER_1
 10
308.1156
 20
214.884
  0
VERTEX
  8
LAYER_1
 10
308.4528
 20
215.0317
  0
VERTEX
  8
LAYER_1
 10
308.7905
 20
215.2005
  0
VERTEX
  8
LAYER_1
 10
309.1071
 20
215.3481
  0
VERTEX
  8
LAYER_1
 10
309.4443
 20
215.5169
  0
VERTEX
  8
LAYER_1
 10
309.782
 20
215.6857
  0
VERTEX
  8
LAYER_1
 10
310.0986
 20
215.8545
  0
VERTEX
  8
LAYER_1
 10
310.3514
 20
215.9811
  0
SEQEND
  0
POLYLINE
  8
LAYER_1
 40
0.1235
 41
0.1235
 66
1
 10
0
 20
0
 30
0
  0
VERTEX
  8
LAYER_1
 10
328.1781
 20
234.7796
  0
VERTEX
  8
LAYER_1
 10
328.1781
 20
234.9907
  0
VERTEX
  8
LAYER_1
 10
328.1567
 20
235.2227
  0
VERTEX
  8
LAYER_1
 10
328.1567
 20
235.6657
  0
VERTEX
  8
LAYER_1
 10
328.1357
 20
235.8767
  0
VERTEX
  8
LAYER_1
 10
328.1147
 20
236.0877
  0
VERTEX
  8
LAYER_1
 10
328.0937
 20
236.3198
  0
VERTEX
  8
LAYER_1
 10
328.0723
 20
236.5308
  0
VERTEX
  8
LAYER_1
 10
328.0513
 20
236.7628
  0
VERTEX
  8
LAYER_1
 10
328.0303
 20
236.9738
  0
VERTEX
  8
LAYER_1
 10
327.9882
 20
237.2058
  0
VERTEX
  8
LAYER_1
 10
327.9669
 20
237.4169
  0
VERTEX
  8
LAYER_1
 10
327.9249
 20
237.6491
  0
VERTEX
  8
LAYER_1
 10
327.8825
 20
237.8601
  0
VERTEX
  8
LAYER_1
 10
327.8405
 20
238.0709
  0
VERTEX
  8
LAYER_1
 10
327.7981
 20
238.3031
  0
VERTEX
  8
LAYER_1
 10
327.756
 20
238.514
  0
VERTEX
  8
LAYER_1
 10
327.6927
 20
238.7462
  0
VERTEX
  8
LAYER_1
 10
327.6506
 20
238.9572
  0
VERTEX
  8
LAYER_1
 10
327.5872
 20
239.1682
  0
VERTEX
  8
LAYER_1
 10
327.5238
 20
239.4002
  0
VERTEX
  8
LAYER_1
 10
327.4608
 20
239.6112
  0
VERTEX
  8
LAYER_1
 10
327.3974
 20
239.8221
  0
VERTEX
  8
LAYER_1
 10
327.334
 20
240.0331
  0
VERTEX
  8
LAYER_1
 10
327.271
 20
240.2653
  0
VERTEX
  8
LAYER_1
 10
327.1866
 20
240.4761
  0
VERTEX
  8
LAYER_1
 10
327.1232
 20
240.6871
  0
VERTEX
  8
LAYER_1
 10
327.0388
 20
240.9193
  0
VERTEX
  8
LAYER_1
 10
326.9544
 20
241.1302
  0
VERTEX
  8
LAYER_1
 10
326.87
 20
241.3412
  0
VERTEX
  8
LAYER_1
 10
326.7856
 20
241.5522
  0
VERTEX
  8
LAYER_1
 10
326.6801
 20
241.7632
  0
VERTEX
  8
LAYER_1
 10
326.5957
 20
241.9742
  0
VERTEX
  8
LAYER_1
 10
326.4903
 20
242.185
  0
VERTEX
  8
LAYER_1
 10
326.4059
 20
242.4172
  0
VERTEX
  8
LAYER_1
 10
326.3005
 20
242.6283
  0
VERTEX
  8
LAYER_1
 10
326.1947
 20
242.8393
  0
VERTEX
  8
LAYER_1
 10
326.0893
 20
243.0501
  0
VERTEX
  8
LAYER_1
 10
325.9839
 20
243.2611
  0
VERTEX
  8
LAYER_1
 10
325.8575
 20
243.4721
  0
VERTEX
  8
LAYER_1
 10
325.7517
 20
243.6831
  0
VERTEX
  8
LAYER_1
 10
325.6253
 20
243.873
  0
VERTEX
  8
LAYER_1
 10
325.4988
 20
244.084
  0
VERTEX
  8
LAYER_1
 10
325.372
 20
244.295
  0
VERTEX
  8
LAYER_1
 10
325.2456
 20
244.506
  0
VERTEX
  8
LAYER_1
 10
325.1188
 20
244.7168
  0
VERTEX
  8
LAYER_1
 10
324.9924
 20
244.9279
  0
VERTEX
  8
LAYER_1
 10
324.866
 20
245.1179
  0
VERTEX
  8
LAYER_1
 10
324.7182
 20
245.3287
  0
VERTEX
  8
LAYER_1
 10
324.5704
 20
245.5397
  0
VERTEX
  8
LAYER_1
 10
324.4439
 20
245.7297
  0
VERTEX
  8
LAYER_1
 10
324.2961
 20
245.9405
  0
VERTEX
  8
LAYER_1
 10
324.1487
 20
246.1516
  0
VERTEX
  8
LAYER_1
 10
323.9799
 20
246.3416
  0
VERTEX
  8
LAYER_1
 10
323.8321
 20
246.5524
  0
VERTEX
  8
LAYER_1
 10
323.6843
 20
246.7424
  0
VERTEX
  8
LAYER_1
 10
323.5158
 20
246.9534
  0
VERTEX
  8
LAYER_1
 10
323.368
 20
247.1432
  0
VERTEX
  8
LAYER_1
 10
323.1992
 20
247.3331
  0
VERTEX
  8
LAYER_1
 10
323.0304
 20
247.5441
  0
VERTEX
  8
LAYER_1
 10
322.8616
 20
247.7341
  0
VERTEX
  8
LAYER_1
 10
322.6928
 20
247.9239
  0
VERTEX
  8
LAYER_1
 10
322.503
 20
248.1349
  0
VERTEX
  8
LAYER_1
 10
322.3342
 20
248.3247
  0
VERTEX
  8
LAYER_1
 10
322.1443
 20
248.5147
  0
VERTEX
  8
LAYER_1
 10
321.9755
 20
248.7045
  0
VERTEX
  8
LAYER_1
 10
321.7857
 20
248.8944
  0
VERTEX
  8
LAYER_1
 10
321.5959
 20
249.0842
  0
VERTEX
  8
LAYER_1
 10
321.406
 20
249.2742
  0
VERTEX
  8
LAYER_1
 10
321.2162
 20
249.464
  0
VERTEX
  8
LAYER_1
 10
321.0264
 20
249.654
  0
VERTEX
  8
LAYER_1
 10
320.8152
 20
249.8438
  0
VERTEX
  8
LAYER_1
 10
320.6254
 20
250.0126
  0
VERTEX
  8
LAYER_1
 10
320.4146
 20
250.2025
  0
VERTEX
  8
LAYER_1
 10
320.2247
 20
250.3923
  0
VERTEX
  8
LAYER_1
 10
320.0135
 20
250.5823
  0
VERTEX
  8
LAYER_1
 10
319.8027
 20
250.7511
  0
VERTEX
  8
LAYER_1
 10
319.5919
 20
250.9409
  0
VERTEX
  8
LAYER_1
 10
319.3807
 20
251.1097
  0
VERTEX
  8
LAYER_1
 10
319.1488
 20
251.2996
  0
VERTEX
  8
LAYER_1
 10
318.9376
 20
251.4684
  0
VERTEX
  8
LAYER_1
 10
318.7268
 20
251.6584
  0
VERTEX
  8
LAYER_1
 10
318.4946
 20
251.827
  0
VERTEX
  8
LAYER_1
 10
318.2627
 20
251.9958
  0
VERTEX
  8
LAYER_1
 10
318.0305
 20
252.1646
  0
VERTEX
  8
LAYER_1
 10
317.8197
 20
252.3545
  0
VERTEX
  8
LAYER_1
 10
317.5875
 20
252.5233
  0
VERTEX
  8
LAYER_1
 10
317.3343
 20
252.6921
  0
VERTEX
  8
LAYER_1
 10
317.1024
 20
252.8609
  0
VERTEX
  8
LAYER_1
 10
316.8702
 20
253.0297
  0
VERTEX
  8
LAYER_1
 10
316.617
 20
253.1985
  0
VERTEX
  8
LAYER_1
 10
316.3852
 20
253.3461
  0
VERTEX
  8
LAYER_1
 10
316.132
 20
253.5149
  0
VERTEX
  8
LAYER_1
 10
315.8787
 20
253.6837
  0
VERTEX
  8
LAYER_1
 10
315.6255
 20
253.8525
  0
VERTEX
  8
LAYER_1
 10
315.3937
 20
254.0002
  0
VERTEX
  8
LAYER_1
 10
315.1194
 20
254.169
  0
VERTEX
  8
LAYER_1
 10
314.8662
 20
254.3166
  0
VERTEX
  8
LAYER_1
 10
314.613
 20
254.4854
  0
VERTEX
  8
LAYER_1
 10
314.3598
 20
254.6332
  0
VERTEX
  8
LAYER_1
 10
314.0856
 20
254.8018
  0
VERTEX
  8
LAYER_1
 10
313.8324
 20
254.9496
  0
VERTEX
  8
LAYER_1
 10
313.5581
 20
255.0973
  0
VERTEX
  8
LAYER_1
 10
313.2839
 20
255.2451
  0
VERTEX
  8
LAYER_1
 10
313.0097
 20
255.3927
  0
VERTEX
  8
LAYER_1
 10
312.7354
 20
255.5403
  0
VERTEX
  8
LAYER_1
 10
312.4612
 20
255.6881
  0
VERTEX
  8
LAYER_1
 10
312.187
 20
255.8357
  0
VERTEX
  8
LAYER_1
 10
311.9127
 20
255.9833
  0
VERTEX
  8
LAYER_1
 10
311.6385
 20
256.1311
  0
VERTEX
  8
LAYER_1
 10
311.3429
 20
256.2788
  0
VERTEX
  8
LAYER_1
 10
311.0687
 20
256.4054
  0
VERTEX
  8
LAYER_1
 10
310.7735
 20
256.5532
  0
VERTEX
  8
LAYER_1
 10
310.4992
 20
256.6796
  0
VERTEX
  8
LAYER_1
 10
310.204
 20
256.8274
  0
VERTEX
  8
LAYER_1
 10
309.9084
 20
256.954
  0
VERTEX
  8
LAYER_1
 10
309.6131
 20
257.1016
  0
VERTEX
  8
LAYER_1
 10
309.3179
 20
257.2282
  0
VERTEX
  8
LAYER_1
 10
309.0227
 20
257.3548
  0
VERTEX
  8
LAYER_1
 10
308.7271
 20
257.4814
  0
VERTEX
  8
LAYER_1
 10
308.4318
 20
257.608
  0
VERTEX
  8
LAYER_1
 10
308.1366
 20
257.7345
  0
VERTEX
  8
LAYER_1
 10
307.82
 20
257.8613
  0
VERTEX
  8
LAYER_1
 10
307.5247
 20
257.9877
  0
VERTEX
  8
LAYER_1
 10
307.2081
 20
258.1143
  0
VERTEX
  8
LAYER_1
 10
306.8919
 20
258.2409
  0
VERTEX
  8
LAYER_1
 10
306.5963
 20
258.3465
  0
VERTEX
  8
LAYER_1
 10
306.28
 20
258.4731
  0
VERTEX
  8
LAYER_1
 10
305.9634
 20
258.5785
  0
VERTEX
  8
LAYER_1
 10
305.6471
 20
258.7051
  0
VERTEX
  8
LAYER_1
 10
305.3305
 20
258.8106
  0
VERTEX
  8
LAYER_1
 10
305.0143
 20
258.9162
  0
VERTEX
  8
LAYER_1
 10
304.6977
 20
259.0426
  0
VERTEX
  8
LAYER_1
 10
304.3814
 20
259.1482
  0
VERTEX
  8
LAYER_1
 10
304.0648
 20
259.2538
  0
VERTEX
  8
LAYER_1
 10
303.7272
 20
259.3592
  0
VERTEX
  8
LAYER_1
 10
303.4109
 20
259.4646
  0
VERTEX
  8
LAYER_1
 10
303.0733
 20
259.5702
  0
VERTEX
  8
LAYER_1
 10
302.7571
 20
259.6544
  0
VERTEX
  8
LAYER_1
 10
302.4194
 20
259.76
  0
VERTEX
  8
LAYER_1
 10
302.1028
 20
259.8656
  0
VERTEX
  8
LAYER_1
 10
301.7656
 20
259.9499
  0
VERTEX
  8
LAYER_1
 10
301.4279
 20
260.0554
  0
VERTEX
  8
LAYER_1
 10
301.0903
 20
260.1398
  0
VERTEX
  8
LAYER_1
 10
300.7737
 20
260.2453
  0
VERTEX
  8
LAYER_1
 10
300.4364
 20
260.3297
  0
VERTEX
  8
LAYER_1
 10
300.0988
 20
260.4141
  0
VERTEX
  8
LAYER_1
 10
299.7612
 20
260.4985
  0
VERTEX
  8
LAYER_1
 10
299.4026
 20
260.5829
  0
VERTEX
  8
LAYER_1
 10
299.0649
 20
260.6673
  0
VERTEX
  8
LAYER_1
 10
298.7277
 20
260.7517
  0
VERTEX
  8
LAYER_1
 10
298.3901
 20
260.8361
  0
VERTEX
  8
LAYER_1
 10
298.0314
 20
260.9205
  0
VERTEX
  8
LAYER_1
 10
297.6938
 20
260.9837
  0
VERTEX
  8
LAYER_1
 10
297.3562
 20
261.0681
  0
VERTEX
  8
LAYER_1
 10
296.9975
 20
261.1313
  0
VERTEX
  8
LAYER_1
 10
296.6599
 20
261.2158
  0
VERTEX
  8
LAYER_1
 10
296.3013
 20
261.2791
  0
VERTEX
  8
LAYER_1
 10
295.964
 20
261.3424
  0
VERTEX
  8
LAYER_1
 10
295.6054
 20
261.4268
  0
VERTEX
  8
LAYER_1
 10
295.2468
 20
261.49
  0
VERTEX
  8
LAYER_1
 10
294.9091
 20
261.5534
  0
VERTEX
  8
LAYER_1
 10
294.5505
 20
261.6168
  0
VERTEX
  8
LAYER_1
 10
294.1919
 20
261.68
  0
VERTEX
  8
LAYER_1
 10
293.8332
 20
261.7222
  0
VERTEX
  8
LAYER_1
 10
293.4746
 20
261.7854
  0
VERTEX
  8
LAYER_1
 10
293.137
 20
261.8488
  0
VERTEX
  8
LAYER_1
 10
292.7783
 20
261.891
  0
VERTEX
  8
LAYER_1
 10
292.4197
 20
261.9542
  0
VERTEX
  8
LAYER_1
 10
292.0611
 20
261.9964
  0
VERTEX
  8
LAYER_1
 10
291.7024
 20
262.0386
  0
VERTEX
  8
LAYER_1
 10
291.3438
 20
262.1018
  0
VERTEX
  8
LAYER_1
 10
290.9642
 20
262.1442
  0
VERTEX
  8
LAYER_1
 10
290.6055
 20
262.1862
  0
VERTEX
  8
LAYER_1
 10
290.2469
 20
262.2286
  0
VERTEX
  8
LAYER_1
 10
289.8882
 20
262.2706
  0
VERTEX
  8
LAYER_1
 10
289.5296
 20
262.3128
  0
VERTEX
  8
LAYER_1
 10
289.171
 20
262.334
  0
VERTEX
  8
LAYER_1
 10
288.7913
 20
262.3762
  0
VERTEX
  8
LAYER_1
 10
288.4327
 20
262.4184
  0
VERTEX
  8
LAYER_1
 10
288.0741
 20
262.4395
  0
VERTEX
  8
LAYER_1
 10
287.7151
 20
262.4606
  0
VERTEX
  8
LAYER_1
 10
287.3354
 20
262.5028
  0
VERTEX
  8
LAYER_1
 10
286.9768
 20
262.5239
  0
VERTEX
  8
LAYER_1
 10
286.6182
 20
262.545
  0
VERTEX
  8
LAYER_1
 10
286.2385
 20
262.5661
  0
VERTEX
  8
LAYER_1
 10
285.8799
 20
262.5872
  0
VERTEX
  8
LAYER_1
 10
285.5002
 20
262.6083
  0
VERTEX
  8
LAYER_1
 10
285.1416
 20
262.6294
  0
VERTEX
  8
LAYER_1
 10
284.783
 20
262.6505
  0
VERTEX
  8
LAYER_1
 10
284.403
 20
262.6505
  0
VERTEX
  8
LAYER_1
 10
284.0447
 20
262.6716
  0
VERTEX
  8
LAYER_1
 10
283.6647
 20
262.6927
  0
VERTEX
  8
LAYER_1
 10
282.9474
 20
262.6927
  0
VERTEX
  8
LAYER_1
 10
282.5678
 20
262.7137
  0
VERTEX
  8
LAYER_1
 10
280.7326
 20
262.7137
  0
VERTEX
  8
LAYER_1
 10
280.3526
 20
262.6927
  0
VERTEX
  8
LAYER_1
 10
279.6143
 20
262.6927
  0
VERTEX
  8
LAYER_1
 10
279.2557
 20
262.6716
  0
VERTEX
  8
LAYER_1
 10
278.897
 20
262.6505
  0
VERTEX
  8
LAYER_1
 10
278.5174
 20
262.6505
  0
VERTEX
  8
LAYER_1
 10
278.1587
 20
262.6294
  0
VERTEX
  8
LAYER_1
 10
277.7787
 20
262.6083
  0
VERTEX
  8
LAYER_1
 10
277.4204
 20
262.5872
  0
VERTEX
  8
LAYER_1
 10
277.0615
 20
262.5661
  0
VERTEX
  8
LAYER_1
 10
276.6818
 20
262.545
  0
VERTEX
  8
LAYER_1
 10
276.3232
 20
262.5239
  0
VERTEX
  8
LAYER_1
 10
275.9646
 20
262.5028
  0
VERTEX
  8
LAYER_1
 10
275.5849
 20
262.4817
  0
VERTEX
  8
LAYER_1
 10
275.2263
 20
262.4395
  0
VERTEX
  8
LAYER_1
 10
274.8676
 20
262.4184
  0
VERTEX
  8
LAYER_1
 10
274.488
 20
262.3762
  0
VERTEX
  8
LAYER_1
 10
274.1293
 20
262.355
  0
VERTEX
  8
LAYER_1
 10
273.7707
 20
262.3128
  0
VERTEX
  8
LAYER_1
 10
273.4121
 20
262.2706
  0
VERTEX
  8
LAYER_1
 10
273.0534
 20
262.2286
  0
VERTEX
  8
LAYER_1
 10
272.6735
 20
262.1862
  0
VERTEX
  8
LAYER_1
 10
272.3148
 20
262.1442
  0
VERTEX
  8
LAYER_1
 10
271.9562
 20
262.1018
  0
VERTEX
  8
LAYER_1
 10
271.5975
 20
262.0598
  0
VERTEX
  8
LAYER_1
 10
271.2389
 20
261.9964
  0
VERTEX
  8
LAYER_1
 10
270.8803
 20
261.9542
  0
VERTEX
  8
LAYER_1
 10
270.5216
 20
261.912
  0
VERTEX
  8
LAYER_1
 10
270.163
 20
261.8488
  0
VERTEX
  8
LAYER_1
 10
269.8044
 20
261.7854
  0
VERTEX
  8
LAYER_1
 10
269.4671
 20
261.7432
  0
VERTEX
  8
LAYER_1
 10
269.1085
 20
261.68
  0
VERTEX
  8
LAYER_1
 10
268.7498
 20
261.6168
  0
VERTEX
  8
LAYER_1
 10
268.3912
 20
261.5534
  0
VERTEX
  8
LAYER_1
 10
268.0326
 20
261.49
  0
VERTEX
  8
LAYER_1
 10
267.6949
 20
261.4268
  0
VERTEX
  8
LAYER_1
 10
267.3363
 20
261.3635
  0
VERTEX
  8
LAYER_1
 10
266.9987
 20
261.3002
  0
VERTEX
  8
LAYER_1
 10
266.6401
 20
261.2158
  0
VERTEX
  8
LAYER_1
 10
266.3024
 20
261.1525
  0
VERTEX
  8
LAYER_1
 10
265.9438
 20
261.0681
  0
VERTEX
  8
LAYER_1
 10
265.6065
 20
261.0047
  0
VERTEX
  8
LAYER_1
 10
265.2475
 20
260.9205
  0
VERTEX
  8
LAYER_1
 10
264.9103
 20
260.8361
  0
VERTEX
  8
LAYER_1
 10
264.5727
 20
260.7727
  0
VERTEX
  8
LAYER_1
 10
264.235
 20
260.6883
  0
VERTEX
  8
LAYER_1
 10
263.8764
 20
260.6039
  0
VERTEX
  8
LAYER_1
 10
263.5388
 20
260.5195
  0
VERTEX
  8
LAYER_1
 10
263.2015
 20
260.4351
  0
VERTEX
  8
LAYER_1
 10
262.8639
 20
260.3297
  0
VERTEX
  8
LAYER_1
 10
262.5263
 20
260.2453
  0
VERTEX
  8
LAYER_1
 10
262.1886
 20
260.1609
  0
VERTEX
  8
LAYER_1
 10
261.8724
 20
260.0554
  0
VERTEX
  8
LAYER_1
 10
261.5348
 20
259.971
  0
VERTEX
  8
LAYER_1
 10
261.1971
 20
259.8656
  0
VERTEX
  8
LAYER_1
 10
260.8809
 20
259.781
  0
VERTEX
  8
LAYER_1
 10
260.5433
 20
259.6756
  0
VERTEX
  8
LAYER_1
 10
260.2057
 20
259.5702
  0
VERTEX
  8
LAYER_1
 10
259.8894
 20
259.4646
  0
VERTEX
  8
LAYER_1
 10
259.5728
 20
259.3592
  0
VERTEX
  8
LAYER_1
 10
259.2352
 20
259.2538
  0
VERTEX
  8
LAYER_1
 10
258.9189
 20
259.1482
  0
VERTEX
  8
LAYER_1
 10
258.6023
 20
259.0426
  0
VERTEX
  8
LAYER_1
 10
258.286
 20
258.9372
  0
VERTEX
  8
LAYER_1
 10
257.9694
 20
258.8317
  0
VERTEX
  8
LAYER_1
 10
257.6532
 20
258.7051
  0
VERTEX
  8
LAYER_1
 10
257.3366
 20
258.5995
  0
VERTEX
  8
LAYER_1
 10
257.0203
 20
258.4731
  0
VERTEX
  8
LAYER_1
 10
256.7037
 20
258.3675
  0
VERTEX
  8
LAYER_1
 10
256.3875
 20
258.2409
  0
VERTEX
  8
LAYER_1
 10
256.0919
 20
258.1355
  0
VERTEX
  8
LAYER_1
 10
255.7756
 20
258.0089
  0
VERTEX
  8
LAYER_1
 10
255.48
 20
257.8823
  0
VERTEX
  8
LAYER_1
 10
255.1638
 20
257.7557
  0
VERTEX
  8
LAYER_1
 10
254.8682
 20
257.6291
  0
VERTEX
  8
LAYER_1
 10
254.5729
 20
257.5025
  0
VERTEX
  8
LAYER_1
 10
254.2777
 20
257.3758
  0
VERTEX
  8
LAYER_1
 10
253.9824
 20
257.2494
  0
VERTEX
  8
LAYER_1
 10
253.6868
 20
257.1016
  0
VERTEX
  8
LAYER_1
 10
253.3916
 20
256.975
  0
VERTEX
  8
LAYER_1
 10
253.0964
 20
256.8484
  0
VERTEX
  8
LAYER_1
 10
252.8011
 20
256.7008
  0
VERTEX
  8
LAYER_1
 10
252.5055
 20
256.5742
  0
VERTEX
  8
LAYER_1
 10
252.2313
 20
256.4266
  0
VERTEX
  8
LAYER_1
 10
251.936
 20
256.2788
  0
VERTEX
  8
LAYER_1
 10
251.6618
 20
256.1522
  0
VERTEX
  8
LAYER_1
 10
251.3876
 20
256.0045
  0
VERTEX
  8
LAYER_1
 10
251.1134
 20
255.8569
  0
VERTEX
  8
LAYER_1
 10
250.8178
 20
255.7091
  0
VERTEX
  8
LAYER_1
 10
250.5435
 20
255.5615
  0
VERTEX
  8
LAYER_1
 10
250.2693
 20
255.4137
  0
VERTEX
  8
LAYER_1
 10
250.0161
 20
255.2661
  0
VERTEX
  8
LAYER_1
 10
249.7419
 20
255.1185
  0
VERTEX
  8
LAYER_1
 10
249.4676
 20
254.9707
  0
VERTEX
  8
LAYER_1
 10
249.2144
 20
254.8018
  0
VERTEX
  8
LAYER_1
 10
248.9402
 20
254.6542
  0
VERTEX
  8
LAYER_1
 10
248.687
 20
254.5066
  0
VERTEX
  8
LAYER_1
 10
248.4341
 20
254.3378
  0
VERTEX
  8
LAYER_1
 10
248.1599
 20
254.19
  0
VERTEX
  8
LAYER_1
 10
247.9067
 20
254.0214
  0
VERTEX
  8
LAYER_1
 10
247.6534
 20
253.8736
  0
VERTEX
  8
LAYER_1
 10
247.4212
 20
253.7048
  0
VERTEX
  8
LAYER_1
 10
247.1684
 20
253.5359
  0
VERTEX
  8
LAYER_1
 10
246.9152
 20
253.3673
  0
VERTEX
  8
LAYER_1
 10
246.683
 20
253.2195
  0
VERTEX
  8
LAYER_1
 10
246.4297
 20
253.0507
  0
VERTEX
  8
LAYER_1
 10
246.1979
 20
252.8821
  0
VERTEX
  8
LAYER_1
 10
245.9447
 20
252.7133
  0
VERTEX
  8
LAYER_1
 10
245.7125
 20
252.5444
  0
VERTEX
  8
LAYER_1
 10
245.4806
 20
252.3756
  0
VERTEX
  8
LAYER_1
 10
245.2484
 20
252.1858
  0
VERTEX
  8
LAYER_1
 10
245.0376
 20
252.017
  0
VERTEX
  8
LAYER_1
 10
244.8054
 20
251.8482
  0
VERTEX
  8
LAYER_1
 10
244.5735
 20
251.6794
  0
VERTEX
  8
LAYER_1
 10
244.3623
 20
251.4896
  0
VERTEX
  8
LAYER_1
 10
244.1305
 20
251.3207
  0
VERTEX
  8
LAYER_1
 10
243.9193
 20
251.1308
  0
VERTEX
  8
LAYER_1
 10
243.7085
 20
250.9621
  0
VERTEX
  8
LAYER_1
 10
243.4973
 20
250.7721
  0
VERTEX
  8
LAYER_1
 10
243.2864
 20
250.6033
  0
VERTEX
  8
LAYER_1
 10
243.0756
 20
250.4135
  0
VERTEX
  8
LAYER_1
 10
242.8644
 20
250.2237
  0
VERTEX
  8
LAYER_1
 10
242.6746
 20
250.0548
  0
VERTEX
  8
LAYER_1
 10
242.4638
 20
249.8649
  0
VERTEX
  8
LAYER_1
 10
242.2739
 20
249.675
  0
VERTEX
  8
LAYER_1
 10
242.0841
 20
249.4852
  0
VERTEX
  8
LAYER_1
 10
241.8943
 20
249.2954
  0
VERTEX
  8
LAYER_1
 10
241.7041
 20
249.1054
  0
VERTEX
  8
LAYER_1
 10
241.5143
 20
248.9156
  0
VERTEX
  8
LAYER_1
 10
241.3245
 20
248.7256
  0
VERTEX
  8
LAYER_1
 10
241.1346
 20
248.5357
  0
VERTEX
  8
LAYER_1
 10
240.9658
 20
248.3459
  0
VERTEX
  8
LAYER_1
 10
240.776
 20
248.1559
  0
VERTEX
  8
LAYER_1
 10
240.6072
 20
247.9449
  0
VERTEX
  8
LAYER_1
 10
240.4384
 20
247.7551
  0
VERTEX
  8
LAYER_1
 10
240.2696
 20
247.5653
  0
VERTEX
  8
LAYER_1
 10
240.1011
 20
247.3753
  0
VERTEX
  8
LAYER_1
 10
239.9323
 20
247.1642
  0
VERTEX
  8
LAYER_1
 10
239.7845
 20
246.9744
  0
VERTEX
  8
LAYER_1
 10
239.6157
 20
246.7634
  0
VERTEX
  8
LAYER_1
 10
239.4679
 20
246.5736
  0
VERTEX
  8
LAYER_1
 10
239.2994
 20
246.3626
  0
VERTEX
  8
LAYER_1
 10
239.1516
 20
246.1727
  0
VERTEX
  8
LAYER_1
 10
239.0038
 20
245.9617
  0
VERTEX
  8
LAYER_1
 10
238.8564
 20
245.7719
  0
VERTEX
  8
LAYER_1
 10
238.7086
 20
245.5609
  0
VERTEX
  8
LAYER_1
 10
238.5822
 20
245.3499
  0
VERTEX
  8
LAYER_1
 10
238.4344
 20
245.1601
  0
VERTEX
  8
LAYER_1
 10
238.3076
 20
244.949
  0
VERTEX
  8
LAYER_1
 10
238.1812
 20
244.738
  0
VERTEX
  8
LAYER_1
 10
238.0334
 20
244.527
  0
VERTEX
  8
LAYER_1
 10
237.9069
 20
244.316
  0
VERTEX
  8
LAYER_1
 10
237.8015
 20
244.1262
  0
VERTEX
  8
LAYER_1
 10
237.6747
 20
243.9152
  0
VERTEX
  8
LAYER_1
 10
237.5483
 20
243.7042
  0
VERTEX
  8
LAYER_1
 10
237.4429
 20
243.4931
  0
VERTEX
  8
LAYER_1
 10
237.3161
 20
243.2823
  0
VERTEX
  8
LAYER_1
 10
237.2107
 20
243.0713
  0
VERTEX
  8
LAYER_1
 10
237.1053
 20
242.8603
  0
VERTEX
  8
LAYER_1
 10
236.9998
 20
242.6493
  0
VERTEX
  8
LAYER_1
 10
236.8944
 20
242.4383
  0
VERTEX
  8
LAYER_1
 10
236.81
 20
242.2274
  0
VERTEX
  8
LAYER_1
 10
236.7046
 20
242.0164
  0
VERTEX
  8
LAYER_1
 10
236.5988
 20
241.7842
  0
VERTEX
  8
LAYER_1
 10
236.5148
 20
241.5732
  0
VERTEX
  8
LAYER_1
 10
236.43
 20
241.3624
  0
VERTEX
  8
LAYER_1
 10
236.346
 20
241.1513
  0
VERTEX
  8
LAYER_1
 10
236.2615
 20
240.9403
  0
VERTEX
  8
LAYER_1
 10
236.1771
 20
240.7293
  0
VERTEX
  8
LAYER_1
 10
236.1138
 20
240.4973
  0
VERTEX
  8
LAYER_1
 10
236.0293
 20
240.2863
  0
VERTEX
  8
LAYER_1
 10
235.966
 20
240.0753
  0
VERTEX
  8
LAYER_1
 10
235.9029
 20
239.8432
  0
VERTEX
  8
LAYER_1
 10
235.8395
 20
239.6322
  0
VERTEX
  8
LAYER_1
 10
235.7761
 20
239.4212
  0
VERTEX
  8
LAYER_1
 10
235.7127
 20
239.2102
  0
VERTEX
  8
LAYER_1
 10
235.6497
 20
238.9782
  0
VERTEX
  8
LAYER_1
 10
235.6073
 20
238.7672
  0
VERTEX
  8
LAYER_1
 10
235.5443
 20
238.5351
  0
VERTEX
  8
LAYER_1
 10
235.5019
 20
238.3241
  0
VERTEX
  8
LAYER_1
 10
235.4599
 20
238.1131
  0
VERTEX
  8
LAYER_1
 10
235.4175
 20
237.8811
  0
VERTEX
  8
LAYER_1
 10
235.3755
 20
237.6701
  0
VERTEX
  8
LAYER_1
 10
235.3331
 20
237.438
  0
VERTEX
  8
LAYER_1
 10
235.3121
 20
237.227
  0
VERTEX
  8
LAYER_1
 10
235.27
 20
237.016
  0
VERTEX
  8
LAYER_1
 10
235.2487
 20
236.784
  0
VERTEX
  8
LAYER_1
 10
235.2277
 20
236.573
  0
VERTEX
  8
LAYER_1
 10
235.2067
 20
236.341
  0
VERTEX
  8
LAYER_1
 10
235.1856
 20
236.1299
  0
VERTEX
  8
LAYER_1
 10
235.1643
 20
235.8979
  0
VERTEX
  8
LAYER_1
 10
235.1433
 20
235.6869
  0
VERTEX
  8
LAYER_1
 10
235.1433
 20
235.2439
  0
VERTEX
  8
LAYER_1
 10
235.1223
 20
235.0117
  0
SEQEND
  0
POLYLINE
  8
LAYER_1
 40
0.1235
 41
0.1235
 66
1
 10
0
 20
0
 30
0
  0
VERTEX
  8
LAYER_1
 10
235.1223
 20
235.0117
  0
VERTEX
  8
LAYER_1
 10
235.1223
 20
234.5686
  0
VERTEX
  8
LAYER_1
 10
235.1433
 20
234.3576
  0
VERTEX
  8
LAYER_1
 10
235.1433
 20
233.9146
  0
VERTEX
  8
LAYER_1
 10
235.1643
 20
233.7036
  0
VERTEX
  8
LAYER_1
 10
235.1856
 20
233.4715
  0
VERTEX
  8
LAYER_1
 10
235.2067
 20
233.2605
  0
VERTEX
  8
LAYER_1
 10
235.2277
 20
233.0285
  0
VERTEX
  8
LAYER_1
 10
235.2487
 20
232.8175
  0
VERTEX
  8
LAYER_1
 10
235.27
 20
232.5855
  0
VERTEX
  8
LAYER_1
 10
235.3121
 20
232.3744
  0
VERTEX
  8
LAYER_1
 10
235.3331
 20
232.1424
  0
VERTEX
  8
LAYER_1
 10
235.3755
 20
231.9314
  0
VERTEX
  8
LAYER_1
 10
235.4175
 20
231.7204
  0
VERTEX
  8
LAYER_1
 10
235.4599
 20
231.4884
  0
VERTEX
  8
LAYER_1
 10
235.5019
 20
231.2774
  0
VERTEX
  8
LAYER_1
 10
235.5443
 20
231.0453
  0
VERTEX
  8
LAYER_1
 10
235.6073
 20
230.8343
  0
VERTEX
  8
LAYER_1
 10
235.6497
 20
230.6233
  0
VERTEX
  8
LAYER_1
 10
235.7127
 20
230.3911
  0
VERTEX
  8
LAYER_1
 10
235.7761
 20
230.1803
  0
VERTEX
  8
LAYER_1
 10
235.8395
 20
229.9693
  0
VERTEX
  8
LAYER_1
 10
235.9029
 20
229.7372
  0
VERTEX
  8
LAYER_1
 10
235.966
 20
229.5262
  0
VERTEX
  8
LAYER_1
 10
236.0293
 20
229.3152
  0
VERTEX
  8
LAYER_1
 10
236.1138
 20
229.1042
  0
VERTEX
  8
LAYER_1
 10
236.1982
 20
228.8722
  0
VERTEX
  8
LAYER_1
 10
236.2615
 20
228.6612
  0
VERTEX
  8
LAYER_1
 10
236.346
 20
228.4501
  0
VERTEX
  8
LAYER_1
 10
236.43
 20
228.2391
  0
VERTEX
  8
LAYER_1
 10
236.5358
 20
228.0281
  0
VERTEX
  8
LAYER_1
 10
236.6202
 20
227.7961
  0
VERTEX
  8
LAYER_1
 10
236.7046
 20
227.5851
  0
VERTEX
  8
LAYER_1
 10
236.81
 20
227.3742
  0
VERTEX
  8
LAYER_1
 10
236.9154
 20
227.1632
  0
VERTEX
  8
LAYER_1
 10
236.9998
 20
226.9522
  0
VERTEX
  8
LAYER_1
 10
237.1053
 20
226.7412
  0
VERTEX
  8
LAYER_1
 10
237.232
 20
226.5302
  0
VERTEX
  8
LAYER_1
 10
237.3375
 20
226.3192
  0
VERTEX
  8
LAYER_1
 10
237.4429
 20
226.1082
  0
VERTEX
  8
LAYER_1
 10
237.5693
 20
225.8973
  0
VERTEX
  8
LAYER_1
 10
237.6747
 20
225.6863
  0
VERTEX
  8
LAYER_1
 10
237.8015
 20
225.4753
  0
VERTEX
  8
LAYER_1
 10
237.9279
 20
225.2643
  0
VERTEX
  8
LAYER_1
 10
238.0547
 20
225.0745
  0
VERTEX
  8
LAYER_1
 10
238.1812
 20
224.8634
  0
VERTEX
  8
LAYER_1
 10
238.3076
 20
224.6524
  0
VERTEX
  8
LAYER_1
 10
238.4554
 20
224.4414
  0
VERTEX
  8
LAYER_1
 10
238.5822
 20
224.2516
  0
VERTEX
  8
LAYER_1
 10
238.7296
 20
224.0406
  0
VERTEX
  8
LAYER_1
 10
238.8774
 20
223.8296
  0
VERTEX
  8
LAYER_1
 10
239.0249
 20
223.6398
  0
VERTEX
  8
LAYER_1
 10
239.1727
 20
223.4287
  0
VERTEX
  8
LAYER_1
 10
239.3204
 20
223.2389
  0
VERTEX
  8
LAYER_1
 10
239.4679
 20
223.0279
  0
VERTEX
  8
LAYER_1
 10
239.6367
 20
222.8381
  0
VERTEX
  8
LAYER_1
 10
239.7845
 20
222.6271
  0
VERTEX
  8
LAYER_1
 10
239.9533
 20
222.4371
  0
VERTEX
  8
LAYER_1
 10
240.1221
 20
222.2262
  0
VERTEX
  8
LAYER_1
 10
240.2909
 20
222.0362
  0
VERTEX
  8
LAYER_1
 10
240.4597
 20
221.8464
  0
VERTEX
  8
LAYER_1
 10
240.6282
 20
221.6354
  0
VERTEX
  8
LAYER_1
 10
240.797
 20
221.4456
  0
VERTEX
  8
LAYER_1
 10
240.9868
 20
221.2556
  0
VERTEX
  8
LAYER_1
 10
241.1557
 20
221.0657
  0
VERTEX
  8
LAYER_1
 10
241.3455
 20
220.8759
  0
VERTEX
  8
LAYER_1
 10
241.5356
 20
220.6859
  0
VERTEX
  8
LAYER_1
 10
241.7041
 20
220.4961
  0
VERTEX
  8
LAYER_1
 10
241.8943
 20
220.3063
  0
VERTEX
  8
LAYER_1
 10
242.1051
 20
220.1163
  0
VERTEX
  8
LAYER_1
 10
242.2949
 20
219.9265
  0
VERTEX
  8
LAYER_1
 10
242.4848
 20
219.7366
  0
VERTEX
  8
LAYER_1
 10
242.696
 20
219.5466
  0
VERTEX
  8
LAYER_1
 10
242.8858
 20
219.3778
  0
VERTEX
  8
LAYER_1
 10
243.0966
 20
219.188
  0
VERTEX
  8
LAYER_1
 10
243.3075
 20
218.9982
  0
VERTEX
  8
LAYER_1
 10
243.5186
 20
218.8294
  0
VERTEX
  8
LAYER_1
 10
243.7295
 20
218.6395
  0
VERTEX
  8
LAYER_1
 10
243.9403
 20
218.4495
  0
VERTEX
  8
LAYER_1
 10
244.1515
 20
218.2807
  0
VERTEX
  8
LAYER_1
 10
244.3834
 20
218.1119
  0
VERTEX
  8
LAYER_1
 10
244.5945
 20
217.9221
  0
VERTEX
  8
LAYER_1
 10
244.8264
 20
217.7533
  0
VERTEX
  8
LAYER_1
 10
245.0376
 20
217.5845
  0
VERTEX
  8
LAYER_1
 10
245.2694
 20
217.3947
  0
VERTEX
  8
LAYER_1
 10
245.5016
 20
217.2258
  0
VERTEX
  8
LAYER_1
 10
245.7335
 20
217.057
  0
VERTEX
  8
LAYER_1
 10
245.9657
 20
216.8882
  0
VERTEX
  8
LAYER_1
 10
246.2189
 20
216.7196
  0
VERTEX
  8
LAYER_1
 10
246.4511
 20
216.5508
  0
VERTEX
  8
LAYER_1
 10
246.683
 20
216.382
  0
VERTEX
  8
LAYER_1
 10
246.9362
 20
216.2132
  0
VERTEX
  8
LAYER_1
 10
247.1894
 20
216.0654
  0
VERTEX
  8
LAYER_1
 10
247.4212
 20
215.8967
  0
VERTEX
  8
LAYER_1
 10
247.6745
 20
215.7279
  0
VERTEX
  8
LAYER_1
 10
247.9277
 20
215.5801
  0
VERTEX
  8
LAYER_1
 10
248.1809
 20
215.4115
  0
VERTEX
  8
LAYER_1
 10
248.4551
 20
215.2427
  0
VERTEX
  8
LAYER_1
 10
248.7083
 20
215.0949
  0
VERTEX
  8
LAYER_1
 10
248.9612
 20
214.9473
  0
VERTEX
  8
LAYER_1
 10
249.2358
 20
214.7784
  0
VERTEX
  8
LAYER_1
 10
249.4886
 20
214.6308
  0
VERTEX
  8
LAYER_1
 10
249.7632
 20
214.483
  0
VERTEX
  8
LAYER_1
 10
250.0375
 20
214.3354
  0
VERTEX
  8
LAYER_1
 10
250.2903
 20
214.1878
  0
VERTEX
  8
LAYER_1
 10
250.5646
 20
214.04
  0
VERTEX
  8
LAYER_1
 10
250.8388
 20
213.8924
  0
VERTEX
  8
LAYER_1
 10
251.1344
 20
213.7446
  0
VERTEX
  8
LAYER_1
 10
251.4086
 20
213.597
  0
VERTEX
  8
LAYER_1
 10
251.6828
 20
213.4493
  0
VERTEX
  8
LAYER_1
 10
251.9781
 20
213.3015
  0
VERTEX
  8
LAYER_1
 10
252.2523
 20
213.1749
  0
VERTEX
  8
LAYER_1
 10
252.5479
 20
213.0273
  0
VERTEX
  8
LAYER_1
 10
252.8221
 20
212.9007
  0
VERTEX
  8
LAYER_1
 10
253.1174
 20
212.7531
  0
VERTEX
  8
LAYER_1
 10
253.4126
 20
212.6265
  0
VERTEX
  8
LAYER_1
 10
253.7082
 20
212.4787
  0
VERTEX
  8
LAYER_1
 10
254.0034
 20
212.3522
  0
VERTEX
  8
LAYER_1
 10
254.2987
 20
212.2256
  0
VERTEX
  8
LAYER_1
 10
254.5939
 20
212.099
  0
VERTEX
  8
LAYER_1
 10
254.8895
 20
211.9724
  0
VERTEX
  8
LAYER_1
 10
255.1848
 20
211.8458
  0
VERTEX
  8
LAYER_1
 10
255.5014
 20
211.7192
  0
VERTEX
  8
LAYER_1
 10
255.7966
 20
211.5926
  0
VERTEX
  8
LAYER_1
 10
256.1132
 20
211.466
  0
VERTEX
  8
LAYER_1
 10
256.4295
 20
211.3394
  0
VERTEX
  8
LAYER_1
 10
256.7247
 20
211.234
  0
VERTEX
  8
LAYER_1
 10
257.0413
 20
211.1074
  0
VERTEX
  8
LAYER_1
 10
257.3576
 20
211.0019
  0
VERTEX
  8
LAYER_1
 10
257.6742
 20
210.8753
  0
VERTEX
  8
LAYER_1
 10
257.9905
 20
210.7697
  0
VERTEX
  8
LAYER_1
 10
258.3071
 20
210.6643
  0
VERTEX
  8
LAYER_1
 10
258.6233
 20
210.5377
  0
VERTEX
  8
LAYER_1
 10
258.9399
 20
210.4323
  0
VERTEX
  8
LAYER_1
 10
259.2565
 20
210.3267
  0
VERTEX
  8
LAYER_1
 10
259.5938
 20
210.2213
  0
VERTEX
  8
LAYER_1
 10
259.9104
 20
210.1157
  0
VERTEX
  8
LAYER_1
 10
260.248
 20
210.0103
  0
VERTEX
  8
LAYER_1
 10
260.5643
 20
209.9259
  0
VERTEX
  8
LAYER_1
 10
260.9019
 20
209.8204
  0
VERTEX
  8
LAYER_1
 10
261.2182
 20
209.7148
  0
VERTEX
  8
LAYER_1
 10
261.5558
 20
209.6304
  0
VERTEX
  8
LAYER_1
 10
261.8934
 20
209.525
  0
VERTEX
  8
LAYER_1
 10
262.231
 20
209.4406
  0
VERTEX
  8
LAYER_1
 10
262.5686
 20
209.335
  0
VERTEX
  8
LAYER_1
 10
262.9059
 20
209.2506
  0
VERTEX
  8
LAYER_1
 10
263.2435
 20
209.1664
  0
VERTEX
  8
LAYER_1
 10
263.5812
 20
209.082
  0
VERTEX
  8
LAYER_1
 10
263.9188
 20
208.9976
  0
VERTEX
  8
LAYER_1
 10
264.256
 20
208.9132
  0
VERTEX
  8
LAYER_1
 10
264.5937
 20
208.8288
  0
VERTEX
  8
LAYER_1
 10
264.9313
 20
208.7444
  0
VERTEX
  8
LAYER_1
 10
265.2899
 20
208.66
  0
VERTEX
  8
LAYER_1
 10
265.6275
 20
208.5967
  0
VERTEX
  8
LAYER_1
 10
265.9648
 20
208.5123
  0
VERTEX
  8
LAYER_1
 10
266.3238
 20
208.4489
  0
VERTEX
  8
LAYER_1
 10
266.6611
 20
208.3645
  0
VERTEX
  8
LAYER_1
 10
267.0197
 20
208.3013
  0
VERTEX
  8
LAYER_1
 10
267.3783
 20
208.2381
  0
VERTEX
  8
LAYER_1
 10
267.716
 20
208.1747
  0
VERTEX
  8
LAYER_1
 10
268.0746
 20
208.0903
  0
VERTEX
  8
LAYER_1
 10
268.4332
 20
208.0269
  0
VERTEX
  8
LAYER_1
 10
268.7708
 20
207.9637
  0
VERTEX
  8
LAYER_1
 10
269.1295
 20
207.9215
  0
VERTEX
  8
LAYER_1
 10
269.4881
 20
207.8583
  0
VERTEX
  8
LAYER_1
 10
269.8468
 20
207.7949
  0
VERTEX
  8
LAYER_1
 10
270.2054
 20
207.7317
  0
VERTEX
  8
LAYER_1
 10
270.564
 20
207.6895
  0
VERTEX
  8
LAYER_1
 10
270.9227
 20
207.6261
  0
VERTEX
  8
LAYER_1
 10
271.2813
 20
207.5839
  0
VERTEX
  8
LAYER_1
 10
271.6399
 20
207.5417
  0
VERTEX
  8
LAYER_1
 10
271.9986
 20
207.4995
  0
VERTEX
  8
LAYER_1
 10
272.3572
 20
207.4363
  0
VERTEX
  8
LAYER_1
 10
272.7158
 20
207.3941
  0
VERTEX
  8
LAYER_1
 10
273.0745
 20
207.3519
  0
VERTEX
  8
LAYER_1
 10
273.4331
 20
207.3307
  0
VERTEX
  8
LAYER_1
 10
273.7917
 20
207.2886
  0
VERTEX
  8
LAYER_1
 10
274.1714
 20
207.2464
  0
VERTEX
  8
LAYER_1
 10
274.53
 20
207.2042
  0
VERTEX
  8
LAYER_1
 10
274.8886
 20
207.183
  0
VERTEX
  8
LAYER_1
 10
275.2473
 20
207.1408
  0
VERTEX
  8
LAYER_1
 10
275.6269
 20
207.1198
  0
VERTEX
  8
LAYER_1
 10
275.9856
 20
207.0986
  0
VERTEX
  8
LAYER_1
 10
276.3442
 20
207.0564
  0
VERTEX
  8
LAYER_1
 10
276.7242
 20
207.0354
  0
VERTEX
  8
LAYER_1
 10
277.0828
 20
207.0142
  0
VERTEX
  8
LAYER_1
 10
277.4415
 20
206.9932
  0
VERTEX
  8
LAYER_1
 10
277.8211
 20
206.972
  0
VERTEX
  8
LAYER_1
 10
278.1797
 20
206.951
  0
VERTEX
  8
LAYER_1
 10
278.5594
 20
206.951
  0
VERTEX
  8
LAYER_1
 10
278.918
 20
206.9298
  0
VERTEX
  8
LAYER_1
 10
279.2767
 20
206.9088
  0
VERTEX
  8
LAYER_1
 10
279.6563
 20
206.9088
  0
VERTEX
  8
LAYER_1
 10
280.0153
 20
206.8876
  0
VERTEX
  8
LAYER_1
 10
283.3274
 20
206.8876
  0
VERTEX
  8
LAYER_1
 10
283.7071
 20
206.9088
  0
VERTEX
  8
LAYER_1
 10
284.0657
 20
206.9088
  0
VERTEX
  8
LAYER_1
 10
284.4453
 20
206.9298
  0
VERTEX
  8
LAYER_1
 10
284.804
 20
206.951
  0
VERTEX
  8
LAYER_1
 10
285.1626
 20
206.951
  0
VERTEX
  8
LAYER_1
 10
285.5423
 20
206.972
  0
VERTEX
  8
LAYER_1
 10
285.9009
 20
206.9932
  0
VERTEX
  8
LAYER_1
 10
286.2805
 20
207.0142
  0
VERTEX
  8
LAYER_1
 10
286.6395
 20
207.0354
  0
VERTEX
  8
LAYER_1
 10
286.9978
 20
207.0564
  0
VERTEX
  8
LAYER_1
 10
287.3778
 20
207.0986
  0
VERTEX
  8
LAYER_1
 10
287.7364
 20
207.1198
  0
VERTEX
  8
LAYER_1
 10
288.0951
 20
207.1408
  0
VERTEX
  8
LAYER_1
 10
288.4747
 20
207.183
  0
VERTEX
  8
LAYER_1
 10
288.8334
 20
207.2042
  0
VERTEX
  8
LAYER_1
 10
289.192
 20
207.2464
  0
VERTEX
  8
LAYER_1
 10
289.5506
 20
207.2886
  0
VERTEX
  8
LAYER_1
 10
289.9093
 20
207.3307
  0
VERTEX
  8
LAYER_1
 10
290.2889
 20
207.3519
  0
VERTEX
  8
LAYER_1
 10
290.6475
 20
207.3941
  0
VERTEX
  8
LAYER_1
 10
291.0062
 20
207.4574
  0
VERTEX
  8
LAYER_1
 10
291.3648
 20
207.4995
  0
VERTEX
  8
LAYER_1
 10
291.7235
 20
207.5417
  0
VERTEX
  8
LAYER_1
 10
292.0821
 20
207.5839
  0
VERTEX
  8
LAYER_1
 10
292.4407
 20
207.6473
  0
VERTEX
  8
LAYER_1
 10
292.7994
 20
207.6895
  0
VERTEX
  8
LAYER_1
 10
293.158
 20
207.7527
  0
VERTEX
  8
LAYER_1
 10
293.5166
 20
207.7949
  0
VERTEX
  8
LAYER_1
 10
293.8753
 20
207.8583
  0
VERTEX
  8
LAYER_1
 10
294.2129
 20
207.9215
  0
VERTEX
  8
LAYER_1
 10
294.5715
 20
207.9849
  0
VERTEX
  8
LAYER_1
 10
294.9301
 20
208.0269
  0
VERTEX
  8
LAYER_1
 10
295.2888
 20
208.1113
  0
VERTEX
  8
LAYER_1
 10
295.6264
 20
208.1747
  0
VERTEX
  8
LAYER_1
 10
295.985
 20
208.2381
  0
VERTEX
  8
LAYER_1
 10
296.3437
 20
208.3013
  0
VERTEX
  8
LAYER_1
 10
296.6813
 20
208.3645
  0
VERTEX
  8
LAYER_1
 10
297.0399
 20
208.4489
  0
VERTEX
  8
LAYER_1
 10
297.3772
 20
208.5123
  0
VERTEX
  8
LAYER_1
 10
297.7148
 20
208.5967
  0
VERTEX
  8
LAYER_1
 10
298.0735
 20
208.6811
  0
VERTEX
  8
LAYER_1
 10
298.4111
 20
208.7444
  0
VERTEX
  8
LAYER_1
 10
298.7487
 20
208.8288
  0
VERTEX
  8
LAYER_1
 10
299.1073
 20
208.9132
  0
VERTEX
  8
LAYER_1
 10
299.4449
 20
208.9976
  0
VERTEX
  8
LAYER_1
 10
299.7822
 20
209.082
  0
VERTEX
  8
LAYER_1
 10
300.1198
 20
209.1664
  0
VERTEX
  8
LAYER_1
 10
300.4575
 20
209.2506
  0
VERTEX
  8
LAYER_1
 10
300.7951
 20
209.3562
  0
VERTEX
  8
LAYER_1
 10
301.1324
 20
209.4406
  0
VERTEX
  8
LAYER_1
 10
301.449
 20
209.525
  0
VERTEX
  8
LAYER_1
 10
301.7866
 20
209.6304
  0
VERTEX
  8
LAYER_1
 10
302.1238
 20
209.7148
  0
VERTEX
  8
LAYER_1
 10
302.4615
 20
209.8204
  0
VERTEX
  8
LAYER_1
 10
302.7781
 20
209.9259
  0
VERTEX
  8
LAYER_1
 10
303.1157
 20
210.0103
  0
VERTEX
  8
LAYER_1
 10
303.432
 20
210.1157
  0
VERTEX
  8
LAYER_1
 10
303.7696
 20
210.2213
  0
VERTEX
  8
LAYER_1
 10
304.0858
 20
210.3267
  0
VERTEX
  8
LAYER_1
 10
304.4024
 20
210.4323
  0
VERTEX
  8
LAYER_1
 10
304.7187
 20
210.5587
  0
VERTEX
  8
LAYER_1
 10
305.0353
 20
210.6643
  0
VERTEX
  8
LAYER_1
 10
305.3519
 20
210.7697
  0
VERTEX
  8
LAYER_1
 10
305.6682
 20
210.8753
  0
VERTEX
  8
LAYER_1
 10
305.9848
 20
211.0019
  0
VERTEX
  8
LAYER_1
 10
306.301
 20
211.1074
  0
VERTEX
  8
LAYER_1
 10
306.6176
 20
211.234
  0
VERTEX
  8
LAYER_1
 10
306.9339
 20
211.3606
  0
VERTEX
  8
LAYER_1
 10
307.2295
 20
211.466
  0
VERTEX
  8
LAYER_1
 10
307.5457
 20
211.5926
  0
VERTEX
  8
LAYER_1
 10
307.841
 20
211.7192
  0
VERTEX
  8
LAYER_1
 10
308.1576
 20
211.8458
  0
VERTEX
  8
LAYER_1
 10
308.4528
 20
211.9724
  0
VERTEX
  8
LAYER_1
 10
308.7484
 20
212.099
  0
VERTEX
  8
LAYER_1
 10
309.0437
 20
212.2256
  0
VERTEX
  8
LAYER_1
 10
309.3389
 20
212.3522
  0
VERTEX
  8
LAYER_1
 10
309.6342
 20
212.4999
  0
VERTEX
  8
LAYER_1
 10
309.9297
 20
212.6265
  0
VERTEX
  8
LAYER_1
 10
310.225
 20
212.7531
  0
VERTEX
  8
LAYER_1
 10
310.5202
 20
212.9007
  0
VERTEX
  8
LAYER_1
 10
310.7945
 20
213.0273
  0
VERTEX
  8
LAYER_1
 10
311.0901
 20
213.1749
  0
VERTEX
  8
LAYER_1
 10
311.3643
 20
213.3227
  0
VERTEX
  8
LAYER_1
 10
311.6595
 20
213.4493
  0
VERTEX
  8
LAYER_1
 10
311.9338
 20
213.597
  0
VERTEX
  8
LAYER_1
 10
312.208
 20
213.7446
  0
VERTEX
  8
LAYER_1
 10
312.4822
 20
213.8924
  0
VERTEX
  8
LAYER_1
 10
312.7564
 20
214.04
  0
VERTEX
  8
LAYER_1
 10
313.0307
 20
214.1878
  0
VERTEX
  8
LAYER_1
 10
313.3049
 20
214.3354
  0
VERTEX
  8
LAYER_1
 10
313.5795
 20
214.483
  0
VERTEX
  8
LAYER_1
 10
313.8537
 20
214.6308
  0
VERTEX
  8
LAYER_1
 10
314.1066
 20
214.7996
  0
VERTEX
  8
LAYER_1
 10
314.3808
 20
214.9473
  0
VERTEX
  8
LAYER_1
 10
314.634
 20
215.0949
  0
VERTEX
  8
LAYER_1
 10
314.8872
 20
215.2637
  0
VERTEX
  8
LAYER_1
 10
315.1405
 20
215.4115
  0
VERTEX
  8
LAYER_1
 10
315.3937
 20
215.5801
  0
VERTEX
  8
LAYER_1
 10
315.6469
 20
215.7279
  0
VERTEX
  8
LAYER_1
 10
315.8998
 20
215.8967
  0
VERTEX
  8
LAYER_1
 10
316.153
 20
216.0654
  0
VERTEX
  8
LAYER_1
 10
316.4062
 20
216.2342
  0
VERTEX
  8
LAYER_1
 10
316.6384
 20
216.382
  0
VERTEX
  8
LAYER_1
 10
316.8916
 20
216.5508
  0
VERTEX
  8
LAYER_1
 10
317.1235
 20
216.7196
  0
VERTEX
  8
LAYER_1
 10
317.3557
 20
216.8882
  0
VERTEX
  8
LAYER_1
 10
317.5875
 20
217.057
  0
VERTEX
  8
LAYER_1
 10
317.8197
 20
217.2258
  0
VERTEX
  8
LAYER_1
 10
318.0519
 20
217.4158
  0
VERTEX
  8
LAYER_1
 10
318.2838
 20
217.5845
  0
VERTEX
  8
LAYER_1
 10
318.516
 20
217.7533
  0
VERTEX
  8
LAYER_1
 10
318.7268
 20
217.9221
  0
VERTEX
  8
LAYER_1
 10
318.959
 20
218.1119
  0
VERTEX
  8
LAYER_1
 10
319.1698
 20
218.2807
  0
VERTEX
  8
LAYER_1
 10
319.402
 20
218.4707
  0
VERTEX
  8
LAYER_1
 10
319.6129
 20
218.6395
  0
VERTEX
  8
LAYER_1
 10
319.8237
 20
218.8294
  0
VERTEX
  8
LAYER_1
 10
320.0349
 20
218.9982
  0
VERTEX
  8
LAYER_1
 10
320.2247
 20
219.188
  0
VERTEX
  8
LAYER_1
 10
320.4356
 20
219.3778
  0
VERTEX
  8
LAYER_1
 10
320.6468
 20
219.5678
  0
VERTEX
  8
LAYER_1
 10
320.8366
 20
219.7366
  0
VERTEX
  8
LAYER_1
 10
321.0474
 20
219.9265
  0
VERTEX
  8
LAYER_1
 10
321.2372
 20
220.1163
  0
VERTEX
  8
LAYER_1
 10
321.4271
 20
220.3063
  0
VERTEX
  8
LAYER_1
 10
321.6169
 20
220.4961
  0
VERTEX
  8
LAYER_1
 10
321.8067
 20
220.6859
  0
VERTEX
  8
LAYER_1
 10
321.9969
 20
220.8759
  0
VERTEX
  8
LAYER_1
 10
322.1653
 20
221.0657
  0
VERTEX
  8
LAYER_1
 10
322.3555
 20
221.2556
  0
VERTEX
  8
LAYER_1
 10
322.524
 20
221.4456
  0
VERTEX
  8
LAYER_1
 10
322.6928
 20
221.6564
  0
VERTEX
  8
LAYER_1
 10
322.8616
 20
221.8464
  0
VERTEX
  8
LAYER_1
 10
323.0304
 20
222.0362
  0
VERTEX
  8
LAYER_1
 10
323.1992
 20
222.2472
  0
VERTEX
  8
LAYER_1
 10
323.368
 20
222.4371
  0
VERTEX
  8
LAYER_1
 10
323.5368
 20
222.6271
  0
VERTEX
  8
LAYER_1
 10
323.6843
 20
222.8381
  0
VERTEX
  8
LAYER_1
 10
323.8531
 20
223.0279
  0
VERTEX
  8
LAYER_1
 10
324.0009
 20
223.2389
  0
VERTEX
  8
LAYER_1
 10
324.1487
 20
223.4287
  0
VERTEX
  8
LAYER_1
 10
324.2961
 20
223.6398
  0
VERTEX
  8
LAYER_1
 10
324.4439
 20
223.8508
  0
VERTEX
  8
LAYER_1
 10
324.5917
 20
224.0406
  0
VERTEX
  8
LAYER_1
 10
324.7392
 20
224.2516
  0
VERTEX
  8
LAYER_1
 10
324.866
 20
224.4626
  0
VERTEX
  8
LAYER_1
 10
324.9924
 20
224.6524
  0
VERTEX
  8
LAYER_1
 10
325.1402
 20
224.8634
  0
VERTEX
  8
LAYER_1
 10
325.2666
 20
225.0745
  0
VERTEX
  8
LAYER_1
 10
325.3934
 20
225.2855
  0
VERTEX
  8
LAYER_1
 10
325.5198
 20
225.4963
  0
VERTEX
  8
LAYER_1
 10
325.6463
 20
225.6863
  0
VERTEX
  8
LAYER_1
 10
325.7517
 20
225.8973
  0
VERTEX
  8
LAYER_1
 10
325.8785
 20
226.1082
  0
VERTEX
  8
LAYER_1
 10
325.9839
 20
226.3192
  0
VERTEX
  8
LAYER_1
 10
326.0893
 20
226.5302
  0
VERTEX
  8
LAYER_1
 10
326.1947
 20
226.7412
  0
VERTEX
  8
LAYER_1
 10
326.3005
 20
226.9522
  0
VERTEX
  8
LAYER_1
 10
326.4059
 20
227.1632
  0
VERTEX
  8
LAYER_1
 10
326.5113
 20
227.3742
  0
VERTEX
  8
LAYER_1
 10
326.5957
 20
227.6063
  0
VERTEX
  8
LAYER_1
 10
326.7012
 20
227.8173
  0
VERTEX
  8
LAYER_1
 10
326.7856
 20
228.0281
  0
VERTEX
  8
LAYER_1
 10
326.87
 20
228.2391
  0
VERTEX
  8
LAYER_1
 10
326.9544
 20
228.4501
  0
VERTEX
  8
LAYER_1
 10
327.0388
 20
228.6612
  0
VERTEX
  8
LAYER_1
 10
327.1232
 20
228.8932
  0
VERTEX
  8
LAYER_1
 10
327.1866
 20
229.1042
  0
VERTEX
  8
LAYER_1
 10
327.271
 20
229.3152
  0
VERTEX
  8
LAYER_1
 10
327.334
 20
229.5262
  0
VERTEX
  8
LAYER_1
 10
327.4184
 20
229.7582
  0
VERTEX
  8
LAYER_1
 10
327.4818
 20
229.9693
  0
VERTEX
  8
LAYER_1
 10
327.5452
 20
230.1803
  0
VERTEX
  8
LAYER_1
 10
327.5872
 20
230.4123
  0
VERTEX
  8
LAYER_1
 10
327.6506
 20
230.6233
  0
VERTEX
  8
LAYER_1
 10
327.7137
 20
230.8343
  0
VERTEX
  8
LAYER_1
 10
327.756
 20
231.0663
  0
VERTEX
  8
LAYER_1
 10
327.7981
 20
231.2774
  0
VERTEX
  8
LAYER_1
 10
327.8405
 20
231.5094
  0
VERTEX
  8
LAYER_1
 10
327.8825
 20
231.7204
  0
VERTEX
  8
LAYER_1
 10
327.9249
 20
231.9314
  0
VERTEX
  8
LAYER_1
 10
327.9669
 20
232.1634
  0
VERTEX
  8
LAYER_1
 10
327.9882
 20
232.3744
  0
VERTEX
  8
LAYER_1
 10
328.0303
 20
232.6065
  0
VERTEX
  8
LAYER_1
 10
328.0513
 20
232.8175
  0
VERTEX
  8
LAYER_1
 10
328.0723
 20
233.0495
  0
VERTEX
  8
LAYER_1
 10
328.0937
 20
233.2605
  0
VERTEX
  8
LAYER_1
 10
328.1147
 20
233.4715
  0
VERTEX
  8
LAYER_1
 10
328.1357
 20
233.7036
  0
VERTEX
  8
LAYER_1
 10
328.1567
 20
233.9146
  0
VERTEX
  8
LAYER_1
 10
328.1567
 20
234.3576
  0
VERTEX
  8
LAYER_1
 10
328.1781
 20
234.5898
  0
VERTEX
  8
LAYER_1
 10
328.1781
 20
234.7796
  0
SEQEND
  0
POLYLINE
  8
LAYER_1
 40
0.1235
 41
0.1235
 66
1
 10
0
 20
0
 30
0
  0
VERTEX
  8
LAYER_1
 10
281.5553
 20
261.7222
  0
VERTEX
  8
LAYER_1
 10
281.1966
 20
261.7012
  0
VERTEX
  8
LAYER_1
 10
280.8166
 20
261.7012
  0
VERTEX
  8
LAYER_1
 10
280.458
 20
261.68
  0
VERTEX
  8
LAYER_1
 10
280.0783
 20
261.6588
  0
VERTEX
  8
LAYER_1
 10
279.7197
 20
261.6588
  0
VERTEX
  8
LAYER_1
 10
279.3611
 20
261.6378
  0
VERTEX
  8
LAYER_1
 10
278.9814
 20
261.6168
  0
VERTEX
  8
LAYER_1
 10
278.6228
 20
261.5956
  0
VERTEX
  8
LAYER_1
 10
278.2642
 20
261.5534
  0
VERTEX
  8
LAYER_1
 10
277.8845
 20
261.5324
  0
VERTEX
  8
LAYER_1
 10
277.5259
 20
261.5112
  0
VERTEX
  8
LAYER_1
 10
277.1672
 20
261.469
  0
VERTEX
  8
LAYER_1
 10
276.7872
 20
261.448
  0
VERTEX
  8
LAYER_1
 10
276.4286
 20
261.4057
  0
VERTEX
  8
LAYER_1
 10
276.07
 20
261.3635
  0
VERTEX
  8
LAYER_1
 10
275.7113
 20
261.3424
  0
VERTEX
  8
LAYER_1
 10
275.3527
 20
261.3002
  0
VERTEX
  8
LAYER_1
 10
274.9731
 20
261.258
  0
VERTEX
  8
LAYER_1
 10
274.6144
 20
261.2158
  0
VERTEX
  8
LAYER_1
 10
274.2558
 20
261.1737
  0
VERTEX
  8
LAYER_1
 10
273.8971
 20
261.1313
  0
VERTEX
  8
LAYER_1
 10
273.5385
 20
261.0681
  0
VERTEX
  8
LAYER_1
 10
273.1799
 20
261.0259
  0
VERTEX
  8
LAYER_1
 10
272.8212
 20
260.9837
  0
VERTEX
  8
LAYER_1
 10
272.4626
 20
260.9205
  0
VERTEX
  8
LAYER_1
 10
272.104
 20
260.8783
  0
VERTEX
  8
LAYER_1
 10
271.7453
 20
260.8149
  0
VERTEX
  8
LAYER_1
 10
271.3867
 20
260.7517
  0
VERTEX
  8
LAYER_1
 10
271.0491
 20
260.6883
  0
VERTEX
  8
LAYER_1
 10
270.6905
 20
260.6461
  0
VERTEX
  8
LAYER_1
 10
270.3318
 20
260.5829
  0
VERTEX
  8
LAYER_1
 10
269.9732
 20
260.5195
  0
VERTEX
  8
LAYER_1
 10
269.6359
 20
260.4351
  0
VERTEX
  8
LAYER_1
 10
269.2769
 20
260.3719
  0
VERTEX
  8
LAYER_1
 10
268.9397
 20
260.3087
  0
VERTEX
  8
LAYER_1
 10
268.581
 20
260.2453
  0
VERTEX
  8
LAYER_1
 10
268.2434
 20
260.1609
  0
VERTEX
  8
LAYER_1
 10
267.8848
 20
260.0976
  0
VERTEX
  8
LAYER_1
 10
267.5471
 20
260.0132
  0
VERTEX
  8
LAYER_1
 10
267.1885
 20
259.9288
  0
VERTEX
  8
LAYER_1
 10
266.8509
 20
259.8656
  0
VERTEX
  8
LAYER_1
 10
266.5136
 20
259.7812
  0
VERTEX
  8
LAYER_1
 10
266.176
 20
259.6968
  0
VERTEX
  8
LAYER_1
 10
265.8384
 20
259.6124
  0
VERTEX
  8
LAYER_1
 10
265.5008
 20
259.528
  0
VERTEX
  8
LAYER_1
 10
265.1635
 20
259.4436
  0
VERTEX
  8
LAYER_1
 10
264.8259
 20
259.338
  0
VERTEX
  8
LAYER_1
 10
264.4882
 20
259.2538
  0
VERTEX
  8
LAYER_1
 10
264.1506
 20
259.1694
  0
VERTEX
  8
LAYER_1
 10
263.813
 20
259.0638
  0
VERTEX
  8
LAYER_1
 10
263.4757
 20
258.9794
  0
VERTEX
  8
LAYER_1
 10
263.1591
 20
258.8739
  0
VERTEX
  8
LAYER_1
 10
262.8215
 20
258.7895
  0
VERTEX
  8
LAYER_1
 10
262.4842
 20
258.684
  0
VERTEX
  8
LAYER_1
 10
262.1676
 20
258.5785
  0
VERTEX
  8
LAYER_1
 10
261.83
 20
258.4731
  0
VERTEX
  8
LAYER_1
 10
261.5138
 20
258.3675
  0
VERTEX
  8
LAYER_1
 10
261.1971
 20
258.2621
  0
VERTEX
  8
LAYER_1
 10
260.8809
 20
258.1565
  0
VERTEX
  8
LAYER_1
 10
260.5433
 20
258.0511
  0
VERTEX
  8
LAYER_1
 10
260.2267
 20
257.9457
  0
VERTEX
  8
LAYER_1
 10
259.9104
 20
257.8191
  0
VERTEX
  8
LAYER_1
 10
259.5938
 20
257.7135
  0
VERTEX
  8
LAYER_1
 10
259.2775
 20
257.5869
  0
VERTEX
  8
LAYER_1
 10
258.9823
 20
257.4814
  0
VERTEX
  8
LAYER_1
 10
258.6657
 20
257.3548
  0
VERTEX
  8
LAYER_1
 10
258.3491
 20
257.2494
  0
VERTEX
  8
LAYER_1
 10
258.0538
 20
257.1228
  0
VERTEX
  8
LAYER_1
 10
257.7376
 20
256.9962
  0
VERTEX
  8
LAYER_1
 10
257.442
 20
256.8696
  0
VERTEX
  8
LAYER_1
 10
257.1257
 20
256.743
  0
VERTEX
  8
LAYER_1
 10
256.8301
 20
256.6164
  0
VERTEX
  8
LAYER_1
 10
256.5349
 20
256.4898
  0
VERTEX
  8
LAYER_1
 10
256.2397
 20
256.3632
  0
VERTEX
  8
LAYER_1
 10
255.9444
 20
256.2366
  0
VERTEX
  8
LAYER_1
 10
255.6488
 20
256.1101
  0
VERTEX
  8
LAYER_1
 10
255.3536
 20
255.9623
  0
VERTEX
  8
LAYER_1
 10
255.0583
 20
255.8357
  0
VERTEX
  8
LAYER_1
 10
254.7627
 20
255.6881
  0
VERTEX
  8
LAYER_1
 10
254.4885
 20
255.5615
  0
VERTEX
  8
LAYER_1
 10
254.1933
 20
255.4139
  0
VERTEX
  8
LAYER_1
 10
253.919
 20
255.2661
  0
VERTEX
  8
LAYER_1
 10
253.6238
 20
255.1395
  0
VERTEX
  8
LAYER_1
 10
253.3496
 20
254.9918
  0
VERTEX
  8
LAYER_1
 10
253.0753
 20
254.844
  0
VERTEX
  8
LAYER_1
 10
252.8008
 20
254.6964
  0
VERTEX
  8
LAYER_1
 10
252.5265
 20
254.5488
  0
VERTEX
  8
LAYER_1
 10
252.2523
 20
254.401
  0
VERTEX
  8
LAYER_1
 10
251.9781
 20
254.2534
  0
VERTEX
  8
LAYER_1
 10
251.7038
 20
254.1058
  0
VERTEX
  8
LAYER_1
 10
251.4506
 20
253.958
  0
VERTEX
  8
LAYER_1
 10
251.1764
 20
253.7892
  0
VERTEX
  8
LAYER_1
 10
250.9232
 20
253.6415
  0
VERTEX
  8
LAYER_1
 10
250.6703
 20
253.4727
  0
VERTEX
  8
LAYER_1
 10
250.3961
 20
253.3251
  0
VERTEX
  8
LAYER_1
 10
250.1429
 20
253.1563
  0
VERTEX
  8
LAYER_1
 10
249.8897
 20
253.0085
  0
VERTEX
  8
LAYER_1
 10
249.6364
 20
252.8397
  0
VERTEX
  8
LAYER_1
 10
249.3832
 20
252.6921
  0
VERTEX
  8
LAYER_1
 10
249.1514
 20
252.5233
  0
VERTEX
  8
LAYER_1
 10
248.8982
 20
252.3546
  0
VERTEX
  8
LAYER_1
 10
248.666
 20
252.1858
  0
VERTEX
  8
LAYER_1
 10
248.4127
 20
252.017
  0
VERTEX
  8
LAYER_1
 10
248.1809
 20
251.8482
  0
VERTEX
  8
LAYER_1
 10
247.9487
 20
251.6794
  0
VERTEX
  8
LAYER_1
 10
247.7168
 20
251.5106
  0
VERTEX
  8
LAYER_1
 10
247.4846
 20
251.3418
  0
VERTEX
  8
LAYER_1
 10
247.2524
 20
251.173
  0
VERTEX
  8
LAYER_1
 10
247.0206
 20
251.0043
  0
VERTEX
  8
LAYER_1
 10
246.7884
 20
250.8143
  0
VERTEX
  8
LAYER_1
 10
246.5775
 20
250.6455
  0
VERTEX
  8
LAYER_1
 10
246.3453
 20
250.4767
  0
VERTEX
  8
LAYER_1
 10
246.1345
 20
250.2869
  0
VERTEX
  8
LAYER_1
 10
245.9237
 20
250.1181
  0
VERTEX
  8
LAYER_1
 10
245.7125
 20
249.9282
  0
VERTEX
  8
LAYER_1
 10
245.5016
 20
249.7594
  0
VERTEX
  8
LAYER_1
 10
245.2908
 20
249.5696
  0
VERTEX
  8
LAYER_1
 10
245.0796
 20
249.3796
  0
VERTEX
  8
LAYER_1
 10
244.8688
 20
249.2108
  0
VERTEX
  8
LAYER_1
 10
244.6789
 20
249.021
  0
VERTEX
  8
LAYER_1
 10
244.4678
 20
248.8312
  0
VERTEX
  8
LAYER_1
 10
244.2779
 20
248.6412
  0
VERTEX
  8
LAYER_1
 10
244.0881
 20
248.4513
  0
VERTEX
  8
LAYER_1
 10
243.8983
 20
248.2615
  0
VERTEX
  8
LAYER_1
 10
243.7085
 20
248.0717
  0
VERTEX
  8
LAYER_1
 10
243.5186
 20
247.8817
  0
VERTEX
  8
LAYER_1
 10
243.3288
 20
247.6919
  0
VERTEX
  8
LAYER_1
 10
243.16
 20
247.5019
  0
VERTEX
  8
LAYER_1
 10
242.9702
 20
247.312
  0
VERTEX
  8
LAYER_1
 10
242.8014
 20
247.1222
  0
VERTEX
  8
LAYER_1
 10
242.6115
 20
246.9322
  0
VERTEX
  8
LAYER_1
 10
242.4427
 20
246.7212
  0
VERTEX
  8
LAYER_1
 10
242.2739
 20
246.5314
  0
VERTEX
  8
LAYER_1
 10
242.1261
 20
246.3416
  0
VERTEX
  8
LAYER_1
 10
241.9573
 20
246.1305
  0
VERTEX
  8
LAYER_1
 10
241.7885
 20
245.9405
  0
VERTEX
  8
LAYER_1
 10
241.6411
 20
245.7297
  0
VERTEX
  8
LAYER_1
 10
241.4723
 20
245.5397
  0
VERTEX
  8
LAYER_1
 10
241.3245
 20
245.3287
  0
VERTEX
  8
LAYER_1
 10
241.1767
 20
245.1389
  0
VERTEX
  8
LAYER_1
 10
241.0292
 20
244.9279
  0
VERTEX
  8
LAYER_1
 10
240.8814
 20
244.738
  0
VERTEX
  8
LAYER_1
 10
240.734
 20
244.527
  0
VERTEX
  8
LAYER_1
 10
240.6072
 20
244.3162
  0
VERTEX
  8
LAYER_1
 10
240.4594
 20
244.1052
  0
VERTEX
  8
LAYER_1
 10
240.333
 20
243.9152
  0
VERTEX
  8
LAYER_1
 10
240.2065
 20
243.7043
  0
VERTEX
  8
LAYER_1
 10
240.0797
 20
243.4933
  0
VERTEX
  8
LAYER_1
 10
239.9533
 20
243.2823
  0
VERTEX
  8
LAYER_1
 10
239.8265
 20
243.0713
  0
VERTEX
  8
LAYER_1
 10
239.7001
 20
242.8813
  0
VERTEX
  8
LAYER_1
 10
239.5737
 20
242.6705
  0
VERTEX
  8
LAYER_1
 10
239.4679
 20
242.4594
  0
VERTEX
  8
LAYER_1
 10
239.3625
 20
242.2484
  0
VERTEX
  8
LAYER_1
 10
239.2571
 20
242.0374
  0
VERTEX
  8
LAYER_1
 10
239.1516
 20
241.8264
  0
VERTEX
  8
LAYER_1
 10
239.0462
 20
241.6156
  0
VERTEX
  8
LAYER_1
 10
238.9408
 20
241.4046
  0
VERTEX
  8
LAYER_1
 10
238.835
 20
241.1725
  0
VERTEX
  8
LAYER_1
 10
238.7506
 20
240.9613
  0
VERTEX
  8
LAYER_1
 10
238.6452
 20
240.7505
  0
VERTEX
  8
LAYER_1
 10
238.5608
 20
240.5395
  0
VERTEX
  8
LAYER_1
 10
238.4764
 20
240.3285
  0
VERTEX
  8
LAYER_1
 10
238.392
 20
240.1175
  0
VERTEX
  8
LAYER_1
 10
238.3076
 20
239.8854
  0
VERTEX
  8
LAYER_1
 10
238.2235
 20
239.6744
  0
VERTEX
  8
LAYER_1
 10
238.1601
 20
239.4634
  0
VERTEX
  8
LAYER_1
 10
238.0757
 20
239.2524
  0
VERTEX
  8
LAYER_1
 10
238.0123
 20
239.0204
  0
VERTEX
  8
LAYER_1
 10
237.949
 20
238.8094
  0
VERTEX
  8
LAYER_1
 10
237.8859
 20
238.5984
  0
VERTEX
  8
LAYER_1
 10
237.8225
 20
238.3663
  0
VERTEX
  8
LAYER_1
 10
237.7591
 20
238.1553
  0
VERTEX
  8
LAYER_1
 10
237.7171
 20
237.9445
  0
VERTEX
  8
LAYER_1
 10
237.6537
 20
237.7123
  0
VERTEX
  8
LAYER_1
 10
237.6117
 20
237.5014
  0
VERTEX
  8
LAYER_1
 10
237.5483
 20
237.2903
  0
VERTEX
  8
LAYER_1
 10
237.5063
 20
237.0582
  0
VERTEX
  8
LAYER_1
 10
237.4639
 20
236.8472
  0
VERTEX
  8
LAYER_1
 10
237.4429
 20
236.6152
  0
VERTEX
  8
LAYER_1
 10
237.4005
 20
236.4042
  0
VERTEX
  8
LAYER_1
 10
237.3585
 20
236.1933
  0
VERTEX
  8
LAYER_1
 10
237.3375
 20
235.9611
  0
VERTEX
  8
LAYER_1
 10
237.3161
 20
235.7501
  0
VERTEX
  8
LAYER_1
 10
237.2951
 20
235.5181
  0
VERTEX
  8
LAYER_1
 10
237.2741
 20
235.3071
  0
VERTEX
  8
LAYER_1
 10
237.253
 20
235.0751
  0
VERTEX
  8
LAYER_1
 10
237.2317
 20
234.864
  0
VERTEX
  8
LAYER_1
 10
237.2317
 20
234.7585
  0
SEQEND
  0
POLYLINE
  8
LAYER_1
 40
0.1235
 41
0.1235
 66
1
 10
0
 20
0
 30
0
  0
VERTEX
  8
LAYER_1
 10
310.3514
 20
215.9811
  0
VERTEX
  8
LAYER_1
 10
310.668
 20
216.1288
  0
VERTEX
  8
LAYER_1
 10
311.0057
 20
216.2976
  0
VERTEX
  8
LAYER_1
 10
311.3219
 20
216.4664
  0
VERTEX
  8
LAYER_1
 10
311.6595
 20
216.6562
  0
VERTEX
  8
LAYER_1
 10
311.9761
 20
216.825
  0
VERTEX
  8
LAYER_1
 10
312.2924
 20
216.9938
  0
VERTEX
  8
LAYER_1
 10
312.63
 20
217.1836
  0
VERTEX
  8
LAYER_1
 10
312.9463
 20
217.3735
  0
VERTEX
  8
LAYER_1
 10
313.2629
 20
217.5423
  0
VERTEX
  8
LAYER_1
 10
313.5795
 20
217.7323
  0
VERTEX
  8
LAYER_1
 10
313.8957
 20
217.9433
  0
VERTEX
  8
LAYER_1
 10
314.2123
 20
218.1331
  0
VERTEX
  8
LAYER_1
 10
314.5076
 20
218.3229
  0
VERTEX
  8
LAYER_1
 10
314.8238
 20
218.5129
  0
VERTEX
  8
LAYER_1
 10
315.1405
 20
218.7238
  0
VERTEX
  8
LAYER_1
 10
315.4357
 20
218.9348
  0
VERTEX
  8
LAYER_1
 10
315.7313
 20
219.1458
  0
VERTEX
  8
LAYER_1
 10
316.0475
 20
219.3568
  0
VERTEX
  8
LAYER_1
 10
316.3428
 20
219.5678
  0
VERTEX
  8
LAYER_1
 10
316.6384
 20
219.7788
  0
VERTEX
  8
LAYER_1
 10
316.9336
 20
219.9897
  0
VERTEX
  8
LAYER_1
 10
317.2289
 20
220.2007
  0
VERTEX
  8
LAYER_1
 10
317.5245
 20
220.4327
  0
VERTEX
  8
LAYER_1
 10
317.8197
 20
220.6649
  0
VERTEX
  8
LAYER_1
 10
318.1149
 20
220.8759
  0
VERTEX
  8
LAYER_1
 10
318.3892
 20
221.108
  0
VERTEX
  8
LAYER_1
 10
318.6848
 20
221.34
  0
VERTEX
  8
LAYER_1
 10
318.98
 20
221.5722
  0
VERTEX
  8
LAYER_1
 10
319.2542
 20
221.8252
  0
VERTEX
  8
LAYER_1
 10
319.5285
 20
222.0574
  0
VERTEX
  8
LAYER_1
 10
319.8027
 20
222.2894
  0
VERTEX
  8
LAYER_1
 10
320.0769
 20
222.5427
  0
VERTEX
  8
LAYER_1
 10
320.3512
 20
222.7959
  0
VERTEX
  8
LAYER_1
 10
320.6254
 20
223.0279
  0
VERTEX
  8
LAYER_1
 10
320.8996
 20
223.2811
  0
VERTEX
  8
LAYER_1
 10
321.1738
 20
223.5343
  0
VERTEX
  8
LAYER_1
 10
321.4271
 20
223.7874
  0
VERTEX
  8
LAYER_1
 10
321.7013
 20
224.0618
  0
VERTEX
  8
LAYER_1
 10
321.9545
 20
224.3148
  0
VERTEX
  8
LAYER_1
 10
322.1867
 20
224.547
  0
SEQEND
  0
POLYLINE
  8
LAYER_1
 40
0.1235
 41
0.1235
 66
1
 10
0
 20
0
 30
0
  0
VERTEX
  8
LAYER_1
 10
326.0683
 20
234.7796
  0
VERTEX
  8
LAYER_1
 10
326.0473
 20
234.9907
  0
VERTEX
  8
LAYER_1
 10
326.0263
 20
235.2227
  0
VERTEX
  8
LAYER_1
 10
326.0263
 20
235.4337
  0
VERTEX
  8
LAYER_1
 10
326.0049
 20
235.6657
  0
VERTEX
  8
LAYER_1
 10
325.9629
 20
235.8767
  0
VERTEX
  8
LAYER_1
 10
325.9419
 20
236.1088
  0
VERTEX
  8
LAYER_1
 10
325.8995
 20
236.3198
  0
VERTEX
  8
LAYER_1
 10
325.8785
 20
236.552
  0
VERTEX
  8
LAYER_1
 10
325.8364
 20
236.7628
  0
VERTEX
  8
LAYER_1
 10
325.7941
 20
236.9738
  0
VERTEX
  8
LAYER_1
 10
325.752
 20
237.2058
  0
VERTEX
  8
LAYER_1
 10
325.7097
 20
237.4169
  0
VERTEX
  8
LAYER_1
 10
325.6676
 20
237.6491
  0
VERTEX
  8
LAYER_1
 10
325.6042
 20
237.8601
  0
VERTEX
  8
LAYER_1
 10
325.5619
 20
238.0709
  0
VERTEX
  8
LAYER_1
 10
325.4988
 20
238.3031
  0
VERTEX
  8
LAYER_1
 10
325.4354
 20
238.514
  0
VERTEX
  8
LAYER_1
 10
325.372
 20
238.725
  0
VERTEX
  8
LAYER_1
 10
325.309
 20
238.9572
  0
VERTEX
  8
LAYER_1
 10
325.2456
 20
239.1682
  0
VERTEX
  8
LAYER_1
 10
325.1612
 20
239.379
  0
VERTEX
  8
LAYER_1
 10
325.0978
 20
239.59
  0
VERTEX
  8
LAYER_1
 10
325.0134
 20
239.8221
  0
VERTEX
  8
LAYER_1
 10
324.929
 20
240.0331
  0
VERTEX
  8
LAYER_1
 10
324.866
 20
240.2441
  0
VERTEX
  8
LAYER_1
 10
324.7602
 20
240.4551
  0
VERTEX
  8
LAYER_1
 10
324.6761
 20
240.6661
  0
VERTEX
  8
LAYER_1
 10
324.5917
 20
240.8981
  0
VERTEX
  8
LAYER_1
 10
324.486
 20
241.1091
  0
VERTEX
  8
LAYER_1
 10
324.4019
 20
241.3202
  0
VERTEX
  8
LAYER_1
 10
324.2961
 20
241.5312
  0
VERTEX
  8
LAYER_1
 10
324.1907
 20
241.742
  0
VERTEX
  8
LAYER_1
 10
324.0853
 20
241.953
  0
VERTEX
  8
LAYER_1
 10
323.9799
 20
242.164
  0
VERTEX
  8
LAYER_1
 10
323.8745
 20
242.375
  0
VERTEX
  8
LAYER_1
 10
323.7477
 20
242.5861
  0
VERTEX
  8
LAYER_1
 10
323.6423
 20
242.7969
  0
VERTEX
  8
LAYER_1
 10
323.5158
 20
243.0079
  0
VERTEX
  8
LAYER_1
 10
323.4101
 20
243.2189
  0
VERTEX
  8
LAYER_1
 10
323.2836
 20
243.4089
  0
VERTEX
  8
LAYER_1
 10
323.1572
 20
243.6198
  0
VERTEX
  8
LAYER_1
 10
323.0094
 20
243.8308
  0
VERTEX
  8
LAYER_1
 10
322.883
 20
244.0418
  0
VERTEX
  8
LAYER_1
 10
322.7562
 20
244.2528
  0
VERTEX
  8
LAYER_1
 10
322.6084
 20
244.4426
  0
VERTEX
  8
LAYER_1
 10
322.4609
 20
244.6536
  0
VERTEX
  8
LAYER_1
 10
322.3342
 20
244.8646
  0
VERTEX
  8
LAYER_1
 10
322.1867
 20
245.0545
  0
VERTEX
  8
LAYER_1
 10
322.0389
 20
245.2655
  0
VERTEX
  8
LAYER_1
 10
321.8701
 20
245.4553
  0
VERTEX
  8
LAYER_1
 10
321.7227
 20
245.6663
  0
VERTEX
  8
LAYER_1
 10
321.5749
 20
245.8563
  0
VERTEX
  8
LAYER_1
 10
321.406
 20
246.0672
  0
VERTEX
  8
LAYER_1
 10
321.2372
 20
246.2571
  0
VERTEX
  8
LAYER_1
 10
321.0898
 20
246.447
  0
VERTEX
  8
LAYER_1
 10
320.921
 20
246.658
  0
VERTEX
  8
LAYER_1
 10
320.7308
 20
246.8478
  0
VERTEX
  8
LAYER_1
 10
320.5623
 20
247.0378
  0
VERTEX
  8
LAYER_1
 10
320.3935
 20
247.2276
  0
VERTEX
  8
LAYER_1
 10
320.2247
 20
247.4386
  0
VERTEX
  8
LAYER_1
 10
320.0349
 20
247.6285
  0
VERTEX
  8
LAYER_1
 10
319.8451
 20
247.8185
  0
VERTEX
  8
LAYER_1
 10
319.6763
 20
248.0083
  0
VERTEX
  8
LAYER_1
 10
319.4864
 20
248.1981
  0
VERTEX
  8
LAYER_1
 10
319.2963
 20
248.3881
  0
VERTEX
  8
LAYER_1
 10
319.0854
 20
248.5779
  0
VERTEX
  8
LAYER_1
 10
318.8956
 20
248.7678
  0
VERTEX
  8
LAYER_1
 10
318.7058
 20
248.9366
  0
VERTEX
  8
LAYER_1
 10
318.4949
 20
249.1266
  0
VERTEX
  8
LAYER_1
 10
318.3048
 20
249.3164
  0
VERTEX
  8
LAYER_1
 10
318.0939
 20
249.5062
  0
VERTEX
  8
LAYER_1
 10
317.8831
 20
249.675
  0
VERTEX
  8
LAYER_1
 10
317.6719
 20
249.8649
  0
VERTEX
  8
LAYER_1
 10
317.4611
 20
250.0337
  0
VERTEX
  8
LAYER_1
 10
317.2502
 20
250.2237
  0
VERTEX
  8
LAYER_1
 10
317.039
 20
250.3923
  0
VERTEX
  8
LAYER_1
 10
316.8072
 20
250.5823
  0
VERTEX
  8
LAYER_1
 10
316.596
 20
250.7511
  0
VERTEX
  8
LAYER_1
 10
316.3642
 20
250.9197
  0
VERTEX
  8
LAYER_1
 10
316.132
 20
251.1097
  0
VERTEX
  8
LAYER_1
 10
315.9211
 20
251.2785
  0
VERTEX
  8
LAYER_1
 10
315.6889
 20
251.4474
  0
VERTEX
  8
LAYER_1
 10
315.4571
 20
251.616
  0
VERTEX
  8
LAYER_1
 10
315.2038
 20
251.7848
  0
VERTEX
  8
LAYER_1
 10
314.9716
 20
251.9536
  0
VERTEX
  8
LAYER_1
 10
314.7398
 20
252.1224
  0
VERTEX
  8
LAYER_1
 10
314.4866
 20
252.2912
  0
VERTEX
  8
LAYER_1
 10
314.2544
 20
252.46
  0
VERTEX
  8
LAYER_1
 10
314.0012
 20
252.6289
  0
VERTEX
  8
LAYER_1
 10
313.7479
 20
252.7765
  0
VERTEX
  8
LAYER_1
 10
313.4951
 20
252.9453
  0
VERTEX
  8
LAYER_1
 10
313.2419
 20
253.1141
  0
VERTEX
  8
LAYER_1
 10
312.9886
 20
253.2617
  0
VERTEX
  8
LAYER_1
 10
312.7354
 20
253.4305
  0
VERTEX
  8
LAYER_1
 10
312.4822
 20
253.5781
  0
VERTEX
  8
LAYER_1
 10
312.208
 20
253.7259
  0
VERTEX
  8
LAYER_1
 10
311.9548
 20
253.8948
  0
VERTEX
  8
LAYER_1
 10
311.6805
 20
254.0424
  0
VERTEX
  8
LAYER_1
 10
311.4277
 20
254.19
  0
VERTEX
  8
LAYER_1
 10
311.1534
 20
254.3378
  0
VERTEX
  8
LAYER_1
 10
310.8789
 20
254.4854
  0
VERTEX
  8
LAYER_1
 10
310.6046
 20
254.6332
  0
VERTEX
  8
LAYER_1
 10
310.3304
 20
254.7808
  0
VERTEX
  8
LAYER_1
 10
310.0562
 20
254.9285
  0
VERTEX
  8
LAYER_1
 10
309.782
 20
255.0762
  0
VERTEX
  8
LAYER_1
 10
309.4867
 20
255.2239
  0
VERTEX
  8
LAYER_1
 10
309.2125
 20
255.3715
  0
VERTEX
  8
LAYER_1
 10
308.9169
 20
255.4981
  0
VERTEX
  8
LAYER_1
 10
308.6427
 20
255.6459
  0
VERTEX
  8
LAYER_1
 10
308.3474
 20
255.7725
  0
VERTEX
  8
LAYER_1
 10
308.0522
 20
255.9201
  0
VERTEX
  8
LAYER_1
 10
307.7566
 20
256.0467
  0
VERTEX
  8
LAYER_1
 10
307.4824
 20
256.1733
  0
VERTEX
  8
LAYER_1
 10
307.1871
 20
256.321
  0
VERTEX
  8
LAYER_1
 10
306.8708
 20
256.4476
  0
VERTEX
  8
LAYER_1
 10
306.5753
 20
256.5742
  0
VERTEX
  8
LAYER_1
 10
306.28
 20
256.7008
  0
VERTEX
  8
LAYER_1
 10
305.9848
 20
256.8274
  0
VERTEX
  8
LAYER_1
 10
305.6682
 20
256.954
  0
VERTEX
  8
LAYER_1
 10
305.3729
 20
257.0806
  0
VERTEX
  8
LAYER_1
 10
305.0563
 20
257.186
  0
VERTEX
  8
LAYER_1
 10
304.7611
 20
257.3126
  0
VERTEX
  8
LAYER_1
 10
304.4445
 20
257.4392
  0
VERTEX
  8
LAYER_1
 10
304.1282
 20
257.5447
  0
VERTEX
  8
LAYER_1
 10
303.8116
 20
257.6713
  0
VERTEX
  8
LAYER_1
 10
303.4953
 20
257.7769
  0
VERTEX
  8
LAYER_1
 10
303.1787
 20
257.9033
  0
VERTEX
  8
LAYER_1
 10
302.8625
 20
258.0089
  0
VERTEX
  8
LAYER_1
 10
302.5459
 20
258.1143
  0
VERTEX
  8
LAYER_1
 10
302.2296
 20
258.2199
  0
VERTEX
  8
LAYER_1
 10
301.913
 20
258.3253
  0
VERTEX
  8
LAYER_1
 10
301.5754
 20
258.4307
  0
VERTEX
  8
LAYER_1
 10
301.2591
 20
258.5363
  0
VERTEX
  8
LAYER_1
 10
300.9215
 20
258.6419
  0
VERTEX
  8
LAYER_1
 10
300.6053
 20
258.7473
  0
VERTEX
  8
LAYER_1
 10
300.2676
 20
258.8528
  0
VERTEX
  8
LAYER_1
 10
299.951
 20
258.9372
  0
VERTEX
  8
LAYER_1
 10
299.6138
 20
259.0426
  0
VERTEX
  8
LAYER_1
 10
299.2761
 20
259.127
  0
VERTEX
  8
LAYER_1
 10
298.9385
 20
259.2326
  0
VERTEX
  8
LAYER_1
 10
298.6009
 20
259.317
  0
VERTEX
  8
LAYER_1
 10
298.2633
 20
259.4014
  0
VERTEX
  8
LAYER_1
 10
297.926
 20
259.4858
  0
VERTEX
  8
LAYER_1
 10
297.5884
 20
259.5702
  0
VERTEX
  8
LAYER_1
 10
297.2508
 20
259.6544
  0
VERTEX
  8
LAYER_1
 10
296.9131
 20
259.7388
  0
VERTEX
  8
LAYER_1
 10
296.5759
 20
259.8232
  0
VERTEX
  8
LAYER_1
 10
296.2382
 20
259.9076
  0
VERTEX
  8
LAYER_1
 10
295.8796
 20
259.9921
  0
VERTEX
  8
LAYER_1
 10
295.542
 20
260.0554
  0
VERTEX
  8
LAYER_1
 10
295.1834
 20
260.1398
  0
VERTEX
  8
LAYER_1
 10
294.8457
 20
260.2031
  0
VERTEX
  8
LAYER_1
 10
294.4871
 20
260.2875
  0
VERTEX
  8
LAYER_1
 10
294.1498
 20
260.3507
  0
VERTEX
  8
LAYER_1
 10
293.7909
 20
260.4141
  0
VERTEX
  8
LAYER_1
 10
293.4536
 20
260.4775
  0
VERTEX
  8
LAYER_1
 10
293.0949
 20
260.5407
  0
VERTEX
  8
LAYER_1
 10
292.7363
 20
260.6039
  0
VERTEX
  8
LAYER_1
 10
292.3987
 20
260.6673
  0
VERTEX
  8
LAYER_1
 10
292.0401
 20
260.7305
  0
VERTEX
  8
LAYER_1
 10
291.6814
 20
260.7939
  0
VERTEX
  8
LAYER_1
 10
291.3228
 20
260.8571
  0
VERTEX
  8
LAYER_1
 10
290.9642
 20
260.8993
  0
VERTEX
  8
LAYER_1
 10
290.6055
 20
260.9625
  0
VERTEX
  8
LAYER_1
 10
290.2469
 20
261.0047
  0
VERTEX
  8
LAYER_1
 10
289.8882
 20
261.0681
  0
VERTEX
  8
LAYER_1
 10
289.5296
 20
261.1103
  0
VERTEX
  8
LAYER_1
 10
289.171
 20
261.1525
  0
VERTEX
  8
LAYER_1
 10
288.8123
 20
261.1947
  0
VERTEX
  8
LAYER_1
 10
288.4537
 20
261.2369
  0
VERTEX
  8
LAYER_1
 10
288.0951
 20
261.2791
  0
VERTEX
  8
LAYER_1
 10
287.7364
 20
261.3213
  0
VERTEX
  8
LAYER_1
 10
287.3568
 20
261.3635
  0
VERTEX
  8
LAYER_1
 10
286.9982
 20
261.4057
  0
VERTEX
  8
LAYER_1
 10
286.6395
 20
261.4268
  0
VERTEX
  8
LAYER_1
 10
286.2809
 20
261.469
  0
VERTEX
  8
LAYER_1
 10
285.9009
 20
261.49
  0
VERTEX
  8
LAYER_1
 10
285.5423
 20
261.5324
  0
VERTEX
  8
LAYER_1
 10
285.1836
 20
261.5534
  0
VERTEX
  8
LAYER_1
 10
284.804
 20
261.5746
  0
VERTEX
  8
LAYER_1
 10
284.4453
 20
261.5956
  0
VERTEX
  8
LAYER_1
 10
284.0867
 20
261.6168
  0
VERTEX
  8
LAYER_1
 10
283.7071
 20
261.6378
  0
VERTEX
  8
LAYER_1
 10
283.3484
 20
261.6588
  0
VERTEX
  8
LAYER_1
 10
282.9898
 20
261.68
  0
VERTEX
  8
LAYER_1
 10
282.6101
 20
261.701
  0
VERTEX
  8
LAYER_1
 10
282.2515
 20
261.701
  0
VERTEX
  8
LAYER_1
 10
281.8715
 20
261.7222
  0
VERTEX
  8
LAYER_1
 10
281.7451
 20
261.7222
  0
SEQEND
  0
POLYLINE
  8
LAYER_1
 40
0.1235
 41
0.1235
 66
1
 10
0
 20
0
 30
0
  0
VERTEX
  8
LAYER_1
 10
322.1867
 20
224.547
  0
VERTEX
  8
LAYER_1
 10
322.3342
 20
224.7368
  0
VERTEX
  8
LAYER_1
 10
322.482
 20
224.9479
  0
VERTEX
  8
LAYER_1
 10
322.6084
 20
225.1589
  0
VERTEX
  8
LAYER_1
 10
322.7562
 20
225.3487
  0
VERTEX
  8
LAYER_1
 10
322.883
 20
225.5597
  0
VERTEX
  8
LAYER_1
 10
323.0304
 20
225.7707
  0
VERTEX
  8
LAYER_1
 10
323.1572
 20
225.9817
  0
VERTEX
  8
LAYER_1
 10
323.2836
 20
226.1926
  0
VERTEX
  8
LAYER_1
 10
323.4104
 20
226.3826
  0
VERTEX
  8
LAYER_1
 10
323.5368
 20
226.5936
  0
VERTEX
  8
LAYER_1
 10
323.6423
 20
226.8044
  0
VERTEX
  8
LAYER_1
 10
323.7687
 20
227.0154
  0
VERTEX
  8
LAYER_1
 10
323.8745
 20
227.2264
  0
VERTEX
  8
LAYER_1
 10
323.9799
 20
227.4375
  0
VERTEX
  8
LAYER_1
 10
324.1063
 20
227.6485
  0
VERTEX
  8
LAYER_1
 10
324.2117
 20
227.8595
  0
VERTEX
  8
LAYER_1
 10
324.2961
 20
228.0705
  0
VERTEX
  8
LAYER_1
 10
324.4019
 20
228.2813
  0
VERTEX
  8
LAYER_1
 10
324.5073
 20
228.4923
  0
VERTEX
  8
LAYER_1
 10
324.5917
 20
228.7034
  0
VERTEX
  8
LAYER_1
 10
324.6761
 20
228.9354
  0
VERTEX
  8
LAYER_1
 10
324.7816
 20
229.1464
  0
VERTEX
  8
LAYER_1
 10
324.866
 20
229.3574
  0
VERTEX
  8
LAYER_1
 10
324.9504
 20
229.5684
  0
VERTEX
  8
LAYER_1
 10
325.0134
 20
229.7794
  0
VERTEX
  8
LAYER_1
 10
325.0978
 20
230.0115
  0
VERTEX
  8
LAYER_1
 10
325.1822
 20
230.2225
  0
VERTEX
  8
LAYER_1
 10
325.2456
 20
230.4335
  0
VERTEX
  8
LAYER_1
 10
325.309
 20
230.6443
  0
VERTEX
  8
LAYER_1
 10
325.372
 20
230.8765
  0
VERTEX
  8
LAYER_1
 10
325.4354
 20
231.0874
  0
VERTEX
  8
LAYER_1
 10
325.4988
 20
231.2985
  0
VERTEX
  8
LAYER_1
 10
325.5622
 20
231.5306
  0
VERTEX
  8
LAYER_1
 10
325.6042
 20
231.7416
  0
VERTEX
  8
LAYER_1
 10
325.6676
 20
231.9524
  0
VERTEX
  8
LAYER_1
 10
325.7097
 20
232.1846
  0
VERTEX
  8
LAYER_1
 10
325.752
 20
232.3955
  0
VERTEX
  8
LAYER_1
 10
325.7941
 20
232.6277
  0
VERTEX
  8
LAYER_1
 10
325.8364
 20
232.8387
  0
VERTEX
  8
LAYER_1
 10
325.8785
 20
233.0495
  0
VERTEX
  8
LAYER_1
 10
325.9208
 20
233.2817
  0
VERTEX
  8
LAYER_1
 10
325.9419
 20
233.4927
  0
VERTEX
  8
LAYER_1
 10
325.9629
 20
233.7248
  0
VERTEX
  8
LAYER_1
 10
326.0053
 20
233.9358
  0
VERTEX
  8
LAYER_1
 10
326.0263
 20
234.1678
  0
VERTEX
  8
LAYER_1
 10
326.0473
 20
234.3788
  0
VERTEX
  8
LAYER_1
 10
326.0473
 20
234.6108
  0
VERTEX
  8
LAYER_1
 10
326.0683
 20
234.7796
  0
SEQEND
  0
POLYLINE
  8
LAYER_1
 40
0.1235
 41
0.1235
 66
1
 10
0
 20
0
 30
0
  0
VERTEX
  8
LAYER_1
 10
311.2799
 20
89.4336
  0
VERTEX
  8
LAYER_1
 10
311.5751
 20
89.6445
  0
VERTEX
  8
LAYER_1
 10
311.8917
 20
89.8343
  0
VERTEX
  8
LAYER_1
 10
312.208
 20
90.0455
  0
VERTEX
  8
LAYER_1
 10
312.5032
 20
90.2563
  0
VERTEX
  8
LAYER_1
 10
312.7988
 20
90.4672
  0
VERTEX
  8
LAYER_1
 10
313.0941
 20
90.6784
  0
VERTEX
  8
LAYER_1
 10
313.2629
 20
90.8048
  0
SEQEND
  0
POLYLINE
  8
LAYER_1
 40
0.1235
 41
0.1235
 66
1
 10
0
 20
0
 30
0
  0
VERTEX
  8
LAYER_1
 10
314.0646
 20
91.4166
  0
VERTEX
  8
LAYER_1
 10
314.2754
 20
91.5855
  0
VERTEX
  8
LAYER_1
 10
314.5496
 20
91.8177
  0
VERTEX
  8
LAYER_1
 10
314.8452
 20
92.0499
  0
VERTEX
  8
LAYER_1
 10
315.1194
 20
92.2817
  0
VERTEX
  8
LAYER_1
 10
315.3937
 20
92.5349
  0
VERTEX
  8
LAYER_1
 10
315.6679
 20
92.7671
  0
VERTEX
  8
LAYER_1
 10
315.9421
 20
93.0203
  0
VERTEX
  8
LAYER_1
 10
316.0475
 20
93.1258
  0
SEQEND
  0
POLYLINE
  8
LAYER_1
 40
0.1235
 41
0.1235
 66
1
 10
0
 20
0
 30
0
  0
VERTEX
  8
LAYER_1
 10
316.8492
 20
93.9064
  0
VERTEX
  8
LAYER_1
 10
316.997
 20
94.0539
  0
VERTEX
  8
LAYER_1
 10
317.2502
 20
94.3284
  0
VERTEX
  8
LAYER_1
 10
317.5031
 20
94.5817
  0
VERTEX
  8
LAYER_1
 10
317.7563
 20
94.8559
  0
VERTEX
  8
LAYER_1
 10
318.0095
 20
95.1301
  0
VERTEX
  8
LAYER_1
 10
318.2417
 20
95.4043
  0
VERTEX
  8
LAYER_1
 10
318.4736
 20
95.6786
  0
VERTEX
  8
LAYER_1
 10
318.6634
 20
95.8898
  0
SEQEND
  0
POLYLINE
  8
LAYER_1
 40
0.1235
 41
0.1235
 66
1
 10
0
 20
0
 30
0
  0
VERTEX
  8
LAYER_1
 10
319.2963
 20
96.6914
  0
VERTEX
  8
LAYER_1
 10
319.402
 20
96.8389
  0
VERTEX
  8
LAYER_1
 10
319.6339
 20
97.1345
  0
VERTEX
  8
LAYER_1
 10
319.8451
 20
97.4297
  0
VERTEX
  8
LAYER_1
 10
320.0769
 20
97.7253
  0
VERTEX
  8
LAYER_1
 10
320.2878
 20
98.0205
  0
VERTEX
  8
LAYER_1
 10
320.499
 20
98.3158
  0
VERTEX
  8
LAYER_1
 10
320.6888
 20
98.6324
  0
VERTEX
  8
LAYER_1
 10
320.7098
 20
98.6744
  0
SEQEND
  0
POLYLINE
  8
LAYER_1
 40
0.1235
 41
0.1235
 66
1
 10
0
 20
0
 30
0
  0
VERTEX
  8
LAYER_1
 10
321.2372
 20
99.4764
  0
VERTEX
  8
LAYER_1
 10
321.2796
 20
99.5608
  0
VERTEX
  8
LAYER_1
 10
321.4694
 20
99.8771
  0
VERTEX
  8
LAYER_1
 10
321.6593
 20
100.1937
  0
VERTEX
  8
LAYER_1
 10
321.8491
 20
100.51
  0
VERTEX
  8
LAYER_1
 10
322.0389
 20
100.8266
  0
VERTEX
  8
LAYER_1
 10
322.2077
 20
101.1642
  0
VERTEX
  8
LAYER_1
 10
322.3555
 20
101.4594
  0
SEQEND
  0
POLYLINE
  8
LAYER_1
 40
0.1235
 41
0.1235
 66
1
 10
0
 20
0
 30
0
  0
VERTEX
  8
LAYER_1
 10
322.7772
 20
102.2615
  0
VERTEX
  8
LAYER_1
 10
322.8616
 20
102.4723
  0
VERTEX
  8
LAYER_1
 10
323.0304
 20
102.8099
  0
VERTEX
  8
LAYER_1
 10
323.1782
 20
103.1475
  0
VERTEX
  8
LAYER_1
 10
323.3257
 20
103.4852
  0
VERTEX
  8
LAYER_1
 10
323.4735
 20
103.8224
  0
VERTEX
  8
LAYER_1
 10
323.6212
 20
104.1601
  0
VERTEX
  8
LAYER_1
 10
323.6423
 20
104.2445
  0
SEQEND
  0
POLYLINE
  8
LAYER_1
 40
0.1235
 41
0.1235
 66
1
 10
0
 20
0
 30
0
  0
VERTEX
  8
LAYER_1
 10
323.9589
 20
105.0461
  0
VERTEX
  8
LAYER_1
 10
324.0009
 20
105.1939
  0
VERTEX
  8
LAYER_1
 10
324.1273
 20
105.5315
  0
VERTEX
  8
LAYER_1
 10
324.2541
 20
105.8692
  0
VERTEX
  8
LAYER_1
 10
324.3595
 20
106.2278
  0
VERTEX
  8
LAYER_1
 10
324.486
 20
106.5864
  0
VERTEX
  8
LAYER_1
 10
324.5917
 20
106.9241
  0
VERTEX
  8
LAYER_1
 10
324.6127
 20
107.0295
  0
SEQEND
  0
POLYLINE
  8
LAYER_1
 40
0.1235
 41
0.1235
 66
1
 10
0
 20
0
 30
0
  0
VERTEX
  8
LAYER_1
 10
324.8449
 20
107.8311
  0
VERTEX
  8
LAYER_1
 10
324.887
 20
108
  0
VERTEX
  8
LAYER_1
 10
324.9714
 20
108.3586
  0
VERTEX
  8
LAYER_1
 10
325.0558
 20
108.7172
  0
VERTEX
  8
LAYER_1
 10
325.1402
 20
109.0759
  0
VERTEX
  8
LAYER_1
 10
325.2246
 20
109.4348
  0
VERTEX
  8
LAYER_1
 10
325.309
 20
109.7935
  0
VERTEX
  8
LAYER_1
 10
325.309
 20
109.8145
  0
SEQEND
  0
POLYLINE
  8
LAYER_1
 40
0.1235
 41
0.1235
 66
1
 10
0
 20
0
 30
0
  0
VERTEX
  8
LAYER_1
 10
325.4564
 20
110.6162
  0
VERTEX
  8
LAYER_1
 10
325.4988
 20
110.8694
  0
VERTEX
  8
LAYER_1
 10
325.5619
 20
111.249
  0
VERTEX
  8
LAYER_1
 10
325.6042
 20
111.6077
  0
VERTEX
  8
LAYER_1
 10
325.6463
 20
111.9666
  0
VERTEX
  8
LAYER_1
 10
325.7097
 20
112.3253
  0
VERTEX
  8
LAYER_1
 10
325.7307
 20
112.5995
  0
SEQEND
  0
POLYLINE
  8
LAYER_1
 40
0.1235
 41
0.1235
 66
1
 10
0
 20
0
 30
0
  0
VERTEX
  8
LAYER_1
 10
291.618
 20
84.8551
  0
VERTEX
  8
LAYER_1
 10
291.9767
 20
84.8341
  0
VERTEX
  8
LAYER_1
 10
292.3563
 20
84.8341
  0
VERTEX
  8
LAYER_1
 10
292.7149
 20
84.8341
  0
VERTEX
  8
LAYER_1
 10
293.0949
 20
84.8131
  0
VERTEX
  8
LAYER_1
 10
293.4536
 20
84.8131
  0
VERTEX
  8
LAYER_1
 10
293.601
 20
84.8131
  0
SEQEND
  0
POLYLINE
  8
LAYER_1
 40
0.1235
 41
0.1235
 66
1
 10
0
 20
0
 30
0
  0
VERTEX
  8
LAYER_1
 10
294.4027
 20
84.8551
  0
VERTEX
  8
LAYER_1
 10
294.5505
 20
84.8551
  0
VERTEX
  8
LAYER_1
 10
294.9301
 20
84.8551
  0
VERTEX
  8
LAYER_1
 10
295.2888
 20
84.8761
  0
VERTEX
  8
LAYER_1
 10
295.6684
 20
84.8975
  0
VERTEX
  8
LAYER_1
 10
296.0271
 20
84.9185
  0
VERTEX
  8
LAYER_1
 10
296.3857
 20
84.9605
  0
SEQEND
  0
POLYLINE
  8
LAYER_1
 40
0.1235
 41
0.1235
 66
1
 10
0
 20
0
 30
0
  0
VERTEX
  8
LAYER_1
 10
297.1874
 20
85.0239
  0
VERTEX
  8
LAYER_1
 10
297.504
 20
85.0663
  0
VERTEX
  8
LAYER_1
 10
297.8626
 20
85.1083
  0
VERTEX
  8
LAYER_1
 10
298.2212
 20
85.1507
  0
VERTEX
  8
LAYER_1
 10
298.6009
 20
85.2137
  0
VERTEX
  8
LAYER_1
 10
298.9595
 20
85.2561
  0
VERTEX
  8
LAYER_1
 10
299.1707
 20
85.2982
  0
SEQEND
  0
POLYLINE
  8
LAYER_1
 40
0.1235
 41
0.1235
 66
1
 10
0
 20
0
 30
0
  0
VERTEX
  8
LAYER_1
 10
299.972
 20
85.4249
  0
VERTEX
  8
LAYER_1
 10
300.0354
 20
85.4459
  0
VERTEX
  8
LAYER_1
 10
300.4151
 20
85.5093
  0
VERTEX
  8
LAYER_1
 10
300.7737
 20
85.5937
  0
VERTEX
  8
LAYER_1
 10
301.1324
 20
85.6568
  0
VERTEX
  8
LAYER_1
 10
301.491
 20
85.7412
  0
VERTEX
  8
LAYER_1
 10
301.8496
 20
85.8256
  0
VERTEX
  8
LAYER_1
 10
301.9554
 20
85.847
  0
SEQEND
  0
POLYLINE
  8
LAYER_1
 40
0.1235
 41
0.1235
 66
1
 10
0
 20
0
 30
0
  0
VERTEX
  8
LAYER_1
 10
302.7571
 20
86.0578
  0
VERTEX
  8
LAYER_1
 10
302.9259
 20
86.0998
  0
VERTEX
  8
LAYER_1
 10
303.2631
 20
86.2056
  0
VERTEX
  8
LAYER_1
 10
303.6218
 20
86.29
  0
VERTEX
  8
LAYER_1
 10
303.9804
 20
86.3954
  0
VERTEX
  8
LAYER_1
 10
304.339
 20
86.5008
  0
VERTEX
  8
LAYER_1
 10
304.6767
 20
86.6063
  0
VERTEX
  8
LAYER_1
 10
304.7401
 20
86.6273
  0
SEQEND
  0
POLYLINE
  8
LAYER_1
 40
0.1235
 41
0.1235
 66
1
 10
0
 20
0
 30
0
  0
VERTEX
  8
LAYER_1
 10
305.5417
 20
86.9018
  0
VERTEX
  8
LAYER_1
 10
305.7316
 20
86.9649
  0
VERTEX
  8
LAYER_1
 10
306.0692
 20
87.0917
  0
VERTEX
  8
LAYER_1
 10
306.4278
 20
87.2181
  0
VERTEX
  8
LAYER_1
 10
306.7654
 20
87.3449
  0
VERTEX
  8
LAYER_1
 10
307.1027
 20
87.4923
  0
VERTEX
  8
LAYER_1
 10
307.4613
 20
87.6191
  0
VERTEX
  8
LAYER_1
 10
307.5247
 20
87.6401
  0
SEQEND
  0
POLYLINE
  8
LAYER_1
 40
0.1235
 41
0.1235
 66
1
 10
0
 20
0
 30
0
  0
VERTEX
  8
LAYER_1
 10
308.3264
 20
87.9988
  0
VERTEX
  8
LAYER_1
 10
308.4738
 20
88.0622
  0
VERTEX
  8
LAYER_1
 10
308.8115
 20
88.2099
  0
VERTEX
  8
LAYER_1
 10
309.1491
 20
88.3574
  0
VERTEX
  8
LAYER_1
 10
309.4657
 20
88.5262
  0
VERTEX
  8
LAYER_1
 10
309.803
 20
88.674
  0
VERTEX
  8
LAYER_1
 10
310.1406
 20
88.8428
  0
VERTEX
  8
LAYER_1
 10
310.3094
 20
88.9272
  0
SEQEND
  0
POLYLINE
  8
LAYER_1
 40
0.1235
 41
0.1235
 66
1
 10
0
 20
0
 30
0
  0
VERTEX
  8
LAYER_1
 10
311.1111
 20
89.3492
  0
VERTEX
  8
LAYER_1
 10
311.2799
 20
89.4336
  0
SEQEND
  0
POLYLINE
  8
LAYER_1
 40
0.1235
 41
0.1235
 66
1
 10
0
 20
0
 30
0
  0
VERTEX
  8
LAYER_1
 10
288.4537
 20
79.9603
  0
VERTEX
  8
LAYER_1
 10
288.8334
 20
79.9813
  0
VERTEX
  8
LAYER_1
 10
289.192
 20
80.0027
  0
VERTEX
  8
LAYER_1
 10
289.5716
 20
80.0447
  0
VERTEX
  8
LAYER_1
 10
289.9303
 20
80.0657
  0
VERTEX
  8
LAYER_1
 10
290.2889
 20
80.1081
  0
VERTEX
  8
LAYER_1
 10
290.6689
 20
80.1291
  0
VERTEX
  8
LAYER_1
 10
291.0275
 20
80.1715
  0
VERTEX
  8
LAYER_1
 10
291.3862
 20
80.2135
  0
VERTEX
  8
LAYER_1
 10
291.7658
 20
80.2559
  0
VERTEX
  8
LAYER_1
 10
292.1245
 20
80.2979
  0
VERTEX
  8
LAYER_1
 10
292.4831
 20
80.3613
  0
VERTEX
  8
LAYER_1
 10
292.8627
 20
80.4034
  0
VERTEX
  8
LAYER_1
 10
293.2214
 20
80.4668
  0
VERTEX
  8
LAYER_1
 10
293.58
 20
80.5091
  0
VERTEX
  8
LAYER_1
 10
293.9386
 20
80.5722
  0
VERTEX
  8
LAYER_1
 10
294.3183
 20
80.6356
  0
VERTEX
  8
LAYER_1
 10
294.6769
 20
80.699
  0
VERTEX
  8
LAYER_1
 10
295.0356
 20
80.762
  0
VERTEX
  8
LAYER_1
 10
295.3942
 20
80.8254
  0
VERTEX
  8
LAYER_1
 10
295.7528
 20
80.9098
  0
VERTEX
  8
LAYER_1
 10
296.1115
 20
80.9732
  0
VERTEX
  8
LAYER_1
 10
296.4701
 20
81.0576
  0
VERTEX
  8
LAYER_1
 10
296.8287
 20
81.121
  0
SEQEND
  0
POLYLINE
  8
LAYER_1
 40
0.1235
 41
0.1235
 66
1
 10
0
 20
0
 30
0
  0
VERTEX
  8
LAYER_1
 10
235.2277
 20
112.7259
  0
VERTEX
  8
LAYER_1
 10
235.2487
 20
112.3463
  0
VERTEX
  8
LAYER_1
 10
235.27
 20
111.9877
  0
VERTEX
  8
LAYER_1
 10
235.3121
 20
111.608
  0
VERTEX
  8
LAYER_1
 10
235.3331
 20
111.249
  0
VERTEX
  8
LAYER_1
 10
235.3755
 20
110.8904
  0
VERTEX
  8
LAYER_1
 10
235.4389
 20
110.5107
  0
VERTEX
  8
LAYER_1
 10
235.4809
 20
110.1521
  0
VERTEX
  8
LAYER_1
 10
235.5443
 20
109.7935
  0
VERTEX
  8
LAYER_1
 10
235.5863
 20
109.4348
  0
VERTEX
  8
LAYER_1
 10
235.6707
 20
109.0762
  0
VERTEX
  8
LAYER_1
 10
235.7341
 20
108.6962
  0
VERTEX
  8
LAYER_1
 10
235.7975
 20
108.3376
  0
VERTEX
  8
LAYER_1
 10
235.8816
 20
107.9789
  0
VERTEX
  8
LAYER_1
 10
235.966
 20
107.6203
  0
VERTEX
  8
LAYER_1
 10
236.0504
 20
107.2617
  0
VERTEX
  8
LAYER_1
 10
236.1348
 20
106.903
  0
VERTEX
  8
LAYER_1
 10
236.2405
 20
106.5654
  0
VERTEX
  8
LAYER_1
 10
236.346
 20
106.2068
  0
VERTEX
  8
LAYER_1
 10
236.4514
 20
105.8481
  0
VERTEX
  8
LAYER_1
 10
236.5568
 20
105.4895
  0
VERTEX
  8
LAYER_1
 10
236.6832
 20
105.1519
  0
VERTEX
  8
LAYER_1
 10
236.7256
 20
104.9831
  0
SEQEND
  0
POLYLINE
  8
LAYER_1
 40
0.1235
 41
0.1235
 66
1
 10
0
 20
0
 30
0
  0
VERTEX
  8
LAYER_1
 10
257.6108
 20
83.969
  0
VERTEX
  8
LAYER_1
 10
257.9484
 20
83.8212
  0
VERTEX
  8
LAYER_1
 10
258.286
 20
83.6738
  0
VERTEX
  8
LAYER_1
 10
258.6233
 20
83.526
  0
VERTEX
  8
LAYER_1
 10
258.9609
 20
83.3782
  0
VERTEX
  8
LAYER_1
 10
259.2986
 20
83.2518
  0
VERTEX
  8
LAYER_1
 10
259.6362
 20
83.104
  0
VERTEX
  8
LAYER_1
 10
259.9948
 20
82.9775
  0
VERTEX
  8
LAYER_1
 10
260.3324
 20
82.8508
  0
VERTEX
  8
LAYER_1
 10
260.6697
 20
82.7243
  0
VERTEX
  8
LAYER_1
 10
261.0283
 20
82.5975
  0
VERTEX
  8
LAYER_1
 10
261.366
 20
82.4921
  0
VERTEX
  8
LAYER_1
 10
261.7246
 20
82.3657
  0
VERTEX
  8
LAYER_1
 10
262.0832
 20
82.2599
  0
VERTEX
  8
LAYER_1
 10
262.4208
 20
82.1545
  0
VERTEX
  8
LAYER_1
 10
262.7795
 20
82.0491
  0
VERTEX
  8
LAYER_1
 10
263.1381
 20
81.9437
  0
VERTEX
  8
LAYER_1
 10
263.4968
 20
81.8382
  0
VERTEX
  8
LAYER_1
 10
263.8344
 20
81.7325
  0
VERTEX
  8
LAYER_1
 10
264.193
 20
81.6481
  0
VERTEX
  8
LAYER_1
 10
264.5516
 20
81.564
  0
VERTEX
  8
LAYER_1
 10
264.9103
 20
81.4796
  0
VERTEX
  8
LAYER_1
 10
265.2689
 20
81.3952
  0
VERTEX
  8
LAYER_1
 10
265.6275
 20
81.3108
  0
VERTEX
  8
LAYER_1
 10
265.9862
 20
81.2264
  0
VERTEX
  8
LAYER_1
 10
266.3448
 20
81.142
  0
VERTEX
  8
LAYER_1
 10
266.4712
 20
81.1206
  0
SEQEND
  0
POLYLINE
  8
LAYER_1
 40
0.1235
 41
0.1235
 66
1
 10
0
 20
0
 30
0
  0
VERTEX
  8
LAYER_1
 10
236.7256
 20
104.9831
  0
VERTEX
  8
LAYER_1
 10
236.852
 20
104.6244
  0
VERTEX
  8
LAYER_1
 10
236.9575
 20
104.2868
  0
VERTEX
  8
LAYER_1
 10
237.0842
 20
103.9282
  0
VERTEX
  8
LAYER_1
 10
237.2107
 20
103.5906
  0
VERTEX
  8
LAYER_1
 10
237.3585
 20
103.253
  0
VERTEX
  8
LAYER_1
 10
237.4849
 20
102.9153
  0
VERTEX
  8
LAYER_1
 10
237.6327
 20
102.5567
  0
VERTEX
  8
LAYER_1
 10
237.7591
 20
102.2191
  0
VERTEX
  8
LAYER_1
 10
237.9069
 20
101.8815
  0
VERTEX
  8
LAYER_1
 10
238.0757
 20
101.5438
  0
VERTEX
  8
LAYER_1
 10
238.2235
 20
101.2276
  0
VERTEX
  8
LAYER_1
 10
238.371
 20
100.89
  0
VERTEX
  8
LAYER_1
 10
238.5398
 20
100.5523
  0
VERTEX
  8
LAYER_1
 10
238.7086
 20
100.2357
  0
VERTEX
  8
LAYER_1
 10
238.8774
 20
99.8981
  0
VERTEX
  8
LAYER_1
 10
239.0462
 20
99.5819
  0
VERTEX
  8
LAYER_1
 10
239.236
 20
99.2442
  0
VERTEX
  8
LAYER_1
 10
239.4049
 20
98.9276
  0
VERTEX
  8
LAYER_1
 10
239.5947
 20
98.6114
  0
VERTEX
  8
LAYER_1
 10
239.7845
 20
98.2948
  0
VERTEX
  8
LAYER_1
 10
239.9743
 20
97.9782
  0
VERTEX
  8
LAYER_1
 10
240.1642
 20
97.6829
  0
VERTEX
  8
LAYER_1
 10
240.3753
 20
97.3663
  0
VERTEX
  8
LAYER_1
 10
240.5862
 20
97.0501
  0
VERTEX
  8
LAYER_1
 10
240.776
 20
96.7545
  0
VERTEX
  8
LAYER_1
 10
240.9868
 20
96.4592
  0
VERTEX
  8
LAYER_1
 10
241.198
 20
96.1426
  0
VERTEX
  8
LAYER_1
 10
241.4299
 20
95.8474
  0
VERTEX
  8
LAYER_1
 10
241.5143
 20
95.7209
  0
VERTEX
  8
LAYER_1
 10
241.7465
 20
95.4254
  0
VERTEX
  8
LAYER_1
 10
241.9573
 20
95.1301
  0
VERTEX
  8
LAYER_1
 10
242.1895
 20
94.8345
  0
VERTEX
  8
LAYER_1
 10
242.4214
 20
94.5393
  0
VERTEX
  8
LAYER_1
 10
242.6536
 20
94.265
  0
VERTEX
  8
LAYER_1
 10
242.8858
 20
93.9698
  0
VERTEX
  8
LAYER_1
 10
243.1176
 20
93.6952
  0
VERTEX
  8
LAYER_1
 10
243.3708
 20
93.421
  0
VERTEX
  8
LAYER_1
 10
243.603
 20
93.1468
  0
VERTEX
  8
LAYER_1
 10
243.8563
 20
92.8725
  0
VERTEX
  8
LAYER_1
 10
244.1091
 20
92.5983
  0
VERTEX
  8
LAYER_1
 10
244.3623
 20
92.3451
  0
VERTEX
  8
LAYER_1
 10
244.6156
 20
92.0709
  0
VERTEX
  8
LAYER_1
 10
244.8898
 20
91.8177
  0
VERTEX
  8
LAYER_1
 10
245.143
 20
91.5644
  0
VERTEX
  8
LAYER_1
 10
245.4172
 20
91.2902
  0
VERTEX
  8
LAYER_1
 10
245.6704
 20
91.037
  0
VERTEX
  8
LAYER_1
 10
245.9447
 20
90.8048
  0
VERTEX
  8
LAYER_1
 10
246.2189
 20
90.5516
  0
VERTEX
  8
LAYER_1
 10
246.4931
 20
90.2987
  0
VERTEX
  8
LAYER_1
 10
246.7884
 20
90.0665
  0
VERTEX
  8
LAYER_1
 10
247.0626
 20
89.8343
  0
VERTEX
  8
LAYER_1
 10
247.3368
 20
89.6025
  0
VERTEX
  8
LAYER_1
 10
247.6324
 20
89.3703
  0
VERTEX
  8
LAYER_1
 10
247.9277
 20
89.1381
  0
VERTEX
  8
LAYER_1
 10
248.2229
 20
88.9272
  0
VERTEX
  8
LAYER_1
 10
248.5185
 20
88.695
  0
VERTEX
  8
LAYER_1
 10
248.8138
 20
88.4842
  0
VERTEX
  8
LAYER_1
 10
249.109
 20
88.273
  0
VERTEX
  8
LAYER_1
 10
249.4042
 20
88.0622
  0
VERTEX
  8
LAYER_1
 10
249.7208
 20
87.8513
  0
VERTEX
  8
LAYER_1
 10
250.0161
 20
87.6401
  0
VERTEX
  8
LAYER_1
 10
250.3327
 20
87.4503
  0
VERTEX
  8
LAYER_1
 10
250.649
 20
87.2395
  0
VERTEX
  8
LAYER_1
 10
250.9445
 20
87.0493
  0
VERTEX
  8
LAYER_1
 10
251.2608
 20
86.8595
  0
VERTEX
  8
LAYER_1
 10
251.5774
 20
86.6696
  0
VERTEX
  8
LAYER_1
 10
251.915
 20
86.5008
  0
VERTEX
  8
LAYER_1
 10
252.2313
 20
86.311
  0
VERTEX
  8
LAYER_1
 10
252.5479
 20
86.1422
  0
VERTEX
  8
LAYER_1
 10
252.8852
 20
85.9734
  0
VERTEX
  8
LAYER_1
 10
253.2018
 20
85.8046
  0
VERTEX
  8
LAYER_1
 10
253.5394
 20
85.6358
  0
VERTEX
  8
LAYER_1
 10
253.8557
 20
85.467
  0
VERTEX
  8
LAYER_1
 10
254.1933
 20
85.3195
  0
VERTEX
  8
LAYER_1
 10
254.5309
 20
85.1717
  0
VERTEX
  8
LAYER_1
 10
254.8682
 20
85.0239
  0
VERTEX
  8
LAYER_1
 10
255.2058
 20
84.8761
  0
VERTEX
  8
LAYER_1
 10
255.5434
 20
84.7287
  0
VERTEX
  8
LAYER_1
 10
255.881
 20
84.5809
  0
VERTEX
  8
LAYER_1
 10
256.2397
 20
84.4544
  0
VERTEX
  8
LAYER_1
 10
256.5773
 20
84.3277
  0
VERTEX
  8
LAYER_1
 10
256.9146
 20
84.2012
  0
VERTEX
  8
LAYER_1
 10
257.2732
 20
84.0745
  0
VERTEX
  8
LAYER_1
 10
257.6108
 20
83.969
  0
SEQEND
  0
POLYLINE
  8
LAYER_1
 40
0.1235
 41
0.1235
 66
1
 10
0
 20
0
 30
0
  0
VERTEX
  8
LAYER_1
 10
321.7647
 20
95.7209
  0
VERTEX
  8
LAYER_1
 10
321.9969
 20
96.0162
  0
VERTEX
  8
LAYER_1
 10
322.2077
 20
96.3114
  0
VERTEX
  8
LAYER_1
 10
322.4186
 20
96.607
  0
VERTEX
  8
LAYER_1
 10
322.6297
 20
96.9233
  0
VERTEX
  8
LAYER_1
 10
322.8406
 20
97.2189
  0
VERTEX
  8
LAYER_1
 10
323.0304
 20
97.5351
  0
VERTEX
  8
LAYER_1
 10
323.2416
 20
97.8517
  0
VERTEX
  8
LAYER_1
 10
323.4314
 20
98.147
  0
VERTEX
  8
LAYER_1
 10
323.6212
 20
98.4636
  0
VERTEX
  8
LAYER_1
 10
323.8111
 20
98.7802
  0
VERTEX
  8
LAYER_1
 10
323.9799
 20
99.1175
  0
VERTEX
  8
LAYER_1
 10
324.1697
 20
99.4341
  0
VERTEX
  8
LAYER_1
 10
324.3385
 20
99.7507
  0
VERTEX
  8
LAYER_1
 10
324.5073
 20
100.0883
  0
VERTEX
  8
LAYER_1
 10
324.6761
 20
100.4046
  0
VERTEX
  8
LAYER_1
 10
324.8446
 20
100.7422
  0
VERTEX
  8
LAYER_1
 10
325.0134
 20
101.0588
  0
VERTEX
  8
LAYER_1
 10
325.1612
 20
101.3964
  0
VERTEX
  8
LAYER_1
 10
325.309
 20
101.7337
  0
VERTEX
  8
LAYER_1
 10
325.4564
 20
102.0713
  0
VERTEX
  8
LAYER_1
 10
325.6042
 20
102.4089
  0
VERTEX
  8
LAYER_1
 10
325.752
 20
102.7465
  0
VERTEX
  8
LAYER_1
 10
325.8785
 20
103.0841
  0
VERTEX
  8
LAYER_1
 10
326.0263
 20
103.4428
  0
VERTEX
  8
LAYER_1
 10
326.1527
 20
103.7804
  0
VERTEX
  8
LAYER_1
 10
326.2791
 20
104.118
  0
VERTEX
  8
LAYER_1
 10
326.4059
 20
104.4767
  0
VERTEX
  8
LAYER_1
 10
326.5113
 20
104.8143
  0
VERTEX
  8
LAYER_1
 10
326.5747
 20
104.9831
  0
SEQEND
  0
POLYLINE
  8
LAYER_1
 40
0.1235
 41
0.1235
 66
1
 10
0
 20
0
 30
0
  0
VERTEX
  8
LAYER_1
 10
305.6892
 20
83.969
  0
VERTEX
  8
LAYER_1
 10
306.0478
 20
84.0745
  0
VERTEX
  8
LAYER_1
 10
306.3854
 20
84.2012
  0
VERTEX
  8
LAYER_1
 10
306.7441
 20
84.3277
  0
VERTEX
  8
LAYER_1
 10
307.0817
 20
84.4544
  0
VERTEX
  8
LAYER_1
 10
307.4193
 20
84.6019
  0
VERTEX
  8
LAYER_1
 10
307.7566
 20
84.7287
  0
VERTEX
  8
LAYER_1
 10
308.0942
 20
84.8761
  0
VERTEX
  8
LAYER_1
 10
308.4318
 20
85.0239
  0
VERTEX
  8
LAYER_1
 10
308.7694
 20
85.1717
  0
VERTEX
  8
LAYER_1
 10
309.1071
 20
85.3195
  0
VERTEX
  8
LAYER_1
 10
309.4443
 20
85.488
  0
VERTEX
  8
LAYER_1
 10
309.782
 20
85.6358
  0
VERTEX
  8
LAYER_1
 10
310.0986
 20
85.8046
  0
VERTEX
  8
LAYER_1
 10
310.4358
 20
85.9734
  0
VERTEX
  8
LAYER_1
 10
310.7524
 20
86.1422
  0
VERTEX
  8
LAYER_1
 10
311.0901
 20
86.332
  0
VERTEX
  8
LAYER_1
 10
311.4063
 20
86.5008
  0
VERTEX
  8
LAYER_1
 10
311.7229
 20
86.6907
  0
VERTEX
  8
LAYER_1
 10
312.0392
 20
86.8805
  0
VERTEX
  8
LAYER_1
 10
312.3558
 20
87.0707
  0
VERTEX
  8
LAYER_1
 10
312.672
 20
87.2605
  0
VERTEX
  8
LAYER_1
 10
312.9886
 20
87.4503
  0
VERTEX
  8
LAYER_1
 10
313.2839
 20
87.6611
  0
VERTEX
  8
LAYER_1
 10
313.6005
 20
87.8513
  0
VERTEX
  8
LAYER_1
 10
313.8957
 20
88.0622
  0
VERTEX
  8
LAYER_1
 10
314.2123
 20
88.273
  0
VERTEX
  8
LAYER_1
 10
314.5076
 20
88.4842
  0
VERTEX
  8
LAYER_1
 10
314.8028
 20
88.716
  0
VERTEX
  8
LAYER_1
 10
315.0981
 20
88.9272
  0
VERTEX
  8
LAYER_1
 10
315.3937
 20
89.1591
  0
VERTEX
  8
LAYER_1
 10
315.6679
 20
89.3703
  0
VERTEX
  8
LAYER_1
 10
315.9631
 20
89.6025
  0
VERTEX
  8
LAYER_1
 10
316.2584
 20
89.8343
  0
VERTEX
  8
LAYER_1
 10
316.5326
 20
90.0875
  0
VERTEX
  8
LAYER_1
 10
316.8072
 20
90.3197
  0
VERTEX
  8
LAYER_1
 10
317.0814
 20
90.5516
  0
VERTEX
  8
LAYER_1
 10
317.3557
 20
90.8048
  0
VERTEX
  8
LAYER_1
 10
317.6299
 20
91.058
  0
VERTEX
  8
LAYER_1
 10
317.9041
 20
91.3112
  0
VERTEX
  8
LAYER_1
 10
318.1573
 20
91.5644
  0
VERTEX
  8
LAYER_1
 10
318.4316
 20
91.8177
  0
VERTEX
  8
LAYER_1
 10
318.6844
 20
92.0919
  0
VERTEX
  8
LAYER_1
 10
318.9376
 20
92.3451
  0
VERTEX
  8
LAYER_1
 10
319.1909
 20
92.6193
  0
VERTEX
  8
LAYER_1
 10
319.4441
 20
92.8936
  0
VERTEX
  8
LAYER_1
 10
319.6973
 20
93.1468
  0
VERTEX
  8
LAYER_1
 10
319.9505
 20
93.442
  0
VERTEX
  8
LAYER_1
 10
320.1824
 20
93.7166
  0
VERTEX
  8
LAYER_1
 10
320.4146
 20
93.9908
  0
VERTEX
  8
LAYER_1
 10
320.6464
 20
94.265
  0
VERTEX
  8
LAYER_1
 10
320.8786
 20
94.5603
  0
VERTEX
  8
LAYER_1
 10
321.1108
 20
94.8559
  0
VERTEX
  8
LAYER_1
 10
321.3427
 20
95.1301
  0
VERTEX
  8
LAYER_1
 10
321.5749
 20
95.4254
  0
VERTEX
  8
LAYER_1
 10
321.7647
 20
95.7209
  0
SEQEND
  0
POLYLINE
  8
LAYER_1
 40
0.1235
 41
0.1235
 66
1
 10
0
 20
0
 30
0
  0
VERTEX
  8
LAYER_1
 10
326.5747
 20
104.9831
  0
VERTEX
  8
LAYER_1
 10
326.6801
 20
105.3207
  0
VERTEX
  8
LAYER_1
 10
326.8066
 20
105.6793
  0
VERTEX
  8
LAYER_1
 10
326.912
 20
106.038
  0
VERTEX
  8
LAYER_1
 10
327.0178
 20
106.3966
  0
VERTEX
  8
LAYER_1
 10
327.1022
 20
106.7342
  0
VERTEX
  8
LAYER_1
 10
327.2076
 20
107.0929
  0
VERTEX
  8
LAYER_1
 10
327.292
 20
107.4515
  0
VERTEX
  8
LAYER_1
 10
327.3764
 20
107.8101
  0
VERTEX
  8
LAYER_1
 10
327.4608
 20
108.1688
  0
VERTEX
  8
LAYER_1
 10
327.5238
 20
108.5274
  0
VERTEX
  8
LAYER_1
 10
327.6083
 20
108.886
  0
VERTEX
  8
LAYER_1
 10
327.6716
 20
109.266
  0
VERTEX
  8
LAYER_1
 10
327.735
 20
109.6247
  0
VERTEX
  8
LAYER_1
 10
327.7981
 20
109.9833
  0
VERTEX
  8
LAYER_1
 10
327.8405
 20
110.3419
  0
VERTEX
  8
LAYER_1
 10
327.9038
 20
110.7216
  0
VERTEX
  8
LAYER_1
 10
327.9459
 20
111.0802
  0
VERTEX
  8
LAYER_1
 10
327.9669
 20
111.4392
  0
VERTEX
  8
LAYER_1
 10
328.0093
 20
111.8188
  0
VERTEX
  8
LAYER_1
 10
328.0513
 20
112.1775
  0
VERTEX
  8
LAYER_1
 10
328.0723
 20
112.5361
  0
VERTEX
  8
LAYER_1
 10
328.0723
 20
112.7259
  0
SEQEND
  0
POLYLINE
  8
LAYER_1
 40
0.1235
 41
0.1235
 66
1
 10
0
 20
0
 30
0
  0
VERTEX
  8
LAYER_1
 10
296.8287
 20
81.1206
  0
VERTEX
  8
LAYER_1
 10
297.1874
 20
81.205
  0
VERTEX
  8
LAYER_1
 10
297.546
 20
81.2684
  0
VERTEX
  8
LAYER_1
 10
297.9046
 20
81.3528
  0
VERTEX
  8
LAYER_1
 10
298.2633
 20
81.4372
  0
VERTEX
  8
LAYER_1
 10
298.6219
 20
81.5216
  0
VERTEX
  8
LAYER_1
 10
298.9805
 20
81.606
  0
VERTEX
  8
LAYER_1
 10
299.3392
 20
81.7115
  0
VERTEX
  8
LAYER_1
 10
299.6768
 20
81.7959
  0
VERTEX
  8
LAYER_1
 10
300.0354
 20
81.9013
  0
VERTEX
  8
LAYER_1
 10
300.3941
 20
82.0071
  0
VERTEX
  8
LAYER_1
 10
300.7527
 20
82.1125
  0
VERTEX
  8
LAYER_1
 10
301.0903
 20
82.2179
  0
VERTEX
  8
LAYER_1
 10
301.449
 20
82.3233
  0
VERTEX
  8
LAYER_1
 10
301.8076
 20
82.4501
  0
VERTEX
  8
LAYER_1
 10
302.1452
 20
82.5555
  0
VERTEX
  8
LAYER_1
 10
302.5038
 20
82.6819
  0
VERTEX
  8
LAYER_1
 10
302.8415
 20
82.8087
  0
VERTEX
  8
LAYER_1
 10
303.1787
 20
82.9352
  0
VERTEX
  8
LAYER_1
 10
303.5374
 20
83.0619
  0
VERTEX
  8
LAYER_1
 10
303.875
 20
83.1884
  0
VERTEX
  8
LAYER_1
 10
304.2126
 20
83.3362
  0
VERTEX
  8
LAYER_1
 10
304.5502
 20
83.484
  0
VERTEX
  8
LAYER_1
 10
304.9089
 20
83.6104
  0
VERTEX
  8
LAYER_1
 10
305.2461
 20
83.7582
  0
VERTEX
  8
LAYER_1
 10
305.5838
 20
83.9056
  0
VERTEX
  8
LAYER_1
 10
305.6892
 20
83.969
  0
SEQEND
  0
POLYLINE
  8
LAYER_1
 40
0.1235
 41
0.1235
 66
1
 10
0
 20
0
 30
0
  0
VERTEX
  8
LAYER_1
 10
328.1571
 20
112.9792
  0
VERTEX
  8
LAYER_1
 10
328.1571
 20
113.0425
  0
VERTEX
  8
LAYER_1
 10
328.1357
 20
113.0636
  0
VERTEX
  8
LAYER_1
 10
328.1357
 20
113.0846
  0
VERTEX
  8
LAYER_1
 10
328.1147
 20
113.0846
  0
VERTEX
  8
LAYER_1
 10
328.0937
 20
113.1059
  0
SEQEND
  0
POLYLINE
  8
LAYER_1
 40
0.1235
 41
0.1235
 66
1
 10
0
 20
0
 30
0
  0
VERTEX
  8
LAYER_1
 10
328.0727
 20
112.7259
  0
VERTEX
  8
LAYER_1
 10
328.1571
 20
112.9581
  0
VERTEX
  8
LAYER_1
 10
328.1571
 20
112.9792
  0
SEQEND
  0
POLYLINE
  8
LAYER_1
 40
0.1235
 41
0.1235
 66
1
 10
0
 20
0
 30
0
  0
VERTEX
  8
LAYER_1
 10
328.0937
 20
113.1059
  0
VERTEX
  8
LAYER_1
 10
328.0093
 20
113.1269
  0
VERTEX
  8
LAYER_1
 10
327.9249
 20
113.148
  0
VERTEX
  8
LAYER_1
 10
327.8825
 20
113.148
  0
SEQEND
  0
POLYLINE
  8
LAYER_1
 40
0.1235
 41
0.1235
 66
1
 10
0
 20
0
 30
0
  0
VERTEX
  8
LAYER_1
 10
235.4175
 20
113.148
  0
VERTEX
  8
LAYER_1
 10
235.3331
 20
113.148
  0
VERTEX
  8
LAYER_1
 10
235.2487
 20
113.1269
  0
VERTEX
  8
LAYER_1
 10
235.2067
 20
113.1059
  0
SEQEND
  0
POLYLINE
  8
LAYER_1
 40
0.1235
 41
0.1235
 66
1
 10
0
 20
0
 30
0
  0
VERTEX
  8
LAYER_1
 10
235.2067
 20
113.1059
  0
VERTEX
  8
LAYER_1
 10
235.1856
 20
113.0846
  0
VERTEX
  8
LAYER_1
 10
235.1643
 20
113.0846
  0
VERTEX
  8
LAYER_1
 10
235.1643
 20
113.0636
  0
VERTEX
  8
LAYER_1
 10
235.1433
 20
113.0425
  0
VERTEX
  8
LAYER_1
 10
235.1433
 20
112.9792
  0
VERTEX
  8
LAYER_1
 10
235.2067
 20
112.7259
  0
VERTEX
  8
LAYER_1
 10
235.2277
 20
112.7259
  0
SEQEND
  0
TEXT
  8
LAYER_1
 10
368.4933
 20
90.0644
 11
368.4933
 21
90.0644
 40
5.8989
 41
0.5
  1
 (  5mm )
  0
TEXT
  8
LAYER_1
 10
285.648
 20
150.5324
 11
285.648
 21
150.5324
 40
5.8989
 41
0.5
  1
 5mm )
  0
TEXT
  8
LAYER_1
 10
266.7248
 20
150.7662
 11
266.7248
 21
150.7662
 40
5.1745
 41
0.5
  1
φ
  0
INSERT
  8
LAYER_1
  2
AIGNBL01020003
 10
0
 20
0
 30
0
  0
TEXT
  8
LAYER_1
 10
278.8726
 20
150.5326
 11
278.8726
 21
150.5326
 40
5.8989
 41
0.5
  1
 ( 
  0
TEXT
  8
LAYER_1
 10
115.9071
 20
63.1851
 11
115.9071
 21
63.1851
 40
5.8989
 41
0.5
  1
 5mm )
  0
TEXT
  8
LAYER_1
 10
97.0049
 20
63.398
 11
97.0049
 21
63.398
 40
5.1745
 41
0.5
  1
φ
  0
INSERT
  8
LAYER_1
  2
AIGNBL01020004
 10
0
 20
0
 30
0
  0
TEXT
  8
LAYER_1
 10
109.1527
 20
63.1851
 11
109.1527
 21
63.1851
 40
5.8989
 41
0.5
  1
 ( 
  0
TEXT
  8
LAYER_1
 10
370.4129
 20
95.8663
 11
370.4129
 21
95.8663
 40
5.8989
 41
0.5
  1
100
  0
TEXT
  8
LAYER_1
 10
276.3235
 20
56.1192
 11
276.3235
 21
56.1192
 40
5.8989
 41
0.5
  1
φ41
  0
TEXT
  8
LAYER_1
 10
125.9782
 20
130.1123
 11
125.9782
 21
130.1123
 40
5.8986
 41
0.5
 50
45.00283743
  1
φ41
  0
TEXT
  8
LAYER_1
 10
278.8543
 20
99.5795
 11
278.8543
 21
99.5795
 40
5.8989
 41
0.5
  1
60
  0
TEXT
  8
LAYER_1
 10
97.4566
 20
158.3841
 11
97.4566
 21
158.3841
 40
5.8986
 41
0.5
 50
45.00283743
  1
φ60
  0
TEXT
  8
LAYER_1
 10
237.5579
 20
29.0559
 11
237.5579
 21
29.0559
 40
5.1745
 41
0.5
  1
吹きガラスによる製品の為、多少の誤差がございます。
  0
ENDBLK
  0
BLOCK
  8
LAYER_1
  2
AIGNBL01010005
 70
64
 10
0
 20
0
 30
0
  3
AIGNBL01010005
  0
POLYLINE
  8
LAYER_1
 40
0.05
 41
0.05
 62
255
 66
1
 10
0
 20
0
 30
0
 70
1
  0
VERTEX
  8
LAYER_1
 10
-19.8543
 20
302.7257
  0
VERTEX
  8
LAYER_1
 10
447.9289
 20
302.7257
  0
VERTEX
  8
LAYER_1
 10
447.9289
 20
42.3757
  0
VERTEX
  8
LAYER_1
 10
-19.8543
 20
42.3757
  0
SEQEND
  0
POLYLINE
  8
LAYER_1
 40
0.127
 41
0.127
 66
1
 10
0
 20
0
 30
0
  0
VERTEX
  8
LAYER_1
 10
274.8704
 20
79.9676
  0
VERTEX
  8
LAYER_1
 10
274.8704
 20
82.3385
  0
SEQEND
  0
POLYLINE
  8
LAYER_1
 40
0.05
 41
0.05
 66
1
 10
0
 20
0
 30
0
  0
VERTEX
  8
LAYER_1
 10
274.8287
 20
79.9917
 42
-0.02806440234
  0
VERTEX
  8
LAYER_1
 10
271.487
 20
80.6077
 42
-0.02655769976
  0
VERTEX
  8
LAYER_1
 10
268.4288
 20
81.5263
 42
-0.02611069958
  0
VERTEX
  8
LAYER_1
 10
265.455
 20
82.7735
 42
-0.0235781268
  0
VERTEX
  8
LAYER_1
 10
262.7437
 20
84.2412
 42
-0.0263894383
  0
VERTEX
  8
LAYER_1
 10
259.8417
 20
86.205
 42
-0.02498558077
  0
VERTEX
  8
LAYER_1
 10
257.394
 20
88.259
 42
-0.02512633896
  0
VERTEX
  8
LAYER_1
 10
255.1682
 20
90.5445
 42
-0.02476604061
  0
VERTEX
  8
LAYER_1
 10
253.1642
 20
93.0616
 42
-0.02394629742
  0
VERTEX
  8
LAYER_1
 10
251.382
 20
95.8103
 42
-0.005829536631
  0
VERTEX
  8
LAYER_1
 10
250.9711
 20
96.5336
 42
-0.02528654325
  0
VERTEX
  8
LAYER_1
 10
249.3982
 20
99.7492
 42
-0.0239839406
  0
VERTEX
  8
LAYER_1
 10
248.262
 20
102.8058
 42
-0.03628510041
  0
VERTEX
  8
LAYER_1
 10
247.1258
 20
107.5496
 42
-0.02369010215
  0
VERTEX
  8
LAYER_1
 10
246.7471
 20
110.818
 42
-0.01718250795
  0
VERTEX
  8
LAYER_1
 10
246.6619
 20
113.325
  0
SEQEND
  0
POLYLINE
  8
LAYER_1
 40
0.05
 41
0.05
 66
1
 10
0
 20
0
 30
0
  0
VERTEX
  8
LAYER_1
 10
246.6764
 20
113.3264
  0
VERTEX
  8
LAYER_1
 10
248.9622
 20
113.3264
  0
SEQEND
  0
POLYLINE
  8
LAYER_1
 40
0.05
 41
0.05
 66
1
 10
0
 20
0
 30
0
  0
VERTEX
  8
LAYER_1
 10
271.653
 20
84.8782
  0
VERTEX
  8
LAYER_1
 10
270.6371
 20
85.0477
  0
SEQEND
  0
POLYLINE
  8
LAYER_1
 40
0.05
 41
0.05
 66
1
 10
0
 20
0
 30
0
  0
VERTEX
  8
LAYER_1
 10
269.6211
 20
85.3016
  0
VERTEX
  8
LAYER_1
 10
269.1129
 20
85.3863
  0
SEQEND
  0
POLYLINE
  8
LAYER_1
 40
0.05
 41
0.05
 66
1
 10
0
 20
0
 30
0
  0
VERTEX
  8
LAYER_1
 10
269.1129
 20
85.3863
  0
VERTEX
  8
LAYER_1
 10
268.6051
 20
85.5555
  0
SEQEND
  0
POLYLINE
  8
LAYER_1
 40
0.05
 41
0.05
 66
1
 10
0
 20
0
 30
0
  0
VERTEX
  8
LAYER_1
 10
267.5888
 20
85.8097
  0
VERTEX
  8
LAYER_1
 10
266.7424
 20
86.1484
  0
SEQEND
  0
POLYLINE
  8
LAYER_1
 40
0.05
 41
0.05
 66
1
 10
0
 20
0
 30
0
  0
VERTEX
  8
LAYER_1
 10
266.7424
 20
86.1484
  0
VERTEX
  8
LAYER_1
 10
266.6576
 20
86.1484
  0
SEQEND
  0
POLYLINE
  8
LAYER_1
 40
0.05
 41
0.05
 66
1
 10
0
 20
0
 30
0
  0
VERTEX
  8
LAYER_1
 10
265.7264
 20
86.5718
  0
VERTEX
  8
LAYER_1
 10
265.5569
 20
86.6562
  0
SEQEND
  0
POLYLINE
  8
LAYER_1
 40
0.05
 41
0.05
 66
1
 10
0
 20
0
 30
0
  0
VERTEX
  8
LAYER_1
 10
265.5569
 20
86.6562
  0
VERTEX
  8
LAYER_1
 10
264.7949
 20
86.9949
  0
SEQEND
  0
POLYLINE
  8
LAYER_1
 40
0.05
 41
0.05
 66
1
 10
0
 20
0
 30
0
  0
VERTEX
  8
LAYER_1
 10
263.8637
 20
87.503
  0
VERTEX
  8
LAYER_1
 10
263.1863
 20
87.8417
  0
SEQEND
  0
POLYLINE
  8
LAYER_1
 40
0.05
 41
0.05
 66
1
 10
0
 20
0
 30
0
  0
VERTEX
  8
LAYER_1
 10
263.1863
 20
87.8417
  0
VERTEX
  8
LAYER_1
 10
262.9324
 20
88.0112
  0
SEQEND
  0
POLYLINE
  8
LAYER_1
 40
0.05
 41
0.05
 66
1
 10
0
 20
0
 30
0
  0
VERTEX
  8
LAYER_1
 10
262.0856
 20
88.519
  0
VERTEX
  8
LAYER_1
 10
261.3236
 20
89.0271
  0
SEQEND
  0
POLYLINE
  8
LAYER_1
 40
0.05
 41
0.05
 66
1
 10
0
 20
0
 30
0
  0
VERTEX
  8
LAYER_1
 10
261.3236
 20
89.0271
  0
VERTEX
  8
LAYER_1
 10
261.2388
 20
89.1115
  0
SEQEND
  0
POLYLINE
  8
LAYER_1
 40
0.05
 41
0.05
 66
1
 10
0
 20
0
 30
0
  0
VERTEX
  8
LAYER_1
 10
260.3924
 20
89.7044
  0
VERTEX
  8
LAYER_1
 10
259.8842
 20
90.0431
  0
SEQEND
  0
POLYLINE
  8
LAYER_1
 40
0.05
 41
0.05
 66
1
 10
0
 20
0
 30
0
  0
VERTEX
  8
LAYER_1
 10
259.8842
 20
90.0431
  0
VERTEX
  8
LAYER_1
 10
259.5456
 20
90.297
  0
SEQEND
  0
POLYLINE
  8
LAYER_1
 40
0.05
 41
0.05
 66
1
 10
0
 20
0
 30
0
  0
VERTEX
  8
LAYER_1
 10
258.7835
 20
90.9743
  0
VERTEX
  8
LAYER_1
 10
258.5296
 20
91.1438
  0
SEQEND
  0
POLYLINE
  8
LAYER_1
 40
0.05
 41
0.05
 66
1
 10
0
 20
0
 30
0
  0
VERTEX
  8
LAYER_1
 10
258.5296
 20
91.1438
  0
VERTEX
  8
LAYER_1
 10
258.0218
 20
91.6516
  0
SEQEND
  0
POLYLINE
  8
LAYER_1
 40
0.05
 41
0.05
 66
1
 10
0
 20
0
 30
0
  0
VERTEX
  8
LAYER_1
 10
257.3442
 20
92.3289
  0
VERTEX
  8
LAYER_1
 10
257.2597
 20
92.4137
  0
SEQEND
  0
POLYLINE
  8
LAYER_1
 40
0.05
 41
0.05
 66
1
 10
0
 20
0
 30
0
  0
VERTEX
  8
LAYER_1
 10
257.2597
 20
92.4137
  0
VERTEX
  8
LAYER_1
 10
256.6668
 20
93.0062
  0
SEQEND
  0
POLYLINE
  8
LAYER_1
 40
0.05
 41
0.05
 66
1
 10
0
 20
0
 30
0
  0
VERTEX
  8
LAYER_1
 10
256.6668
 20
93.0062
  0
VERTEX
  8
LAYER_1
 10
256.6668
 20
93.091
  0
SEQEND
  0
POLYLINE
  8
LAYER_1
 40
0.05
 41
0.05
 66
1
 10
0
 20
0
 30
0
  0
VERTEX
  8
LAYER_1
 10
255.9895
 20
93.853
  0
VERTEX
  8
LAYER_1
 10
255.4817
 20
94.4456
  0
SEQEND
  0
POLYLINE
  8
LAYER_1
 40
0.05
 41
0.05
 66
1
 10
0
 20
0
 30
0
  0
VERTEX
  8
LAYER_1
 10
255.4817
 20
94.4456
  0
VERTEX
  8
LAYER_1
 10
255.3122
 20
94.6151
  0
SEQEND
  0
POLYLINE
  8
LAYER_1
 40
0.05
 41
0.05
 66
1
 10
0
 20
0
 30
0
  0
VERTEX
  8
LAYER_1
 10
254.7197
 20
95.4615
  0
VERTEX
  8
LAYER_1
 10
254.381
 20
95.8849
  0
SEQEND
  0
POLYLINE
  8
LAYER_1
 40
0.05
 41
0.05
 66
1
 10
0
 20
0
 30
0
  0
VERTEX
  8
LAYER_1
 10
254.381
 20
95.8849
  0
VERTEX
  8
LAYER_1
 10
254.1271
 20
96.3083
  0
SEQEND
  0
POLYLINE
  8
LAYER_1
 40
0.05
 41
0.05
 66
1
 10
0
 20
0
 30
0
  0
VERTEX
  8
LAYER_1
 10
253.619
 20
97.1551
  0
VERTEX
  8
LAYER_1
 10
253.4495
 20
97.409
  0
SEQEND
  0
POLYLINE
  8
LAYER_1
 40
0.05
 41
0.05
 66
1
 10
0
 20
0
 30
0
  0
VERTEX
  8
LAYER_1
 10
253.4495
 20
97.409
  0
VERTEX
  8
LAYER_1
 10
253.0264
 20
98.0016
  0
SEQEND
  0
POLYLINE
  8
LAYER_1
 40
0.05
 41
0.05
 66
1
 10
0
 20
0
 30
0
  0
VERTEX
  8
LAYER_1
 10
252.603
 20
98.9332
  0
VERTEX
  8
LAYER_1
 10
252.5183
 20
99.0176
  0
SEQEND
  0
POLYLINE
  8
LAYER_1
 40
0.05
 41
0.05
 66
1
 10
0
 20
0
 30
0
  0
VERTEX
  8
LAYER_1
 10
252.5183
 20
99.0176
  0
VERTEX
  8
LAYER_1
 10
252.0949
 20
99.7796
  0
SEQEND
  0
POLYLINE
  8
LAYER_1
 40
0.05
 41
0.05
 66
1
 10
0
 20
0
 30
0
  0
VERTEX
  8
LAYER_1
 10
251.6718
 20
100.7112
  0
VERTEX
  8
LAYER_1
 10
251.3328
 20
101.5576
  0
SEQEND
  0
POLYLINE
  8
LAYER_1
 40
0.05
 41
0.05
 66
1
 10
0
 20
0
 30
0
  0
VERTEX
  8
LAYER_1
 10
251.3328
 20
101.5576
  0
VERTEX
  8
LAYER_1
 10
251.3328
 20
101.6424
  0
SEQEND
  0
POLYLINE
  8
LAYER_1
 40
0.05
 41
0.05
 66
1
 10
0
 20
0
 30
0
  0
VERTEX
  8
LAYER_1
 10
250.9097
 20
102.5736
  0
VERTEX
  8
LAYER_1
 10
250.6555
 20
103.2509
  0
SEQEND
  0
POLYLINE
  8
LAYER_1
 40
0.05
 41
0.05
 66
1
 10
0
 20
0
 30
0
  0
VERTEX
  8
LAYER_1
 10
250.6555
 20
103.2509
  0
VERTEX
  8
LAYER_1
 10
250.5711
 20
103.5051
  0
SEQEND
  0
POLYLINE
  8
LAYER_1
 40
0.05
 41
0.05
 66
1
 10
0
 20
0
 30
0
  0
VERTEX
  8
LAYER_1
 10
250.2324
 20
104.4363
  0
VERTEX
  8
LAYER_1
 10
250.0629
 20
105.0289
  0
SEQEND
  0
POLYLINE
  8
LAYER_1
 40
0.05
 41
0.05
 66
1
 10
0
 20
0
 30
0
  0
VERTEX
  8
LAYER_1
 10
250.0629
 20
105.0289
  0
VERTEX
  8
LAYER_1
 10
249.9782
 20
105.4523
  0
SEQEND
  0
POLYLINE
  8
LAYER_1
 40
0.05
 41
0.05
 66
1
 10
0
 20
0
 30
0
  0
VERTEX
  8
LAYER_1
 10
249.7243
 20
106.4683
  0
VERTEX
  8
LAYER_1
 10
249.6395
 20
106.8069
  0
SEQEND
  0
POLYLINE
  8
LAYER_1
 40
0.05
 41
0.05
 66
1
 10
0
 20
0
 30
0
  0
VERTEX
  8
LAYER_1
 10
249.6395
 20
106.8069
  0
VERTEX
  8
LAYER_1
 10
249.5551
 20
107.4842
  0
SEQEND
  0
POLYLINE
  8
LAYER_1
 40
0.05
 41
0.05
 66
1
 10
0
 20
0
 30
0
  0
VERTEX
  8
LAYER_1
 10
249.3009
 20
108.5002
  0
VERTEX
  8
LAYER_1
 10
249.3009
 20
108.5849
  0
SEQEND
  0
POLYLINE
  8
LAYER_1
 40
0.05
 41
0.05
 66
1
 10
0
 20
0
 30
0
  0
VERTEX
  8
LAYER_1
 10
249.3009
 20
108.5849
  0
VERTEX
  8
LAYER_1
 10
249.2161
 20
109.5165
  0
SEQEND
  0
POLYLINE
  8
LAYER_1
 40
0.05
 41
0.05
 66
1
 10
0
 20
0
 30
0
  0
VERTEX
  8
LAYER_1
 10
249.047
 20
110.5324
  0
VERTEX
  8
LAYER_1
 10
249.047
 20
111.3789
  0
SEQEND
  0
POLYLINE
  8
LAYER_1
 40
0.05
 41
0.05
 66
1
 10
0
 20
0
 30
0
  0
VERTEX
  8
LAYER_1
 10
249.047
 20
111.3789
  0
VERTEX
  8
LAYER_1
 10
249.047
 20
111.5484
  0
SEQEND
  0
POLYLINE
  8
LAYER_1
 40
0.05
 41
0.05
 66
1
 10
0
 20
0
 30
0
  0
VERTEX
  8
LAYER_1
 10
248.9622
 20
112.5644
  0
VERTEX
  8
LAYER_1
 10
248.9622
 20
113.3264
  0
SEQEND
  0
POLYLINE
  8
LAYER_1
 40
0.05
 41
0.05
 66
1
 10
0
 20
0
 30
0
  0
VERTEX
  8
LAYER_1
 10
274.8704
 20
79.9676
  0
VERTEX
  8
LAYER_1
 10
288.5016
 20
79.9676
  0
SEQEND
  0
POLYLINE
  8
LAYER_1
 40
0.05
 41
0.05
 66
1
 10
0
 20
0
 30
0
  0
VERTEX
  8
LAYER_1
 10
288.4951
 20
79.9917
 42
0.02806485656
  0
VERTEX
  8
LAYER_1
 10
291.8368
 20
80.6077
 42
0.02655779877
  0
VERTEX
  8
LAYER_1
 10
294.895
 20
81.5263
 42
0.02610980976
  0
VERTEX
  8
LAYER_1
 10
297.8688
 20
82.7735
 42
0.02357592899
  0
VERTEX
  8
LAYER_1
 10
300.5801
 20
84.2412
 42
0.0263894383
  0
VERTEX
  8
LAYER_1
 10
303.4821
 20
86.205
 42
0.02498558077
  0
VERTEX
  8
LAYER_1
 10
305.9298
 20
88.259
 42
0.02512633896
  0
VERTEX
  8
LAYER_1
 10
308.1556
 20
90.5445
 42
0.02476604061
  0
VERTEX
  8
LAYER_1
 10
310.1596
 20
93.0616
 42
0.02394629742
  0
VERTEX
  8
LAYER_1
 10
311.9418
 20
95.8103
 42
0.005829536631
  0
VERTEX
  8
LAYER_1
 10
312.3527
 20
96.5336
 42
0.02528536269
  0
VERTEX
  8
LAYER_1
 10
313.9255
 20
99.7492
 42
0.02398295617
  0
VERTEX
  8
LAYER_1
 10
315.0617
 20
102.8058
 42
0.03628396739
  0
VERTEX
  8
LAYER_1
 10
316.1979
 20
107.5496
 42
0.0236897037
  0
VERTEX
  8
LAYER_1
 10
316.5766
 20
110.818
 42
0.01718241485
  0
VERTEX
  8
LAYER_1
 10
316.6618
 20
113.325
  0
SEQEND
  0
POLYLINE
  8
LAYER_1
 40
0.05
 41
0.05
 66
1
 10
0
 20
0
 30
0
  0
VERTEX
  8
LAYER_1
 10
291.719
 20
84.8782
  0
VERTEX
  8
LAYER_1
 10
292.7349
 20
85.0477
  0
SEQEND
  0
POLYLINE
  8
LAYER_1
 40
0.05
 41
0.05
 66
1
 10
0
 20
0
 30
0
  0
VERTEX
  8
LAYER_1
 10
293.7509
 20
85.3016
  0
VERTEX
  8
LAYER_1
 10
294.1743
 20
85.3863
  0
SEQEND
  0
POLYLINE
  8
LAYER_1
 40
0.05
 41
0.05
 66
1
 10
0
 20
0
 30
0
  0
VERTEX
  8
LAYER_1
 10
294.1743
 20
85.3863
  0
VERTEX
  8
LAYER_1
 10
294.7668
 20
85.5555
  0
SEQEND
  0
POLYLINE
  8
LAYER_1
 40
0.05
 41
0.05
 66
1
 10
0
 20
0
 30
0
  0
VERTEX
  8
LAYER_1
 10
295.7828
 20
85.8097
  0
VERTEX
  8
LAYER_1
 10
296.6296
 20
86.1484
  0
SEQEND
  0
POLYLINE
  8
LAYER_1
 40
0.05
 41
0.05
 66
1
 10
0
 20
0
 30
0
  0
VERTEX
  8
LAYER_1
 10
296.6296
 20
86.1484
  0
VERTEX
  8
LAYER_1
 10
296.7144
 20
86.1484
  0
SEQEND
  0
POLYLINE
  8
LAYER_1
 40
0.05
 41
0.05
 66
1
 10
0
 20
0
 30
0
  0
VERTEX
  8
LAYER_1
 10
297.6456
 20
86.5718
  0
VERTEX
  8
LAYER_1
 10
297.8151
 20
86.6562
  0
SEQEND
  0
POLYLINE
  8
LAYER_1
 40
0.05
 41
0.05
 66
1
 10
0
 20
0
 30
0
  0
VERTEX
  8
LAYER_1
 10
297.8151
 20
86.6562
  0
VERTEX
  8
LAYER_1
 10
298.5771
 20
86.9949
  0
SEQEND
  0
POLYLINE
  8
LAYER_1
 40
0.05
 41
0.05
 66
1
 10
0
 20
0
 30
0
  0
VERTEX
  8
LAYER_1
 10
299.4236
 20
87.503
  0
VERTEX
  8
LAYER_1
 10
300.1009
 20
87.8417
  0
SEQEND
  0
POLYLINE
  8
LAYER_1
 40
0.05
 41
0.05
 66
1
 10
0
 20
0
 30
0
  0
VERTEX
  8
LAYER_1
 10
300.1009
 20
87.8417
  0
VERTEX
  8
LAYER_1
 10
300.3551
 20
88.0112
  0
SEQEND
  0
POLYLINE
  8
LAYER_1
 40
0.05
 41
0.05
 66
1
 10
0
 20
0
 30
0
  0
VERTEX
  8
LAYER_1
 10
301.2016
 20
88.4342
  0
VERTEX
  8
LAYER_1
 10
301.2863
 20
88.519
  0
SEQEND
  0
POLYLINE
  8
LAYER_1
 40
0.05
 41
0.05
 66
1
 10
0
 20
0
 30
0
  0
VERTEX
  8
LAYER_1
 10
301.2863
 20
88.519
  0
VERTEX
  8
LAYER_1
 10
302.0484
 20
89.0271
  0
SEQEND
  0
POLYLINE
  8
LAYER_1
 40
0.05
 41
0.05
 66
1
 10
0
 20
0
 30
0
  0
VERTEX
  8
LAYER_1
 10
302.8949
 20
89.6197
  0
VERTEX
  8
LAYER_1
 10
303.4878
 20
90.0431
  0
SEQEND
  0
POLYLINE
  8
LAYER_1
 40
0.05
 41
0.05
 66
1
 10
0
 20
0
 30
0
  0
VERTEX
  8
LAYER_1
 10
303.4878
 20
90.0431
  0
VERTEX
  8
LAYER_1
 10
303.7417
 20
90.2122
  0
SEQEND
  0
POLYLINE
  8
LAYER_1
 40
0.05
 41
0.05
 66
1
 10
0
 20
0
 30
0
  0
VERTEX
  8
LAYER_1
 10
304.5037
 20
90.8895
  0
VERTEX
  8
LAYER_1
 10
304.8424
 20
91.1438
  0
SEQEND
  0
POLYLINE
  8
LAYER_1
 40
0.05
 41
0.05
 66
1
 10
0
 20
0
 30
0
  0
VERTEX
  8
LAYER_1
 10
304.8424
 20
91.1438
  0
VERTEX
  8
LAYER_1
 10
305.2658
 20
91.5668
  0
SEQEND
  0
POLYLINE
  8
LAYER_1
 40
0.05
 41
0.05
 66
1
 10
0
 20
0
 30
0
  0
VERTEX
  8
LAYER_1
 10
305.9431
 20
92.3289
  0
VERTEX
  8
LAYER_1
 10
306.1122
 20
92.4137
  0
SEQEND
  0
POLYLINE
  8
LAYER_1
 40
0.05
 41
0.05
 66
1
 10
0
 20
0
 30
0
  0
VERTEX
  8
LAYER_1
 10
306.1122
 20
92.4137
  0
VERTEX
  8
LAYER_1
 10
306.7051
 20
93.0062
  0
SEQEND
  0
POLYLINE
  8
LAYER_1
 40
0.05
 41
0.05
 66
1
 10
0
 20
0
 30
0
  0
VERTEX
  8
LAYER_1
 10
307.3824
 20
93.7683
  0
VERTEX
  8
LAYER_1
 10
307.8055
 20
94.4456
  0
SEQEND
  0
POLYLINE
  8
LAYER_1
 40
0.05
 41
0.05
 66
1
 10
0
 20
0
 30
0
  0
VERTEX
  8
LAYER_1
 10
307.8055
 20
94.4456
  0
VERTEX
  8
LAYER_1
 10
307.975
 20
94.6151
  0
SEQEND
  0
POLYLINE
  8
LAYER_1
 40
0.05
 41
0.05
 66
1
 10
0
 20
0
 30
0
  0
VERTEX
  8
LAYER_1
 10
308.5676
 20
95.3771
  0
VERTEX
  8
LAYER_1
 10
308.9062
 20
95.8849
  0
SEQEND
  0
POLYLINE
  8
LAYER_1
 40
0.05
 41
0.05
 66
1
 10
0
 20
0
 30
0
  0
VERTEX
  8
LAYER_1
 10
308.9062
 20
95.8849
  0
VERTEX
  8
LAYER_1
 10
309.1605
 20
96.2236
  0
SEQEND
  0
POLYLINE
  8
LAYER_1
 40
0.05
 41
0.05
 66
1
 10
0
 20
0
 30
0
  0
VERTEX
  8
LAYER_1
 10
309.6683
 20
97.0704
  0
VERTEX
  8
LAYER_1
 10
309.9222
 20
97.409
  0
SEQEND
  0
POLYLINE
  8
LAYER_1
 40
0.05
 41
0.05
 66
1
 10
0
 20
0
 30
0
  0
VERTEX
  8
LAYER_1
 10
309.9222
 20
97.409
  0
VERTEX
  8
LAYER_1
 10
310.2608
 20
97.9168
  0
SEQEND
  0
POLYLINE
  8
LAYER_1
 40
0.05
 41
0.05
 66
1
 10
0
 20
0
 30
0
  0
VERTEX
  8
LAYER_1
 10
310.769
 20
98.8484
  0
VERTEX
  8
LAYER_1
 10
310.8537
 20
99.0176
  0
SEQEND
  0
POLYLINE
  8
LAYER_1
 40
0.05
 41
0.05
 66
1
 10
0
 20
0
 30
0
  0
VERTEX
  8
LAYER_1
 10
310.8537
 20
99.0176
  0
VERTEX
  8
LAYER_1
 10
311.1924
 20
99.7796
  0
SEQEND
  0
POLYLINE
  8
LAYER_1
 40
0.05
 41
0.05
 66
1
 10
0
 20
0
 30
0
  0
VERTEX
  8
LAYER_1
 10
311.7002
 20
100.6264
  0
VERTEX
  8
LAYER_1
 10
311.7002
 20
100.7112
  0
SEQEND
  0
POLYLINE
  8
LAYER_1
 40
0.05
 41
0.05
 66
1
 10
0
 20
0
 30
0
  0
VERTEX
  8
LAYER_1
 10
311.7002
 20
100.7112
  0
VERTEX
  8
LAYER_1
 10
312.0388
 20
101.5576
  0
SEQEND
  0
POLYLINE
  8
LAYER_1
 40
0.05
 41
0.05
 66
1
 10
0
 20
0
 30
0
  0
VERTEX
  8
LAYER_1
 10
312.0388
 20
101.5576
  0
VERTEX
  8
LAYER_1
 10
312.0388
 20
101.6424
  0
SEQEND
  0
POLYLINE
  8
LAYER_1
 40
0.05
 41
0.05
 66
1
 10
0
 20
0
 30
0
  0
VERTEX
  8
LAYER_1
 10
312.4622
 20
102.5736
  0
VERTEX
  8
LAYER_1
 10
312.7161
 20
103.2509
  0
SEQEND
  0
POLYLINE
  8
LAYER_1
 40
0.05
 41
0.05
 66
1
 10
0
 20
0
 30
0
  0
VERTEX
  8
LAYER_1
 10
312.7161
 20
103.2509
  0
VERTEX
  8
LAYER_1
 10
312.8009
 20
103.5051
  0
SEQEND
  0
POLYLINE
  8
LAYER_1
 40
0.05
 41
0.05
 66
1
 10
0
 20
0
 30
0
  0
VERTEX
  8
LAYER_1
 10
313.0551
 20
104.5211
  0
VERTEX
  8
LAYER_1
 10
313.2243
 20
105.0289
  0
SEQEND
  0
POLYLINE
  8
LAYER_1
 40
0.05
 41
0.05
 66
1
 10
0
 20
0
 30
0
  0
VERTEX
  8
LAYER_1
 10
313.2243
 20
105.0289
  0
VERTEX
  8
LAYER_1
 10
313.3938
 20
105.4523
  0
SEQEND
  0
POLYLINE
  8
LAYER_1
 40
0.05
 41
0.05
 66
1
 10
0
 20
0
 30
0
  0
VERTEX
  8
LAYER_1
 10
313.5629
 20
106.4683
  0
VERTEX
  8
LAYER_1
 10
313.6477
 20
106.8069
  0
SEQEND
  0
POLYLINE
  8
LAYER_1
 40
0.05
 41
0.05
 66
1
 10
0
 20
0
 30
0
  0
VERTEX
  8
LAYER_1
 10
313.6477
 20
106.8069
  0
VERTEX
  8
LAYER_1
 10
313.7324
 20
107.4842
  0
SEQEND
  0
POLYLINE
  8
LAYER_1
 40
0.05
 41
0.05
 66
1
 10
0
 20
0
 30
0
  0
VERTEX
  8
LAYER_1
 10
313.9863
 20
108.5002
  0
VERTEX
  8
LAYER_1
 10
313.9863
 20
108.5849
  0
SEQEND
  0
POLYLINE
  8
LAYER_1
 40
0.05
 41
0.05
 66
1
 10
0
 20
0
 30
0
  0
VERTEX
  8
LAYER_1
 10
313.9863
 20
108.5849
  0
VERTEX
  8
LAYER_1
 10
314.0711
 20
109.5165
  0
SEQEND
  0
POLYLINE
  8
LAYER_1
 40
0.05
 41
0.05
 66
1
 10
0
 20
0
 30
0
  0
VERTEX
  8
LAYER_1
 10
314.2403
 20
110.5324
  0
VERTEX
  8
LAYER_1
 10
314.2403
 20
111.3789
  0
SEQEND
  0
POLYLINE
  8
LAYER_1
 40
0.05
 41
0.05
 66
1
 10
0
 20
0
 30
0
  0
VERTEX
  8
LAYER_1
 10
314.2403
 20
111.3789
  0
VERTEX
  8
LAYER_1
 10
314.2403
 20
111.5484
  0
SEQEND
  0
POLYLINE
  8
LAYER_1
 40
0.05
 41
0.05
 66
1
 10
0
 20
0
 30
0
  0
VERTEX
  8
LAYER_1
 10
314.325
 20
112.5644
  0
VERTEX
  8
LAYER_1
 10
314.325
 20
113.3264
  0
SEQEND
  0
POLYLINE
  8
LAYER_1
 40
0.05
 41
0.05
 66
1
 10
0
 20
0
 30
0
  0
VERTEX
  8
LAYER_1
 10
148.6323
 20
149.352
 42
0.4142131106
  0
VERTEX
  8
LAYER_1
 10
113.6227
 20
184.3617
 42
0.4142132072
  0
VERTEX
  8
LAYER_1
 10
78.6129
 20
149.352
 42
0.4142140144
  0
VERTEX
  8
LAYER_1
 10
113.6227
 20
114.3424
 42
0.4142139176
  0
VERTEX
  8
LAYER_1
 10
148.6323
 20
149.352
  0
SEQEND
  0
POLYLINE
  8
LAYER_1
 40
0.05
 41
0.05
 66
1
 10
0
 20
0
 30
0
  0
VERTEX
  8
LAYER_1
 10
146.2617
 20
149.352
 42
0.02532083776
  0
VERTEX
  8
LAYER_1
 10
146.093
 20
152.6892
 42
0.02517407996
  0
VERTEX
  8
LAYER_1
 10
145.5977
 20
155.9299
 42
0.09833898047
  0
VERTEX
  8
LAYER_1
 10
140.6802
 20
167.6008
 42
0.04785031659
  0
VERTEX
  8
LAYER_1
 10
136.6895
 20
172.4313
 42
0.07182917449
  0
VERTEX
  8
LAYER_1
 10
129.1582
 20
178.0517
 42
0.0489470918
  0
VERTEX
  8
LAYER_1
 10
123.2987
 20
180.5236
 42
0.05010967151
  0
VERTEX
  8
LAYER_1
 10
116.9218
 20
181.8225
 42
0.02531121248
  0
VERTEX
  8
LAYER_1
 10
113.5803
 20
181.991
 42
0.02525540749
  0
VERTEX
  8
LAYER_1
 10
110.2388
 20
181.8225
 42
0.02511124329
  0
VERTEX
  8
LAYER_1
 10
106.9939
 20
181.3279
 42
0.1101792698
  0
VERTEX
  8
LAYER_1
 10
94.0265
 20
175.5068
 42
0.1197156524
  0
VERTEX
  8
LAYER_1
 10
84.1216
 20
163.5024
 42
0.04932940606
  0
VERTEX
  8
LAYER_1
 10
81.9278
 20
157.509
 42
0.03775235225
  0
VERTEX
  8
LAYER_1
 10
81.0676
 20
152.6892
 42
0.02537652873
  0
VERTEX
  8
LAYER_1
 10
80.8989
 20
149.352
 42
0.0253209361
  0
VERTEX
  8
LAYER_1
 10
81.0676
 20
146.0149
 42
0.0251740929
  0
VERTEX
  8
LAYER_1
 10
81.5629
 20
142.7741
 42
0.09833857429
  0
VERTEX
  8
LAYER_1
 10
86.4804
 20
131.1032
 42
0.04784997021
  0
VERTEX
  8
LAYER_1
 10
90.4711
 20
126.2727
 42
0.07182889186
  0
VERTEX
  8
LAYER_1
 10
98.0024
 20
120.6523
 42
0.04894724185
  0
VERTEX
  8
LAYER_1
 10
103.8619
 20
118.1803
 42
0.05011011119
  0
VERTEX
  8
LAYER_1
 10
110.2388
 20
116.8814
 42
0.02531153373
  0
VERTEX
  8
LAYER_1
 10
113.5803
 20
116.7129
 42
0.02525573422
  0
VERTEX
  8
LAYER_1
 10
116.9218
 20
116.8814
 42
0.02511151942
  0
VERTEX
  8
LAYER_1
 10
120.1667
 20
117.376
 42
0.1101798814
  0
VERTEX
  8
LAYER_1
 10
133.1341
 20
123.1972
 42
0.1197149252
  0
VERTEX
  8
LAYER_1
 10
143.039
 20
135.2016
 42
0.04932910938
  0
VERTEX
  8
LAYER_1
 10
145.2328
 20
141.195
 42
0.03775229501
  0
VERTEX
  8
LAYER_1
 10
146.093
 20
146.0149
 42
0.02537660894
  0
VERTEX
  8
LAYER_1
 10
146.2617
 20
149.352
  0
SEQEND
  0
POLYLINE
  8
LAYER_1
 40
0.05
 41
0.05
 66
1
 10
0
 20
0
 30
0
  0
VERTEX
  8
LAYER_1
 10
246.6764
 20
119.5917
  0
VERTEX
  8
LAYER_1
 10
246.6764
 20
153.4583
  0
SEQEND
  0
POLYLINE
  8
LAYER_1
 40
0.05
 41
0.05
 66
1
 10
0
 20
0
 30
0
  0
VERTEX
  8
LAYER_1
 10
314.325
 20
113.3264
  0
VERTEX
  8
LAYER_1
 10
316.6956
 20
113.3264
  0
SEQEND
  0
POLYLINE
  8
LAYER_1
 40
0.05
 41
0.05
 66
1
 10
0
 20
0
 30
0
  0
VERTEX
  8
LAYER_1
 10
274.8704
 20
79.9676
  0
VERTEX
  8
LAYER_1
 10
274.8704
 20
80.9835
  0
SEQEND
  0
POLYLINE
  8
LAYER_1
 40
0.05
 41
0.05
 66
1
 10
0
 20
0
 30
0
  0
VERTEX
  8
LAYER_1
 10
274.8704
 20
81.9998
  0
VERTEX
  8
LAYER_1
 10
274.8704
 20
82.931
  0
SEQEND
  0
POLYLINE
  8
LAYER_1
 40
0.05
 41
0.05
 66
1
 10
0
 20
0
 30
0
  0
VERTEX
  8
LAYER_1
 10
274.8704
 20
82.931
  0
VERTEX
  8
LAYER_1
 10
273.8544
 20
82.931
  0
SEQEND
  0
POLYLINE
  8
LAYER_1
 40
0.05
 41
0.05
 66
1
 10
0
 20
0
 30
0
  0
VERTEX
  8
LAYER_1
 10
273.6002
 20
82.931
  0
VERTEX
  8
LAYER_1
 10
273.0076
 20
83.5236
  0
SEQEND
  0
POLYLINE
  8
LAYER_1
 40
0.05
 41
0.05
 66
1
 10
0
 20
0
 30
0
  0
VERTEX
  8
LAYER_1
 10
272.2456
 20
84.2856
  0
VERTEX
  8
LAYER_1
 10
271.653
 20
84.8782
  0
SEQEND
  0
POLYLINE
  8
LAYER_1
 40
0.05
 41
0.05
 66
1
 10
0
 20
0
 30
0
  0
VERTEX
  8
LAYER_1
 10
288.5016
 20
79.9676
  0
VERTEX
  8
LAYER_1
 10
288.5016
 20
80.9835
  0
SEQEND
  0
POLYLINE
  8
LAYER_1
 40
0.05
 41
0.05
 66
1
 10
0
 20
0
 30
0
  0
VERTEX
  8
LAYER_1
 10
288.5016
 20
81.9998
  0
VERTEX
  8
LAYER_1
 10
288.5016
 20
82.931
  0
SEQEND
  0
POLYLINE
  8
LAYER_1
 40
0.05
 41
0.05
 66
1
 10
0
 20
0
 30
0
  0
VERTEX
  8
LAYER_1
 10
288.5016
 20
82.931
  0
VERTEX
  8
LAYER_1
 10
289.5176
 20
82.931
  0
SEQEND
  0
POLYLINE
  8
LAYER_1
 40
0.05
 41
0.05
 66
1
 10
0
 20
0
 30
0
  0
VERTEX
  8
LAYER_1
 10
289.7718
 20
82.931
  0
VERTEX
  8
LAYER_1
 10
290.3644
 20
83.5236
  0
SEQEND
  0
POLYLINE
  8
LAYER_1
 40
0.05
 41
0.05
 66
1
 10
0
 20
0
 30
0
  0
VERTEX
  8
LAYER_1
 10
291.1264
 20
84.2856
  0
VERTEX
  8
LAYER_1
 10
291.719
 20
84.8782
  0
SEQEND
  0
POLYLINE
  8
LAYER_1
 40
0.05
 41
0.05
 66
1
 10
0
 20
0
 30
0
  0
VERTEX
  8
LAYER_1
 10
246.6764
 20
113.3264
  0
VERTEX
  8
LAYER_1
 10
316.6956
 20
113.3264
  0
SEQEND
  0
POLYLINE
  8
LAYER_1
 40
0.05
 41
0.05
 66
1
 10
0
 20
0
 30
0
  0
VERTEX
  8
LAYER_1
 10
271.653
 20
86.8257
  0
VERTEX
  8
LAYER_1
 10
271.653
 20
98.425
  0
SEQEND
  0
POLYLINE
  8
LAYER_1
 40
0.05
 41
0.05
 66
1
 10
0
 20
0
 30
0
  0
VERTEX
  8
LAYER_1
 10
291.719
 20
86.8257
  0
VERTEX
  8
LAYER_1
 10
291.719
 20
98.425
  0
SEQEND
  0
POLYLINE
  8
LAYER_1
 40
0.05
 41
0.05
 66
1
 10
0
 20
0
 30
0
  0
VERTEX
  8
LAYER_1
 10
273.6849
 20
96.3083
  0
VERTEX
  8
LAYER_1
 10
289.6871
 20
96.3083
  0
SEQEND
  0
POLYLINE
  8
LAYER_1
 40
0.05
 41
0.05
 66
1
 10
0
 20
0
 30
0
 70
1
  0
VERTEX
  8
LAYER_1
 10
273.6849
 20
95.8002
  0
VERTEX
  8
LAYER_1
 10
271.653
 20
96.3083
  0
VERTEX
  8
LAYER_1
 10
273.6849
 20
96.8165
  0
SEQEND
  0
POLYLINE
  8
LAYER_1
 40
0.05
 41
0.05
 66
1
 10
0
 20
0
 30
0
 70
1
  0
VERTEX
  8
LAYER_1
 10
273.6639
 20
95.8215
  0
VERTEX
  8
LAYER_1
 10
271.632
 20
96.3293
  0
VERTEX
  8
LAYER_1
 10
273.6639
 20
96.8375
  0
SEQEND
  0
POLYLINE
  8
LAYER_1
 40
0.05
 41
0.05
 66
1
 10
0
 20
0
 30
0
 70
1
  0
VERTEX
  8
LAYER_1
 10
273.6849
 20
95.8002
  0
VERTEX
  8
LAYER_1
 10
271.653
 20
96.3083
  0
VERTEX
  8
LAYER_1
 10
273.6849
 20
96.8165
  0
SEQEND
  0
POLYLINE
  8
LAYER_1
 40
0.05
 41
0.05
 66
1
 10
0
 20
0
 30
0
 70
1
  0
VERTEX
  8
LAYER_1
 10
289.6871
 20
96.8165
  0
VERTEX
  8
LAYER_1
 10
291.719
 20
96.3083
  0
VERTEX
  8
LAYER_1
 10
289.6871
 20
95.8002
  0
SEQEND
  0
POLYLINE
  8
LAYER_1
 40
0.05
 41
0.05
 66
1
 10
0
 20
0
 30
0
 70
1
  0
VERTEX
  8
LAYER_1
 10
289.6657
 20
96.8375
  0
VERTEX
  8
LAYER_1
 10
291.698
 20
96.3293
  0
VERTEX
  8
LAYER_1
 10
289.6657
 20
95.8215
  0
SEQEND
  0
POLYLINE
  8
LAYER_1
 40
0.05
 41
0.05
 66
1
 10
0
 20
0
 30
0
 70
1
  0
VERTEX
  8
LAYER_1
 10
289.6871
 20
96.8165
  0
VERTEX
  8
LAYER_1
 10
291.719
 20
96.3083
  0
VERTEX
  8
LAYER_1
 10
289.6871
 20
95.8002
  0
SEQEND
  0
POLYLINE
  8
LAYER_1
 40
0.05
 41
0.05
 66
1
 10
0
 20
0
 30
0
  0
VERTEX
  8
LAYER_1
 10
274.8704
 20
77.2583
  0
VERTEX
  8
LAYER_1
 10
274.8704
 20
61.4257
  0
SEQEND
  0
POLYLINE
  8
LAYER_1
 40
0.05
 41
0.05
 66
1
 10
0
 20
0
 30
0
  0
VERTEX
  8
LAYER_1
 10
288.5016
 20
77.2583
  0
VERTEX
  8
LAYER_1
 10
288.5016
 20
61.4257
  0
SEQEND
  0
POLYLINE
  8
LAYER_1
 40
0.05
 41
0.05
 66
1
 10
0
 20
0
 30
0
  0
VERTEX
  8
LAYER_1
 10
276.8176
 20
63.5424
  0
VERTEX
  8
LAYER_1
 10
286.4697
 20
63.5424
  0
SEQEND
  0
POLYLINE
  8
LAYER_1
 40
0.05
 41
0.05
 66
1
 10
0
 20
0
 30
0
 70
1
  0
VERTEX
  8
LAYER_1
 10
276.8176
 20
62.9498
  0
VERTEX
  8
LAYER_1
 10
274.8704
 20
63.5424
  0
VERTEX
  8
LAYER_1
 10
276.8176
 20
64.0502
  0
SEQEND
  0
POLYLINE
  8
LAYER_1
 40
0.05
 41
0.05
 66
1
 10
0
 20
0
 30
0
 70
1
  0
VERTEX
  8
LAYER_1
 10
276.7965
 20
62.9708
  0
VERTEX
  8
LAYER_1
 10
274.849
 20
63.5634
  0
VERTEX
  8
LAYER_1
 10
276.7965
 20
64.0715
  0
SEQEND
  0
POLYLINE
  8
LAYER_1
 40
0.05
 41
0.05
 66
1
 10
0
 20
0
 30
0
 70
1
  0
VERTEX
  8
LAYER_1
 10
276.8176
 20
62.9498
  0
VERTEX
  8
LAYER_1
 10
274.8704
 20
63.5424
  0
VERTEX
  8
LAYER_1
 10
276.8176
 20
64.0502
  0
SEQEND
  0
POLYLINE
  8
LAYER_1
 40
0.05
 41
0.05
 66
1
 10
0
 20
0
 30
0
 70
1
  0
VERTEX
  8
LAYER_1
 10
286.4697
 20
64.0502
  0
VERTEX
  8
LAYER_1
 10
288.5016
 20
63.5424
  0
VERTEX
  8
LAYER_1
 10
286.4697
 20
62.9498
  0
SEQEND
  0
POLYLINE
  8
LAYER_1
 40
0.05
 41
0.05
 66
1
 10
0
 20
0
 30
0
 70
1
  0
VERTEX
  8
LAYER_1
 10
286.4487
 20
64.0715
  0
VERTEX
  8
LAYER_1
 10
288.4806
 20
63.5634
  0
VERTEX
  8
LAYER_1
 10
286.4487
 20
62.9708
  0
SEQEND
  0
POLYLINE
  8
LAYER_1
 40
0.05
 41
0.05
 66
1
 10
0
 20
0
 30
0
 70
1
  0
VERTEX
  8
LAYER_1
 10
286.4697
 20
64.0502
  0
VERTEX
  8
LAYER_1
 10
288.5016
 20
63.5424
  0
VERTEX
  8
LAYER_1
 10
286.4697
 20
62.9498
  0
SEQEND
  0
INSERT
  8
LAYER_1
  2
AIGNBL01020006
 10
0
 20
0
 30
0
  0
TEXT
  8
LAYER_1
 10
280.9868
 20
59.3514
 11
280.9868
 21
59.3514
 40
5.0153
 41
0.5
  1
41
  0
POLYLINE
  8
LAYER_1
 40
0.05
 41
0.05
 66
1
 10
0
 20
0
 30
0
  0
VERTEX
  8
LAYER_1
 10
288.5016
 20
79.9676
  0
VERTEX
  8
LAYER_1
 10
288.5016
 20
73.025
  0
SEQEND
  0
POLYLINE
  8
LAYER_1
 40
0.05
 41
0.05
 66
1
 10
0
 20
0
 30
0
  0
VERTEX
  8
LAYER_1
 10
316.6956
 20
119.5917
  0
VERTEX
  8
LAYER_1
 10
316.6956
 20
153.4583
  0
SEQEND
  0
INSERT
  8
LAYER_1
  2
AIGNBL01020007
 10
0
 20
0
 30
0
  0
TEXT
  8
LAYER_1
 10
271.9124
 20
150.0293
 11
271.9124
 21
150.0293
 40
5.0153
 41
0.5
  1
210(
  0
TEXT
  8
LAYER_1
 10
279.1974
 20
150.0293
 11
279.1974
 21
150.0293
 40
5.0153
 41
0.5
  1
 
  0
TEXT
  8
LAYER_1
 10
280.3825
 20
150.0293
 11
280.3825
 21
150.0293
 40
5.0153
 41
0.5
  1
 
  0
TEXT
  8
LAYER_1
 10
281.568
 20
150.0293
 11
281.568
 21
150.0293
 40
5.0153
 41
0.5
  1
 
  0
TEXT
  8
LAYER_1
 10
283.9293
 20
150.0293
 11
283.9293
 21
150.0293
 40
5.0153
 41
0.5
  1
 5mm)
  0
POLYLINE
  8
LAYER_1
 40
0.05
 41
0.05
 66
1
 10
0
 20
0
 30
0
  0
VERTEX
  8
LAYER_1
 10
320.9289
 20
113.3264
  0
VERTEX
  8
LAYER_1
 10
354.7956
 20
113.3264
  0
SEQEND
  0
POLYLINE
  8
LAYER_1
 40
0.05
 41
0.05
 66
1
 10
0
 20
0
 30
0
  0
VERTEX
  8
LAYER_1
 10
298.7463
 20
79.9676
  0
VERTEX
  8
LAYER_1
 10
354.7956
 20
79.9676
  0
SEQEND
  0
TEXT
  8
LAYER_1
 10
356.7427
 20
95.4195
 11
356.7427
 21
95.4195
 40
5.0153
 41
0.5
  1
100
  0
TEXT
  8
LAYER_1
 10
356.7427
 20
91.1862
 11
356.7427
 21
91.1862
 40
5.0153
 41
0.5
  1
(
  0
TEXT
  8
LAYER_1
 10
357.0063
 20
91.1862
 11
357.0063
 21
91.1862
 40
5.0153
 41
0.5
  1
 
  0
TEXT
  8
LAYER_1
 10
358.1914
 20
91.1862
 11
358.1914
 21
91.1862
 40
5.0153
 41
0.5
  1
 
  0
TEXT
  8
LAYER_1
 10
359.2918
 20
91.1862
 11
359.2918
 21
91.1862
 40
5.0153
 41
0.5
  1
 
  0
TEXT
  8
LAYER_1
 10
361.6534
 20
91.1862
 11
361.6534
 21
91.1862
 40
5.0153
 41
0.5
  1
 5mm)
  0
POLYLINE
  8
LAYER_1
 40
0.05
 41
0.05
 66
1
 10
0
 20
0
 30
0
 70
1
  0
VERTEX
  8
LAYER_1
 10
282.0668
 20
152.019
  0
VERTEX
  8
LAYER_1
 10
284.4378
 20
152.019
  0
VERTEX
  8
LAYER_1
 10
284.4378
 20
151.8496
  0
VERTEX
  8
LAYER_1
 10
282.0668
 20
151.8496
  0
SEQEND
  0
POLYLINE
  8
LAYER_1
 40
0.05
 41
0.05
 66
1
 10
0
 20
0
 30
0
 70
1
  0
VERTEX
  8
LAYER_1
 10
282.0668
 20
152.019
  0
VERTEX
  8
LAYER_1
 10
284.4378
 20
152.019
  0
VERTEX
  8
LAYER_1
 10
284.4378
 20
151.8496
  0
VERTEX
  8
LAYER_1
 10
282.0668
 20
151.8496
  0
SEQEND
  0
POLYLINE
  8
LAYER_1
 40
0.05
 41
0.05
 66
1
 10
0
 20
0
 30
0
 70
1
  0
VERTEX
  8
LAYER_1
 10
283.1676
 20
153.1197
  0
VERTEX
  8
LAYER_1
 10
283.3371
 20
153.1197
  0
VERTEX
  8
LAYER_1
 10
283.3371
 20
150.7489
  0
VERTEX
  8
LAYER_1
 10
283.1676
 20
150.7489
  0
SEQEND
  0
POLYLINE
  8
LAYER_1
 40
0.05
 41
0.05
 66
1
 10
0
 20
0
 30
0
 70
1
  0
VERTEX
  8
LAYER_1
 10
283.1676
 20
153.1197
  0
VERTEX
  8
LAYER_1
 10
283.3371
 20
153.1197
  0
VERTEX
  8
LAYER_1
 10
283.3371
 20
150.7489
  0
VERTEX
  8
LAYER_1
 10
283.1676
 20
150.7489
  0
SEQEND
  0
POLYLINE
  8
LAYER_1
 40
0.05
 41
0.05
 66
1
 10
0
 20
0
 30
0
 70
1
  0
VERTEX
  8
LAYER_1
 10
282.0668
 20
150.3257
  0
VERTEX
  8
LAYER_1
 10
284.4378
 20
150.3257
  0
VERTEX
  8
LAYER_1
 10
284.4378
 20
150.241
  0
VERTEX
  8
LAYER_1
 10
282.0668
 20
150.241
  0
SEQEND
  0
POLYLINE
  8
LAYER_1
 40
0.05
 41
0.05
 66
1
 10
0
 20
0
 30
0
 70
1
  0
VERTEX
  8
LAYER_1
 10
282.0668
 20
150.3257
  0
VERTEX
  8
LAYER_1
 10
284.4378
 20
150.3257
  0
VERTEX
  8
LAYER_1
 10
284.4378
 20
150.241
  0
VERTEX
  8
LAYER_1
 10
282.0668
 20
150.241
  0
SEQEND
  0
POLYLINE
  8
LAYER_1
 40
0.05
 41
0.05
 66
1
 10
0
 20
0
 30
0
 70
1
  0
VERTEX
  8
LAYER_1
 10
359.4523
 20
93.091
  0
VERTEX
  8
LAYER_1
 10
361.9076
 20
93.091
  0
VERTEX
  8
LAYER_1
 10
361.9076
 20
93.0062
  0
VERTEX
  8
LAYER_1
 10
359.4523
 20
93.0062
  0
SEQEND
  0
POLYLINE
  8
LAYER_1
 40
0.05
 41
0.05
 66
1
 10
0
 20
0
 30
0
 70
1
  0
VERTEX
  8
LAYER_1
 10
359.4523
 20
93.091
  0
VERTEX
  8
LAYER_1
 10
361.9076
 20
93.091
  0
VERTEX
  8
LAYER_1
 10
361.9076
 20
93.0062
  0
VERTEX
  8
LAYER_1
 10
359.4523
 20
93.0062
  0
SEQEND
  0
POLYLINE
  8
LAYER_1
 40
0.05
 41
0.05
 66
1
 10
0
 20
0
 30
0
 70
1
  0
VERTEX
  8
LAYER_1
 10
360.6378
 20
94.1917
  0
VERTEX
  8
LAYER_1
 10
360.7222
 20
94.1917
  0
VERTEX
  8
LAYER_1
 10
360.7222
 20
91.8211
  0
VERTEX
  8
LAYER_1
 10
360.6378
 20
91.8211
  0
SEQEND
  0
POLYLINE
  8
LAYER_1
 40
0.05
 41
0.05
 66
1
 10
0
 20
0
 30
0
 70
1
  0
VERTEX
  8
LAYER_1
 10
360.6378
 20
94.1917
  0
VERTEX
  8
LAYER_1
 10
360.7222
 20
94.1917
  0
VERTEX
  8
LAYER_1
 10
360.7222
 20
91.8211
  0
VERTEX
  8
LAYER_1
 10
360.6378
 20
91.8211
  0
SEQEND
  0
POLYLINE
  8
LAYER_1
 40
0.05
 41
0.05
 66
1
 10
0
 20
0
 30
0
 70
1
  0
VERTEX
  8
LAYER_1
 10
359.4523
 20
91.4824
  0
VERTEX
  8
LAYER_1
 10
361.9076
 20
91.4824
  0
VERTEX
  8
LAYER_1
 10
361.9076
 20
91.3129
  0
VERTEX
  8
LAYER_1
 10
359.4523
 20
91.3129
  0
SEQEND
  0
POLYLINE
  8
LAYER_1
 40
0.05
 41
0.05
 66
1
 10
0
 20
0
 30
0
 70
1
  0
VERTEX
  8
LAYER_1
 10
359.4523
 20
91.4824
  0
VERTEX
  8
LAYER_1
 10
361.9076
 20
91.4824
  0
VERTEX
  8
LAYER_1
 10
361.9076
 20
91.3129
  0
VERTEX
  8
LAYER_1
 10
359.4523
 20
91.3129
  0
SEQEND
  0
POLYLINE
  8
LAYER_1
 40
0.05
 41
0.05
 66
1
 10
0
 20
0
 30
0
  0
VERTEX
  8
LAYER_1
 10
316.4417
 20
235.331
 42
0.06281432969
  0
VERTEX
  8
LAYER_1
 10
316.0407
 20
238.5029
 42
0.03933492696
  0
VERTEX
  8
LAYER_1
 10
315.3462
 20
240.5362
 42
0.0361535626
  0
VERTEX
  8
LAYER_1
 10
314.3301
 20
242.4924
 42
0.03260591222
  0
VERTEX
  8
LAYER_1
 10
313.0102
 20
244.3608
 42
0.02915364446
  0
VERTEX
  8
LAYER_1
 10
311.4038
 20
246.1311
 42
0.02605873227
  0
VERTEX
  8
LAYER_1
 10
309.5285
 20
247.7927
 42
0.02342468975
  0
VERTEX
  8
LAYER_1
 10
307.4017
 20
249.3353
 42
0.02125933815
  0
VERTEX
  8
LAYER_1
 10
305.041
 20
250.7483
 42
0.0195242146
  0
VERTEX
  8
LAYER_1
 10
302.4638
 20
252.0212
 42
0.01816452446
  0
VERTEX
  8
LAYER_1
 10
299.6877
 20
253.1437
 42
0.02134839575
  0
VERTEX
  8
LAYER_1
 10
295.9643
 20
254.3191
 42
0.02021543722
  0
VERTEX
  8
LAYER_1
 10
291.9915
 20
255.2226
 42
0.01950055331
  0
VERTEX
  8
LAYER_1
 10
287.8035
 20
255.8337
 42
0.01720673541
  0
VERTEX
  8
LAYER_1
 10
283.8786
 20
256.1167
 42
0.009484229962
  0
VERTEX
  8
LAYER_1
 10
281.6438
 20
256.159
 42
0.01704558846
  0
VERTEX
  8
LAYER_1
 10
277.648
 20
256.0232
 42
0.01910665725
  0
VERTEX
  8
LAYER_1
 10
273.3651
 20
255.566
 42
0.01957384158
  0
VERTEX
  8
LAYER_1
 10
269.2804
 20
254.8061
 42
0.02039772399
  0
VERTEX
  8
LAYER_1
 10
265.4281
 20
253.7641
 42
0.02166533925
  0
VERTEX
  8
LAYER_1
 10
261.8422
 20
252.4603
 42
0.01861707299
  0
VERTEX
  8
LAYER_1
 10
259.1883
 20
251.2426
 42
0.02012180089
  0
VERTEX
  8
LAYER_1
 10
256.7443
 20
249.8809
 42
0.02202530007
  0
VERTEX
  8
LAYER_1
 10
254.5278
 20
248.3857
 42
0.02437916391
  0
VERTEX
  8
LAYER_1
 10
252.5561
 20
246.7675
 42
0.02720944501
  0
VERTEX
  8
LAYER_1
 10
250.8468
 20
245.0367
 42
0.03047950746
  0
VERTEX
  8
LAYER_1
 10
249.4174
 20
243.2039
 42
0.03403346525
  0
VERTEX
  8
LAYER_1
 10
248.2854
 20
241.2794
 42
0.03753483169
  0
VERTEX
  8
LAYER_1
 10
247.4682
 20
239.2738
 42
0.04045019442
  0
VERTEX
  8
LAYER_1
 10
246.9834
 20
237.1975
 42
0.03684507477
  0
VERTEX
  8
LAYER_1
 10
246.8456
 20
235.331
 42
0.06281401803
  0
VERTEX
  8
LAYER_1
 10
247.2466
 20
232.1591
 42
0.03933487437
  0
VERTEX
  8
LAYER_1
 10
247.9411
 20
230.1258
 42
0.0361536169
  0
VERTEX
  8
LAYER_1
 10
248.9571
 20
228.1696
 42
0.03260604044
  0
VERTEX
  8
LAYER_1
 10
250.2771
 20
226.3012
 42
0.0291538115
  0
VERTEX
  8
LAYER_1
 10
251.8835
 20
224.5309
 42
0.0260589095
  0
VERTEX
  8
LAYER_1
 10
253.7588
 20
222.8693
 42
0.02342485676
  0
VERTEX
  8
LAYER_1
 10
255.8855
 20
221.3267
 42
0.0212594811
  0
VERTEX
  8
LAYER_1
 10
258.2463
 20
219.9137
 42
0.019524324
  0
VERTEX
  8
LAYER_1
 10
260.8235
 20
218.6408
 42
0.01816459321
  0
VERTEX
  8
LAYER_1
 10
263.5997
 20
217.5183
 42
0.02134841991
  0
VERTEX
  8
LAYER_1
 10
267.3231
 20
216.3429
 42
0.02021537732
  0
VERTEX
  8
LAYER_1
 10
271.2959
 20
215.4394
 42
0.0195003972
  0
VERTEX
  8
LAYER_1
 10
275.4839
 20
214.8283
 42
0.01720649907
  0
VERTEX
  8
LAYER_1
 10
279.409
 20
214.5453
 42
0.009484050338
  0
VERTEX
  8
LAYER_1
 10
281.6438
 20
214.503
 42
0.01704590005
  0
VERTEX
  8
LAYER_1
 10
285.6395
 20
214.6388
 42
0.01910689391
  0
VERTEX
  8
LAYER_1
 10
289.9223
 20
215.096
 42
0.01957397341
  0
VERTEX
  8
LAYER_1
 10
294.007
 20
215.8559
 42
0.02039776394
  0
VERTEX
  8
LAYER_1
 10
297.8593
 20
216.8979
 42
0.02166529919
  0
VERTEX
  8
LAYER_1
 10
301.4451
 20
218.2017
 42
0.01861699106
  0
VERTEX
  8
LAYER_1
 10
304.099
 20
219.4194
 42
0.02012168137
  0
VERTEX
  8
LAYER_1
 10
306.543
 20
220.7811
 42
0.0220251508
  0
VERTEX
  8
LAYER_1
 10
308.7595
 20
222.2763
 42
0.02437899575
  0
VERTEX
  8
LAYER_1
 10
310.7312
 20
223.8945
 42
0.02720927405
  0
VERTEX
  8
LAYER_1
 10
312.4404
 20
225.6253
 42
0.03047935717
  0
VERTEX
  8
LAYER_1
 10
313.8698
 20
227.4581
 42
0.0340333672
  0
VERTEX
  8
LAYER_1
 10
315.0019
 20
229.3826
 42
0.03753482165
  0
VERTEX
  8
LAYER_1
 10
315.819
 20
231.3882
 42
0.04045030056
  0
VERTEX
  8
LAYER_1
 10
316.3039
 20
233.4645
 42
0.03684526828
  0
VERTEX
  8
LAYER_1
 10
316.4417
 20
235.331
  0
SEQEND
  0
POLYLINE
  8
LAYER_1
 40
0.05
 41
0.05
 66
1
 10
0
 20
0
 30
0
  0
VERTEX
  8
LAYER_1
 10
314.325
 20
235.6273
 42
0.063225542
  0
VERTEX
  8
LAYER_1
 10
313.9484
 20
238.5865
 42
0.03954857799
  0
VERTEX
  8
LAYER_1
 10
313.2961
 20
240.4834
 42
0.03629901973
  0
VERTEX
  8
LAYER_1
 10
312.3419
 20
242.3084
 42
0.03268484112
  0
VERTEX
  8
LAYER_1
 10
311.1023
 20
244.0515
 42
0.0291777147
  0
VERTEX
  8
LAYER_1
 10
309.5936
 20
245.703
 42
0.02604199627
  0
VERTEX
  8
LAYER_1
 10
307.8324
 20
247.2532
 42
0.02337946318
  0
VERTEX
  8
LAYER_1
 10
305.835
 20
248.6923
 42
0.02119493862
  0
VERTEX
  8
LAYER_1
 10
303.6178
 20
250.0105
 42
0.024074382
  0
VERTEX
  8
LAYER_1
 10
300.5625
 20
251.4734
 42
0.02206807834
  0
VERTEX
  8
LAYER_1
 10
297.2215
 20
252.7131
 42
0.02065276224
  0
VERTEX
  8
LAYER_1
 10
293.6271
 20
253.7105
 42
0.01971205545
  0
VERTEX
  8
LAYER_1
 10
289.8113
 20
254.4466
 42
0.01915237448
  0
VERTEX
  8
LAYER_1
 10
285.8062
 20
254.9022
 42
0.01889921671
  0
VERTEX
  8
LAYER_1
 10
281.6438
 20
255.0583
 42
0.02070602811
  0
VERTEX
  8
LAYER_1
 10
277.0732
 20
254.8698
 42
0.01905077799
  0
VERTEX
  8
LAYER_1
 10
273.0855
 20
254.3853
 42
0.01958592161
  0
VERTEX
  8
LAYER_1
 10
269.2903
 20
253.6222
 42
0.02049522725
  0
VERTEX
  8
LAYER_1
 10
265.7198
 20
252.5997
 42
0.02187067374
  0
VERTEX
  8
LAYER_1
 10
262.4059
 20
251.3368
 42
0.02382703789
  0
VERTEX
  8
LAYER_1
 10
259.3808
 20
249.8527
 42
0.02377874539
  0
VERTEX
  8
LAYER_1
 10
256.9317
 20
248.3435
 42
0.0233958178
  0
VERTEX
  8
LAYER_1
 10
254.9918
 20
246.8757
 42
0.02607584601
  0
VERTEX
  8
LAYER_1
 10
253.2921
 20
245.2992
 42
0.02923233874
  0
VERTEX
  8
LAYER_1
 10
251.8492
 20
243.6239
 42
0.03276347165
  0
VERTEX
  8
LAYER_1
 10
250.6794
 20
241.8594
 42
0.0364040108
  0
VERTEX
  8
LAYER_1
 10
249.7991
 20
240.0156
 42
0.03968014959
  0
VERTEX
  8
LAYER_1
 10
249.2248
 20
238.1021
 42
0.04196055807
  0
VERTEX
  8
LAYER_1
 10
248.9729
 20
236.1288
 42
0.01065869704
  0
VERTEX
  8
LAYER_1
 10
248.9622
 20
235.6273
 42
0.06322561022
  0
VERTEX
  8
LAYER_1
 10
249.3388
 20
232.6681
 42
0.03954870291
  0
VERTEX
  8
LAYER_1
 10
249.9911
 20
230.7712
 42
0.03629917823
  0
VERTEX
  8
LAYER_1
 10
250.9453
 20
228.9462
 42
0.03268500732
  0
VERTEX
  8
LAYER_1
 10
252.185
 20
227.2031
 42
0.02917786909
  0
VERTEX
  8
LAYER_1
 10
253.6936
 20
225.5516
 42
0.02604212663
  0
VERTEX
  8
LAYER_1
 10
255.4549
 20
224.0014
 42
0.02337956268
  0
VERTEX
  8
LAYER_1
 10
257.4523
 20
222.5623
 42
0.0211950035
  0
VERTEX
  8
LAYER_1
 10
259.6694
 20
221.2441
 42
0.02407441064
  0
VERTEX
  8
LAYER_1
 10
262.7248
 20
219.7812
 42
0.02206804443
  0
VERTEX
  8
LAYER_1
 10
266.0658
 20
218.5415
 42
0.02065266015
  0
VERTEX
  8
LAYER_1
 10
269.6603
 20
217.5441
 42
0.01971187792
  0
VERTEX
  8
LAYER_1
 10
273.4761
 20
216.808
 42
0.0191521126
  0
VERTEX
  8
LAYER_1
 10
277.4814
 20
216.3524
 42
0.01889886028
  0
VERTEX
  8
LAYER_1
 10
281.6438
 20
216.1963
 42
0.02070643289
  0
VERTEX
  8
LAYER_1
 10
286.2143
 20
216.3848
 42
0.01905104853
  0
VERTEX
  8
LAYER_1
 10
290.2019
 20
216.8693
 42
0.01958610768
  0
VERTEX
  8
LAYER_1
 10
293.9971
 20
217.6324
 42
0.0204953379
  0
VERTEX
  8
LAYER_1
 10
297.5676
 20
218.6549
 42
0.02187071639
  0
VERTEX
  8
LAYER_1
 10
300.8814
 20
219.9178
 42
0.0238270183
  0
VERTEX
  8
LAYER_1
 10
303.9064
 20
221.4019
 42
0.02377867668
  0
VERTEX
  8
LAYER_1
 10
306.3556
 20
222.9111
 42
0.02339572187
  0
VERTEX
  8
LAYER_1
 10
308.2955
 20
224.3789
 42
0.02607571976
  0
VERTEX
  8
LAYER_1
 10
309.9951
 20
225.9554
 42
0.02923218897
  0
VERTEX
  8
LAYER_1
 10
311.438
 20
227.6307
 42
0.03276331055
  0
VERTEX
  8
LAYER_1
 10
312.6079
 20
229.3952
 42
0.03640385785
  0
VERTEX
  8
LAYER_1
 10
313.4881
 20
231.239
 42
0.03968003056
  0
VERTEX
  8
LAYER_1
 10
314.0624
 20
233.1525
 42
0.04196049812
  0
VERTEX
  8
LAYER_1
 10
314.3143
 20
235.1258
 42
0.01065869226
  0
VERTEX
  8
LAYER_1
 10
314.325
 20
235.6273
  0
SEQEND
  0
POLYLINE
  8
LAYER_1
 40
0.05
 41
0.05
 66
1
 10
0
 20
0
 30
0
  0
VERTEX
  8
LAYER_1
 10
316.2336
 20
237.7443
 42
-0.02862987834
  0
VERTEX
  8
LAYER_1
 10
316.4497
 20
234.5128
 42
-0.002623153459
  0
VERTEX
  8
LAYER_1
 10
316.4513
 20
234.2045
 42
-0.02793349974
  0
VERTEX
  8
LAYER_1
 10
316.2735
 20
231.0023
 42
-0.02761413297
  0
VERTEX
  8
LAYER_1
 10
315.7682
 20
228.0082
 42
-0.0277703703
  0
VERTEX
  8
LAYER_1
 10
314.9353
 20
225.0922
 42
-0.02725166848
  0
VERTEX
  8
LAYER_1
 10
313.7746
 20
222.2546
 42
-0.02613037012
  0
VERTEX
  8
LAYER_1
 10
312.2862
 20
219.4951
 42
-0.007250412688
  0
VERTEX
  8
LAYER_1
 10
311.7904
 20
218.705
 42
-0.02707869789
  0
VERTEX
  8
LAYER_1
 10
309.7562
 20
215.9081
 42
-0.0379156527
  0
VERTEX
  8
LAYER_1
 10
306.4747
 20
212.4496
 42
-0.02476171468
  0
VERTEX
  8
LAYER_1
 10
303.9872
 20
210.4112
 42
-0.02383691046
  0
VERTEX
  8
LAYER_1
 10
301.2597
 20
208.5866
 42
-0.01698640859
  0
VERTEX
  8
LAYER_1
 10
299.0567
 20
207.3584
 42
-0.02416753549
  0
VERTEX
  8
LAYER_1
 10
295.7255
 20
205.8426
 42
-0.02270491629
  0
VERTEX
  8
LAYER_1
 10
292.5591
 20
204.7476
 42
-0.02273288307
  0
VERTEX
  8
LAYER_1
 10
289.3048
 20
203.9445
 42
-0.02239029884
  0
VERTEX
  8
LAYER_1
 10
285.9628
 20
203.4335
 42
-0.02170962648
  0
VERTEX
  8
LAYER_1
 10
282.5329
 20
203.2144
 42
-0.005300585782
  0
VERTEX
  8
LAYER_1
 10
281.6617
 20
203.2053
 42
-0.02401843143
  0
VERTEX
  8
LAYER_1
 10
277.7847
 20
203.3901
 42
-0.02217222501
  0
VERTEX
  8
LAYER_1
 10
274.4318
 20
203.8647
 42
-0.02264673554
  0
VERTEX
  8
LAYER_1
 10
271.1666
 20
204.6312
 42
-0.02275905003
  0
VERTEX
  8
LAYER_1
 10
267.9892
 20
205.6898
 42
-0.0224983319
  0
VERTEX
  8
LAYER_1
 10
264.8997
 20
207.0403
 42
-0.004626150345
  0
VERTEX
  8
LAYER_1
 10
264.2671
 20
207.3584
 42
-0.02456626771
  0
VERTEX
  8
LAYER_1
 10
261.1282
 20
209.1711
 42
-0.02392957901
  0
VERTEX
  8
LAYER_1
 10
258.4807
 20
211.067
 42
-0.02482010961
  0
VERTEX
  8
LAYER_1
 10
256.0731
 20
213.1766
 42
-0.02525299464
  0
VERTEX
  8
LAYER_1
 10
253.9054
 20
215.5001
 42
-0.02517796003
  0
VERTEX
  8
LAYER_1
 10
251.9777
 20
218.0373
 42
-0.006229513188
  0
VERTEX
  8
LAYER_1
 10
251.5333
 20
218.705
 42
-0.0275803477
  0
VERTEX
  8
LAYER_1
 10
249.832
 20
221.6732
 42
-0.02681047317
  0
VERTEX
  8
LAYER_1
 10
248.6031
 20
224.4946
 42
-0.02761724012
  0
VERTEX
  8
LAYER_1
 10
247.7019
 20
227.3942
 42
-0.02777069442
  0
VERTEX
  8
LAYER_1
 10
247.1284
 20
230.3721
 42
-0.02724901832
  0
VERTEX
  8
LAYER_1
 10
246.8826
 20
233.4282
 42
-0.006671998111
  0
VERTEX
  8
LAYER_1
 10
246.8724
 20
234.2045
 42
-0.02850106049
  0
VERTEX
  8
LAYER_1
 10
247.0575
 20
237.4715
 42
-0.002455128545
  0
VERTEX
  8
LAYER_1
 10
247.0902
 20
237.7443
  0
SEQEND
  0
POLYLINE
  8
LAYER_1
 40
0.05
 41
0.05
 66
1
 10
0
 20
0
 30
0
  0
VERTEX
  8
LAYER_1
 10
275.4264
 20
216.5632
  0
VERTEX
  8
LAYER_1
 10
275.2201
 20
216.7659
 42
-0.07687107199
  0
VERTEX
  8
LAYER_1
 10
274.5136
 20
217.7558
 42
-0.08409859641
  0
VERTEX
  8
LAYER_1
 10
274.2417
 20
218.6847
 42
-0.02796211204
  0
VERTEX
  8
LAYER_1
 10
274.2241
 20
218.9999
 42
-0.1340787463
  0
VERTEX
  8
LAYER_1
 10
274.623
 20
220.4508
 42
-0.06258378651
  0
VERTEX
  8
LAYER_1
 10
275.2201
 20
221.2339
 42
-0.06448286223
  0
VERTEX
  8
LAYER_1
 10
276.3348
 20
222.1225
 42
-0.05116236442
  0
VERTEX
  8
LAYER_1
 10
277.7543
 20
222.8025
 42
-0.005179937282
  0
VERTEX
  8
LAYER_1
 10
277.9407
 20
222.8693
 42
-0.04658638675
  0
VERTEX
  8
LAYER_1
 10
279.8489
 20
223.3363
 42
-0.03777862628
  0
VERTEX
  8
LAYER_1
 10
281.6576
 20
223.4678
 42
-0.04345936914
  0
VERTEX
  8
LAYER_1
 10
283.7562
 20
223.2888
 42
-0.03945275175
  0
VERTEX
  8
LAYER_1
 10
285.3741
 20
222.8693
 42
-0.0522647297
  0
VERTEX
  8
LAYER_1
 10
286.9592
 20
222.1354
 42
-0.05746299502
  0
VERTEX
  8
LAYER_1
 10
288.0162
 20
221.3142
 42
-0.005502498559
  0
VERTEX
  8
LAYER_1
 10
288.0951
 20
221.2339
 42
-0.07685087586
  0
VERTEX
  8
LAYER_1
 10
288.8016
 20
220.244
 42
-0.08408688575
  0
VERTEX
  8
LAYER_1
 10
289.0735
 20
219.3151
 42
-0.02797121521
  0
VERTEX
  8
LAYER_1
 10
289.0911
 20
218.9999
 42
-0.1340902915
  0
VERTEX
  8
LAYER_1
 10
288.6922
 20
217.549
 42
-0.06255923136
  0
VERTEX
  8
LAYER_1
 10
288.0951
 20
216.7659
  0
VERTEX
  8
LAYER_1
 10
287.8877
 20
216.5621
  0
SEQEND
  0
POLYLINE
  8
LAYER_1
 40
0.05
 41
0.05
 66
1
 10
0
 20
0
 30
0
  0
VERTEX
  8
LAYER_1
 10
275.8019
 20
216.5217
 42
-0.06767796511
  0
VERTEX
  8
LAYER_1
 10
275.7117
 20
217.1898
 42
-0.1393182418
  0
VERTEX
  8
LAYER_1
 10
276.0973
 20
218.5373
 42
-0.04918806856
  0
VERTEX
  8
LAYER_1
 10
276.5092
 20
219.0864
 42
-0.07087989959
  0
VERTEX
  8
LAYER_1
 10
277.5043
 20
219.9058
 42
-0.05235356177
  0
VERTEX
  8
LAYER_1
 10
278.6882
 20
220.4747
 42
-0.05310052868
  0
VERTEX
  8
LAYER_1
 10
280.357
 20
220.8924
 42
-0.03572930845
  0
VERTEX
  8
LAYER_1
 10
281.6648
 20
220.9829
 42
-0.04953641222
  0
VERTEX
  8
LAYER_1
 10
283.4608
 20
220.8084
 42
-0.03805576164
  0
VERTEX
  8
LAYER_1
 10
284.6414
 20
220.4747
 42
-0.0599081461
  0
VERTEX
  8
LAYER_1
 10
286.011
 20
219.7853
 42
-0.05831257322
  0
VERTEX
  8
LAYER_1
 10
286.8207
 20
219.0864
 42
-0.08277547792
  0
VERTEX
  8
LAYER_1
 10
287.4189
 20
218.1721
 42
-0.09985081574
  0
VERTEX
  8
LAYER_1
 10
287.6183
 20
217.1898
 42
-0.06772960378
  0
VERTEX
  8
LAYER_1
 10
287.528
 20
216.5224
  0
SEQEND
  0
POLYLINE
  8
LAYER_1
 40
0.05
 41
0.05
 66
1
 10
0
 20
0
 30
0
  0
VERTEX
  8
LAYER_1
 10
277.8163
 20
216.3456
  0
VERTEX
  8
LAYER_1
 10
277.9861
 20
216.5613
 42
-0.08309012308
  0
VERTEX
  8
LAYER_1
 10
278.8442
 20
217.2624
 42
-0.04139062227
  0
VERTEX
  8
LAYER_1
 10
279.5354
 20
217.5917
 42
-0.06389863355
  0
VERTEX
  8
LAYER_1
 10
280.9241
 20
217.9282
 42
-0.02843128379
  0
VERTEX
  8
LAYER_1
 10
281.6521
 20
217.9688
 42
-0.06111607456
  0
VERTEX
  8
LAYER_1
 10
283.1399
 20
217.7906
 42
-0.03003367639
  0
VERTEX
  8
LAYER_1
 10
283.7687
 20
217.5917
 42
-0.07308583873
  0
VERTEX
  8
LAYER_1
 10
284.8793
 20
216.9777
 42
-0.04719599534
  0
VERTEX
  8
LAYER_1
 10
285.3183
 20
216.5613
  0
VERTEX
  8
LAYER_1
 10
285.4889
 20
216.3444
  0
SEQEND
  0
POLYLINE
  8
LAYER_1
 40
0.05
 41
0.05
 66
1
 10
0
 20
0
 30
0
  0
VERTEX
  8
LAYER_1
 10
78.4436
 20
134.4083
  0
VERTEX
  8
LAYER_1
 10
78.4436
 20
85.725
  0
SEQEND
  0
POLYLINE
  8
LAYER_1
 40
0.05
 41
0.05
 66
1
 10
0
 20
0
 30
0
  0
VERTEX
  8
LAYER_1
 10
148.4629
 20
134.4083
  0
VERTEX
  8
LAYER_1
 10
148.4629
 20
85.725
  0
SEQEND
  0
INSERT
  8
LAYER_1
  2
AIGNBL01020008
 10
0
 20
0
 30
0
  0
TEXT
  8
LAYER_1
 10
103.6798
 20
85.5979
 11
103.6798
 21
85.5979
 40
5.0153
 41
0.5
  1
210(
  0
TEXT
  8
LAYER_1
 10
110.965
 20
85.5979
 11
110.965
 21
85.5979
 40
5.0153
 41
0.5
  1
 
  0
TEXT
  8
LAYER_1
 10
112.1503
 20
85.5979
 11
112.1503
 21
85.5979
 40
5.0153
 41
0.5
  1
 
  0
TEXT
  8
LAYER_1
 10
113.3355
 20
85.5979
 11
113.3355
 21
85.5979
 40
5.0153
 41
0.5
  1
 
  0
TEXT
  8
LAYER_1
 10
115.6972
 20
85.5979
 11
115.6972
 21
85.5979
 40
5.0153
 41
0.5
  1
 5mm)
  0
POLYLINE
  8
LAYER_1
 40
0.05
 41
0.05
 66
1
 10
0
 20
0
 30
0
 70
1
  0
VERTEX
  8
LAYER_1
 10
113.8344
 20
87.4183
  0
VERTEX
  8
LAYER_1
 10
116.205
 20
87.4183
  0
VERTEX
  8
LAYER_1
 10
116.205
 20
87.3335
  0
VERTEX
  8
LAYER_1
 10
113.8344
 20
87.3335
  0
SEQEND
  0
POLYLINE
  8
LAYER_1
 40
0.05
 41
0.05
 66
1
 10
0
 20
0
 30
0
 70
1
  0
VERTEX
  8
LAYER_1
 10
113.8344
 20
87.4183
  0
VERTEX
  8
LAYER_1
 10
116.205
 20
87.4183
  0
VERTEX
  8
LAYER_1
 10
116.205
 20
87.3335
  0
VERTEX
  8
LAYER_1
 10
113.8344
 20
87.3335
  0
SEQEND
  0
POLYLINE
  8
LAYER_1
 40
0.05
 41
0.05
 66
1
 10
0
 20
0
 30
0
 70
1
  0
VERTEX
  8
LAYER_1
 10
115.0197
 20
88.6037
  0
VERTEX
  8
LAYER_1
 10
115.1044
 20
88.6037
  0
VERTEX
  8
LAYER_1
 10
115.1044
 20
86.1484
  0
VERTEX
  8
LAYER_1
 10
115.0197
 20
86.1484
  0
SEQEND
  0
POLYLINE
  8
LAYER_1
 40
0.05
 41
0.05
 66
1
 10
0
 20
0
 30
0
 70
1
  0
VERTEX
  8
LAYER_1
 10
115.0197
 20
88.6037
  0
VERTEX
  8
LAYER_1
 10
115.1044
 20
88.6037
  0
VERTEX
  8
LAYER_1
 10
115.1044
 20
86.1484
  0
VERTEX
  8
LAYER_1
 10
115.0197
 20
86.1484
  0
SEQEND
  0
POLYLINE
  8
LAYER_1
 40
0.05
 41
0.05
 66
1
 10
0
 20
0
 30
0
 70
1
  0
VERTEX
  8
LAYER_1
 10
113.8344
 20
85.8097
  0
VERTEX
  8
LAYER_1
 10
116.205
 20
85.8097
  0
VERTEX
  8
LAYER_1
 10
116.205
 20
85.725
  0
VERTEX
  8
LAYER_1
 10
113.8344
 20
85.725
  0
SEQEND
  0
POLYLINE
  8
LAYER_1
 40
0.05
 41
0.05
 66
1
 10
0
 20
0
 30
0
 70
1
  0
VERTEX
  8
LAYER_1
 10
113.8344
 20
85.8097
  0
VERTEX
  8
LAYER_1
 10
116.205
 20
85.8097
  0
VERTEX
  8
LAYER_1
 10
116.205
 20
85.725
  0
VERTEX
  8
LAYER_1
 10
113.8344
 20
85.725
  0
SEQEND
  0
POLYLINE
  8
LAYER_1
 40
0.05
 41
0.05
 66
1
 10
0
 20
0
 30
0
  0
VERTEX
  8
LAYER_1
 10
248.6236
 20
149.3097
  0
VERTEX
  8
LAYER_1
 10
314.6637
 20
149.3097
  0
SEQEND
  0
POLYLINE
  8
LAYER_1
 40
0.05
 41
0.05
 66
1
 10
0
 20
0
 30
0
 70
1
  0
VERTEX
  8
LAYER_1
 10
248.6236
 20
148.717
  0
VERTEX
  8
LAYER_1
 10
246.6764
 20
149.3097
  0
VERTEX
  8
LAYER_1
 10
248.6236
 20
149.8177
  0
SEQEND
  0
POLYLINE
  8
LAYER_1
 40
0.05
 41
0.05
 66
1
 10
0
 20
0
 30
0
 70
1
  0
VERTEX
  8
LAYER_1
 10
248.6026
 20
148.7382
  0
VERTEX
  8
LAYER_1
 10
246.6551
 20
149.3308
  0
VERTEX
  8
LAYER_1
 10
248.6026
 20
149.8389
  0
SEQEND
  0
POLYLINE
  8
LAYER_1
 40
0.05
 41
0.05
 66
1
 10
0
 20
0
 30
0
 70
1
  0
VERTEX
  8
LAYER_1
 10
248.6236
 20
148.717
  0
VERTEX
  8
LAYER_1
 10
246.6764
 20
149.3097
  0
VERTEX
  8
LAYER_1
 10
248.6236
 20
149.8177
  0
SEQEND
  0
POLYLINE
  8
LAYER_1
 40
0.05
 41
0.05
 66
1
 10
0
 20
0
 30
0
 70
1
  0
VERTEX
  8
LAYER_1
 10
314.6637
 20
149.8177
  0
VERTEX
  8
LAYER_1
 10
316.6956
 20
149.3097
  0
VERTEX
  8
LAYER_1
 10
314.6637
 20
148.717
  0
SEQEND
  0
POLYLINE
  8
LAYER_1
 40
0.05
 41
0.05
 66
1
 10
0
 20
0
 30
0
 70
1
  0
VERTEX
  8
LAYER_1
 10
314.6426
 20
149.8389
  0
VERTEX
  8
LAYER_1
 10
316.6746
 20
149.3308
  0
VERTEX
  8
LAYER_1
 10
314.6426
 20
148.7382
  0
SEQEND
  0
POLYLINE
  8
LAYER_1
 40
0.05
 41
0.05
 66
1
 10
0
 20
0
 30
0
 70
1
  0
VERTEX
  8
LAYER_1
 10
314.6637
 20
149.8177
  0
VERTEX
  8
LAYER_1
 10
316.6956
 20
149.3097
  0
VERTEX
  8
LAYER_1
 10
314.6637
 20
148.717
  0
SEQEND
  0
POLYLINE
  8
LAYER_1
 40
0.05
 41
0.05
 66
1
 10
0
 20
0
 30
0
  0
VERTEX
  8
LAYER_1
 10
354.7956
 20
81.9998
  0
VERTEX
  8
LAYER_1
 10
354.7956
 20
111.2945
  0
SEQEND
  0
POLYLINE
  8
LAYER_1
 40
0.05
 41
0.05
 66
1
 10
0
 20
0
 30
0
 70
1
  0
VERTEX
  8
LAYER_1
 10
355.3885
 20
81.9998
  0
VERTEX
  8
LAYER_1
 10
354.7956
 20
79.9676
  0
VERTEX
  8
LAYER_1
 10
354.2878
 20
81.9998
  0
SEQEND
  0
POLYLINE
  8
LAYER_1
 40
0.05
 41
0.05
 66
1
 10
0
 20
0
 30
0
 70
1
  0
VERTEX
  8
LAYER_1
 10
355.3671
 20
82.0208
  0
VERTEX
  8
LAYER_1
 10
354.7746
 20
79.9889
  0
VERTEX
  8
LAYER_1
 10
354.2664
 20
82.0208
  0
SEQEND
  0
POLYLINE
  8
LAYER_1
 40
0.05
 41
0.05
 66
1
 10
0
 20
0
 30
0
 70
1
  0
VERTEX
  8
LAYER_1
 10
355.3885
 20
81.9998
  0
VERTEX
  8
LAYER_1
 10
354.7956
 20
79.9676
  0
VERTEX
  8
LAYER_1
 10
354.2878
 20
81.9998
  0
SEQEND
  0
POLYLINE
  8
LAYER_1
 40
0.05
 41
0.05
 66
1
 10
0
 20
0
 30
0
 70
1
  0
VERTEX
  8
LAYER_1
 10
354.2878
 20
111.2945
  0
VERTEX
  8
LAYER_1
 10
354.7956
 20
113.3264
  0
VERTEX
  8
LAYER_1
 10
355.3885
 20
111.2945
  0
SEQEND
  0
POLYLINE
  8
LAYER_1
 40
0.05
 41
0.05
 66
1
 10
0
 20
0
 30
0
 70
1
  0
VERTEX
  8
LAYER_1
 10
354.2664
 20
111.3155
  0
VERTEX
  8
LAYER_1
 10
354.7746
 20
113.3474
  0
VERTEX
  8
LAYER_1
 10
355.3671
 20
111.3155
  0
SEQEND
  0
POLYLINE
  8
LAYER_1
 40
0.05
 41
0.05
 66
1
 10
0
 20
0
 30
0
 70
1
  0
VERTEX
  8
LAYER_1
 10
354.2878
 20
111.2945
  0
VERTEX
  8
LAYER_1
 10
354.7956
 20
113.3264
  0
VERTEX
  8
LAYER_1
 10
355.3885
 20
111.2945
  0
SEQEND
  0
POLYLINE
  8
LAYER_1
 40
0.05
 41
0.05
 66
1
 10
0
 20
0
 30
0
  0
VERTEX
  8
LAYER_1
 10
80.4757
 20
89.9583
  0
VERTEX
  8
LAYER_1
 10
146.431
 20
89.9583
  0
SEQEND
  0
POLYLINE
  8
LAYER_1
 40
0.05
 41
0.05
 66
1
 10
0
 20
0
 30
0
 70
1
  0
VERTEX
  8
LAYER_1
 10
80.4757
 20
89.4502
  0
VERTEX
  8
LAYER_1
 10
78.4438
 20
89.9583
  0
VERTEX
  8
LAYER_1
 10
80.4757
 20
90.4665
  0
SEQEND
  0
POLYLINE
  8
LAYER_1
 40
0.05
 41
0.05
 66
1
 10
0
 20
0
 30
0
 70
1
  0
VERTEX
  8
LAYER_1
 10
80.4545
 20
89.4715
  0
VERTEX
  8
LAYER_1
 10
78.4226
 20
89.9793
  0
VERTEX
  8
LAYER_1
 10
80.4545
 20
90.4875
  0
SEQEND
  0
POLYLINE
  8
LAYER_1
 40
0.05
 41
0.05
 66
1
 10
0
 20
0
 30
0
 70
1
  0
VERTEX
  8
LAYER_1
 10
80.4757
 20
89.4502
  0
VERTEX
  8
LAYER_1
 10
78.4438
 20
89.9583
  0
VERTEX
  8
LAYER_1
 10
80.4757
 20
90.4665
  0
SEQEND
  0
POLYLINE
  8
LAYER_1
 40
0.05
 41
0.05
 66
1
 10
0
 20
0
 30
0
 70
1
  0
VERTEX
  8
LAYER_1
 10
146.431
 20
90.4665
  0
VERTEX
  8
LAYER_1
 10
148.4629
 20
89.9583
  0
VERTEX
  8
LAYER_1
 10
146.431
 20
89.4502
  0
SEQEND
  0
POLYLINE
  8
LAYER_1
 40
0.05
 41
0.05
 66
1
 10
0
 20
0
 30
0
 70
1
  0
VERTEX
  8
LAYER_1
 10
146.4098
 20
90.4875
  0
VERTEX
  8
LAYER_1
 10
148.4419
 20
89.9793
  0
VERTEX
  8
LAYER_1
 10
146.4098
 20
89.4715
  0
SEQEND
  0
POLYLINE
  8
LAYER_1
 40
0.05
 41
0.05
 66
1
 10
0
 20
0
 30
0
 70
1
  0
VERTEX
  8
LAYER_1
 10
146.431
 20
90.4665
  0
VERTEX
  8
LAYER_1
 10
148.4629
 20
89.9583
  0
VERTEX
  8
LAYER_1
 10
146.431
 20
89.4502
  0
SEQEND
  0
POLYLINE
  8
LAYER_1
 40
0.05
 41
0.05
 66
1
 10
0
 20
0
 30
0
  0
VERTEX
  8
LAYER_1
 10
120.4383
 20
149.352
 42
0.4142112416
  0
VERTEX
  8
LAYER_1
 10
113.6227
 20
156.1677
 42
0.4142117377
  0
VERTEX
  8
LAYER_1
 10
106.8071
 20
149.352
 42
0.4142158834
  0
VERTEX
  8
LAYER_1
 10
113.6227
 20
142.5363
 42
0.414215387
  0
VERTEX
  8
LAYER_1
 10
120.4383
 20
149.352
  0
SEQEND
  0
POLYLINE
  8
LAYER_1
 40
0.05
 41
0.05
 66
1
 10
0
 20
0
 30
0
  0
VERTEX
  8
LAYER_1
 10
123.5711
 20
149.3097
 42
0.4142155823
  0
VERTEX
  8
LAYER_1
 10
113.5803
 20
159.3004
 42
0.4142144361
  0
VERTEX
  8
LAYER_1
 10
103.5897
 20
149.3097
 42
0.4142115424
  0
VERTEX
  8
LAYER_1
 10
113.5803
 20
139.319
 42
0.4142126889
  0
VERTEX
  8
LAYER_1
 10
123.5711
 20
149.3097
  0
SEQEND
  0
POLYLINE
  8
LAYER_1
 40
0.05
 41
0.05
 66
1
 10
0
 20
0
 30
0
  0
VERTEX
  8
LAYER_1
 10
93.345
 20
155.4057
  0
VERTEX
  8
LAYER_1
 10
106.553
 20
142.2824
  0
SEQEND
  0
POLYLINE
  8
LAYER_1
 40
0.05
 41
0.05
 66
1
 10
0
 20
0
 30
0
  0
VERTEX
  8
LAYER_1
 10
107.4844
 20
169.545
  0
VERTEX
  8
LAYER_1
 10
120.6924
 20
156.4216
  0
SEQEND
  0
POLYLINE
  8
LAYER_1
 40
0.05
 41
0.05
 66
1
 10
0
 20
0
 30
0
  0
VERTEX
  8
LAYER_1
 10
108.7544
 20
144.4839
  0
VERTEX
  8
LAYER_1
 10
121.8777
 20
131.3605
  0
SEQEND
  0
POLYLINE
  8
LAYER_1
 40
0.05
 41
0.05
 66
1
 10
0
 20
0
 30
0
  0
VERTEX
  8
LAYER_1
 10
118.4064
 20
154.1356
  0
VERTEX
  8
LAYER_1
 10
131.6144
 20
141.0122
  0
SEQEND
  0
INSERT
  8
LAYER_1
  2
AIGNBL01020009
 10
0
 20
0
 30
0
  0
TEXT
  8
LAYER_1
 10
280.9868
 20
97.1972
 11
280.9868
 21
97.1972
 40
5.0153
 41
0.5
  1
60
  0
POLYLINE
  8
LAYER_1
 40
0.05
 41
0.05
 66
1
 10
0
 20
0
 30
0
  0
VERTEX
  8
LAYER_1
 10
121.9624
 20
134.1544
  0
VERTEX
  8
LAYER_1
 10
128.7356
 20
141.0122
  0
SEQEND
  0
POLYLINE
  8
LAYER_1
 40
0.05
 41
0.05
 66
1
 10
0
 20
0
 30
0
 70
1
  0
VERTEX
  8
LAYER_1
 10
122.3011
 20
133.8158
  0
VERTEX
  8
LAYER_1
 10
120.523
 20
132.7151
  0
VERTEX
  8
LAYER_1
 10
121.539
 20
134.5778
  0
SEQEND
  0
POLYLINE
  8
LAYER_1
 40
0.05
 41
0.05
 66
1
 10
0
 20
0
 30
0
 70
1
  0
VERTEX
  8
LAYER_1
 10
122.2799
 20
133.8368
  0
VERTEX
  8
LAYER_1
 10
120.5019
 20
132.7361
  0
VERTEX
  8
LAYER_1
 10
121.5178
 20
134.5988
  0
SEQEND
  0
POLYLINE
  8
LAYER_1
 40
0.05
 41
0.05
 66
1
 10
0
 20
0
 30
0
 70
1
  0
VERTEX
  8
LAYER_1
 10
122.3011
 20
133.8158
  0
VERTEX
  8
LAYER_1
 10
120.523
 20
132.7151
  0
VERTEX
  8
LAYER_1
 10
121.539
 20
134.5778
  0
SEQEND
  0
POLYLINE
  8
LAYER_1
 40
0.05
 41
0.05
 66
1
 10
0
 20
0
 30
0
 70
1
  0
VERTEX
  8
LAYER_1
 10
128.397
 20
141.3509
  0
VERTEX
  8
LAYER_1
 10
130.175
 20
142.4516
  0
VERTEX
  8
LAYER_1
 10
129.159
 20
140.5888
  0
SEQEND
  0
POLYLINE
  8
LAYER_1
 40
0.05
 41
0.05
 66
1
 10
0
 20
0
 30
0
 70
1
  0
VERTEX
  8
LAYER_1
 10
128.376
 20
141.3722
  0
VERTEX
  8
LAYER_1
 10
130.1538
 20
142.473
  0
VERTEX
  8
LAYER_1
 10
129.1379
 20
140.6102
  0
SEQEND
  0
POLYLINE
  8
LAYER_1
 40
0.05
 41
0.05
 66
1
 10
0
 20
0
 30
0
 70
1
  0
VERTEX
  8
LAYER_1
 10
128.397
 20
141.3509
  0
VERTEX
  8
LAYER_1
 10
130.175
 20
142.4516
  0
VERTEX
  8
LAYER_1
 10
129.159
 20
140.5888
  0
SEQEND
  0
INSERT
  8
LAYER_1
  2
AIGNBL0102000A
 10
0
 20
0
 30
0
  0
TEXT
  8
LAYER_1
 10
127.8399
 20
134.1403
 11
127.8399
 21
134.1403
 40
5.0153
 41
0.5
 50
44.99999999
  1
41
  0
POLYLINE
  8
LAYER_1
 40
0.05
 41
0.05
 66
1
 10
0
 20
0
 30
0
  0
VERTEX
  8
LAYER_1
 10
97.4938
 20
154.1356
  0
VERTEX
  8
LAYER_1
 10
108.839
 20
165.481
  0
SEQEND
  0
POLYLINE
  8
LAYER_1
 40
0.05
 41
0.05
 66
1
 10
0
 20
0
 30
0
 70
1
  0
VERTEX
  8
LAYER_1
 10
97.8324
 20
153.797
  0
VERTEX
  8
LAYER_1
 10
96.0544
 20
152.6963
  0
VERTEX
  8
LAYER_1
 10
97.0704
 20
154.559
  0
SEQEND
  0
POLYLINE
  8
LAYER_1
 40
0.05
 41
0.05
 66
1
 10
0
 20
0
 30
0
 70
1
  0
VERTEX
  8
LAYER_1
 10
97.8113
 20
153.8182
  0
VERTEX
  8
LAYER_1
 10
96.0332
 20
152.7175
  0
VERTEX
  8
LAYER_1
 10
97.0492
 20
154.5801
  0
SEQEND
  0
POLYLINE
  8
LAYER_1
 40
0.05
 41
0.05
 66
1
 10
0
 20
0
 30
0
 70
1
  0
VERTEX
  8
LAYER_1
 10
97.8324
 20
153.797
  0
VERTEX
  8
LAYER_1
 10
96.0544
 20
152.6963
  0
VERTEX
  8
LAYER_1
 10
97.0704
 20
154.559
  0
SEQEND
  0
POLYLINE
  8
LAYER_1
 40
0.05
 41
0.05
 66
1
 10
0
 20
0
 30
0
 70
1
  0
VERTEX
  8
LAYER_1
 10
108.4158
 20
165.9043
  0
VERTEX
  8
LAYER_1
 10
110.2784
 20
166.9202
  0
VERTEX
  8
LAYER_1
 10
109.1777
 20
165.1424
  0
SEQEND
  0
POLYLINE
  8
LAYER_1
 40
0.05
 41
0.05
 66
1
 10
0
 20
0
 30
0
 70
1
  0
VERTEX
  8
LAYER_1
 10
108.3946
 20
165.9254
  0
VERTEX
  8
LAYER_1
 10
110.2572
 20
166.9414
  0
VERTEX
  8
LAYER_1
 10
109.1565
 20
165.1634
  0
SEQEND
  0
POLYLINE
  8
LAYER_1
 40
0.05
 41
0.05
 66
1
 10
0
 20
0
 30
0
 70
1
  0
VERTEX
  8
LAYER_1
 10
108.4158
 20
165.9043
  0
VERTEX
  8
LAYER_1
 10
110.2784
 20
166.9202
  0
VERTEX
  8
LAYER_1
 10
109.1777
 20
165.1424
  0
SEQEND
  0
INSERT
  8
LAYER_1
  2
AIGNBL0102000B
 10
0
 20
0
 30
0
  0
TEXT
  8
LAYER_1
 10
102.1011
 20
159.8793
 11
102.1011
 21
159.8793
 40
5.0153
 41
0.5
 50
44.99999999
  1
60
  0
ENDBLK
  0
ENDSEC
  0
SECTION
  2
ENTITIES
  0
INSERT
  8
LAYER_1
  2
AIGNBL01010002
 10
0
 20
0
 30
0
  0
INSERT
  8
LAYER_1
  2
AIGNBL01010005
 10
0
 20
0
 30
0
  0
ENDSEC
  0
EOF
