  0
SECTION
  2
HEADER
  9
$ACADVER
  1
AC1009
  9
$LUNITS
 70
2
  9
$LUPREC
 70
4
  9
$LTSCALE
 40
1.0
  9
$EXTMIN
 10
3.1173
 20
129.9817
 30
0
  9
$EXTMAX
 10
417.095
 20
393.6683
 30
0
  0
ENDSEC
  0
SECTION
  2
TABLES
  0
TABLE
  2
LTYPE
 70
256
  0
ENDTAB
  0
TABLE
  2
LAYER
 70
1
  0
LAYER
  2
LAYER_1
 70
64
 62
7
  6
CONTINUOUS
  0
ENDTAB
  0
TABLE
  2
STYLE
 70
6
  0
STYLE
  2
STANDARD
 70
0
 40
0
 50
0
 71
0
 41
0
 42
0
  3
TXT
  4
BIGFONT
  0
ENDTAB
  0
ENDSEC
  0
SECTION
  2
BLOCKS
  0
BLOCK
  8
LAYER_1
  2
AIGNBL01040007
 70
64
 10
0
 20
0
 30
0
  3
AIGNBL01040007
  0
POLYLINE
  8
LAYER_1
 40
0.05
 41
0.05
 62
39
 66
1
 10
0
 20
0
 30
0
 70
1
  0
VERTEX
  8
LAYER_1
 10
320.4766
 20
138.975
  0
VERTEX
  8
LAYER_1
 10
319.9877
 20
137.7899
  0
VERTEX
  8
LAYER_1
 10
319.3597
 20
137.7899
  0
VERTEX
  8
LAYER_1
 10
320.9592
 20
141.5557
  0
VERTEX
  8
LAYER_1
 10
321.6924
 20
141.5557
  0
VERTEX
  8
LAYER_1
 10
323.2988
 20
137.7899
  0
VERTEX
  8
LAYER_1
 10
322.6487
 20
137.7899
  0
VERTEX
  8
LAYER_1
 10
322.1461
 20
138.975
  0
SEQEND
  0
POLYLINE
  8
LAYER_1
 40
0.05
 41
0.05
 62
39
 66
1
 10
0
 20
0
 30
0
 70
1
  0
VERTEX
  8
LAYER_1
 10
322.0203
 20
139.3539
  0
VERTEX
  8
LAYER_1
 10
321.5594
 20
140.4388
  0
VERTEX
  8
LAYER_1
 10
321.3147
 20
141.1257
  0
VERTEX
  8
LAYER_1
 10
321.301
 20
141.1257
  0
VERTEX
  8
LAYER_1
 10
321.0633
 20
140.4433
  0
VERTEX
  8
LAYER_1
 10
320.6027
 20
139.3539
  0
SEQEND
  0
ENDBLK
  0
BLOCK
  8
LAYER_1
  2
AIGNBL01040008
 70
64
 10
0
 20
0
 30
0
  3
AIGNBL01040008
  0
POLYLINE
  8
LAYER_1
 40
0.05
 41
0.05
 62
39
 66
1
 10
0
 20
0
 30
0
 70
1
  0
VERTEX
  8
LAYER_1
 10
327.6641
 20
137.2366
 42
-0.0155848755
  0
VERTEX
  8
LAYER_1
 10
325.8619
 20
137.6727
  0
VERTEX
  8
LAYER_1
 10
325.5753
 20
137.7282
 42
-0.08356944747
  0
VERTEX
  8
LAYER_1
 10
324.7113
 20
137.8944
 42
-0.0975043791
  0
VERTEX
  8
LAYER_1
 10
324.0501
 20
138.3003
 42
-0.2129077902
  0
VERTEX
  8
LAYER_1
 10
323.5014
 20
139.633
 42
-0.09685143224
  0
VERTEX
  8
LAYER_1
 10
323.646
 20
140.4064
 42
-0.2046325641
  0
VERTEX
  8
LAYER_1
 10
324.6935
 20
141.4306
 42
-0.09825434011
  0
VERTEX
  8
LAYER_1
 10
325.6945
 20
141.617
 42
-0.08554836282
  0
VERTEX
  8
LAYER_1
 10
326.5631
 20
141.4757
 42
-0.1004347897
  0
VERTEX
  8
LAYER_1
 10
327.2282
 20
141.0814
 42
-0.2140895568
  0
VERTEX
  8
LAYER_1
 10
327.8036
 20
139.7115
 42
-0.09541176406
  0
VERTEX
  8
LAYER_1
 10
327.6647
 20
138.9438
 42
-0.2143037781
  0
VERTEX
  8
LAYER_1
 10
326.6419
 20
137.9653
 42
-0.02338881748
  0
VERTEX
  8
LAYER_1
 10
326.4628
 20
137.907
  0
VERTEX
  8
LAYER_1
 10
326.4628
 20
137.8846
 42
0.01711831943
  0
VERTEX
  8
LAYER_1
 10
327.8391
 20
137.6445
  0
SEQEND
  0
POLYLINE
  8
LAYER_1
 40
0.05
 41
0.05
 62
39
 66
1
 10
0
 20
0
 30
0
 70
1
  0
VERTEX
  8
LAYER_1
 10
327.1614
 20
139.6902
 42
0.1071543648
  0
VERTEX
  8
LAYER_1
 10
327.0101
 20
140.395
 42
0.2976507644
  0
VERTEX
  8
LAYER_1
 10
325.6731
 20
141.2205
 42
0.1072363269
  0
VERTEX
  8
LAYER_1
 10
324.9833
 20
141.081
 42
0.2386054241
  0
VERTEX
  8
LAYER_1
 10
324.1964
 20
140.0754
 42
0.05752774583
  0
VERTEX
  8
LAYER_1
 10
324.1508
 20
139.6454
 42
0.218096749
  0
VERTEX
  8
LAYER_1
 10
324.6814
 20
138.45
 42
0.1772796408
  0
VERTEX
  8
LAYER_1
 10
325.6452
 20
138.1244
 42
0.1075185771
  0
VERTEX
  8
LAYER_1
 10
326.3266
 20
138.2634
 42
0.2370926009
  0
VERTEX
  8
LAYER_1
 10
327.1137
 20
139.263
 42
0.05601310134
  0
SEQEND
  0
ENDBLK
  0
BLOCK
  8
LAYER_1
  2
AIGNBL01040009
 70
64
 10
0
 20
0
 30
0
  3
AIGNBL01040009
  0
POLYLINE
  8
LAYER_1
 40
0.05
 41
0.05
 62
39
 66
1
 10
0
 20
0
 30
0
 70
1
  0
VERTEX
  8
LAYER_1
 10
329.131
 20
141.5557
  0
VERTEX
  8
LAYER_1
 10
329.131
 20
139.3264
 42
0.1145199457
  0
VERTEX
  8
LAYER_1
 10
329.2649
 20
138.6606
 42
0.1464896694
  0
VERTEX
  8
LAYER_1
 10
329.6152
 20
138.2754
 42
0.1362580474
  0
VERTEX
  8
LAYER_1
 10
330.2276
 20
138.1244
 42
0.1219300979
  0
VERTEX
  8
LAYER_1
 10
330.8507
 20
138.2591
 42
0.1503016186
  0
VERTEX
  8
LAYER_1
 10
331.2225
 20
138.6281
 42
0.1256239276
  0
VERTEX
  8
LAYER_1
 10
331.3731
 20
139.3264
  0
VERTEX
  8
LAYER_1
 10
331.3731
 20
141.5557
  0
VERTEX
  8
LAYER_1
 10
331.9877
 20
141.5557
  0
VERTEX
  8
LAYER_1
 10
331.9877
 20
139.3598
 42
-0.09997665689
  0
VERTEX
  8
LAYER_1
 10
331.8528
 20
138.6171
 42
-0.1215019174
  0
VERTEX
  8
LAYER_1
 10
331.4795
 20
138.1104
 42
-0.1106228669
  0
VERTEX
  8
LAYER_1
 10
330.854
 20
137.8038
 42
-0.06128517916
  0
VERTEX
  8
LAYER_1
 10
330.2065
 20
137.7282
 42
-0.09418763513
  0
VERTEX
  8
LAYER_1
 10
329.3874
 20
137.8663
 42
-0.2431628294
  0
VERTEX
  8
LAYER_1
 10
328.5839
 20
138.777
 42
-0.06320488118
  0
VERTEX
  8
LAYER_1
 10
328.5164
 20
139.3377
  0
VERTEX
  8
LAYER_1
 10
328.5164
 20
141.5557
  0
SEQEND
  0
ENDBLK
  0
BLOCK
  8
LAYER_1
  2
AIGNBL0104000A
 70
64
 10
0
 20
0
 30
0
  3
AIGNBL0104000A
  0
POLYLINE
  8
LAYER_1
 40
0.05
 41
0.05
 62
39
 66
1
 10
0
 20
0
 30
0
 70
1
  0
VERTEX
  8
LAYER_1
 10
333.734
 20
138.975
  0
VERTEX
  8
LAYER_1
 10
333.2448
 20
137.7899
  0
VERTEX
  8
LAYER_1
 10
332.6167
 20
137.7899
  0
VERTEX
  8
LAYER_1
 10
334.216
 20
141.5557
  0
VERTEX
  8
LAYER_1
 10
334.9491
 20
141.5557
  0
VERTEX
  8
LAYER_1
 10
336.5555
 20
137.7899
  0
VERTEX
  8
LAYER_1
 10
335.9061
 20
137.7899
  0
VERTEX
  8
LAYER_1
 10
335.4035
 20
138.975
  0
SEQEND
  0
POLYLINE
  8
LAYER_1
 40
0.05
 41
0.05
 62
39
 66
1
 10
0
 20
0
 30
0
 70
1
  0
VERTEX
  8
LAYER_1
 10
335.2774
 20
139.3539
  0
VERTEX
  8
LAYER_1
 10
334.8161
 20
140.4388
  0
VERTEX
  8
LAYER_1
 10
334.5715
 20
141.1257
  0
VERTEX
  8
LAYER_1
 10
334.5577
 20
141.1257
  0
VERTEX
  8
LAYER_1
 10
334.3203
 20
140.4433
  0
VERTEX
  8
LAYER_1
 10
333.8594
 20
139.3539
  0
SEQEND
  0
ENDBLK
  0
BLOCK
  8
LAYER_1
  2
AIGNBL0104000B
 70
64
 10
0
 20
0
 30
0
  3
AIGNBL0104000B
  0
POLYLINE
  8
LAYER_1
 40
0.05
 41
0.05
 62
39
 66
1
 10
0
 20
0
 30
0
 70
1
  0
VERTEX
  8
LAYER_1
 10
337.5963
 20
141.5109
 42
-0.03243277402
  0
VERTEX
  8
LAYER_1
 10
338.7631
 20
141.5839
 42
-0.08081726569
  0
VERTEX
  8
LAYER_1
 10
339.7196
 20
141.4521
 42
-0.07822939654
  0
VERTEX
  8
LAYER_1
 10
340.0829
 20
141.2711
 42
-0.2484404511
  0
VERTEX
  8
LAYER_1
 10
340.4946
 20
140.4829
 42
-0.226147
  0
VERTEX
  8
LAYER_1
 10
340.1315
 20
139.6788
 42
-0.1096987633
  0
VERTEX
  8
LAYER_1
 10
339.5032
 20
139.3655
 42
-0.06568274206
  0
VERTEX
  8
LAYER_1
 10
338.6929
 20
139.265
 42
-0.0623016643
  0
VERTEX
  8
LAYER_1
 10
338.2043
 20
139.2985
  0
VERTEX
  8
LAYER_1
 10
338.2043
 20
137.7899
  0
VERTEX
  8
LAYER_1
 10
337.5963
 20
137.7899
  0
SEQEND
  0
POLYLINE
  8
LAYER_1
 40
0.05
 41
0.05
 62
39
 66
1
 10
0
 20
0
 30
0
 70
1
  0
VERTEX
  8
LAYER_1
 10
338.2043
 20
139.6953
 42
0.04191336602
  0
VERTEX
  8
LAYER_1
 10
338.7066
 20
139.6561
 42
0.1032111168
  0
VERTEX
  8
LAYER_1
 10
339.4258
 20
139.7834
 42
0.1555938032
  0
VERTEX
  8
LAYER_1
 10
339.7906
 20
140.0878
 42
0.1352673748
  0
VERTEX
  8
LAYER_1
 10
339.8876
 20
140.4605
 42
0.1737047371
  0
VERTEX
  8
LAYER_1
 10
339.7528
 20
140.8678
 42
0.1517050813
  0
VERTEX
  8
LAYER_1
 10
339.3317
 20
141.1273
 42
0.06879756253
  0
VERTEX
  8
LAYER_1
 10
338.7772
 20
141.1981
 42
0.06317907604
  0
VERTEX
  8
LAYER_1
 10
338.2043
 20
141.1588
  0
SEQEND
  0
ENDBLK
  0
BLOCK
  8
LAYER_1
  2
AIGNBL0104000C
 70
64
 10
0
 20
0
 30
0
  3
AIGNBL0104000C
  0
POLYLINE
  8
LAYER_1
 40
0.05
 41
0.05
 62
39
 66
1
 10
0
 20
0
 30
0
 70
1
  0
VERTEX
  8
LAYER_1
 10
342.0466
 20
141.2539
 42
-0.2767132075
  0
VERTEX
  8
LAYER_1
 10
341.9071
 20
141.0138
 42
-0.1265607389
  0
VERTEX
  8
LAYER_1
 10
341.655
 20
140.9521
 42
-0.2237364275
  0
VERTEX
  8
LAYER_1
 10
341.3446
 20
141.0845
 42
-0.1708503054
  0
VERTEX
  8
LAYER_1
 10
341.2846
 20
141.2539
 42
-0.2643879937
  0
VERTEX
  8
LAYER_1
 10
341.434
 20
141.501
 42
-0.1290073663
  0
VERTEX
  8
LAYER_1
 10
341.6687
 20
141.5609
 42
-0.225342086
  0
VERTEX
  8
LAYER_1
 10
341.9855
 20
141.4302
 42
-0.1691136206
  0
SEQEND
  0
POLYLINE
  8
LAYER_1
 40
0.05
 41
0.05
 62
39
 66
1
 10
0
 20
0
 30
0
 70
1
  0
VERTEX
  8
LAYER_1
 10
341.3611
 20
137.7899
  0
VERTEX
  8
LAYER_1
 10
341.3611
 20
140.4939
  0
VERTEX
  8
LAYER_1
 10
341.9757
 20
140.4939
  0
VERTEX
  8
LAYER_1
 10
341.9757
 20
137.7899
  0
SEQEND
  0
ENDBLK
  0
BLOCK
  8
LAYER_1
  2
AIGNBL0104000D
 70
64
 10
0
 20
0
 30
0
  3
AIGNBL0104000D
  0
POLYLINE
  8
LAYER_1
 40
0.05
 41
0.05
 62
39
 66
1
 10
0
 20
0
 30
0
 70
1
  0
VERTEX
  8
LAYER_1
 10
343.8474
 20
138.975
  0
VERTEX
  8
LAYER_1
 10
343.3592
 20
137.7899
  0
VERTEX
  8
LAYER_1
 10
342.7301
 20
137.7899
  0
VERTEX
  8
LAYER_1
 10
344.3297
 20
141.5557
  0
VERTEX
  8
LAYER_1
 10
345.0635
 20
141.5557
  0
VERTEX
  8
LAYER_1
 10
346.67
 20
137.7899
  0
VERTEX
  8
LAYER_1
 10
346.0202
 20
137.7899
  0
VERTEX
  8
LAYER_1
 10
345.5176
 20
138.975
  0
SEQEND
  0
POLYLINE
  8
LAYER_1
 40
0.05
 41
0.05
 62
39
 66
1
 10
0
 20
0
 30
0
 70
1
  0
VERTEX
  8
LAYER_1
 10
345.3915
 20
139.3539
  0
VERTEX
  8
LAYER_1
 10
344.9305
 20
140.4388
  0
VERTEX
  8
LAYER_1
 10
344.6866
 20
141.1257
  0
VERTEX
  8
LAYER_1
 10
344.6718
 20
141.1257
  0
VERTEX
  8
LAYER_1
 10
344.4348
 20
140.4433
  0
VERTEX
  8
LAYER_1
 10
343.9738
 20
139.3539
  0
SEQEND
  0
ENDBLK
  0
BLOCK
  8
LAYER_1
  2
AIGNBL01030006
 70
64
 10
0
 20
0
 30
0
  3
AIGNBL01030006
  0
INSERT
  8
LAYER_1
  2
AIGNBL01040007
 10
0
 20
0
 30
0
  0
INSERT
  8
LAYER_1
  2
AIGNBL01040008
 10
0
 20
0
 30
0
  0
INSERT
  8
LAYER_1
  2
AIGNBL01040009
 10
0
 20
0
 30
0
  0
INSERT
  8
LAYER_1
  2
AIGNBL0104000A
 10
0
 20
0
 30
0
  0
INSERT
  8
LAYER_1
  2
AIGNBL0104000B
 10
0
 20
0
 30
0
  0
INSERT
  8
LAYER_1
  2
AIGNBL0104000C
 10
0
 20
0
 30
0
  0
INSERT
  8
LAYER_1
  2
AIGNBL0104000D
 10
0
 20
0
 30
0
  0
ENDBLK
  0
BLOCK
  8
LAYER_1
  2
AIGNBL0103000F
 70
64
 10
0
 20
0
 30
0
  3
AIGNBL0103000F
  0
POLYLINE
  8
LAYER_1
 40
0.05
 41
0.05
 62
39
 66
1
 10
0
 20
0
 30
0
 70
1
  0
VERTEX
  8
LAYER_1
 10
319.4696
 20
135.8906
  0
VERTEX
  8
LAYER_1
 10
320.0228
 20
135.8906
  0
VERTEX
  8
LAYER_1
 10
320.0228
 20
135.7969
  0
VERTEX
  8
LAYER_1
 10
319.3645
 20
135.7969
  0
VERTEX
  8
LAYER_1
 10
319.3645
 20
136.83
  0
VERTEX
  8
LAYER_1
 10
320.0053
 20
136.83
  0
VERTEX
  8
LAYER_1
 10
320.0053
 20
136.7367
  0
VERTEX
  8
LAYER_1
 10
319.4696
 20
136.7367
  0
VERTEX
  8
LAYER_1
 10
319.4696
 20
136.3822
  0
VERTEX
  8
LAYER_1
 10
319.9701
 20
136.3822
  0
VERTEX
  8
LAYER_1
 10
319.9701
 20
136.2888
  0
VERTEX
  8
LAYER_1
 10
319.4696
 20
136.2888
  0
SEQEND
  0
ENDBLK
  0
BLOCK
  8
LAYER_1
  2
AIGNBL01030010
 70
64
 10
0
 20
0
 30
0
  3
AIGNBL01030010
  0
POLYLINE
  8
LAYER_1
 40
0.05
 41
0.05
 62
39
 66
1
 10
0
 20
0
 30
0
 70
1
  0
VERTEX
  8
LAYER_1
 10
321.1625
 20
135.9502
  0
VERTEX
  8
LAYER_1
 10
321.1652
 20
135.9502
  0
VERTEX
  8
LAYER_1
 10
321.1652
 20
136.83
  0
VERTEX
  8
LAYER_1
 10
321.2703
 20
136.83
  0
VERTEX
  8
LAYER_1
 10
321.2703
 20
135.7969
  0
VERTEX
  8
LAYER_1
 10
321.1394
 20
135.7969
  0
VERTEX
  8
LAYER_1
 10
320.5382
 20
136.6857
  0
VERTEX
  8
LAYER_1
 10
320.5348
 20
136.6857
  0
VERTEX
  8
LAYER_1
 10
320.5348
 20
135.7969
  0
VERTEX
  8
LAYER_1
 10
320.43
 20
135.7969
  0
VERTEX
  8
LAYER_1
 10
320.43
 20
136.83
  0
VERTEX
  8
LAYER_1
 10
320.5613
 20
136.83
  0
SEQEND
  0
ENDBLK
  0
BLOCK
  8
LAYER_1
  2
AIGNBL01030011
 70
64
 10
0
 20
0
 30
0
  3
AIGNBL01030011
  0
POLYLINE
  8
LAYER_1
 40
0.05
 41
0.05
 62
39
 66
1
 10
0
 20
0
 30
0
 70
1
  0
VERTEX
  8
LAYER_1
 10
321.7433
 20
136.0087
  0
VERTEX
  8
LAYER_1
 10
321.7978
 20
135.9057
 42
0.1804993832
  0
VERTEX
  8
LAYER_1
 10
321.9111
 20
135.8641
  0
VERTEX
  8
LAYER_1
 10
322.0003
 20
135.8837
  0
VERTEX
  8
LAYER_1
 10
322.0565
 20
135.9371
  0
VERTEX
  8
LAYER_1
 10
322.0854
 20
136.0136
  0
VERTEX
  8
LAYER_1
 10
322.0937
 20
136.1031
  0
VERTEX
  8
LAYER_1
 10
322.0937
 20
136.83
  0
VERTEX
  8
LAYER_1
 10
322.1988
 20
136.83
  0
VERTEX
  8
LAYER_1
 10
322.1988
 20
136.0945
  0
VERTEX
  8
LAYER_1
 10
322.1874
 20
135.9867
  0
VERTEX
  8
LAYER_1
 10
322.1461
 20
135.8816
  0
VERTEX
  8
LAYER_1
 10
322.0613
 20
135.802
  0
VERTEX
  8
LAYER_1
 10
321.9225
 20
135.7707
 42
-0.1842921564
  0
VERTEX
  8
LAYER_1
 10
321.7378
 20
135.8306
 42
-0.176191571
  0
VERTEX
  8
LAYER_1
 10
321.6455
 20
135.9822
  0
SEQEND
  0
ENDBLK
  0
BLOCK
  8
LAYER_1
  2
AIGNBL01030012
 70
64
 10
0
 20
0
 30
0
  3
AIGNBL01030012
  0
POLYLINE
  8
LAYER_1
 40
0.05
 41
0.05
 62
39
 66
1
 10
0
 20
0
 30
0
 70
1
  0
VERTEX
  8
LAYER_1
 10
323.6871
 20
136.3136
 42
-0.1039155253
  0
VERTEX
  8
LAYER_1
 10
323.646
 20
136.0963
 42
-0.1007605982
  0
VERTEX
  8
LAYER_1
 10
323.5334
 20
135.9247
  0
VERTEX
  8
LAYER_1
 10
323.3625
 20
135.8117
 42
-0.09506675375
  0
VERTEX
  8
LAYER_1
 10
323.1486
 20
135.7707
 42
-0.1010866674
  0
VERTEX
  8
LAYER_1
 10
322.935
 20
135.8117
 42
-0.1005668876
  0
VERTEX
  8
LAYER_1
 10
322.7641
 20
135.9247
 42
-0.09506500803
  0
VERTEX
  8
LAYER_1
 10
322.6508
 20
136.0963
 42
-0.09321126599
  0
VERTEX
  8
LAYER_1
 10
322.6101
 20
136.3136
 42
-0.102956405
  0
VERTEX
  8
LAYER_1
 10
322.6508
 20
136.531
 42
-0.1008913794
  0
VERTEX
  8
LAYER_1
 10
322.7641
 20
136.7026
 42
-0.09625543395
  0
VERTEX
  8
LAYER_1
 10
322.935
 20
136.8156
 42
-0.09521573462
  0
VERTEX
  8
LAYER_1
 10
323.1486
 20
136.8566
 42
-0.101175466
  0
VERTEX
  8
LAYER_1
 10
323.3625
 20
136.8156
 42
-0.09853409661
  0
VERTEX
  8
LAYER_1
 10
323.5334
 20
136.7026
 42
-0.09556553869
  0
VERTEX
  8
LAYER_1
 10
323.646
 20
136.531
 42
-0.0941730705
  0
SEQEND
  0
POLYLINE
  8
LAYER_1
 40
0.05
 41
0.05
 62
39
 66
1
 10
0
 20
0
 30
0
 70
1
  0
VERTEX
  8
LAYER_1
 10
323.5761
 20
136.3129
  0
VERTEX
  8
LAYER_1
 10
323.5472
 20
136.4848
  0
VERTEX
  8
LAYER_1
 10
323.4624
 20
136.6282
  0
VERTEX
  8
LAYER_1
 10
323.3274
 20
136.7264
  0
VERTEX
  8
LAYER_1
 10
323.1486
 20
136.7632
  0
VERTEX
  8
LAYER_1
 10
322.9698
 20
136.7264
  0
VERTEX
  8
LAYER_1
 10
322.8351
 20
136.6282
  0
VERTEX
  8
LAYER_1
 10
322.7503
 20
136.4848
  0
VERTEX
  8
LAYER_1
 10
322.7211
 20
136.3129
  0
VERTEX
  8
LAYER_1
 10
322.7503
 20
136.141
  0
VERTEX
  8
LAYER_1
 10
322.8351
 20
135.998
  0
VERTEX
  8
LAYER_1
 10
322.9698
 20
135.9006
 42
0.1008280473
  0
VERTEX
  8
LAYER_1
 10
323.1486
 20
135.8641
  0
VERTEX
  8
LAYER_1
 10
323.3274
 20
135.9006
  0
VERTEX
  8
LAYER_1
 10
323.4624
 20
135.998
  0
VERTEX
  8
LAYER_1
 10
323.5472
 20
136.141
  0
SEQEND
  0
ENDBLK
  0
BLOCK
  8
LAYER_1
  2
AIGNBL01030013
 70
64
 10
0
 20
0
 30
0
  3
AIGNBL01030013
  0
POLYLINE
  8
LAYER_1
 40
0.05
 41
0.05
 62
39
 66
1
 10
0
 20
0
 30
0
 70
1
  0
VERTEX
  8
LAYER_1
 10
324.4618
 20
135.7969
  0
VERTEX
  8
LAYER_1
 10
324.3571
 20
135.7969
  0
VERTEX
  8
LAYER_1
 10
324.3571
 20
136.2423
  0
VERTEX
  8
LAYER_1
 10
323.9702
 20
136.83
  0
VERTEX
  8
LAYER_1
 10
324.1015
 20
136.83
  0
VERTEX
  8
LAYER_1
 10
324.4126
 20
136.3298
  0
VERTEX
  8
LAYER_1
 10
324.7261
 20
136.83
  0
VERTEX
  8
LAYER_1
 10
324.8484
 20
136.83
  0
VERTEX
  8
LAYER_1
 10
324.4618
 20
136.2423
  0
SEQEND
  0
ENDBLK
  0
BLOCK
  8
LAYER_1
  2
AIGNBL01030014
 70
64
 10
0
 20
0
 30
0
  3
AIGNBL01030014
  0
POLYLINE
  8
LAYER_1
 40
0.05
 41
0.05
 62
39
 66
1
 10
0
 20
0
 30
0
 70
1
  0
VERTEX
  8
LAYER_1
 10
325.7534
 20
136.83
  0
VERTEX
  8
LAYER_1
 10
326.061
 20
136.83
  0
VERTEX
  8
LAYER_1
 10
326.1796
 20
136.8177
  0
VERTEX
  8
LAYER_1
 10
326.2864
 20
136.7753
  0
VERTEX
  8
LAYER_1
 10
326.3642
 20
136.6943
  0
VERTEX
  8
LAYER_1
 10
326.3939
 20
136.5662
 42
-0.1787887146
  0
VERTEX
  8
LAYER_1
 10
326.3439
 20
136.4239
 42
-0.1642259289
  0
VERTEX
  8
LAYER_1
 10
326.2106
 20
136.3443
  0
VERTEX
  8
LAYER_1
 10
326.2106
 20
136.3415
 42
-0.1735745096
  0
VERTEX
  8
LAYER_1
 10
326.3773
 20
136.2633
 42
-0.1923594805
  0
VERTEX
  8
LAYER_1
 10
326.4435
 20
136.0828
  0
VERTEX
  8
LAYER_1
 10
326.4163
 20
135.9657
  0
VERTEX
  8
LAYER_1
 10
326.3401
 20
135.8751
  0
VERTEX
  8
LAYER_1
 10
326.2192
 20
135.8175
  0
VERTEX
  8
LAYER_1
 10
326.0594
 20
135.7969
  0
VERTEX
  8
LAYER_1
 10
325.7534
 20
135.7969
  0
SEQEND
  0
POLYLINE
  8
LAYER_1
 40
0.05
 41
0.05
 62
39
 66
1
 10
0
 20
0
 30
0
 70
1
  0
VERTEX
  8
LAYER_1
 10
325.8585
 20
136.3777
  0
VERTEX
  8
LAYER_1
 10
326.07
 20
136.3777
  0
VERTEX
  8
LAYER_1
 10
326.1468
 20
136.3867
  0
VERTEX
  8
LAYER_1
 10
326.2171
 20
136.4163
  0
VERTEX
  8
LAYER_1
 10
326.2692
 20
136.4728
  0
VERTEX
  8
LAYER_1
 10
326.2888
 20
136.5589
  0
VERTEX
  8
LAYER_1
 10
326.2692
 20
136.6426
  0
VERTEX
  8
LAYER_1
 10
326.2161
 20
136.6988
  0
VERTEX
  8
LAYER_1
 10
326.1372
 20
136.7301
  0
VERTEX
  8
LAYER_1
 10
326.0407
 20
136.7398
  0
VERTEX
  8
LAYER_1
 10
325.8585
 20
136.7398
  0
SEQEND
  0
POLYLINE
  8
LAYER_1
 40
0.05
 41
0.05
 62
39
 66
1
 10
0
 20
0
 30
0
 70
1
  0
VERTEX
  8
LAYER_1
 10
325.8585
 20
135.8875
  0
VERTEX
  8
LAYER_1
 10
326.0542
 20
135.8875
  0
VERTEX
  8
LAYER_1
 10
326.1627
 20
135.8985
  0
VERTEX
  8
LAYER_1
 10
326.2533
 20
135.9333
  0
VERTEX
  8
LAYER_1
 10
326.315
 20
135.9964
  0
VERTEX
  8
LAYER_1
 10
326.3384
 20
136.089
 42
0.2554961852
  0
VERTEX
  8
LAYER_1
 10
326.2692
 20
136.2413
 42
0.1380642909
  0
VERTEX
  8
LAYER_1
 10
326.0731
 20
136.2916
  0
VERTEX
  8
LAYER_1
 10
325.8585
 20
136.2916
  0
SEQEND
  0
ENDBLK
  0
BLOCK
  8
LAYER_1
  2
AIGNBL01030015
 70
64
 10
0
 20
0
 30
0
  3
AIGNBL01030015
  0
POLYLINE
  8
LAYER_1
 40
0.05
 41
0.05
 62
39
 66
1
 10
0
 20
0
 30
0
 70
1
  0
VERTEX
  8
LAYER_1
 10
326.8755
 20
135.7969
  0
VERTEX
  8
LAYER_1
 10
326.7601
 20
135.7969
  0
VERTEX
  8
LAYER_1
 10
327.2069
 20
136.83
  0
VERTEX
  8
LAYER_1
 10
327.3092
 20
136.83
  0
VERTEX
  8
LAYER_1
 10
327.7526
 20
135.7969
  0
VERTEX
  8
LAYER_1
 10
327.6358
 20
135.7969
  0
VERTEX
  8
LAYER_1
 10
327.5218
 20
136.0684
  0
VERTEX
  8
LAYER_1
 10
326.9878
 20
136.0684
  0
SEQEND
  0
POLYLINE
  8
LAYER_1
 40
0.05
 41
0.05
 62
39
 66
1
 10
0
 20
0
 30
0
 70
1
  0
VERTEX
  8
LAYER_1
 10
327.0271
 20
136.1648
  0
VERTEX
  8
LAYER_1
 10
327.4825
 20
136.1648
  0
VERTEX
  8
LAYER_1
 10
327.2548
 20
136.7136
  0
SEQEND
  0
ENDBLK
  0
BLOCK
  8
LAYER_1
  2
AIGNBL01030016
 70
64
 10
0
 20
0
 30
0
  3
AIGNBL01030016
  0
POLYLINE
  8
LAYER_1
 40
0.05
 41
0.05
 62
39
 66
1
 10
0
 20
0
 30
0
 70
1
  0
VERTEX
  8
LAYER_1
 10
328.4371
 20
135.7969
  0
VERTEX
  8
LAYER_1
 10
328.3321
 20
135.7969
  0
VERTEX
  8
LAYER_1
 10
328.3321
 20
136.7367
  0
VERTEX
  8
LAYER_1
 10
327.9858
 20
136.7367
  0
VERTEX
  8
LAYER_1
 10
327.9858
 20
136.83
  0
VERTEX
  8
LAYER_1
 10
328.7827
 20
136.83
  0
VERTEX
  8
LAYER_1
 10
328.7827
 20
136.7367
  0
VERTEX
  8
LAYER_1
 10
328.4371
 20
136.7367
  0
SEQEND
  0
ENDBLK
  0
BLOCK
  8
LAYER_1
  2
AIGNBL01030017
 70
64
 10
0
 20
0
 30
0
  3
AIGNBL01030017
  0
POLYLINE
  8
LAYER_1
 40
0.05
 41
0.05
 62
39
 66
1
 10
0
 20
0
 30
0
 70
1
  0
VERTEX
  8
LAYER_1
 10
329.1389
 20
136.83
  0
VERTEX
  8
LAYER_1
 10
329.2436
 20
136.83
  0
VERTEX
  8
LAYER_1
 10
329.2436
 20
136.3822
  0
VERTEX
  8
LAYER_1
 10
329.8073
 20
136.3822
  0
VERTEX
  8
LAYER_1
 10
329.8073
 20
136.83
  0
VERTEX
  8
LAYER_1
 10
329.9123
 20
136.83
  0
VERTEX
  8
LAYER_1
 10
329.9123
 20
135.7969
  0
VERTEX
  8
LAYER_1
 10
329.8073
 20
135.7969
  0
VERTEX
  8
LAYER_1
 10
329.8073
 20
136.2861
  0
VERTEX
  8
LAYER_1
 10
329.2436
 20
136.2861
  0
VERTEX
  8
LAYER_1
 10
329.2436
 20
135.7969
  0
VERTEX
  8
LAYER_1
 10
329.1389
 20
135.7969
  0
SEQEND
  0
ENDBLK
  0
BLOCK
  8
LAYER_1
  2
AIGNBL01030018
 70
64
 10
0
 20
0
 30
0
  3
AIGNBL01030018
  0
POLYLINE
  8
LAYER_1
 40
0.05
 41
0.05
 62
39
 66
1
 10
0
 20
0
 30
0
 70
1
  0
VERTEX
  8
LAYER_1
 10
330.4928
 20
135.7969
  0
VERTEX
  8
LAYER_1
 10
330.3878
 20
135.7969
  0
VERTEX
  8
LAYER_1
 10
330.3878
 20
136.83
  0
VERTEX
  8
LAYER_1
 10
330.6916
 20
136.83
  0
VERTEX
  8
LAYER_1
 10
330.8322
 20
136.8156
  0
VERTEX
  8
LAYER_1
 10
330.9448
 20
136.7681
  0
VERTEX
  8
LAYER_1
 10
331.0182
 20
136.6826
  0
VERTEX
  8
LAYER_1
 10
331.0444
 20
136.5544
  0
VERTEX
  8
LAYER_1
 10
331.0244
 20
136.4508
  0
VERTEX
  8
LAYER_1
 10
330.969
 20
136.3698
  0
VERTEX
  8
LAYER_1
 10
330.8856
 20
136.315
  0
VERTEX
  8
LAYER_1
 10
330.7805
 20
136.2888
  0
VERTEX
  8
LAYER_1
 10
331.0826
 20
135.7969
  0
VERTEX
  8
LAYER_1
 10
330.9541
 20
135.7969
  0
VERTEX
  8
LAYER_1
 10
330.6682
 20
136.2799
  0
VERTEX
  8
LAYER_1
 10
330.4928
 20
136.2799
  0
SEQEND
  0
POLYLINE
  8
LAYER_1
 40
0.05
 41
0.05
 62
39
 66
1
 10
0
 20
0
 30
0
 70
1
  0
VERTEX
  8
LAYER_1
 10
330.4928
 20
136.3705
  0
VERTEX
  8
LAYER_1
 10
330.6754
 20
136.3705
 42
0.1657798624
  0
VERTEX
  8
LAYER_1
 10
330.8711
 20
136.4163
 42
0.2505825341
  0
VERTEX
  8
LAYER_1
 10
330.9397
 20
136.5544
  0
VERTEX
  8
LAYER_1
 10
330.9204
 20
136.6402
  0
VERTEX
  8
LAYER_1
 10
330.868
 20
136.6974
  0
VERTEX
  8
LAYER_1
 10
330.7864
 20
136.7295
  0
VERTEX
  8
LAYER_1
 10
330.6799
 20
136.7398
  0
VERTEX
  8
LAYER_1
 10
330.4928
 20
136.7398
  0
SEQEND
  0
ENDBLK
  0
BLOCK
  8
LAYER_1
  2
AIGNBL01030019
 70
64
 10
0
 20
0
 30
0
  3
AIGNBL01030019
  0
POLYLINE
  8
LAYER_1
 40
0.05
 41
0.05
 62
39
 66
1
 10
0
 20
0
 30
0
 70
1
  0
VERTEX
  8
LAYER_1
 10
332.4848
 20
136.3136
 42
-0.1004848711
  0
VERTEX
  8
LAYER_1
 10
332.4441
 20
136.0963
 42
-0.1008913794
  0
VERTEX
  8
LAYER_1
 10
332.3308
 20
135.9247
 42
-0.09572075095
  0
VERTEX
  8
LAYER_1
 10
332.1603
 20
135.8117
 42
-0.09502028874
  0
VERTEX
  8
LAYER_1
 10
331.9463
 20
135.7707
 42
-0.101175466
  0
VERTEX
  8
LAYER_1
 10
331.7324
 20
135.8117
 42
-0.1001839173
  0
VERTEX
  8
LAYER_1
 10
331.5618
 20
135.9247
 42
-0.09574558136
  0
VERTEX
  8
LAYER_1
 10
331.4488
 20
136.0963
 42
-0.09297835669
  0
VERTEX
  8
LAYER_1
 10
331.4082
 20
136.3136
 42
-0.102539173
  0
VERTEX
  8
LAYER_1
 10
331.4488
 20
136.531
 42
-0.1015030268
  0
VERTEX
  8
LAYER_1
 10
331.5618
 20
136.7026
 42
-0.09577113234
  0
VERTEX
  8
LAYER_1
 10
331.7324
 20
136.8156
 42
-0.09506675375
  0
VERTEX
  8
LAYER_1
 10
331.9463
 20
136.8566
 42
-0.1012083438
  0
VERTEX
  8
LAYER_1
 10
332.1603
 20
136.8156
 42
-0.1015678172
  0
VERTEX
  8
LAYER_1
 10
332.3308
 20
136.7026
 42
-0.09506500802
  0
VERTEX
  8
LAYER_1
 10
332.4441
 20
136.531
 42
-0.09296181536
  0
SEQEND
  0
POLYLINE
  8
LAYER_1
 40
0.05
 41
0.05
 62
39
 66
1
 10
0
 20
0
 30
0
 70
1
  0
VERTEX
  8
LAYER_1
 10
332.3739
 20
136.3129
  0
VERTEX
  8
LAYER_1
 10
332.3446
 20
136.4848
  0
VERTEX
  8
LAYER_1
 10
332.2598
 20
136.6282
  0
VERTEX
  8
LAYER_1
 10
332.1251
 20
136.7264
  0
VERTEX
  8
LAYER_1
 10
331.9463
 20
136.7632
  0
VERTEX
  8
LAYER_1
 10
331.7675
 20
136.7264
  0
VERTEX
  8
LAYER_1
 10
331.6325
 20
136.6282
  0
VERTEX
  8
LAYER_1
 10
331.5477
 20
136.4848
  0
VERTEX
  8
LAYER_1
 10
331.5188
 20
136.3129
  0
VERTEX
  8
LAYER_1
 10
331.5477
 20
136.141
  0
VERTEX
  8
LAYER_1
 10
331.6325
 20
135.998
  0
VERTEX
  8
LAYER_1
 10
331.7675
 20
135.9006
  0
VERTEX
  8
LAYER_1
 10
331.9463
 20
135.8641
 42
0.1157330551
  0
VERTEX
  8
LAYER_1
 10
332.1251
 20
135.9006
  0
VERTEX
  8
LAYER_1
 10
332.2598
 20
135.998
  0
VERTEX
  8
LAYER_1
 10
332.3446
 20
136.141
  0
SEQEND
  0
ENDBLK
  0
BLOCK
  8
LAYER_1
  2
AIGNBL0103001A
 70
64
 10
0
 20
0
 30
0
  3
AIGNBL0103001A
  0
POLYLINE
  8
LAYER_1
 40
0.05
 41
0.05
 62
39
 66
1
 10
0
 20
0
 30
0
 70
1
  0
VERTEX
  8
LAYER_1
 10
333.9265
 20
136.3136
 42
-0.1037596834
  0
VERTEX
  8
LAYER_1
 10
333.8856
 20
136.0963
 42
-0.1005616574
  0
VERTEX
  8
LAYER_1
 10
333.7729
 20
135.9247
 42
-0.09536773851
  0
VERTEX
  8
LAYER_1
 10
333.602
 20
135.8117
 42
-0.09506675375
  0
VERTEX
  8
LAYER_1
 10
333.3881
 20
135.7707
 42
-0.101822328
  0
VERTEX
  8
LAYER_1
 10
333.1745
 20
135.8117
 42
-0.102625893
  0
VERTEX
  8
LAYER_1
 10
333.0036
 20
135.9247
 42
-0.09506500802
  0
VERTEX
  8
LAYER_1
 10
332.8903
 20
136.0963
 42
-0.09318137732
  0
VERTEX
  8
LAYER_1
 10
332.8496
 20
136.3136
 42
-0.1023371638
  0
VERTEX
  8
LAYER_1
 10
332.8903
 20
136.531
 42
-0.1008913794
  0
VERTEX
  8
LAYER_1
 10
333.0036
 20
136.7026
 42
-0.09625543395
  0
VERTEX
  8
LAYER_1
 10
333.1745
 20
136.8156
 42
-0.09528409444
  0
VERTEX
  8
LAYER_1
 10
333.3881
 20
136.8566
 42
-0.101175466
  0
VERTEX
  8
LAYER_1
 10
333.602
 20
136.8156
 42
-0.09853409662
  0
VERTEX
  8
LAYER_1
 10
333.7729
 20
136.7026
 42
-0.09576191851
  0
VERTEX
  8
LAYER_1
 10
333.8856
 20
136.531
 42
-0.09373913756
  0
SEQEND
  0
POLYLINE
  8
LAYER_1
 40
0.05
 41
0.05
 62
39
 66
1
 10
0
 20
0
 30
0
 70
1
  0
VERTEX
  8
LAYER_1
 10
333.8156
 20
136.3129
  0
VERTEX
  8
LAYER_1
 10
333.7867
 20
136.4848
  0
VERTEX
  8
LAYER_1
 10
333.7019
 20
136.6282
  0
VERTEX
  8
LAYER_1
 10
333.5669
 20
136.7264
  0
VERTEX
  8
LAYER_1
 10
333.3881
 20
136.7632
  0
VERTEX
  8
LAYER_1
 10
333.2093
 20
136.7264
  0
VERTEX
  8
LAYER_1
 10
333.0746
 20
136.6282
  0
VERTEX
  8
LAYER_1
 10
332.9898
 20
136.4848
  0
VERTEX
  8
LAYER_1
 10
332.9606
 20
136.3129
  0
VERTEX
  8
LAYER_1
 10
332.9898
 20
136.141
  0
VERTEX
  8
LAYER_1
 10
333.0746
 20
135.998
  0
VERTEX
  8
LAYER_1
 10
333.2093
 20
135.9006
 42
0.1008257054
  0
VERTEX
  8
LAYER_1
 10
333.3881
 20
135.8641
  0
VERTEX
  8
LAYER_1
 10
333.5669
 20
135.9006
  0
VERTEX
  8
LAYER_1
 10
333.7019
 20
135.998
  0
VERTEX
  8
LAYER_1
 10
333.7867
 20
136.141
  0
SEQEND
  0
ENDBLK
  0
BLOCK
  8
LAYER_1
  2
AIGNBL0103001B
 70
64
 10
0
 20
0
 30
0
  3
AIGNBL0103001B
  0
POLYLINE
  8
LAYER_1
 40
0.05
 41
0.05
 62
39
 66
1
 10
0
 20
0
 30
0
 70
1
  0
VERTEX
  8
LAYER_1
 10
334.8574
 20
135.975
  0
VERTEX
  8
LAYER_1
 10
334.8591
 20
135.975
  0
VERTEX
  8
LAYER_1
 10
335.2047
 20
136.83
  0
VERTEX
  8
LAYER_1
 10
335.3656
 20
136.83
  0
VERTEX
  8
LAYER_1
 10
335.3656
 20
135.7969
  0
VERTEX
  8
LAYER_1
 10
335.2601
 20
135.7969
  0
VERTEX
  8
LAYER_1
 10
335.2601
 20
136.6943
  0
VERTEX
  8
LAYER_1
 10
335.2574
 20
136.6943
  0
VERTEX
  8
LAYER_1
 10
334.8839
 20
135.7969
  0
VERTEX
  8
LAYER_1
 10
334.8285
 20
135.7969
  0
VERTEX
  8
LAYER_1
 10
334.4547
 20
136.6943
  0
VERTEX
  8
LAYER_1
 10
334.4519
 20
136.6943
  0
VERTEX
  8
LAYER_1
 10
334.4519
 20
135.7969
  0
VERTEX
  8
LAYER_1
 10
334.3469
 20
135.7969
  0
VERTEX
  8
LAYER_1
 10
334.3469
 20
136.83
  0
VERTEX
  8
LAYER_1
 10
334.5074
 20
136.83
  0
SEQEND
  0
ENDBLK
  0
BLOCK
  8
LAYER_1
  2
AIGNBL0103001C
 70
64
 10
0
 20
0
 30
0
  3
AIGNBL0103001C
  0
POLYLINE
  8
LAYER_1
 40
0.05
 41
0.05
 62
39
 66
1
 10
0
 20
0
 30
0
 70
1
  0
VERTEX
  8
LAYER_1
 10
336.5121
 20
135.8906
  0
VERTEX
  8
LAYER_1
 10
337.0654
 20
135.8906
  0
VERTEX
  8
LAYER_1
 10
337.0654
 20
135.7969
  0
VERTEX
  8
LAYER_1
 10
336.407
 20
135.7969
  0
VERTEX
  8
LAYER_1
 10
336.407
 20
136.83
  0
VERTEX
  8
LAYER_1
 10
337.0478
 20
136.83
  0
VERTEX
  8
LAYER_1
 10
337.0478
 20
136.7367
  0
VERTEX
  8
LAYER_1
 10
336.5121
 20
136.7367
  0
VERTEX
  8
LAYER_1
 10
336.5121
 20
136.3822
  0
VERTEX
  8
LAYER_1
 10
337.0127
 20
136.3822
  0
VERTEX
  8
LAYER_1
 10
337.0127
 20
136.2888
  0
VERTEX
  8
LAYER_1
 10
336.5121
 20
136.2888
  0
SEQEND
  0
ENDBLK
  0
BLOCK
  8
LAYER_1
  2
AIGNBL0103001D
 70
64
 10
0
 20
0
 30
0
  3
AIGNBL0103001D
  0
POLYLINE
  8
LAYER_1
 40
0.05
 41
0.05
 62
39
 66
1
 10
0
 20
0
 30
0
 70
1
  0
VERTEX
  8
LAYER_1
 10
337.8106
 20
136.4128
  0
VERTEX
  8
LAYER_1
 10
338.0927
 20
136.83
  0
VERTEX
  8
LAYER_1
 10
338.2178
 20
136.83
  0
VERTEX
  8
LAYER_1
 10
337.8753
 20
136.3384
  0
VERTEX
  8
LAYER_1
 10
338.2546
 20
135.7969
  0
VERTEX
  8
LAYER_1
 10
338.1234
 20
135.7969
  0
VERTEX
  8
LAYER_1
 10
337.8078
 20
136.2626
  0
VERTEX
  8
LAYER_1
 10
337.4943
 20
135.7969
  0
VERTEX
  8
LAYER_1
 10
337.3627
 20
135.7969
  0
VERTEX
  8
LAYER_1
 10
337.7424
 20
136.3398
  0
VERTEX
  8
LAYER_1
 10
337.3965
 20
136.83
  0
VERTEX
  8
LAYER_1
 10
337.5281
 20
136.83
  0
SEQEND
  0
ENDBLK
  0
BLOCK
  8
LAYER_1
  2
AIGNBL0103001E
 70
64
 10
0
 20
0
 30
0
  3
AIGNBL0103001E
  0
POLYLINE
  8
LAYER_1
 40
0.05
 41
0.05
 62
39
 66
1
 10
0
 20
0
 30
0
 70
1
  0
VERTEX
  8
LAYER_1
 10
338.6209
 20
136.83
  0
VERTEX
  8
LAYER_1
 10
338.913
 20
136.83
  0
VERTEX
  8
LAYER_1
 10
339.056
 20
136.8135
  0
VERTEX
  8
LAYER_1
 10
339.1659
 20
136.7622
  0
VERTEX
  8
LAYER_1
 10
339.2368
 20
136.676
  0
VERTEX
  8
LAYER_1
 10
339.2613
 20
136.5544
  0
VERTEX
  8
LAYER_1
 10
339.2361
 20
136.4325
  0
VERTEX
  8
LAYER_1
 10
339.1645
 20
136.3464
  0
VERTEX
  8
LAYER_1
 10
339.0536
 20
136.2947
  0
VERTEX
  8
LAYER_1
 10
338.9099
 20
136.2771
  0
VERTEX
  8
LAYER_1
 10
338.7259
 20
136.2771
  0
VERTEX
  8
LAYER_1
 10
338.7259
 20
135.7969
  0
VERTEX
  8
LAYER_1
 10
338.6209
 20
135.7969
  0
SEQEND
  0
POLYLINE
  8
LAYER_1
 40
0.05
 41
0.05
 62
39
 66
1
 10
0
 20
0
 30
0
 70
1
  0
VERTEX
  8
LAYER_1
 10
338.7259
 20
136.366
  0
VERTEX
  8
LAYER_1
 10
338.9037
 20
136.366
 42
0.1829203509
  0
VERTEX
  8
LAYER_1
 10
339.0921
 20
136.4142
 42
0.2347735668
  0
VERTEX
  8
LAYER_1
 10
339.1565
 20
136.5544
 42
0.2656295013
  0
VERTEX
  8
LAYER_1
 10
339.0901
 20
136.6953
 42
0.1267085896
  0
VERTEX
  8
LAYER_1
 10
338.9037
 20
136.7398
  0
VERTEX
  8
LAYER_1
 10
338.7259
 20
136.7398
  0
SEQEND
  0
ENDBLK
  0
BLOCK
  8
LAYER_1
  2
AIGNBL0103001F
 70
64
 10
0
 20
0
 30
0
  3
AIGNBL0103001F
  0
POLYLINE
  8
LAYER_1
 40
0.05
 41
0.05
 62
39
 66
1
 10
0
 20
0
 30
0
 70
1
  0
VERTEX
  8
LAYER_1
 10
339.7736
 20
135.8906
  0
VERTEX
  8
LAYER_1
 10
340.3268
 20
135.8906
  0
VERTEX
  8
LAYER_1
 10
340.3268
 20
135.7969
  0
VERTEX
  8
LAYER_1
 10
339.6685
 20
135.7969
  0
VERTEX
  8
LAYER_1
 10
339.6685
 20
136.83
  0
VERTEX
  8
LAYER_1
 10
340.3093
 20
136.83
  0
VERTEX
  8
LAYER_1
 10
340.3093
 20
136.7367
  0
VERTEX
  8
LAYER_1
 10
339.7736
 20
136.7367
  0
VERTEX
  8
LAYER_1
 10
339.7736
 20
136.3822
  0
VERTEX
  8
LAYER_1
 10
340.2741
 20
136.3822
  0
VERTEX
  8
LAYER_1
 10
340.2741
 20
136.2888
  0
VERTEX
  8
LAYER_1
 10
339.7736
 20
136.2888
  0
SEQEND
  0
ENDBLK
  0
BLOCK
  8
LAYER_1
  2
AIGNBL01030020
 70
64
 10
0
 20
0
 30
0
  3
AIGNBL01030020
  0
POLYLINE
  8
LAYER_1
 40
0.05
 41
0.05
 62
39
 66
1
 10
0
 20
0
 30
0
 70
1
  0
VERTEX
  8
LAYER_1
 10
340.8388
 20
135.7969
  0
VERTEX
  8
LAYER_1
 10
340.7337
 20
135.7969
  0
VERTEX
  8
LAYER_1
 10
340.7337
 20
136.83
  0
VERTEX
  8
LAYER_1
 10
341.0376
 20
136.83
  0
VERTEX
  8
LAYER_1
 10
341.1781
 20
136.8156
  0
VERTEX
  8
LAYER_1
 10
341.2908
 20
136.7681
  0
VERTEX
  8
LAYER_1
 10
341.3645
 20
136.6826
  0
VERTEX
  8
LAYER_1
 10
341.3904
 20
136.5544
  0
VERTEX
  8
LAYER_1
 10
341.3704
 20
136.4508
  0
VERTEX
  8
LAYER_1
 10
341.3149
 20
136.3698
  0
VERTEX
  8
LAYER_1
 10
341.2315
 20
136.315
  0
VERTEX
  8
LAYER_1
 10
341.1265
 20
136.2888
  0
VERTEX
  8
LAYER_1
 10
341.4286
 20
135.7969
  0
VERTEX
  8
LAYER_1
 10
341.3001
 20
135.7969
  0
VERTEX
  8
LAYER_1
 10
341.0142
 20
136.2799
  0
VERTEX
  8
LAYER_1
 10
340.8388
 20
136.2799
  0
SEQEND
  0
POLYLINE
  8
LAYER_1
 40
0.05
 41
0.05
 62
39
 66
1
 10
0
 20
0
 30
0
 70
1
  0
VERTEX
  8
LAYER_1
 10
340.8388
 20
136.3705
  0
VERTEX
  8
LAYER_1
 10
341.0214
 20
136.3705
 42
0.1667119028
  0
VERTEX
  8
LAYER_1
 10
341.2171
 20
136.4163
 42
0.2504967168
  0
VERTEX
  8
LAYER_1
 10
341.2856
 20
136.5544
  0
VERTEX
  8
LAYER_1
 10
341.2667
 20
136.6402
  0
VERTEX
  8
LAYER_1
 10
341.214
 20
136.6974
  0
VERTEX
  8
LAYER_1
 10
341.1323
 20
136.7295
  0
VERTEX
  8
LAYER_1
 10
341.0259
 20
136.7398
  0
VERTEX
  8
LAYER_1
 10
340.8388
 20
136.7398
  0
SEQEND
  0
ENDBLK
  0
BLOCK
  8
LAYER_1
  2
AIGNBL01030021
 70
64
 10
0
 20
0
 30
0
  3
AIGNBL01030021
  0
POLYLINE
  8
LAYER_1
 40
0.05
 41
0.05
 62
39
 66
1
 10
0
 20
0
 30
0
 70
1
  0
VERTEX
  8
LAYER_1
 10
341.9143
 20
135.7969
  0
VERTEX
  8
LAYER_1
 10
341.8096
 20
135.7969
  0
VERTEX
  8
LAYER_1
 10
341.8096
 20
136.83
  0
VERTEX
  8
LAYER_1
 10
341.9143
 20
136.83
  0
SEQEND
  0
ENDBLK
  0
BLOCK
  8
LAYER_1
  2
AIGNBL01030022
 70
64
 10
0
 20
0
 30
0
  3
AIGNBL01030022
  0
POLYLINE
  8
LAYER_1
 40
0.05
 41
0.05
 62
39
 66
1
 10
0
 20
0
 30
0
 70
1
  0
VERTEX
  8
LAYER_1
 10
342.4952
 20
135.8906
  0
VERTEX
  8
LAYER_1
 10
343.0481
 20
135.8906
  0
VERTEX
  8
LAYER_1
 10
343.0481
 20
135.7969
  0
VERTEX
  8
LAYER_1
 10
342.3901
 20
135.7969
  0
VERTEX
  8
LAYER_1
 10
342.3901
 20
136.83
  0
VERTEX
  8
LAYER_1
 10
343.0309
 20
136.83
  0
VERTEX
  8
LAYER_1
 10
343.0309
 20
136.7367
  0
VERTEX
  8
LAYER_1
 10
342.4952
 20
136.7367
  0
VERTEX
  8
LAYER_1
 10
342.4952
 20
136.3822
  0
VERTEX
  8
LAYER_1
 10
342.9958
 20
136.3822
  0
VERTEX
  8
LAYER_1
 10
342.9958
 20
136.2888
  0
VERTEX
  8
LAYER_1
 10
342.4952
 20
136.2888
  0
SEQEND
  0
ENDBLK
  0
BLOCK
  8
LAYER_1
  2
AIGNBL01030023
 70
64
 10
0
 20
0
 30
0
  3
AIGNBL01030023
  0
POLYLINE
  8
LAYER_1
 40
0.05
 41
0.05
 62
39
 66
1
 10
0
 20
0
 30
0
 70
1
  0
VERTEX
  8
LAYER_1
 10
344.1881
 20
135.9502
  0
VERTEX
  8
LAYER_1
 10
344.1909
 20
135.9502
  0
VERTEX
  8
LAYER_1
 10
344.1909
 20
136.83
  0
VERTEX
  8
LAYER_1
 10
344.296
 20
136.83
  0
VERTEX
  8
LAYER_1
 10
344.296
 20
135.7969
  0
VERTEX
  8
LAYER_1
 10
344.1647
 20
135.7969
  0
VERTEX
  8
LAYER_1
 10
343.5635
 20
136.6857
  0
VERTEX
  8
LAYER_1
 10
343.5604
 20
136.6857
  0
VERTEX
  8
LAYER_1
 10
343.5604
 20
135.7969
  0
VERTEX
  8
LAYER_1
 10
343.4554
 20
135.7969
  0
VERTEX
  8
LAYER_1
 10
343.4554
 20
136.83
  0
VERTEX
  8
LAYER_1
 10
343.5869
 20
136.83
  0
SEQEND
  0
ENDBLK
  0
BLOCK
  8
LAYER_1
  2
AIGNBL01030024
 70
64
 10
0
 20
0
 30
0
  3
AIGNBL01030024
  0
POLYLINE
  8
LAYER_1
 40
0.05
 41
0.05
 62
39
 66
1
 10
0
 20
0
 30
0
 70
1
  0
VERTEX
  8
LAYER_1
 10
345.6416
 20
135.9646
  0
VERTEX
  8
LAYER_1
 10
345.5779
 20
135.8902
  0
VERTEX
  8
LAYER_1
 10
345.4918
 20
135.8286
  0
VERTEX
  8
LAYER_1
 10
345.3836
 20
135.7862
  0
VERTEX
  8
LAYER_1
 10
345.2547
 20
135.7707
 42
-0.1009408553
  0
VERTEX
  8
LAYER_1
 10
345.0387
 20
135.8117
 42
-0.1041666466
  0
VERTEX
  8
LAYER_1
 10
344.8682
 20
135.9247
 42
-0.09812642999
  0
VERTEX
  8
LAYER_1
 10
344.7566
 20
136.0963
 42
-0.09239893161
  0
VERTEX
  8
LAYER_1
 10
344.7163
 20
136.3136
 42
-0.1037891115
  0
VERTEX
  8
LAYER_1
 10
344.7572
 20
136.531
 42
-0.1005534539
  0
VERTEX
  8
LAYER_1
 10
344.8699
 20
136.7026
 42
-0.09536265516
  0
VERTEX
  8
LAYER_1
 10
345.0408
 20
136.8156
 42
-0.09506675375
  0
VERTEX
  8
LAYER_1
 10
345.2547
 20
136.8566
  0
VERTEX
  8
LAYER_1
 10
345.3663
 20
136.8445
  0
VERTEX
  8
LAYER_1
 10
345.4694
 20
136.8111
  0
VERTEX
  8
LAYER_1
 10
345.5568
 20
136.7594
  0
VERTEX
  8
LAYER_1
 10
345.6226
 20
136.6916
  0
VERTEX
  8
LAYER_1
 10
345.5352
 20
136.6272
  0
VERTEX
  8
LAYER_1
 10
345.4918
 20
136.6771
  0
VERTEX
  8
LAYER_1
 10
345.4284
 20
136.7209
  0
VERTEX
  8
LAYER_1
 10
345.3488
 20
136.7515
  0
VERTEX
  8
LAYER_1
 10
345.2561
 20
136.7632
  0
VERTEX
  8
LAYER_1
 10
345.0759
 20
136.7267
  0
VERTEX
  8
LAYER_1
 10
344.9409
 20
136.6285
  0
VERTEX
  8
LAYER_1
 10
344.8561
 20
136.4852
  0
VERTEX
  8
LAYER_1
 10
344.8272
 20
136.3136
  0
VERTEX
  8
LAYER_1
 10
344.8572
 20
136.1421
  0
VERTEX
  8
LAYER_1
 10
344.9426
 20
135.9988
  0
VERTEX
  8
LAYER_1
 10
345.0776
 20
135.9006
 42
0.1009931409
  0
VERTEX
  8
LAYER_1
 10
345.2561
 20
135.8641
  0
VERTEX
  8
LAYER_1
 10
345.4253
 20
135.9006
 42
0.1316725198
  0
VERTEX
  8
LAYER_1
 10
345.5596
 20
136.0173
  0
SEQEND
  0
ENDBLK
  0
BLOCK
  8
LAYER_1
  2
AIGNBL01030025
 70
64
 10
0
 20
0
 30
0
  3
AIGNBL01030025
  0
POLYLINE
  8
LAYER_1
 40
0.05
 41
0.05
 62
39
 66
1
 10
0
 20
0
 30
0
 70
1
  0
VERTEX
  8
LAYER_1
 10
346.1287
 20
135.8906
  0
VERTEX
  8
LAYER_1
 10
346.682
 20
135.8906
  0
VERTEX
  8
LAYER_1
 10
346.682
 20
135.7969
  0
VERTEX
  8
LAYER_1
 10
346.0237
 20
135.7969
  0
VERTEX
  8
LAYER_1
 10
346.0237
 20
136.83
  0
VERTEX
  8
LAYER_1
 10
346.6645
 20
136.83
  0
VERTEX
  8
LAYER_1
 10
346.6645
 20
136.7367
  0
VERTEX
  8
LAYER_1
 10
346.1287
 20
136.7367
  0
VERTEX
  8
LAYER_1
 10
346.1287
 20
136.3822
  0
VERTEX
  8
LAYER_1
 10
346.6293
 20
136.3822
  0
VERTEX
  8
LAYER_1
 10
346.6293
 20
136.2888
  0
VERTEX
  8
LAYER_1
 10
346.1287
 20
136.2888
  0
SEQEND
  0
ENDBLK
  0
BLOCK
  8
LAYER_1
  2
AIGNBL01020005
 70
64
 10
0
 20
0
 30
0
  3
AIGNBL01020005
  0
INSERT
  8
LAYER_1
  2
AIGNBL01030006
 10
0
 20
0
 30
0
  0
ENDBLK
  0
BLOCK
  8
LAYER_1
  2
AIGNBL0102000E
 70
64
 10
0
 20
0
 30
0
  3
AIGNBL0102000E
  0
INSERT
  8
LAYER_1
  2
AIGNBL0103000F
 10
0
 20
0
 30
0
  0
INSERT
  8
LAYER_1
  2
AIGNBL01030010
 10
0
 20
0
 30
0
  0
INSERT
  8
LAYER_1
  2
AIGNBL01030011
 10
0
 20
0
 30
0
  0
INSERT
  8
LAYER_1
  2
AIGNBL01030012
 10
0
 20
0
 30
0
  0
INSERT
  8
LAYER_1
  2
AIGNBL01030013
 10
0
 20
0
 30
0
  0
INSERT
  8
LAYER_1
  2
AIGNBL01030014
 10
0
 20
0
 30
0
  0
INSERT
  8
LAYER_1
  2
AIGNBL01030015
 10
0
 20
0
 30
0
  0
INSERT
  8
LAYER_1
  2
AIGNBL01030016
 10
0
 20
0
 30
0
  0
INSERT
  8
LAYER_1
  2
AIGNBL01030017
 10
0
 20
0
 30
0
  0
INSERT
  8
LAYER_1
  2
AIGNBL01030018
 10
0
 20
0
 30
0
  0
INSERT
  8
LAYER_1
  2
AIGNBL01030019
 10
0
 20
0
 30
0
  0
INSERT
  8
LAYER_1
  2
AIGNBL0103001A
 10
0
 20
0
 30
0
  0
INSERT
  8
LAYER_1
  2
AIGNBL0103001B
 10
0
 20
0
 30
0
  0
INSERT
  8
LAYER_1
  2
AIGNBL0103001C
 10
0
 20
0
 30
0
  0
INSERT
  8
LAYER_1
  2
AIGNBL0103001D
 10
0
 20
0
 30
0
  0
INSERT
  8
LAYER_1
  2
AIGNBL0103001E
 10
0
 20
0
 30
0
  0
INSERT
  8
LAYER_1
  2
AIGNBL0103001F
 10
0
 20
0
 30
0
  0
INSERT
  8
LAYER_1
  2
AIGNBL01030020
 10
0
 20
0
 30
0
  0
INSERT
  8
LAYER_1
  2
AIGNBL01030021
 10
0
 20
0
 30
0
  0
INSERT
  8
LAYER_1
  2
AIGNBL01030022
 10
0
 20
0
 30
0
  0
INSERT
  8
LAYER_1
  2
AIGNBL01030023
 10
0
 20
0
 30
0
  0
INSERT
  8
LAYER_1
  2
AIGNBL01030024
 10
0
 20
0
 30
0
  0
INSERT
  8
LAYER_1
  2
AIGNBL01030025
 10
0
 20
0
 30
0
  0
ENDBLK
  0
BLOCK
  8
LAYER_1
  2
AIGNBL01010002
 70
64
 10
0
 20
0
 30
0
  3
AIGNBL01010002
  0
TEXT
  8
LAYER_1
 10
188.4513
 20
158.0917
 11
188.4513
 21
158.0917
 40
2.4232
 41
0.5
  1
0
  0
TEXT
  8
LAYER_1
 10
187.4564
 20
158.0916
 11
187.4564
 21
158.0916
 40
2.4232
 41
0.5
  1
.
  0
TEXT
  8
LAYER_1
 10
186.4408
 20
158.0915
 11
186.4408
 21
158.0915
 40
2.4232
 41
0.5
  1
5
  0
TEXT
  8
LAYER_1
 10
185.4458
 20
158.0917
 11
185.4458
 21
158.0917
 40
2.4232
 41
0.5
  1
L
  0
TEXT
  8
LAYER_1
 10
183.456
 20
158.1711
 11
183.456
 21
158.1711
 40
2.0536
 41
0.5
  1
üj
  0
TEXT
  8
LAYER_1
 10
181.4454
 20
158.1713
 11
181.4454
 21
158.1713
 40
2.0536
 41
0.5
  1
ü[
  0
TEXT
  8
LAYER_1
 10
179.4417
 20
158.1711
 11
179.4417
 21
158.1711
 40
2.0536
 41
0.5
  1
âT
  0
TEXT
  8
LAYER_1
 10
177.445
 20
158.1713
 11
177.445
 21
158.1713
 40
2.0536
 41
0.5
  1
ü[
  0
TEXT
  8
LAYER_1
 10
175.4551
 20
158.1711
 11
175.4551
 21
158.1711
 40
2.0536
 41
0.5
  1
ây
  0
TEXT
  8
LAYER_1
 10
173.4049
 20
158.1713
 11
173.4049
 21
158.1713
 40
2.0536
 41
0.5
  1
âX
  0
TEXT
  8
LAYER_1
 10
170.4597
 20
158.1711
 11
170.4597
 21
158.1711
 40
2.0536
 41
0.5
  1
üi
  0
TEXT
  8
LAYER_1
 10
169.3149
 20
158.1713
 11
169.3149
 21
158.1713
 40
2.0536
 41
0.5
  1
âN
  0
TEXT
  8
LAYER_1
 10
167.4146
 20
158.1711
 11
167.4146
 21
158.1711
 40
2.0536
 41
0.5
  1
âX
  0
TEXT
  8
LAYER_1
 10
165.2049
 20
158.1713
 11
165.2049
 21
158.1713
 40
2.0536
 41
0.5
  1
âB
  0
TEXT
  8
LAYER_1
 10
163.4179
 20
158.1711
 11
163.4179
 21
158.1711
 40
2.0536
 41
0.5
  1
âf
  0
TEXT
  8
LAYER_1
 10
161.3198
 20
158.1713
 11
161.3198
 21
158.1713
 40
2.0536
 41
0.5
  1
âO
  0
TEXT
  8
LAYER_1
 10
159.3803
 20
158.1714
 11
159.3803
 21
158.1714
 40
2.0536
 41
0.5
  1
âô
  0
TEXT
  8
LAYER_1
 10
157.204
 20
158.1712
 11
157.204
 21
158.1712
 40
2.0536
 41
0.5
  1
âB
  0
TEXT
  8
LAYER_1
 10
155.3977
 20
158.1714
 11
155.3977
 21
158.1714
 40
2.0536
 41
0.5
  1
âe
  0
TEXT
  8
LAYER_1
 10
153.3686
 20
158.1712
 11
153.3686
 21
158.1712
 40
2.0536
 41
0.5
  1
âô
  0
TEXT
  8
LAYER_1
 10
151.3615
 20
158.1714
 11
151.3615
 21
158.1714
 40
2.0536
 41
0.5
  1
âE
  0
TEXT
  8
LAYER_1
 10
149.406
 20
158.1712
 11
149.406
 21
158.1712
 40
2.0536
 41
0.5
  1
â}
  0
TEXT
  8
LAYER_1
 10
85.434
 20
158.0918
 11
85.434
 21
158.0918
 40
2.4232
 41
0.5
  1
0
  0
TEXT
  8
LAYER_1
 10
84.4391
 20
158.0917
 11
84.4391
 21
158.0917
 40
2.4232
 41
0.5
  1
.
  0
TEXT
  8
LAYER_1
 10
83.4442
 20
158.0916
 11
83.4442
 21
158.0916
 40
2.4232
 41
0.5
  1
0
  0
TEXT
  8
LAYER_1
 10
82.4499
 20
158.0915
 11
82.4499
 21
158.0915
 40
2.4232
 41
0.5
  1
1
  0
TEXT
  8
LAYER_1
 10
81.455
 20
158.0917
 11
81.455
 21
158.0917
 40
2.4232
 41
0.5
  1
L
  0
TEXT
  8
LAYER_1
 10
79.4437
 20
158.1712
 11
79.4437
 21
158.1712
 40
2.0536
 41
0.5
  1
üj
  0
TEXT
  8
LAYER_1
 10
77.4545
 20
158.1713
 11
77.4545
 21
158.1713
 40
2.0536
 41
0.5
  1
ü[
  0
TEXT
  8
LAYER_1
 10
75.4295
 20
158.1712
 11
75.4295
 21
158.1712
 40
2.0536
 41
0.5
  1
âT
  0
TEXT
  8
LAYER_1
 10
73.4541
 20
158.1713
 11
73.4541
 21
158.1713
 40
2.0536
 41
0.5
  1
ü[
  0
TEXT
  8
LAYER_1
 10
71.4428
 20
158.1712
 11
71.4428
 21
158.1712
 40
2.0536
 41
0.5
  1
ây
  0
TEXT
  8
LAYER_1
 10
69.414
 20
158.1713
 11
69.414
 21
158.1713
 40
2.0536
 41
0.5
  1
âX
  0
TEXT
  8
LAYER_1
 10
66.4474
 20
158.1711
 11
66.4474
 21
158.1711
 40
2.0536
 41
0.5
  1
üi
  0
TEXT
  8
LAYER_1
 10
65.324
 20
158.1713
 11
65.324
 21
158.1713
 40
2.0536
 41
0.5
  1
âN
  0
TEXT
  8
LAYER_1
 10
63.4023
 20
158.1711
 11
63.4023
 21
158.1711
 40
2.0536
 41
0.5
  1
âX
  0
TEXT
  8
LAYER_1
 10
61.214
 20
158.1712
 11
61.214
 21
158.1712
 40
2.0536
 41
0.5
  1
âB
  0
TEXT
  8
LAYER_1
 10
59.4057
 20
158.1711
 11
59.4057
 21
158.1711
 40
2.0536
 41
0.5
  1
âf
  0
TEXT
  8
LAYER_1
 10
57.329
 20
158.1712
 11
57.329
 21
158.1712
 40
2.0536
 41
0.5
  1
âO
  0
TEXT
  8
LAYER_1
 10
55.3673
 20
158.1711
 11
55.3673
 21
158.1711
 40
2.0536
 41
0.5
  1
âô
  0
TEXT
  8
LAYER_1
 10
53.2131
 20
158.1712
 11
53.2131
 21
158.1712
 40
2.0536
 41
0.5
  1
âB
  0
TEXT
  8
LAYER_1
 10
51.3848
 20
158.1711
 11
51.3848
 21
158.1711
 40
2.0536
 41
0.5
  1
âe
  0
TEXT
  8
LAYER_1
 10
49.3777
 20
158.1712
 11
49.3777
 21
158.1712
 40
2.0536
 41
0.5
  1
âô
  0
TEXT
  8
LAYER_1
 10
47.3492
 20
158.1711
 11
47.3492
 21
158.1711
 40
2.0536
 41
0.5
  1
âE
  0
TEXT
  8
LAYER_1
 10
45.4151
 20
158.1712
 11
45.4151
 21
158.1712
 40
2.0536
 41
0.5
  1
â}
  0
ENDBLK
  0
BLOCK
  8
LAYER_1
  2
AIGNBL01010003
 70
64
 10
0
 20
0
 30
0
  3
AIGNBL01010003
  0
TEXT
  8
LAYER_1
 10
361.5326
 20
391.3704
 11
361.5326
 21
391.3704
 40
3.0419
 41
0.5
  1
5
  0
TEXT
  8
LAYER_1
 10
360.2838
 20
391.3704
 11
360.2838
 21
391.3704
 40
3.0419
 41
0.5
  1
.
  0
TEXT
  8
LAYER_1
 10
359.0349
 20
391.3704
 11
359.0349
 21
391.3704
 40
3.0419
 41
0.5
  1
8
  0
TEXT
  8
LAYER_1
 10
357.7861
 20
391.3704
 11
357.7861
 21
391.3704
 40
3.0419
 41
0.5
  1
7
  0
TEXT
  8
LAYER_1
 10
354.9673
 20
391.4703
 11
354.9673
 21
391.4703
 40
2.5779
 41
0.5
  1
%%c
  0
TEXT
  8
LAYER_1
 10
304.6579
 20
391.3704
 11
304.6579
 21
391.3704
 40
3.0419
 41
0.5
  1
0
  0
TEXT
  8
LAYER_1
 10
303.409
 20
391.3704
 11
303.409
 21
391.3704
 40
3.0419
 41
0.5
  1
6
  0
TEXT
  8
LAYER_1
 10
300.6116
 20
391.4702
 11
300.6116
 21
391.4702
 40
2.5779
 41
0.5
  1
%%c
  0
ENDBLK
  0
BLOCK
  8
LAYER_1
  2
AIGNBL01010004
 70
64
 10
0
 20
0
 30
0
  3
AIGNBL01010004
  0
INSERT
  8
LAYER_1
  2
AIGNBL01020005
 10
0
 20
0
 30
0
  0
INSERT
  8
LAYER_1
  2
AIGNBL0102000E
 10
0
 20
0
 30
0
  0
ENDBLK
  0
ENDSEC
  0
SECTION
  2
ENTITIES
  0
POLYLINE
  8
LAYER_1
 40
0.05
 41
0.05
 66
1
 10
0
 20
0
 30
0
 70
1
  0
VERTEX
  8
LAYER_1
 10
323.9617
 20
272.8099
  0
VERTEX
  8
LAYER_1
 10
323.9617
 20
272.5136
  0
VERTEX
  8
LAYER_1
 10
324.5755
 20
272.5136
  0
VERTEX
  8
LAYER_1
 10
324.5755
 20
272.8099
  0
SEQEND
  0
POLYLINE
  8
LAYER_1
 40
0.0847
 41
0.0847
 66
1
 10
0
 20
0
 30
0
 70
1
  0
VERTEX
  8
LAYER_1
 10
323.9617
 20
272.8099
  0
VERTEX
  8
LAYER_1
 10
323.9617
 20
272.5136
  0
VERTEX
  8
LAYER_1
 10
324.5755
 20
272.5136
  0
VERTEX
  8
LAYER_1
 10
324.5755
 20
272.8099
  0
SEQEND
  0
POLYLINE
  8
LAYER_1
 40
0.05
 41
0.05
 66
1
 10
0
 20
0
 30
0
 70
1
  0
VERTEX
  8
LAYER_1
 10
321.9085
 20
270.8202
  0
VERTEX
  8
LAYER_1
 10
321.9085
 20
271.1166
  0
VERTEX
  8
LAYER_1
 10
322.4165
 20
271.1166
  0
VERTEX
  8
LAYER_1
 10
322.4165
 20
270.8202
  0
SEQEND
  0
POLYLINE
  8
LAYER_1
 40
0.0847
 41
0.0847
 66
1
 10
0
 20
0
 30
0
 70
1
  0
VERTEX
  8
LAYER_1
 10
321.9085
 20
270.8202
  0
VERTEX
  8
LAYER_1
 10
321.9085
 20
271.1166
  0
VERTEX
  8
LAYER_1
 10
322.4165
 20
271.1166
  0
VERTEX
  8
LAYER_1
 10
322.4165
 20
270.8202
  0
SEQEND
  0
POLYLINE
  8
LAYER_1
 40
0.05
 41
0.05
 66
1
 10
0
 20
0
 30
0
 70
1
  0
VERTEX
  8
LAYER_1
 10
335.7727
 20
272.8099
  0
VERTEX
  8
LAYER_1
 10
335.7727
 20
272.5136
  0
VERTEX
  8
LAYER_1
 10
335.1588
 20
272.5136
  0
VERTEX
  8
LAYER_1
 10
335.1588
 20
272.8099
  0
SEQEND
  0
POLYLINE
  8
LAYER_1
 40
0.0847
 41
0.0847
 66
1
 10
0
 20
0
 30
0
 70
1
  0
VERTEX
  8
LAYER_1
 10
335.7727
 20
272.8099
  0
VERTEX
  8
LAYER_1
 10
335.7727
 20
272.5136
  0
VERTEX
  8
LAYER_1
 10
335.1588
 20
272.5136
  0
VERTEX
  8
LAYER_1
 10
335.1588
 20
272.8099
  0
SEQEND
  0
POLYLINE
  8
LAYER_1
 40
0.05
 41
0.05
 66
1
 10
0
 20
0
 30
0
 70
1
  0
VERTEX
  8
LAYER_1
 10
337.8258
 20
270.8202
  0
VERTEX
  8
LAYER_1
 10
337.8258
 20
271.1166
  0
VERTEX
  8
LAYER_1
 10
337.3178
 20
271.1166
  0
VERTEX
  8
LAYER_1
 10
337.3178
 20
270.8202
  0
SEQEND
  0
POLYLINE
  8
LAYER_1
 40
0.0847
 41
0.0847
 66
1
 10
0
 20
0
 30
0
 70
1
  0
VERTEX
  8
LAYER_1
 10
337.8258
 20
270.8202
  0
VERTEX
  8
LAYER_1
 10
337.8258
 20
271.1166
  0
VERTEX
  8
LAYER_1
 10
337.3178
 20
271.1166
  0
VERTEX
  8
LAYER_1
 10
337.3178
 20
270.8202
  0
SEQEND
  0
POLYLINE
  8
LAYER_1
 40
0.254
 41
0.254
 66
1
 10
0
 20
0
 30
0
  0
VERTEX
  8
LAYER_1
 10
258.7049
 20
261.8456
  0
VERTEX
  8
LAYER_1
 10
323.369
 20
261.8456
  0
SEQEND
  0
POLYLINE
  8
LAYER_1
 40
0.0847
 41
0.0847
 66
1
 10
0
 20
0
 30
0
  0
VERTEX
  8
LAYER_1
 10
340.4082
 20
261.5069
  0
VERTEX
  8
LAYER_1
 10
374.0209
 20
272.8734
  0
SEQEND
  0
POLYLINE
  8
LAYER_1
 40
0.0847
 41
0.0847
 66
1
 10
0
 20
0
 30
0
  0
VERTEX
  8
LAYER_1
 10
386.6573
 20
261.8456
  0
VERTEX
  8
LAYER_1
 10
395.6532
 20
270.8202
  0
SEQEND
  0
POLYLINE
  8
LAYER_1
 40
0.0847
 41
0.0847
 66
1
 10
0
 20
0
 30
0
  0
VERTEX
  8
LAYER_1
 10
383.821
 20
261.8456
  0
VERTEX
  8
LAYER_1
 10
392.838
 20
270.8202
  0
SEQEND
  0
POLYLINE
  8
LAYER_1
 40
0.0847
 41
0.0847
 66
1
 10
0
 20
0
 30
0
  0
VERTEX
  8
LAYER_1
 10
381.0058
 20
261.8456
  0
VERTEX
  8
LAYER_1
 10
390.0017
 20
270.8202
  0
SEQEND
  0
POLYLINE
  8
LAYER_1
 40
0.0847
 41
0.0847
 66
1
 10
0
 20
0
 30
0
  0
VERTEX
  8
LAYER_1
 10
378.1695
 20
261.8456
  0
VERTEX
  8
LAYER_1
 10
387.1653
 20
270.8202
  0
SEQEND
  0
POLYLINE
  8
LAYER_1
 40
0.0847
 41
0.0847
 66
1
 10
0
 20
0
 30
0
  0
VERTEX
  8
LAYER_1
 10
375.3331
 20
261.8456
  0
VERTEX
  8
LAYER_1
 10
384.3502
 20
270.8202
  0
SEQEND
  0
POLYLINE
  8
LAYER_1
 40
0.1693
 41
0.1693
 66
1
 10
0
 20
0
 30
0
  0
VERTEX
  8
LAYER_1
 10
76.6927
 20
181.6027
  0
VERTEX
  8
LAYER_1
 10
85.9425
 20
181.6027
  0
SEQEND
  0
POLYLINE
  8
LAYER_1
 40
0.1693
 41
0.1693
 66
1
 10
0
 20
0
 30
0
  0
VERTEX
  8
LAYER_1
 10
76.6715
 20
241.3562
 42
0.4137920972
  0
VERTEX
  8
LAYER_1
 10
65.9189
 20
252.0877
 42
0.4142033155
  0
VERTEX
  8
LAYER_1
 10
55.1873
 20
241.3562
 42
0.4137929889
  0
VERTEX
  8
LAYER_1
 10
65.9189
 20
230.6036
 42
0.4133832682
  0
VERTEX
  8
LAYER_1
 10
76.6715
 20
241.3562
  0
SEQEND
  0
POLYLINE
  8
LAYER_1
 40
0.1693
 41
0.1693
 66
1
 10
0
 20
0
 30
0
  0
VERTEX
  8
LAYER_1
 10
85.9213
 20
241.3562
 42
0.4145047217
  0
VERTEX
  8
LAYER_1
 10
65.9189
 20
261.3376
 42
0.4147259272
  0
VERTEX
  8
LAYER_1
 10
45.9375
 20
241.3562
 42
0.4145051461
  0
VERTEX
  8
LAYER_1
 10
65.9189
 20
221.3537
 42
0.414284374
  0
VERTEX
  8
LAYER_1
 10
85.9213
 20
241.3562
  0
SEQEND
  0
POLYLINE
  8
LAYER_1
 40
0.1693
 41
0.1693
 66
1
 10
0
 20
0
 30
0
  0
VERTEX
  8
LAYER_1
 10
93.4144
 20
241.3562
 42
0.414131469
  0
VERTEX
  8
LAYER_1
 10
65.9189
 20
268.8306
 42
0.4142920342
  0
VERTEX
  8
LAYER_1
 10
38.4445
 20
241.3562
 42
0.4141317775
  0
VERTEX
  8
LAYER_1
 10
65.9189
 20
213.8607
 42
0.4139714413
  0
VERTEX
  8
LAYER_1
 10
93.4144
 20
241.3562
  0
SEQEND
  0
POLYLINE
  8
LAYER_1
 40
0.0847
 41
0.0847
 66
1
 10
0
 20
0
 30
0
  0
VERTEX
  8
LAYER_1
 10
24.4533
 20
241.3351
  0
VERTEX
  8
LAYER_1
 10
26.6547
 20
241.3351
  0
SEQEND
  0
POLYLINE
  8
LAYER_1
 40
0.0847
 41
0.0847
 66
1
 10
0
 20
0
 30
0
  0
VERTEX
  8
LAYER_1
 10
27.5437
 20
241.3351
  0
VERTEX
  8
LAYER_1
 10
28.4115
 20
241.3351
  0
SEQEND
  0
POLYLINE
  8
LAYER_1
 40
0.0847
 41
0.0847
 66
1
 10
0
 20
0
 30
0
  0
VERTEX
  8
LAYER_1
 10
29.3005
 20
241.3351
  0
VERTEX
  8
LAYER_1
 10
33.7243
 20
241.3351
  0
SEQEND
  0
POLYLINE
  8
LAYER_1
 40
0.0847
 41
0.0847
 66
1
 10
0
 20
0
 30
0
  0
VERTEX
  8
LAYER_1
 10
34.6133
 20
241.3351
  0
VERTEX
  8
LAYER_1
 10
35.4812
 20
241.3351
  0
SEQEND
  0
POLYLINE
  8
LAYER_1
 40
0.0847
 41
0.0847
 66
1
 10
0
 20
0
 30
0
  0
VERTEX
  8
LAYER_1
 10
36.3702
 20
241.3351
  0
VERTEX
  8
LAYER_1
 10
40.794
 20
241.3351
  0
SEQEND
  0
POLYLINE
  8
LAYER_1
 40
0.0847
 41
0.0847
 66
1
 10
0
 20
0
 30
0
  0
VERTEX
  8
LAYER_1
 10
41.683
 20
241.3351
  0
VERTEX
  8
LAYER_1
 10
42.5508
 20
241.3351
  0
SEQEND
  0
POLYLINE
  8
LAYER_1
 40
0.0847
 41
0.0847
 66
1
 10
0
 20
0
 30
0
  0
VERTEX
  8
LAYER_1
 10
43.4398
 20
241.3351
  0
VERTEX
  8
LAYER_1
 10
47.8637
 20
241.3351
  0
SEQEND
  0
POLYLINE
  8
LAYER_1
 40
0.0847
 41
0.0847
 66
1
 10
0
 20
0
 30
0
  0
VERTEX
  8
LAYER_1
 10
48.7527
 20
241.3351
  0
VERTEX
  8
LAYER_1
 10
49.6205
 20
241.3351
  0
SEQEND
  0
POLYLINE
  8
LAYER_1
 40
0.0847
 41
0.0847
 66
1
 10
0
 20
0
 30
0
  0
VERTEX
  8
LAYER_1
 10
50.5095
 20
241.3351
  0
VERTEX
  8
LAYER_1
 10
54.9333
 20
241.3351
  0
SEQEND
  0
POLYLINE
  8
LAYER_1
 40
0.0847
 41
0.0847
 66
1
 10
0
 20
0
 30
0
  0
VERTEX
  8
LAYER_1
 10
55.8223
 20
241.3351
  0
VERTEX
  8
LAYER_1
 10
56.6902
 20
241.3351
  0
SEQEND
  0
POLYLINE
  8
LAYER_1
 40
0.0847
 41
0.0847
 66
1
 10
0
 20
0
 30
0
  0
VERTEX
  8
LAYER_1
 10
57.5792
 20
241.3351
  0
VERTEX
  8
LAYER_1
 10
62.003
 20
241.3351
  0
SEQEND
  0
POLYLINE
  8
LAYER_1
 40
0.0847
 41
0.0847
 66
1
 10
0
 20
0
 30
0
  0
VERTEX
  8
LAYER_1
 10
62.892
 20
241.3351
  0
VERTEX
  8
LAYER_1
 10
63.7598
 20
241.3351
  0
SEQEND
  0
POLYLINE
  8
LAYER_1
 40
0.0847
 41
0.0847
 66
1
 10
0
 20
0
 30
0
  0
VERTEX
  8
LAYER_1
 10
64.6488
 20
241.3351
  0
VERTEX
  8
LAYER_1
 10
69.0727
 20
241.3351
  0
SEQEND
  0
POLYLINE
  8
LAYER_1
 40
0.0847
 41
0.0847
 66
1
 10
0
 20
0
 30
0
  0
VERTEX
  8
LAYER_1
 10
69.9617
 20
241.3351
  0
VERTEX
  8
LAYER_1
 10
70.8295
 20
241.3351
  0
SEQEND
  0
POLYLINE
  8
LAYER_1
 40
0.0847
 41
0.0847
 66
1
 10
0
 20
0
 30
0
  0
VERTEX
  8
LAYER_1
 10
71.7185
 20
241.3351
  0
VERTEX
  8
LAYER_1
 10
76.1423
 20
241.3351
  0
SEQEND
  0
POLYLINE
  8
LAYER_1
 40
0.0847
 41
0.0847
 66
1
 10
0
 20
0
 30
0
  0
VERTEX
  8
LAYER_1
 10
77.0313
 20
241.3351
  0
VERTEX
  8
LAYER_1
 10
77.8992
 20
241.3351
  0
SEQEND
  0
POLYLINE
  8
LAYER_1
 40
0.0847
 41
0.0847
 66
1
 10
0
 20
0
 30
0
  0
VERTEX
  8
LAYER_1
 10
78.7882
 20
241.3351
  0
VERTEX
  8
LAYER_1
 10
83.212
 20
241.3351
  0
SEQEND
  0
POLYLINE
  8
LAYER_1
 40
0.0847
 41
0.0847
 66
1
 10
0
 20
0
 30
0
  0
VERTEX
  8
LAYER_1
 10
84.101
 20
241.3351
  0
VERTEX
  8
LAYER_1
 10
84.9688
 20
241.3351
  0
SEQEND
  0
POLYLINE
  8
LAYER_1
 40
0.0847
 41
0.0847
 66
1
 10
0
 20
0
 30
0
  0
VERTEX
  8
LAYER_1
 10
85.8578
 20
241.3351
  0
VERTEX
  8
LAYER_1
 10
90.2817
 20
241.3351
  0
SEQEND
  0
POLYLINE
  8
LAYER_1
 40
0.0847
 41
0.0847
 66
1
 10
0
 20
0
 30
0
  0
VERTEX
  8
LAYER_1
 10
91.1707
 20
241.3351
  0
VERTEX
  8
LAYER_1
 10
92.0385
 20
241.3351
  0
SEQEND
  0
POLYLINE
  8
LAYER_1
 40
0.0847
 41
0.0847
 66
1
 10
0
 20
0
 30
0
  0
VERTEX
  8
LAYER_1
 10
92.9275
 20
241.3351
  0
VERTEX
  8
LAYER_1
 10
97.3513
 20
241.3351
  0
SEQEND
  0
POLYLINE
  8
LAYER_1
 40
0.0847
 41
0.0847
 66
1
 10
0
 20
0
 30
0
  0
VERTEX
  8
LAYER_1
 10
98.2403
 20
241.3351
  0
VERTEX
  8
LAYER_1
 10
99.1082
 20
241.3351
  0
SEQEND
  0
POLYLINE
  8
LAYER_1
 40
0.0847
 41
0.0847
 66
1
 10
0
 20
0
 30
0
  0
VERTEX
  8
LAYER_1
 10
99.9972
 20
241.3351
  0
VERTEX
  8
LAYER_1
 10
104.421
 20
241.3351
  0
SEQEND
  0
POLYLINE
  8
LAYER_1
 40
0.0847
 41
0.0847
 66
1
 10
0
 20
0
 30
0
  0
VERTEX
  8
LAYER_1
 10
105.31
 20
241.3351
  0
VERTEX
  8
LAYER_1
 10
106.1778
 20
241.3351
  0
SEQEND
  0
POLYLINE
  8
LAYER_1
 40
0.0847
 41
0.0847
 66
1
 10
0
 20
0
 30
0
  0
VERTEX
  8
LAYER_1
 10
107.0668
 20
241.3351
  0
VERTEX
  8
LAYER_1
 10
109.2893
 20
241.3351
  0
SEQEND
  0
POLYLINE
  8
LAYER_1
 40
0.0847
 41
0.0847
 66
1
 10
0
 20
0
 30
0
  0
VERTEX
  8
LAYER_1
 10
45.9375
 20
198.7266
  0
VERTEX
  8
LAYER_1
 10
85.9425
 20
198.7266
  0
SEQEND
  0
POLYLINE
  8
LAYER_1
 40
0.1693
 41
0.1693
 66
1
 10
0
 20
0
 30
0
  0
VERTEX
  8
LAYER_1
 10
40.2437
 20
179.2532
 42
0.3876233002
  0
VERTEX
  8
LAYER_1
 10
38.4445
 20
177.2847
  0
SEQEND
  0
POLYLINE
  8
LAYER_1
 40
0.1693
 41
0.1693
 66
1
 10
0
 20
0
 30
0
  0
VERTEX
  8
LAYER_1
 10
93.4355
 20
177.2847
 42
0.3874942916
  0
VERTEX
  8
LAYER_1
 10
91.594
 20
179.2532
  0
SEQEND
  0
POLYLINE
  8
LAYER_1
 40
0.1693
 41
0.1693
 66
1
 10
0
 20
0
 30
0
  0
VERTEX
  8
LAYER_1
 10
85.9425
 20
181.6027
  0
SEQEND
  0
POLYLINE
  8
LAYER_1
 40
0.1693
 41
0.1693
 66
1
 10
0
 20
0
 30
0
  0
VERTEX
  8
LAYER_1
 10
87.7628
 20
179.5919
  0
VERTEX
  8
LAYER_1
 10
91.6152
 20
179.2744
  0
SEQEND
  0
POLYLINE
  8
LAYER_1
 40
0.1693
 41
0.1693
 66
1
 10
0
 20
0
 30
0
  0
VERTEX
  8
LAYER_1
 10
85.9637
 20
181.6239
  0
VERTEX
  8
LAYER_1
 10
85.9637
 20
181.6027
 42
0.3876034062
  0
VERTEX
  8
LAYER_1
 10
87.7628
 20
179.6342
  0
SEQEND
  0
POLYLINE
  8
LAYER_1
 40
0.1693
 41
0.1693
 66
1
 10
0
 20
0
 30
0
  0
VERTEX
  8
LAYER_1
 10
45.9375
 20
181.6027
  0
SEQEND
  0
POLYLINE
  8
LAYER_1
 40
0.1693
 41
0.1693
 66
1
 10
0
 20
0
 30
0
  0
VERTEX
  8
LAYER_1
 10
44.1172
 20
179.5919
  0
VERTEX
  8
LAYER_1
 10
40.2648
 20
179.2744
  0
SEQEND
  0
POLYLINE
  8
LAYER_1
 40
0.1693
 41
0.1693
 66
1
 10
0
 20
0
 30
0
  0
VERTEX
  8
LAYER_1
 10
44.096
 20
179.6342
 42
0.3917881456
  0
VERTEX
  8
LAYER_1
 10
45.9375
 20
181.6027
  0
VERTEX
  8
LAYER_1
 10
45.9375
 20
181.6239
  0
SEQEND
  0
POLYLINE
  8
LAYER_1
 40
0.1693
 41
0.1693
 66
1
 10
0
 20
0
 30
0
  0
VERTEX
  8
LAYER_1
 10
38.4445
 20
176.6074
  0
VERTEX
  8
LAYER_1
 10
38.4445
 20
177.2636
  0
SEQEND
  0
POLYLINE
  8
LAYER_1
 40
0.1693
 41
0.1693
 66
1
 10
0
 20
0
 30
0
  0
VERTEX
  8
LAYER_1
 10
38.4445
 20
176.6074
  0
VERTEX
  8
LAYER_1
 10
93.4355
 20
176.6074
  0
VERTEX
  8
LAYER_1
 10
93.4355
 20
177.2636
  0
SEQEND
  0
POLYLINE
  8
LAYER_1
 40
0.1693
 41
0.1693
 66
1
 10
0
 20
0
 30
0
  0
VERTEX
  8
LAYER_1
 10
45.9375
 20
181.6027
  0
VERTEX
  8
LAYER_1
 10
55.1873
 20
181.6027
  0
SEQEND
  0
POLYLINE
  8
LAYER_1
 40
0.1693
 41
0.1693
 66
1
 10
0
 20
0
 30
0
  0
VERTEX
  8
LAYER_1
 10
76.6927
 20
176.6074
  0
VERTEX
  8
LAYER_1
 10
76.6927
 20
181.6027
  0
SEQEND
  0
POLYLINE
  8
LAYER_1
 40
0.0847
 41
0.0847
 66
1
 10
0
 20
0
 30
0
  0
VERTEX
  8
LAYER_1
 10
65.94
 20
181.6027
  0
VERTEX
  8
LAYER_1
 10
76.6927
 20
181.6027
  0
SEQEND
  0
POLYLINE
  8
LAYER_1
 40
0.1693
 41
0.1693
 66
1
 10
0
 20
0
 30
0
  0
VERTEX
  8
LAYER_1
 10
54.1925
 20
176.6074
  0
VERTEX
  8
LAYER_1
 10
54.1925
 20
181.6027
  0
SEQEND
  0
POLYLINE
  8
LAYER_1
 40
0.1693
 41
0.1693
 66
1
 10
0
 20
0
 30
0
  0
VERTEX
  8
LAYER_1
 10
55.1874
 20
176.6074
  0
VERTEX
  8
LAYER_1
 10
55.1874
 20
177.8562
  0
SEQEND
  0
POLYLINE
  8
LAYER_1
 40
0.1693
 41
0.1693
 66
1
 10
0
 20
0
 30
0
  0
VERTEX
  8
LAYER_1
 10
55.1874
 20
180.3539
  0
VERTEX
  8
LAYER_1
 10
55.1874
 20
181.6027
  0
SEQEND
  0
POLYLINE
  8
LAYER_1
 40
0.0847
 41
0.0847
 66
1
 10
0
 20
0
 30
0
  0
VERTEX
  8
LAYER_1
 10
92.356
 20
176.6074
  0
VERTEX
  8
LAYER_1
 10
93.4144
 20
177.6657
  0
SEQEND
  0
POLYLINE
  8
LAYER_1
 40
0.0847
 41
0.0847
 66
1
 10
0
 20
0
 30
0
  0
VERTEX
  8
LAYER_1
 10
90.2394
 20
176.6074
  0
VERTEX
  8
LAYER_1
 10
92.5677
 20
178.9357
  0
SEQEND
  0
POLYLINE
  8
LAYER_1
 40
0.0847
 41
0.0847
 66
1
 10
0
 20
0
 30
0
  0
VERTEX
  8
LAYER_1
 10
88.1015
 20
176.6074
  0
VERTEX
  8
LAYER_1
 10
90.832
 20
179.3379
  0
SEQEND
  0
POLYLINE
  8
LAYER_1
 40
0.0847
 41
0.0847
 66
1
 10
0
 20
0
 30
0
  0
VERTEX
  8
LAYER_1
 10
85.9849
 20
176.6074
  0
VERTEX
  8
LAYER_1
 10
88.8847
 20
179.5072
  0
SEQEND
  0
POLYLINE
  8
LAYER_1
 40
0.0847
 41
0.0847
 66
1
 10
0
 20
0
 30
0
  0
VERTEX
  8
LAYER_1
 10
83.8682
 20
176.6074
  0
VERTEX
  8
LAYER_1
 10
87.0644
 20
179.8036
  0
SEQEND
  0
POLYLINE
  8
LAYER_1
 40
0.0847
 41
0.0847
 66
1
 10
0
 20
0
 30
0
  0
VERTEX
  8
LAYER_1
 10
81.7515
 20
176.6074
  0
VERTEX
  8
LAYER_1
 10
86.0695
 20
180.9254
  0
SEQEND
  0
POLYLINE
  8
LAYER_1
 40
0.0847
 41
0.0847
 66
1
 10
0
 20
0
 30
0
  0
VERTEX
  8
LAYER_1
 10
79.6349
 20
176.6074
  0
VERTEX
  8
LAYER_1
 10
84.6302
 20
181.6027
  0
SEQEND
  0
POLYLINE
  8
LAYER_1
 40
0.0847
 41
0.0847
 66
1
 10
0
 20
0
 30
0
  0
VERTEX
  8
LAYER_1
 10
77.497
 20
176.6074
  0
VERTEX
  8
LAYER_1
 10
82.5135
 20
181.6027
  0
SEQEND
  0
POLYLINE
  8
LAYER_1
 40
0.0847
 41
0.0847
 66
1
 10
0
 20
0
 30
0
  0
VERTEX
  8
LAYER_1
 10
76.6927
 20
177.9197
  0
VERTEX
  8
LAYER_1
 10
80.3757
 20
181.6027
  0
SEQEND
  0
POLYLINE
  8
LAYER_1
 40
0.0847
 41
0.0847
 66
1
 10
0
 20
0
 30
0
  0
VERTEX
  8
LAYER_1
 10
76.6927
 20
180.0364
  0
VERTEX
  8
LAYER_1
 10
78.259
 20
181.6027
  0
SEQEND
  0
POLYLINE
  8
LAYER_1
 40
0.0847
 41
0.0847
 66
1
 10
0
 20
0
 30
0
  0
VERTEX
  8
LAYER_1
 10
54.1714
 20
176.6074
  0
VERTEX
  8
LAYER_1
 10
54.1925
 20
176.6286
  0
SEQEND
  0
POLYLINE
  8
LAYER_1
 40
0.0847
 41
0.0847
 66
1
 10
0
 20
0
 30
0
  0
VERTEX
  8
LAYER_1
 10
52.0547
 20
176.6074
  0
VERTEX
  8
LAYER_1
 10
54.1925
 20
178.7452
  0
SEQEND
  0
POLYLINE
  8
LAYER_1
 40
0.0847
 41
0.0847
 66
1
 10
0
 20
0
 30
0
  0
VERTEX
  8
LAYER_1
 10
49.9169
 20
176.6074
  0
VERTEX
  8
LAYER_1
 10
54.1925
 20
180.8831
  0
SEQEND
  0
POLYLINE
  8
LAYER_1
 40
0.0847
 41
0.0847
 66
1
 10
0
 20
0
 30
0
  0
VERTEX
  8
LAYER_1
 10
47.8002
 20
176.6074
  0
VERTEX
  8
LAYER_1
 10
52.7955
 20
181.6027
  0
SEQEND
  0
POLYLINE
  8
LAYER_1
 40
0.0847
 41
0.0847
 66
1
 10
0
 20
0
 30
0
  0
VERTEX
  8
LAYER_1
 10
45.6835
 20
176.6074
  0
VERTEX
  8
LAYER_1
 10
50.6789
 20
181.6027
  0
SEQEND
  0
POLYLINE
  8
LAYER_1
 40
0.0847
 41
0.0847
 66
1
 10
0
 20
0
 30
0
  0
VERTEX
  8
LAYER_1
 10
43.5669
 20
176.6074
  0
VERTEX
  8
LAYER_1
 10
48.5622
 20
181.6027
  0
SEQEND
  0
POLYLINE
  8
LAYER_1
 40
0.0847
 41
0.0847
 66
1
 10
0
 20
0
 30
0
  0
VERTEX
  8
LAYER_1
 10
41.4502
 20
176.6074
  0
VERTEX
  8
LAYER_1
 10
44.5194
 20
179.6766
  0
SEQEND
  0
POLYLINE
  8
LAYER_1
 40
0.0847
 41
0.0847
 66
1
 10
0
 20
0
 30
0
  0
VERTEX
  8
LAYER_1
 10
45.8529
 20
181.0312
  0
VERTEX
  8
LAYER_1
 10
46.4455
 20
181.6027
  0
SEQEND
  0
POLYLINE
  8
LAYER_1
 40
0.0847
 41
0.0847
 66
1
 10
0
 20
0
 30
0
  0
VERTEX
  8
LAYER_1
 10
39.3124
 20
176.6074
  0
VERTEX
  8
LAYER_1
 10
42.1487
 20
179.4226
  0
SEQEND
  0
POLYLINE
  8
LAYER_1
 40
0.0847
 41
0.0847
 66
1
 10
0
 20
0
 30
0
  0
VERTEX
  8
LAYER_1
 10
38.5715
 20
177.9833
  0
VERTEX
  8
LAYER_1
 10
39.7357
 20
179.1474
  0
SEQEND
  0
POLYLINE
  8
LAYER_1
 40
0.0847
 41
0.0847
 66
1
 10
0
 20
0
 30
0
  0
VERTEX
  8
LAYER_1
 10
45.9375
 20
182.7458
  0
VERTEX
  8
LAYER_1
 10
45.9375
 20
198.7266
  0
SEQEND
  0
POLYLINE
  8
LAYER_1
 40
0.0847
 41
0.0847
 66
1
 10
0
 20
0
 30
0
  0
VERTEX
  8
LAYER_1
 10
85.9425
 20
182.7458
  0
VERTEX
  8
LAYER_1
 10
85.9425
 20
198.7266
  0
SEQEND
  0
POLYLINE
  8
LAYER_1
 40
0.0847
 41
0.0847
 66
1
 10
0
 20
0
 30
0
  0
VERTEX
  8
LAYER_1
 10
55.1874
 20
190.6833
  0
VERTEX
  8
LAYER_1
 10
76.6927
 20
190.6833
  0
SEQEND
  0
POLYLINE
  8
LAYER_1
 40
0.0847
 41
0.0847
 66
1
 10
0
 20
0
 30
0
  0
VERTEX
  8
LAYER_1
 10
55.1874
 20
182.7458
  0
VERTEX
  8
LAYER_1
 10
55.1874
 20
190.6833
  0
SEQEND
  0
POLYLINE
  8
LAYER_1
 40
0.0847
 41
0.0847
 66
1
 10
0
 20
0
 30
0
  0
VERTEX
  8
LAYER_1
 10
76.6927
 20
182.7458
  0
VERTEX
  8
LAYER_1
 10
76.6927
 20
190.6833
  0
SEQEND
  0
POLYLINE
  8
LAYER_1
 40
0.1693
 41
0.1693
 66
1
 10
0
 20
0
 30
0
  0
VERTEX
  8
LAYER_1
 10
45.9375
 20
198.7266
  0
VERTEX
  8
LAYER_1
 10
47.398
 20
199.1076
  0
SEQEND
  0
POLYLINE
  8
LAYER_1
 40
0.1693
 41
0.1693
 66
1
 10
0
 20
0
 30
0
  0
VERTEX
  8
LAYER_1
 10
45.9375
 20
198.7266
  0
VERTEX
  8
LAYER_1
 10
47.398
 20
198.3456
  0
SEQEND
  0
POLYLINE
  8
LAYER_1
 40
0.1693
 41
0.1693
 66
1
 10
0
 20
0
 30
0
  0
VERTEX
  8
LAYER_1
 10
85.9425
 20
198.7266
  0
VERTEX
  8
LAYER_1
 10
84.5032
 20
198.3456
  0
SEQEND
  0
POLYLINE
  8
LAYER_1
 40
0.1693
 41
0.1693
 66
1
 10
0
 20
0
 30
0
  0
VERTEX
  8
LAYER_1
 10
85.9425
 20
198.7266
  0
VERTEX
  8
LAYER_1
 10
84.5032
 20
199.1076
  0
SEQEND
  0
POLYLINE
  8
LAYER_1
 40
0.1693
 41
0.1693
 66
1
 10
0
 20
0
 30
0
  0
VERTEX
  8
LAYER_1
 10
55.1874
 20
190.6832
  0
VERTEX
  8
LAYER_1
 10
56.6479
 20
191.0642
  0
SEQEND
  0
POLYLINE
  8
LAYER_1
 40
0.1693
 41
0.1693
 66
1
 10
0
 20
0
 30
0
  0
VERTEX
  8
LAYER_1
 10
55.1874
 20
190.6832
  0
VERTEX
  8
LAYER_1
 10
56.6479
 20
190.3022
  0
SEQEND
  0
POLYLINE
  8
LAYER_1
 40
0.1693
 41
0.1693
 66
1
 10
0
 20
0
 30
0
  0
VERTEX
  8
LAYER_1
 10
76.6927
 20
190.6832
  0
VERTEX
  8
LAYER_1
 10
75.2534
 20
190.3022
  0
SEQEND
  0
POLYLINE
  8
LAYER_1
 40
0.1693
 41
0.1693
 66
1
 10
0
 20
0
 30
0
  0
VERTEX
  8
LAYER_1
 10
76.6927
 20
190.6832
  0
VERTEX
  8
LAYER_1
 10
75.2534
 20
191.0642
  0
SEQEND
  0
POLYLINE
  8
LAYER_1
 40
0.1693
 41
0.1693
 66
1
 10
0
 20
0
 30
0
  0
VERTEX
  8
LAYER_1
 10
180.1765
 20
241.3562
 42
0.413795034
  0
VERTEX
  8
LAYER_1
 10
169.4238
 20
252.0877
 42
0.4142006647
  0
VERTEX
  8
LAYER_1
 10
158.6924
 20
241.3562
 42
0.4137903434
  0
VERTEX
  8
LAYER_1
 10
169.4238
 20
230.6036
 42
0.4133862
  0
VERTEX
  8
LAYER_1
 10
180.1765
 20
241.3562
  0
SEQEND
  0
POLYLINE
  8
LAYER_1
 40
0.1693
 41
0.1693
 66
1
 10
0
 20
0
 30
0
  0
VERTEX
  8
LAYER_1
 10
189.4264
 20
241.3562
 42
0.4145062013
  0
VERTEX
  8
LAYER_1
 10
169.4238
 20
261.3376
 42
0.4147243449
  0
VERTEX
  8
LAYER_1
 10
149.4425
 20
241.3562
 42
0.4145035652
  0
VERTEX
  8
LAYER_1
 10
169.4238
 20
221.3537
 42
0.414285852
  0
VERTEX
  8
LAYER_1
 10
189.4264
 20
241.3562
  0
SEQEND
  0
POLYLINE
  8
LAYER_1
 40
0.1693
 41
0.1693
 66
1
 10
0
 20
0
 30
0
  0
VERTEX
  8
LAYER_1
 10
196.9193
 20
241.3562
 42
0.4141325843
  0
VERTEX
  8
LAYER_1
 10
169.4238
 20
268.8306
 42
0.4142909909
  0
VERTEX
  8
LAYER_1
 10
141.9495
 20
241.3562
 42
0.414130735
  0
VERTEX
  8
LAYER_1
 10
169.4238
 20
213.8607
 42
0.413972556
  0
VERTEX
  8
LAYER_1
 10
196.9193
 20
241.3562
  0
SEQEND
  0
POLYLINE
  8
LAYER_1
 40
0.0847
 41
0.0847
 66
1
 10
0
 20
0
 30
0
  0
VERTEX
  8
LAYER_1
 10
127.9583
 20
241.3351
  0
VERTEX
  8
LAYER_1
 10
130.1597
 20
241.3351
  0
SEQEND
  0
POLYLINE
  8
LAYER_1
 40
0.0847
 41
0.0847
 66
1
 10
0
 20
0
 30
0
  0
VERTEX
  8
LAYER_1
 10
131.0487
 20
241.3351
  0
VERTEX
  8
LAYER_1
 10
131.9165
 20
241.3351
  0
SEQEND
  0
POLYLINE
  8
LAYER_1
 40
0.0847
 41
0.0847
 66
1
 10
0
 20
0
 30
0
  0
VERTEX
  8
LAYER_1
 10
132.8055
 20
241.3351
  0
VERTEX
  8
LAYER_1
 10
137.2294
 20
241.3351
  0
SEQEND
  0
POLYLINE
  8
LAYER_1
 40
0.0847
 41
0.0847
 66
1
 10
0
 20
0
 30
0
  0
VERTEX
  8
LAYER_1
 10
138.1184
 20
241.3351
  0
VERTEX
  8
LAYER_1
 10
138.9862
 20
241.3351
  0
SEQEND
  0
POLYLINE
  8
LAYER_1
 40
0.0847
 41
0.0847
 66
1
 10
0
 20
0
 30
0
  0
VERTEX
  8
LAYER_1
 10
139.8752
 20
241.3351
  0
VERTEX
  8
LAYER_1
 10
144.299
 20
241.3351
  0
SEQEND
  0
POLYLINE
  8
LAYER_1
 40
0.0847
 41
0.0847
 66
1
 10
0
 20
0
 30
0
  0
VERTEX
  8
LAYER_1
 10
145.1669
 20
241.3351
  0
VERTEX
  8
LAYER_1
 10
146.0559
 20
241.3351
  0
SEQEND
  0
POLYLINE
  8
LAYER_1
 40
0.0847
 41
0.0847
 66
1
 10
0
 20
0
 30
0
  0
VERTEX
  8
LAYER_1
 10
146.9449
 20
241.3351
  0
VERTEX
  8
LAYER_1
 10
151.3687
 20
241.3351
  0
SEQEND
  0
POLYLINE
  8
LAYER_1
 40
0.0847
 41
0.0847
 66
1
 10
0
 20
0
 30
0
  0
VERTEX
  8
LAYER_1
 10
152.2365
 20
241.3351
  0
VERTEX
  8
LAYER_1
 10
153.1255
 20
241.3351
  0
SEQEND
  0
POLYLINE
  8
LAYER_1
 40
0.0847
 41
0.0847
 66
1
 10
0
 20
0
 30
0
  0
VERTEX
  8
LAYER_1
 10
154.0145
 20
241.3351
  0
VERTEX
  8
LAYER_1
 10
158.4384
 20
241.3351
  0
SEQEND
  0
POLYLINE
  8
LAYER_1
 40
0.0847
 41
0.0847
 66
1
 10
0
 20
0
 30
0
  0
VERTEX
  8
LAYER_1
 10
159.3062
 20
241.3351
  0
VERTEX
  8
LAYER_1
 10
160.1952
 20
241.3351
  0
SEQEND
  0
POLYLINE
  8
LAYER_1
 40
0.0847
 41
0.0847
 66
1
 10
0
 20
0
 30
0
  0
VERTEX
  8
LAYER_1
 10
161.0842
 20
241.3351
  0
VERTEX
  8
LAYER_1
 10
165.4869
 20
241.3351
  0
SEQEND
  0
POLYLINE
  8
LAYER_1
 40
0.0847
 41
0.0847
 66
1
 10
0
 20
0
 30
0
  0
VERTEX
  8
LAYER_1
 10
166.3759
 20
241.3351
  0
VERTEX
  8
LAYER_1
 10
167.2649
 20
241.3351
  0
SEQEND
  0
POLYLINE
  8
LAYER_1
 40
0.0847
 41
0.0847
 66
1
 10
0
 20
0
 30
0
  0
VERTEX
  8
LAYER_1
 10
168.1539
 20
241.3351
  0
VERTEX
  8
LAYER_1
 10
172.5565
 20
241.3351
  0
SEQEND
  0
POLYLINE
  8
LAYER_1
 40
0.0847
 41
0.0847
 66
1
 10
0
 20
0
 30
0
  0
VERTEX
  8
LAYER_1
 10
173.4455
 20
241.3351
  0
VERTEX
  8
LAYER_1
 10
174.3345
 20
241.3351
  0
SEQEND
  0
POLYLINE
  8
LAYER_1
 40
0.0847
 41
0.0847
 66
1
 10
0
 20
0
 30
0
  0
VERTEX
  8
LAYER_1
 10
175.2235
 20
241.3351
  0
VERTEX
  8
LAYER_1
 10
179.6262
 20
241.3351
  0
SEQEND
  0
POLYLINE
  8
LAYER_1
 40
0.0847
 41
0.0847
 66
1
 10
0
 20
0
 30
0
  0
VERTEX
  8
LAYER_1
 10
180.5152
 20
241.3351
  0
VERTEX
  8
LAYER_1
 10
181.4042
 20
241.3351
  0
SEQEND
  0
POLYLINE
  8
LAYER_1
 40
0.0847
 41
0.0847
 66
1
 10
0
 20
0
 30
0
  0
VERTEX
  8
LAYER_1
 10
182.272
 20
241.3351
  0
VERTEX
  8
LAYER_1
 10
186.6959
 20
241.3351
  0
SEQEND
  0
POLYLINE
  8
LAYER_1
 40
0.0847
 41
0.0847
 66
1
 10
0
 20
0
 30
0
  0
VERTEX
  8
LAYER_1
 10
187.5849
 20
241.3351
  0
VERTEX
  8
LAYER_1
 10
188.4739
 20
241.3351
  0
SEQEND
  0
POLYLINE
  8
LAYER_1
 40
0.0847
 41
0.0847
 66
1
 10
0
 20
0
 30
0
  0
VERTEX
  8
LAYER_1
 10
189.3417
 20
241.3351
  0
VERTEX
  8
LAYER_1
 10
193.7655
 20
241.3351
  0
SEQEND
  0
POLYLINE
  8
LAYER_1
 40
0.0847
 41
0.0847
 66
1
 10
0
 20
0
 30
0
  0
VERTEX
  8
LAYER_1
 10
194.6545
 20
241.3351
  0
VERTEX
  8
LAYER_1
 10
195.5435
 20
241.3351
  0
SEQEND
  0
POLYLINE
  8
LAYER_1
 40
0.0847
 41
0.0847
 66
1
 10
0
 20
0
 30
0
  0
VERTEX
  8
LAYER_1
 10
196.4113
 20
241.3351
  0
VERTEX
  8
LAYER_1
 10
200.8352
 20
241.3351
  0
SEQEND
  0
POLYLINE
  8
LAYER_1
 40
0.0847
 41
0.0847
 66
1
 10
0
 20
0
 30
0
  0
VERTEX
  8
LAYER_1
 10
201.7242
 20
241.3351
  0
VERTEX
  8
LAYER_1
 10
202.592
 20
241.3351
  0
SEQEND
  0
POLYLINE
  8
LAYER_1
 40
0.0847
 41
0.0847
 66
1
 10
0
 20
0
 30
0
  0
VERTEX
  8
LAYER_1
 10
203.481
 20
241.3351
  0
VERTEX
  8
LAYER_1
 10
207.9048
 20
241.3351
  0
SEQEND
  0
POLYLINE
  8
LAYER_1
 40
0.0847
 41
0.0847
 66
1
 10
0
 20
0
 30
0
  0
VERTEX
  8
LAYER_1
 10
208.7938
 20
241.3351
  0
VERTEX
  8
LAYER_1
 10
209.6617
 20
241.3351
  0
SEQEND
  0
POLYLINE
  8
LAYER_1
 40
0.0847
 41
0.0847
 66
1
 10
0
 20
0
 30
0
  0
VERTEX
  8
LAYER_1
 10
210.5507
 20
241.3351
  0
VERTEX
  8
LAYER_1
 10
212.7732
 20
241.3351
  0
SEQEND
  0
POLYLINE
  8
LAYER_1
 40
0.1693
 41
0.1693
 66
1
 10
0
 20
0
 30
0
  0
VERTEX
  8
LAYER_1
 10
180.7057
 20
179.1051
  0
VERTEX
  8
LAYER_1
 10
189.4475
 20
179.1051
  0
SEQEND
  0
POLYLINE
  8
LAYER_1
 40
0.1693
 41
0.1693
 66
1
 10
0
 20
0
 30
0
  0
VERTEX
  8
LAYER_1
 10
141.9495
 20
176.6074
  0
VERTEX
  8
LAYER_1
 10
196.9405
 20
176.6074
  0
SEQEND
  0
POLYLINE
  8
LAYER_1
 40
0.1693
 41
0.1693
 66
1
 10
0
 20
0
 30
0
  0
VERTEX
  8
LAYER_1
 10
144.8282
 20
178.3642
  0
VERTEX
  8
LAYER_1
 10
148.7017
 20
178.3642
  0
SEQEND
  0
POLYLINE
  8
LAYER_1
 40
0.1693
 41
0.1693
 66
1
 10
0
 20
0
 30
0
  0
VERTEX
  8
LAYER_1
 10
144.807
 20
178.3431
 42
0.1231172869
  0
VERTEX
  8
LAYER_1
 10
143.7698
 20
178.1102
  0
SEQEND
  0
POLYLINE
  8
LAYER_1
 40
0.1693
 41
0.1693
 66
1
 10
0
 20
0
 30
0
  0
VERTEX
  8
LAYER_1
 10
141.9495
 20
176.6074
  0
VERTEX
  8
LAYER_1
 10
141.9495
 20
176.7556
  0
SEQEND
  0
POLYLINE
  8
LAYER_1
 40
0.1693
 41
0.1693
 66
1
 10
0
 20
0
 30
0
  0
VERTEX
  8
LAYER_1
 10
143.7487
 20
178.1102
 42
0.08169089674
  0
VERTEX
  8
LAYER_1
 10
142.013
 20
176.9249
  0
SEQEND
  0
POLYLINE
  8
LAYER_1
 40
0.1693
 41
0.1693
 66
1
 10
0
 20
0
 30
0
  0
VERTEX
  8
LAYER_1
 10
142.013
 20
176.9461
 42
0.1855255857
  0
VERTEX
  8
LAYER_1
 10
141.9495
 20
176.7767
  0
SEQEND
  0
POLYLINE
  8
LAYER_1
 40
0.1693
 41
0.1693
 66
1
 10
0
 20
0
 30
0
  0
VERTEX
  8
LAYER_1
 10
148.6805
 20
178.3642
  0
VERTEX
  8
LAYER_1
 10
148.7017
 20
178.3642
 42
0.4071427306
  0
VERTEX
  8
LAYER_1
 10
149.4425
 20
179.1051
  0
VERTEX
  8
LAYER_1
 10
149.4425
 20
179.1262
  0
SEQEND
  0
POLYLINE
  8
LAYER_1
 40
0.1693
 41
0.1693
 66
1
 10
0
 20
0
 30
0
  0
VERTEX
  8
LAYER_1
 10
190.1883
 20
178.3642
  0
VERTEX
  8
LAYER_1
 10
194.083
 20
178.3642
  0
SEQEND
  0
POLYLINE
  8
LAYER_1
 40
0.1693
 41
0.1693
 66
1
 10
0
 20
0
 30
0
  0
VERTEX
  8
LAYER_1
 10
195.099
 20
178.1314
 42
0.1090721501
  0
VERTEX
  8
LAYER_1
 10
194.083
 20
178.3431
  0
VERTEX
  8
LAYER_1
 10
194.0618
 20
178.3431
  0
SEQEND
  0
POLYLINE
  8
LAYER_1
 40
0.1693
 41
0.1693
 66
1
 10
0
 20
0
 30
0
  0
VERTEX
  8
LAYER_1
 10
196.9405
 20
176.6074
  0
VERTEX
  8
LAYER_1
 10
196.9405
 20
176.7556
  0
SEQEND
  0
POLYLINE
  8
LAYER_1
 40
0.1693
 41
0.1693
 66
1
 10
0
 20
0
 30
0
  0
VERTEX
  8
LAYER_1
 10
196.8347
 20
176.9249
 42
0.08785915497
  0
VERTEX
  8
LAYER_1
 10
195.099
 20
178.1314
  0
SEQEND
  0
POLYLINE
  8
LAYER_1
 40
0.1693
 41
0.1693
 66
1
 10
0
 20
0
 30
0
  0
VERTEX
  8
LAYER_1
 10
196.9617
 20
176.7768
 42
0.2025186645
  0
VERTEX
  8
LAYER_1
 10
196.8558
 20
176.9461
  0
SEQEND
  0
POLYLINE
  8
LAYER_1
 40
0.1693
 41
0.1693
 66
1
 10
0
 20
0
 30
0
  0
VERTEX
  8
LAYER_1
 10
189.4475
 20
179.1263
  0
VERTEX
  8
LAYER_1
 10
189.4475
 20
179.1051
 42
0.4022770108
  0
VERTEX
  8
LAYER_1
 10
190.1672
 20
178.3643
  0
SEQEND
  0
POLYLINE
  8
LAYER_1
 40
0.1693
 41
0.1693
 66
1
 10
0
 20
0
 30
0
  0
VERTEX
  8
LAYER_1
 10
180.7057
 20
176.6074
  0
VERTEX
  8
LAYER_1
 10
180.7057
 20
179.1051
  0
SEQEND
  0
POLYLINE
  8
LAYER_1
 40
0.0847
 41
0.0847
 66
1
 10
0
 20
0
 30
0
  0
VERTEX
  8
LAYER_1
 10
169.445
 20
179.1051
  0
VERTEX
  8
LAYER_1
 10
180.7057
 20
179.1051
  0
SEQEND
  0
POLYLINE
  8
LAYER_1
 40
0.0847
 41
0.0847
 66
1
 10
0
 20
0
 30
0
  0
VERTEX
  8
LAYER_1
 10
195.48
 20
176.6074
  0
VERTEX
  8
LAYER_1
 10
196.2844
 20
177.4329
  0
SEQEND
  0
POLYLINE
  8
LAYER_1
 40
0.0847
 41
0.0847
 66
1
 10
0
 20
0
 30
0
  0
VERTEX
  8
LAYER_1
 10
193.3422
 20
176.6074
  0
VERTEX
  8
LAYER_1
 10
194.9508
 20
178.1949
  0
SEQEND
  0
POLYLINE
  8
LAYER_1
 40
0.0847
 41
0.0847
 66
1
 10
0
 20
0
 30
0
  0
VERTEX
  8
LAYER_1
 10
191.2255
 20
176.6074
  0
VERTEX
  8
LAYER_1
 10
192.9823
 20
178.3642
  0
SEQEND
  0
POLYLINE
  8
LAYER_1
 40
0.0847
 41
0.0847
 66
1
 10
0
 20
0
 30
0
  0
VERTEX
  8
LAYER_1
 10
189.1088
 20
176.6074
  0
VERTEX
  8
LAYER_1
 10
190.8657
 20
178.3642
  0
SEQEND
  0
POLYLINE
  8
LAYER_1
 40
0.0847
 41
0.0847
 66
1
 10
0
 20
0
 30
0
  0
VERTEX
  8
LAYER_1
 10
186.9922
 20
176.6074
  0
VERTEX
  8
LAYER_1
 10
189.4475
 20
179.0627
  0
SEQEND
  0
POLYLINE
  8
LAYER_1
 40
0.0847
 41
0.0847
 66
1
 10
0
 20
0
 30
0
  0
VERTEX
  8
LAYER_1
 10
184.8543
 20
176.6074
  0
VERTEX
  8
LAYER_1
 10
187.3732
 20
179.1051
  0
SEQEND
  0
POLYLINE
  8
LAYER_1
 40
0.0847
 41
0.0847
 66
1
 10
0
 20
0
 30
0
  0
VERTEX
  8
LAYER_1
 10
182.7377
 20
176.6074
  0
VERTEX
  8
LAYER_1
 10
185.2354
 20
179.1051
  0
SEQEND
  0
POLYLINE
  8
LAYER_1
 40
0.0847
 41
0.0847
 66
1
 10
0
 20
0
 30
0
  0
VERTEX
  8
LAYER_1
 10
180.7057
 20
176.6921
  0
VERTEX
  8
LAYER_1
 10
183.1187
 20
179.1051
  0
SEQEND
  0
POLYLINE
  8
LAYER_1
 40
0.0847
 41
0.0847
 66
1
 10
0
 20
0
 30
0
  0
VERTEX
  8
LAYER_1
 10
180.7057
 20
178.8087
  0
VERTEX
  8
LAYER_1
 10
181.002
 20
179.1051
  0
SEQEND
  0
POLYLINE
  8
LAYER_1
 40
0.0847
 41
0.0847
 66
1
 10
0
 20
0
 30
0
  0
VERTEX
  8
LAYER_1
 10
155.1575
 20
176.6074
  0
VERTEX
  8
LAYER_1
 10
157.1895
 20
178.6394
  0
SEQEND
  0
POLYLINE
  8
LAYER_1
 40
0.0847
 41
0.0847
 66
1
 10
0
 20
0
 30
0
  0
VERTEX
  8
LAYER_1
 10
153.0408
 20
176.6074
  0
VERTEX
  8
LAYER_1
 10
155.5385
 20
179.1051
  0
SEQEND
  0
POLYLINE
  8
LAYER_1
 40
0.0847
 41
0.0847
 66
1
 10
0
 20
0
 30
0
  0
VERTEX
  8
LAYER_1
 10
150.9242
 20
176.6074
  0
VERTEX
  8
LAYER_1
 10
153.4218
 20
179.1051
  0
SEQEND
  0
POLYLINE
  8
LAYER_1
 40
0.0847
 41
0.0847
 66
1
 10
0
 20
0
 30
0
  0
VERTEX
  8
LAYER_1
 10
148.8075
 20
176.6074
  0
VERTEX
  8
LAYER_1
 10
151.3052
 20
179.1051
  0
SEQEND
  0
POLYLINE
  8
LAYER_1
 40
0.0847
 41
0.0847
 66
1
 10
0
 20
0
 30
0
  0
VERTEX
  8
LAYER_1
 10
146.6697
 20
176.6074
  0
VERTEX
  8
LAYER_1
 10
148.4265
 20
178.3642
  0
SEQEND
  0
POLYLINE
  8
LAYER_1
 40
0.0847
 41
0.0847
 66
1
 10
0
 20
0
 30
0
  0
VERTEX
  8
LAYER_1
 10
144.553
 20
176.6074
  0
VERTEX
  8
LAYER_1
 10
146.3099
 20
178.3642
  0
SEQEND
  0
POLYLINE
  8
LAYER_1
 40
0.0847
 41
0.0847
 66
1
 10
0
 20
0
 30
0
  0
VERTEX
  8
LAYER_1
 10
142.4363
 20
176.6074
  0
VERTEX
  8
LAYER_1
 10
144.0662
 20
178.2372
  0
SEQEND
  0
POLYLINE
  8
LAYER_1
 40
0.1693
 41
0.1693
 66
1
 10
0
 20
0
 30
0
  0
VERTEX
  8
LAYER_1
 10
157.1895
 20
176.6074
  0
VERTEX
  8
LAYER_1
 10
157.1895
 20
179.1051
  0
SEQEND
  0
POLYLINE
  8
LAYER_1
 40
0.1693
 41
0.1693
 66
1
 10
0
 20
0
 30
0
  0
VERTEX
  8
LAYER_1
 10
149.4425
 20
179.1051
  0
VERTEX
  8
LAYER_1
 10
158.2055
 20
179.1051
  0
SEQEND
  0
POLYLINE
  8
LAYER_1
 40
0.1693
 41
0.1693
 66
1
 10
0
 20
0
 30
0
  0
VERTEX
  8
LAYER_1
 10
158.2055
 20
176.6074
  0
VERTEX
  8
LAYER_1
 10
158.2055
 20
177.2212
  0
SEQEND
  0
POLYLINE
  8
LAYER_1
 40
0.1693
 41
0.1693
 66
1
 10
0
 20
0
 30
0
  0
VERTEX
  8
LAYER_1
 10
158.2055
 20
178.4701
  0
VERTEX
  8
LAYER_1
 10
158.2055
 20
179.1051
  0
SEQEND
  0
POLYLINE
  8
LAYER_1
 40
0.0847
 41
0.0847
 66
1
 10
0
 20
0
 30
0
  0
VERTEX
  8
LAYER_1
 10
149.4425
 20
198.7266
  0
VERTEX
  8
LAYER_1
 10
189.4475
 20
198.7266
  0
SEQEND
  0
POLYLINE
  8
LAYER_1
 40
0.0847
 41
0.0847
 66
1
 10
0
 20
0
 30
0
  0
VERTEX
  8
LAYER_1
 10
158.6923
 20
190.6832
  0
VERTEX
  8
LAYER_1
 10
180.1977
 20
190.6832
  0
SEQEND
  0
POLYLINE
  8
LAYER_1
 40
0.0847
 41
0.0847
 66
1
 10
0
 20
0
 30
0
  0
VERTEX
  8
LAYER_1
 10
149.4425
 20
180.0999
  0
VERTEX
  8
LAYER_1
 10
149.4425
 20
198.7266
  0
SEQEND
  0
POLYLINE
  8
LAYER_1
 40
0.0847
 41
0.0847
 66
1
 10
0
 20
0
 30
0
  0
VERTEX
  8
LAYER_1
 10
189.4475
 20
180.0999
  0
VERTEX
  8
LAYER_1
 10
189.4475
 20
198.7266
  0
SEQEND
  0
POLYLINE
  8
LAYER_1
 40
0.0847
 41
0.0847
 66
1
 10
0
 20
0
 30
0
  0
VERTEX
  8
LAYER_1
 10
158.6924
 20
180.0999
  0
VERTEX
  8
LAYER_1
 10
158.6924
 20
190.6832
  0
SEQEND
  0
POLYLINE
  8
LAYER_1
 40
0.0847
 41
0.0847
 66
1
 10
0
 20
0
 30
0
  0
VERTEX
  8
LAYER_1
 10
180.1977
 20
180.0999
  0
VERTEX
  8
LAYER_1
 10
180.1977
 20
190.6832
  0
SEQEND
  0
POLYLINE
  8
LAYER_1
 40
0.1693
 41
0.1693
 66
1
 10
0
 20
0
 30
0
  0
VERTEX
  8
LAYER_1
 10
149.4425
 20
198.7266
  0
VERTEX
  8
LAYER_1
 10
150.903
 20
199.1076
  0
SEQEND
  0
POLYLINE
  8
LAYER_1
 40
0.1693
 41
0.1693
 66
1
 10
0
 20
0
 30
0
  0
VERTEX
  8
LAYER_1
 10
149.4425
 20
198.7266
  0
VERTEX
  8
LAYER_1
 10
150.903
 20
198.3456
  0
SEQEND
  0
POLYLINE
  8
LAYER_1
 40
0.1693
 41
0.1693
 66
1
 10
0
 20
0
 30
0
  0
VERTEX
  8
LAYER_1
 10
189.4475
 20
198.7266
  0
VERTEX
  8
LAYER_1
 10
188.0082
 20
198.3456
  0
SEQEND
  0
POLYLINE
  8
LAYER_1
 40
0.1693
 41
0.1693
 66
1
 10
0
 20
0
 30
0
  0
VERTEX
  8
LAYER_1
 10
189.4475
 20
198.7266
  0
VERTEX
  8
LAYER_1
 10
188.0082
 20
199.1076
  0
SEQEND
  0
POLYLINE
  8
LAYER_1
 40
0.1693
 41
0.1693
 66
1
 10
0
 20
0
 30
0
  0
VERTEX
  8
LAYER_1
 10
158.6924
 20
190.6832
  0
VERTEX
  8
LAYER_1
 10
160.1529
 20
191.0642
  0
SEQEND
  0
POLYLINE
  8
LAYER_1
 40
0.1693
 41
0.1693
 66
1
 10
0
 20
0
 30
0
  0
VERTEX
  8
LAYER_1
 10
158.6924
 20
190.6832
  0
VERTEX
  8
LAYER_1
 10
160.1529
 20
190.3022
  0
SEQEND
  0
POLYLINE
  8
LAYER_1
 40
0.1693
 41
0.1693
 66
1
 10
0
 20
0
 30
0
  0
VERTEX
  8
LAYER_1
 10
180.1977
 20
190.6832
  0
VERTEX
  8
LAYER_1
 10
178.7584
 20
190.3022
  0
SEQEND
  0
POLYLINE
  8
LAYER_1
 40
0.1693
 41
0.1693
 66
1
 10
0
 20
0
 30
0
  0
VERTEX
  8
LAYER_1
 10
180.1977
 20
190.6832
  0
VERTEX
  8
LAYER_1
 10
178.7584
 20
191.0642
  0
SEQEND
  0
POLYLINE
  8
LAYER_1
 40
0.0847
 41
0.0847
 66
1
 10
0
 20
0
 30
0
  0
VERTEX
  8
LAYER_1
 10
38.4445
 20
165.8547
  0
VERTEX
  8
LAYER_1
 10
93.4355
 20
165.8547
  0
SEQEND
  0
POLYLINE
  8
LAYER_1
 40
0.0847
 41
0.0847
 66
1
 10
0
 20
0
 30
0
  0
VERTEX
  8
LAYER_1
 10
65.94
 20
172.0566
  0
VERTEX
  8
LAYER_1
 10
65.94
 20
174.4272
  0
SEQEND
  0
POLYLINE
  8
LAYER_1
 40
0.0847
 41
0.0847
 66
1
 10
0
 20
0
 30
0
  0
VERTEX
  8
LAYER_1
 10
65.94
 20
175.3797
  0
VERTEX
  8
LAYER_1
 10
65.94
 20
176.3111
  0
SEQEND
  0
POLYLINE
  8
LAYER_1
 40
0.0847
 41
0.0847
 66
1
 10
0
 20
0
 30
0
  0
VERTEX
  8
LAYER_1
 10
65.94
 20
177.2636
  0
VERTEX
  8
LAYER_1
 10
65.94
 20
182.0261
  0
SEQEND
  0
POLYLINE
  8
LAYER_1
 40
0.0847
 41
0.0847
 66
1
 10
0
 20
0
 30
0
  0
VERTEX
  8
LAYER_1
 10
65.94
 20
182.9786
  0
VERTEX
  8
LAYER_1
 10
65.94
 20
183.9099
  0
SEQEND
  0
POLYLINE
  8
LAYER_1
 40
0.0847
 41
0.0847
 66
1
 10
0
 20
0
 30
0
  0
VERTEX
  8
LAYER_1
 10
65.94
 20
184.8624
  0
VERTEX
  8
LAYER_1
 10
65.94
 20
187.2543
  0
SEQEND
  0
POLYLINE
  8
LAYER_1
 40
0.0847
 41
0.0847
 66
1
 10
0
 20
0
 30
0
  0
VERTEX
  8
LAYER_1
 10
38.4445
 20
165.8548
  0
VERTEX
  8
LAYER_1
 10
38.4445
 20
175.5702
  0
SEQEND
  0
POLYLINE
  8
LAYER_1
 40
0.0847
 41
0.0847
 66
1
 10
0
 20
0
 30
0
  0
VERTEX
  8
LAYER_1
 10
93.4355
 20
165.8548
  0
VERTEX
  8
LAYER_1
 10
93.4355
 20
175.5702
  0
SEQEND
  0
POLYLINE
  8
LAYER_1
 40
0.1693
 41
0.1693
 66
1
 10
0
 20
0
 30
0
  0
VERTEX
  8
LAYER_1
 10
38.4445
 20
165.8547
  0
VERTEX
  8
LAYER_1
 10
39.8838
 20
166.2569
  0
SEQEND
  0
POLYLINE
  8
LAYER_1
 40
0.1693
 41
0.1693
 66
1
 10
0
 20
0
 30
0
  0
VERTEX
  8
LAYER_1
 10
38.4445
 20
165.8547
  0
VERTEX
  8
LAYER_1
 10
39.8838
 20
165.4737
  0
SEQEND
  0
POLYLINE
  8
LAYER_1
 40
0.1693
 41
0.1693
 66
1
 10
0
 20
0
 30
0
  0
VERTEX
  8
LAYER_1
 10
93.4355
 20
165.8547
  0
VERTEX
  8
LAYER_1
 10
91.9962
 20
165.4737
  0
SEQEND
  0
POLYLINE
  8
LAYER_1
 40
0.1693
 41
0.1693
 66
1
 10
0
 20
0
 30
0
  0
VERTEX
  8
LAYER_1
 10
93.4355
 20
165.8547
  0
VERTEX
  8
LAYER_1
 10
91.9962
 20
166.2569
  0
SEQEND
  0
POLYLINE
  8
LAYER_1
 40
0.0847
 41
0.0847
 66
1
 10
0
 20
0
 30
0
  0
VERTEX
  8
LAYER_1
 10
141.9495
 20
165.8547
  0
VERTEX
  8
LAYER_1
 10
196.9405
 20
165.8547
  0
SEQEND
  0
POLYLINE
  8
LAYER_1
 40
0.0847
 41
0.0847
 66
1
 10
0
 20
0
 30
0
  0
VERTEX
  8
LAYER_1
 10
169.445
 20
172.0566
  0
VERTEX
  8
LAYER_1
 10
169.445
 20
174.4272
  0
SEQEND
  0
POLYLINE
  8
LAYER_1
 40
0.0847
 41
0.0847
 66
1
 10
0
 20
0
 30
0
  0
VERTEX
  8
LAYER_1
 10
169.445
 20
175.3797
  0
VERTEX
  8
LAYER_1
 10
169.445
 20
176.3111
  0
SEQEND
  0
POLYLINE
  8
LAYER_1
 40
0.0847
 41
0.0847
 66
1
 10
0
 20
0
 30
0
  0
VERTEX
  8
LAYER_1
 10
169.445
 20
177.2636
  0
VERTEX
  8
LAYER_1
 10
169.445
 20
182.0261
  0
SEQEND
  0
POLYLINE
  8
LAYER_1
 40
0.0847
 41
0.0847
 66
1
 10
0
 20
0
 30
0
  0
VERTEX
  8
LAYER_1
 10
169.445
 20
182.9786
  0
VERTEX
  8
LAYER_1
 10
169.445
 20
183.9099
  0
SEQEND
  0
POLYLINE
  8
LAYER_1
 40
0.0847
 41
0.0847
 66
1
 10
0
 20
0
 30
0
  0
VERTEX
  8
LAYER_1
 10
169.445
 20
184.8624
  0
VERTEX
  8
LAYER_1
 10
169.445
 20
187.2543
  0
SEQEND
  0
POLYLINE
  8
LAYER_1
 40
0.0847
 41
0.0847
 66
1
 10
0
 20
0
 30
0
  0
VERTEX
  8
LAYER_1
 10
141.9495
 20
165.8548
  0
VERTEX
  8
LAYER_1
 10
141.9495
 20
175.5702
  0
SEQEND
  0
POLYLINE
  8
LAYER_1
 40
0.0847
 41
0.0847
 66
1
 10
0
 20
0
 30
0
  0
VERTEX
  8
LAYER_1
 10
196.9405
 20
165.8548
  0
VERTEX
  8
LAYER_1
 10
196.9405
 20
175.5702
  0
SEQEND
  0
POLYLINE
  8
LAYER_1
 40
0.1693
 41
0.1693
 66
1
 10
0
 20
0
 30
0
  0
VERTEX
  8
LAYER_1
 10
141.9495
 20
165.8547
  0
VERTEX
  8
LAYER_1
 10
143.3888
 20
166.2569
  0
SEQEND
  0
POLYLINE
  8
LAYER_1
 40
0.1693
 41
0.1693
 66
1
 10
0
 20
0
 30
0
  0
VERTEX
  8
LAYER_1
 10
141.9495
 20
165.8547
  0
VERTEX
  8
LAYER_1
 10
143.3888
 20
165.4737
  0
SEQEND
  0
POLYLINE
  8
LAYER_1
 40
0.1693
 41
0.1693
 66
1
 10
0
 20
0
 30
0
  0
VERTEX
  8
LAYER_1
 10
196.9405
 20
165.8547
  0
VERTEX
  8
LAYER_1
 10
195.5012
 20
165.4737
  0
SEQEND
  0
POLYLINE
  8
LAYER_1
 40
0.1693
 41
0.1693
 66
1
 10
0
 20
0
 30
0
  0
VERTEX
  8
LAYER_1
 10
196.9405
 20
165.8547
  0
VERTEX
  8
LAYER_1
 10
195.5012
 20
166.2569
  0
SEQEND
  0
POLYLINE
  8
LAYER_1
 40
0.0847
 41
0.0847
 66
1
 10
0
 20
0
 30
0
  0
VERTEX
  8
LAYER_1
 10
204.4547
 20
174.1097
  0
VERTEX
  8
LAYER_1
 10
204.4547
 20
181.6027
  0
SEQEND
  0
POLYLINE
  8
LAYER_1
 40
0.1693
 41
0.1693
 66
1
 10
0
 20
0
 30
0
  0
VERTEX
  8
LAYER_1
 10
204.4547
 20
176.6074
  0
VERTEX
  8
LAYER_1
 10
204.8357
 20
175.1469
  0
SEQEND
  0
POLYLINE
  8
LAYER_1
 40
0.1693
 41
0.1693
 66
1
 10
0
 20
0
 30
0
  0
VERTEX
  8
LAYER_1
 10
204.4547
 20
176.6074
  0
VERTEX
  8
LAYER_1
 10
204.0525
 20
175.1469
  0
SEQEND
  0
POLYLINE
  8
LAYER_1
 40
0.1693
 41
0.1693
 66
1
 10
0
 20
0
 30
0
  0
VERTEX
  8
LAYER_1
 10
204.4547
 20
179.1051
  0
VERTEX
  8
LAYER_1
 10
204.0525
 20
180.5444
  0
SEQEND
  0
POLYLINE
  8
LAYER_1
 40
0.1693
 41
0.1693
 66
1
 10
0
 20
0
 30
0
  0
VERTEX
  8
LAYER_1
 10
204.4547
 20
179.1051
  0
VERTEX
  8
LAYER_1
 10
204.8357
 20
180.5444
  0
SEQEND
  0
POLYLINE
  8
LAYER_1
 40
0.0847
 41
0.0847
 66
1
 10
0
 20
0
 30
0
  0
VERTEX
  8
LAYER_1
 10
197.3004
 20
176.6074
  0
VERTEX
  8
LAYER_1
 10
204.4547
 20
176.6074
  0
SEQEND
  0
POLYLINE
  8
LAYER_1
 40
0.0847
 41
0.0847
 66
1
 10
0
 20
0
 30
0
  0
VERTEX
  8
LAYER_1
 10
197.3004
 20
179.1051
  0
VERTEX
  8
LAYER_1
 10
204.4547
 20
179.1051
  0
SEQEND
  0
POLYLINE
  8
LAYER_1
 40
0.0847
 41
0.0847
 66
1
 10
0
 20
0
 30
0
  0
VERTEX
  8
LAYER_1
 10
100.9497
 20
174.1098
  0
VERTEX
  8
LAYER_1
 10
100.9497
 20
184.1004
  0
SEQEND
  0
POLYLINE
  8
LAYER_1
 40
0.1693
 41
0.1693
 66
1
 10
0
 20
0
 30
0
  0
VERTEX
  8
LAYER_1
 10
100.9497
 20
176.6074
  0
VERTEX
  8
LAYER_1
 10
101.3307
 20
175.1469
  0
SEQEND
  0
POLYLINE
  8
LAYER_1
 40
0.1693
 41
0.1693
 66
1
 10
0
 20
0
 30
0
  0
VERTEX
  8
LAYER_1
 10
100.9497
 20
176.6074
  0
VERTEX
  8
LAYER_1
 10
100.5475
 20
175.1469
  0
SEQEND
  0
POLYLINE
  8
LAYER_1
 40
0.1693
 41
0.1693
 66
1
 10
0
 20
0
 30
0
  0
VERTEX
  8
LAYER_1
 10
100.9497
 20
181.6027
  0
VERTEX
  8
LAYER_1
 10
100.5475
 20
183.0632
  0
SEQEND
  0
POLYLINE
  8
LAYER_1
 40
0.1693
 41
0.1693
 66
1
 10
0
 20
0
 30
0
  0
VERTEX
  8
LAYER_1
 10
100.9497
 20
181.6027
  0
VERTEX
  8
LAYER_1
 10
101.3307
 20
183.0632
  0
SEQEND
  0
POLYLINE
  8
LAYER_1
 40
0.0847
 41
0.0847
 66
1
 10
0
 20
0
 30
0
  0
VERTEX
  8
LAYER_1
 10
94.1975
 20
176.6074
  0
VERTEX
  8
LAYER_1
 10
100.9497
 20
176.6074
  0
SEQEND
  0
POLYLINE
  8
LAYER_1
 40
0.0847
 41
0.0847
 66
1
 10
0
 20
0
 30
0
  0
VERTEX
  8
LAYER_1
 10
94.1975
 20
181.6027
  0
VERTEX
  8
LAYER_1
 10
100.9497
 20
181.6027
  0
SEQEND
  0
POLYLINE
  8
LAYER_1
 40
0.0847
 41
0.0847
 66
1
 10
0
 20
0
 30
0
  0
VERTEX
  8
LAYER_1
 10
79.6772
 20
241.3562
 42
0.4145493606
  0
VERTEX
  8
LAYER_1
 10
65.9189
 20
255.0934
 42
0.4148710683
  0
VERTEX
  8
LAYER_1
 10
52.1817
 20
241.3562
 42
0.4145495377
  0
VERTEX
  8
LAYER_1
 10
65.9189
 20
227.5979
 42
0.4142287463
  0
VERTEX
  8
LAYER_1
 10
79.6772
 20
241.3562
  0
SEQEND
  0
POLYLINE
  8
LAYER_1
 40
0.0847
 41
0.0847
 66
1
 10
0
 20
0
 30
0
  0
VERTEX
  8
LAYER_1
 10
81.1588
 20
241.3562
 42
0.4138286035
  0
VERTEX
  8
LAYER_1
 10
65.9189
 20
256.5751
 42
0.4141186006
  0
VERTEX
  8
LAYER_1
 10
50.7
 20
241.3562
 42
0.4138291618
  0
VERTEX
  8
LAYER_1
 10
65.9189
 20
226.1162
 42
0.4135399104
  0
VERTEX
  8
LAYER_1
 10
81.1588
 20
241.3562
  0
SEQEND
  0
POLYLINE
  8
LAYER_1
 40
0.0847
 41
0.0847
 66
1
 10
0
 20
0
 30
0
  0
VERTEX
  8
LAYER_1
 10
183.1822
 20
241.3562
 42
0.4145514469
  0
VERTEX
  8
LAYER_1
 10
169.4238
 20
255.0934
 42
0.4148689788
  0
VERTEX
  8
LAYER_1
 10
155.6867
 20
241.3562
 42
0.4145474515
  0
VERTEX
  8
LAYER_1
 10
169.4238
 20
227.5979
 42
0.4142308294
  0
VERTEX
  8
LAYER_1
 10
183.1822
 20
241.3562
  0
SEQEND
  0
POLYLINE
  8
LAYER_1
 40
0.0847
 41
0.0847
 66
1
 10
0
 20
0
 30
0
  0
VERTEX
  8
LAYER_1
 10
184.6639
 20
241.3562
 42
0.4138305453
  0
VERTEX
  8
LAYER_1
 10
169.4238
 20
256.5751
 42
0.4141165259
  0
VERTEX
  8
LAYER_1
 10
154.205
 20
241.3562
 42
0.4138270896
  0
VERTEX
  8
LAYER_1
 10
169.4238
 20
226.1162
 42
0.4135418494
  0
VERTEX
  8
LAYER_1
 10
184.6639
 20
241.3562
  0
SEQEND
  0
POLYLINE
  8
LAYER_1
 40
0.0847
 41
0.0847
 66
1
 10
0
 20
0
 30
0
  0
VERTEX
  8
LAYER_1
 10
65.94
 20
203.2774
  0
VERTEX
  8
LAYER_1
 10
65.94
 20
205.5846
  0
SEQEND
  0
POLYLINE
  8
LAYER_1
 40
0.0847
 41
0.0847
 66
1
 10
0
 20
0
 30
0
  0
VERTEX
  8
LAYER_1
 10
65.94
 20
206.4947
  0
VERTEX
  8
LAYER_1
 10
65.94
 20
207.4261
  0
SEQEND
  0
POLYLINE
  8
LAYER_1
 40
0.0847
 41
0.0847
 66
1
 10
0
 20
0
 30
0
  0
VERTEX
  8
LAYER_1
 10
65.94
 20
208.3362
  0
VERTEX
  8
LAYER_1
 10
65.94
 20
212.9717
  0
SEQEND
  0
POLYLINE
  8
LAYER_1
 40
0.0847
 41
0.0847
 66
1
 10
0
 20
0
 30
0
  0
VERTEX
  8
LAYER_1
 10
65.94
 20
213.8819
  0
VERTEX
  8
LAYER_1
 10
65.94
 20
214.8132
  0
SEQEND
  0
POLYLINE
  8
LAYER_1
 40
0.0847
 41
0.0847
 66
1
 10
0
 20
0
 30
0
  0
VERTEX
  8
LAYER_1
 10
65.94
 20
215.7234
  0
VERTEX
  8
LAYER_1
 10
65.94
 20
220.3589
  0
SEQEND
  0
POLYLINE
  8
LAYER_1
 40
0.0847
 41
0.0847
 66
1
 10
0
 20
0
 30
0
  0
VERTEX
  8
LAYER_1
 10
65.94
 20
221.269
  0
VERTEX
  8
LAYER_1
 10
65.94
 20
222.2004
  0
SEQEND
  0
POLYLINE
  8
LAYER_1
 40
0.0847
 41
0.0847
 66
1
 10
0
 20
0
 30
0
  0
VERTEX
  8
LAYER_1
 10
65.94
 20
223.1105
  0
VERTEX
  8
LAYER_1
 10
65.94
 20
227.746
  0
SEQEND
  0
POLYLINE
  8
LAYER_1
 40
0.0847
 41
0.0847
 66
1
 10
0
 20
0
 30
0
  0
VERTEX
  8
LAYER_1
 10
65.94
 20
228.6562
  0
VERTEX
  8
LAYER_1
 10
65.94
 20
229.5875
  0
SEQEND
  0
POLYLINE
  8
LAYER_1
 40
0.0847
 41
0.0847
 66
1
 10
0
 20
0
 30
0
  0
VERTEX
  8
LAYER_1
 10
65.94
 20
230.4977
  0
VERTEX
  8
LAYER_1
 10
65.94
 20
235.1332
  0
SEQEND
  0
POLYLINE
  8
LAYER_1
 40
0.0847
 41
0.0847
 66
1
 10
0
 20
0
 30
0
  0
VERTEX
  8
LAYER_1
 10
65.94
 20
236.0433
  0
VERTEX
  8
LAYER_1
 10
65.94
 20
236.9747
  0
SEQEND
  0
POLYLINE
  8
LAYER_1
 40
0.0847
 41
0.0847
 66
1
 10
0
 20
0
 30
0
  0
VERTEX
  8
LAYER_1
 10
65.94
 20
237.8848
  0
VERTEX
  8
LAYER_1
 10
65.94
 20
242.5203
  0
SEQEND
  0
POLYLINE
  8
LAYER_1
 40
0.0847
 41
0.0847
 66
1
 10
0
 20
0
 30
0
  0
VERTEX
  8
LAYER_1
 10
65.94
 20
243.4305
  0
VERTEX
  8
LAYER_1
 10
65.94
 20
244.3618
  0
SEQEND
  0
POLYLINE
  8
LAYER_1
 40
0.0847
 41
0.0847
 66
1
 10
0
 20
0
 30
0
  0
VERTEX
  8
LAYER_1
 10
65.94
 20
245.272
  0
VERTEX
  8
LAYER_1
 10
65.94
 20
249.9075
  0
SEQEND
  0
POLYLINE
  8
LAYER_1
 40
0.0847
 41
0.0847
 66
1
 10
0
 20
0
 30
0
  0
VERTEX
  8
LAYER_1
 10
65.94
 20
250.8177
  0
VERTEX
  8
LAYER_1
 10
65.94
 20
251.749
  0
SEQEND
  0
POLYLINE
  8
LAYER_1
 40
0.0847
 41
0.0847
 66
1
 10
0
 20
0
 30
0
  0
VERTEX
  8
LAYER_1
 10
65.94
 20
252.6592
  0
VERTEX
  8
LAYER_1
 10
65.94
 20
257.2947
  0
SEQEND
  0
POLYLINE
  8
LAYER_1
 40
0.0847
 41
0.0847
 66
1
 10
0
 20
0
 30
0
  0
VERTEX
  8
LAYER_1
 10
65.94
 20
258.2048
  0
VERTEX
  8
LAYER_1
 10
65.94
 20
259.1362
  0
SEQEND
  0
POLYLINE
  8
LAYER_1
 40
0.0847
 41
0.0847
 66
1
 10
0
 20
0
 30
0
  0
VERTEX
  8
LAYER_1
 10
65.94
 20
260.0463
  0
VERTEX
  8
LAYER_1
 10
65.94
 20
264.6818
  0
SEQEND
  0
POLYLINE
  8
LAYER_1
 40
0.0847
 41
0.0847
 66
1
 10
0
 20
0
 30
0
  0
VERTEX
  8
LAYER_1
 10
65.94
 20
265.592
  0
VERTEX
  8
LAYER_1
 10
65.94
 20
266.5233
  0
SEQEND
  0
POLYLINE
  8
LAYER_1
 40
0.0847
 41
0.0847
 66
1
 10
0
 20
0
 30
0
  0
VERTEX
  8
LAYER_1
 10
65.94
 20
267.4335
  0
VERTEX
  8
LAYER_1
 10
65.94
 20
272.069
  0
SEQEND
  0
POLYLINE
  8
LAYER_1
 40
0.0847
 41
0.0847
 66
1
 10
0
 20
0
 30
0
  0
VERTEX
  8
LAYER_1
 10
65.94
 20
272.9792
  0
VERTEX
  8
LAYER_1
 10
65.94
 20
273.9105
  0
SEQEND
  0
POLYLINE
  8
LAYER_1
 40
0.0847
 41
0.0847
 66
1
 10
0
 20
0
 30
0
  0
VERTEX
  8
LAYER_1
 10
65.94
 20
274.8207
  0
VERTEX
  8
LAYER_1
 10
65.94
 20
277.149
  0
SEQEND
  0
POLYLINE
  8
LAYER_1
 40
0.0847
 41
0.0847
 66
1
 10
0
 20
0
 30
0
  0
VERTEX
  8
LAYER_1
 10
169.445
 20
203.2773
  0
VERTEX
  8
LAYER_1
 10
169.445
 20
205.5845
  0
SEQEND
  0
POLYLINE
  8
LAYER_1
 40
0.0847
 41
0.0847
 66
1
 10
0
 20
0
 30
0
  0
VERTEX
  8
LAYER_1
 10
169.445
 20
206.4947
  0
VERTEX
  8
LAYER_1
 10
169.445
 20
207.426
  0
SEQEND
  0
POLYLINE
  8
LAYER_1
 40
0.0847
 41
0.0847
 66
1
 10
0
 20
0
 30
0
  0
VERTEX
  8
LAYER_1
 10
169.445
 20
208.3361
  0
VERTEX
  8
LAYER_1
 10
169.445
 20
212.9716
  0
SEQEND
  0
POLYLINE
  8
LAYER_1
 40
0.0847
 41
0.0847
 66
1
 10
0
 20
0
 30
0
  0
VERTEX
  8
LAYER_1
 10
169.445
 20
213.8818
  0
VERTEX
  8
LAYER_1
 10
169.445
 20
214.8131
  0
SEQEND
  0
POLYLINE
  8
LAYER_1
 40
0.0847
 41
0.0847
 66
1
 10
0
 20
0
 30
0
  0
VERTEX
  8
LAYER_1
 10
169.445
 20
215.7233
  0
VERTEX
  8
LAYER_1
 10
169.445
 20
220.3588
  0
SEQEND
  0
POLYLINE
  8
LAYER_1
 40
0.0847
 41
0.0847
 66
1
 10
0
 20
0
 30
0
  0
VERTEX
  8
LAYER_1
 10
169.445
 20
221.2689
  0
VERTEX
  8
LAYER_1
 10
169.445
 20
222.2003
  0
SEQEND
  0
POLYLINE
  8
LAYER_1
 40
0.0847
 41
0.0847
 66
1
 10
0
 20
0
 30
0
  0
VERTEX
  8
LAYER_1
 10
169.445
 20
223.1104
  0
VERTEX
  8
LAYER_1
 10
169.445
 20
227.7459
  0
SEQEND
  0
POLYLINE
  8
LAYER_1
 40
0.0847
 41
0.0847
 66
1
 10
0
 20
0
 30
0
  0
VERTEX
  8
LAYER_1
 10
169.445
 20
228.6561
  0
VERTEX
  8
LAYER_1
 10
169.445
 20
229.5874
  0
SEQEND
  0
POLYLINE
  8
LAYER_1
 40
0.0847
 41
0.0847
 66
1
 10
0
 20
0
 30
0
  0
VERTEX
  8
LAYER_1
 10
169.445
 20
230.4976
  0
VERTEX
  8
LAYER_1
 10
169.445
 20
235.1331
  0
SEQEND
  0
POLYLINE
  8
LAYER_1
 40
0.0847
 41
0.0847
 66
1
 10
0
 20
0
 30
0
  0
VERTEX
  8
LAYER_1
 10
169.445
 20
236.0432
  0
VERTEX
  8
LAYER_1
 10
169.445
 20
236.9746
  0
SEQEND
  0
POLYLINE
  8
LAYER_1
 40
0.0847
 41
0.0847
 66
1
 10
0
 20
0
 30
0
  0
VERTEX
  8
LAYER_1
 10
169.445
 20
237.8847
  0
VERTEX
  8
LAYER_1
 10
169.445
 20
242.5202
  0
SEQEND
  0
POLYLINE
  8
LAYER_1
 40
0.0847
 41
0.0847
 66
1
 10
0
 20
0
 30
0
  0
VERTEX
  8
LAYER_1
 10
169.445
 20
243.4304
  0
VERTEX
  8
LAYER_1
 10
169.445
 20
244.3617
  0
SEQEND
  0
POLYLINE
  8
LAYER_1
 40
0.0847
 41
0.0847
 66
1
 10
0
 20
0
 30
0
  0
VERTEX
  8
LAYER_1
 10
169.445
 20
245.2719
  0
VERTEX
  8
LAYER_1
 10
169.445
 20
249.9074
  0
SEQEND
  0
POLYLINE
  8
LAYER_1
 40
0.0847
 41
0.0847
 66
1
 10
0
 20
0
 30
0
  0
VERTEX
  8
LAYER_1
 10
169.445
 20
250.8176
  0
VERTEX
  8
LAYER_1
 10
169.445
 20
251.7489
  0
SEQEND
  0
POLYLINE
  8
LAYER_1
 40
0.0847
 41
0.0847
 66
1
 10
0
 20
0
 30
0
  0
VERTEX
  8
LAYER_1
 10
169.445
 20
252.6591
  0
VERTEX
  8
LAYER_1
 10
169.445
 20
257.2946
  0
SEQEND
  0
POLYLINE
  8
LAYER_1
 40
0.0847
 41
0.0847
 66
1
 10
0
 20
0
 30
0
  0
VERTEX
  8
LAYER_1
 10
169.445
 20
258.2047
  0
VERTEX
  8
LAYER_1
 10
169.445
 20
259.1361
  0
SEQEND
  0
POLYLINE
  8
LAYER_1
 40
0.0847
 41
0.0847
 66
1
 10
0
 20
0
 30
0
  0
VERTEX
  8
LAYER_1
 10
169.445
 20
260.0462
  0
VERTEX
  8
LAYER_1
 10
169.445
 20
264.6817
  0
SEQEND
  0
POLYLINE
  8
LAYER_1
 40
0.0847
 41
0.0847
 66
1
 10
0
 20
0
 30
0
  0
VERTEX
  8
LAYER_1
 10
169.445
 20
265.5919
  0
VERTEX
  8
LAYER_1
 10
169.445
 20
266.5232
  0
SEQEND
  0
POLYLINE
  8
LAYER_1
 40
0.0847
 41
0.0847
 66
1
 10
0
 20
0
 30
0
  0
VERTEX
  8
LAYER_1
 10
169.445
 20
267.4334
  0
VERTEX
  8
LAYER_1
 10
169.445
 20
272.0689
  0
SEQEND
  0
POLYLINE
  8
LAYER_1
 40
0.0847
 41
0.0847
 66
1
 10
0
 20
0
 30
0
  0
VERTEX
  8
LAYER_1
 10
169.445
 20
272.9791
  0
VERTEX
  8
LAYER_1
 10
169.445
 20
273.9104
  0
SEQEND
  0
POLYLINE
  8
LAYER_1
 40
0.0847
 41
0.0847
 66
1
 10
0
 20
0
 30
0
  0
VERTEX
  8
LAYER_1
 10
169.445
 20
274.8206
  0
VERTEX
  8
LAYER_1
 10
169.445
 20
277.1489
  0
SEQEND
  0
INSERT
  8
LAYER_1
  2
AIGNBL01010002
 10
0
 20
0
 30
0
  0
POLYLINE
  8
LAYER_1
 40
0.1693
 41
0.1693
 66
1
 10
0
 20
0
 30
0
  0
VERTEX
  8
LAYER_1
 10
44.6887
 20
157.1341
  0
VERTEX
  8
LAYER_1
 10
44.6887
 20
160.6266
  0
SEQEND
  0
POLYLINE
  8
LAYER_1
 40
0.1693
 41
0.1693
 66
1
 10
0
 20
0
 30
0
  0
VERTEX
  8
LAYER_1
 10
44.6887
 20
157.1341
  0
VERTEX
  8
LAYER_1
 10
97.2051
 20
157.1341
  0
VERTEX
  8
LAYER_1
 10
97.2051
 20
160.6266
  0
SEQEND
  0
POLYLINE
  8
LAYER_1
 40
0.1693
 41
0.1693
 66
1
 10
0
 20
0
 30
0
  0
VERTEX
  8
LAYER_1
 10
44.6887
 20
160.6266
  0
VERTEX
  8
LAYER_1
 10
97.2051
 20
160.6266
  0
SEQEND
  0
POLYLINE
  8
LAYER_1
 40
0.1693
 41
0.1693
 66
1
 10
0
 20
0
 30
0
  0
VERTEX
  8
LAYER_1
 10
148.1937
 20
160.6266
  0
VERTEX
  8
LAYER_1
 10
203.6599
 20
160.6266
  0
SEQEND
  0
POLYLINE
  8
LAYER_1
 40
0.1693
 41
0.1693
 66
1
 10
0
 20
0
 30
0
  0
VERTEX
  8
LAYER_1
 10
148.1937
 20
157.1341
  0
VERTEX
  8
LAYER_1
 10
148.1937
 20
160.6266
  0
SEQEND
  0
POLYLINE
  8
LAYER_1
 40
0.1693
 41
0.1693
 66
1
 10
0
 20
0
 30
0
  0
VERTEX
  8
LAYER_1
 10
148.1937
 20
157.1341
  0
VERTEX
  8
LAYER_1
 10
203.6599
 20
157.1341
  0
VERTEX
  8
LAYER_1
 10
203.6599
 20
160.6266
  0
SEQEND
  0
TEXT
  8
LAYER_1
 10
62.2961
 20
199.6793
 11
62.2961
 21
199.6793
 40
3.0419
 41
0.5
  1
%%c80
  0
TEXT
  8
LAYER_1
 10
62.2961
 20
191.636
 11
62.2961
 21
191.636
 40
3.0419
 41
0.5
  1
%%c43
  0
TEXT
  8
LAYER_1
 10
61.4493
 20
166.8286
 11
61.4493
 21
166.8286
 40
3.0419
 41
0.5
  1
%%c110
  0
TEXT
  8
LAYER_1
 10
165.8012
 20
199.679
 11
165.8012
 21
199.679
 40
3.0419
 41
0.5
  1
%%c80
  0
TEXT
  8
LAYER_1
 10
165.8005
 20
191.6358
 11
165.8005
 21
191.6358
 40
3.0419
 41
0.5
  1
%%c43
  0
TEXT
  8
LAYER_1
 10
164.9544
 20
166.8287
 11
164.9544
 21
166.8287
 40
3.0419
 41
0.5
  1
%%c110
  0
TEXT
  8
LAYER_1
 10
99.9913
 20
177.4541
 11
99.9913
 21
177.4541
 40
3.0419
 41
0.5
 50
89.99999999
  1
10
  0
TEXT
  8
LAYER_1
 10
204.0042
 20
177.0521
 11
204.0042
 21
177.0521
 40
3.0419
 41
0.5
 50
89.99999999
  1
5
  0
POLYLINE
  8
LAYER_1
 40
0.1693
 41
0.1693
 66
1
 10
0
 20
0
 30
0
  0
VERTEX
  8
LAYER_1
 10
312.1507
 20
336.6062
  0
VERTEX
  8
LAYER_1
 10
312.1507
 20
340.0987
  0
SEQEND
  0
POLYLINE
  8
LAYER_1
 40
0.1693
 41
0.1693
 66
1
 10
0
 20
0
 30
0
  0
VERTEX
  8
LAYER_1
 10
312.1507
 20
336.6062
  0
VERTEX
  8
LAYER_1
 10
350.6529
 20
336.6062
  0
VERTEX
  8
LAYER_1
 10
350.6529
 20
340.0987
  0
SEQEND
  0
POLYLINE
  8
LAYER_1
 40
0.1693
 41
0.1693
 66
1
 10
0
 20
0
 30
0
  0
VERTEX
  8
LAYER_1
 10
312.1507
 20
340.0987
  0
VERTEX
  8
LAYER_1
 10
350.6529
 20
340.0987
  0
SEQEND
  0
POLYLINE
  8
LAYER_1
 40
0.1693
 41
0.1693
 66
1
 10
0
 20
0
 30
0
  0
VERTEX
  8
LAYER_1
 10
203.2905
 20
271.4764
  0
VERTEX
  8
LAYER_1
 10
225.7695
 20
271.4764
  0
SEQEND
  0
POLYLINE
  8
LAYER_1
 40
0.1693
 41
0.1693
 66
1
 10
0
 20
0
 30
0
  0
VERTEX
  8
LAYER_1
 10
203.2905
 20
267.9839
  0
VERTEX
  8
LAYER_1
 10
203.2905
 20
271.4764
  0
SEQEND
  0
POLYLINE
  8
LAYER_1
 40
0.1693
 41
0.1693
 66
1
 10
0
 20
0
 30
0
  0
VERTEX
  8
LAYER_1
 10
203.2905
 20
267.9839
  0
VERTEX
  8
LAYER_1
 10
225.7695
 20
267.9839
  0
VERTEX
  8
LAYER_1
 10
225.7695
 20
271.4764
  0
SEQEND
  0
POLYLINE
  8
LAYER_1
 40
0.1693
 41
0.1693
 66
1
 10
0
 20
0
 30
0
  0
VERTEX
  8
LAYER_1
 10
229.4949
 20
290.4841
 42
0.4139020022
  0
VERTEX
  8
LAYER_1
 10
214.4877
 20
305.4701
 42
0.4141938972
  0
VERTEX
  8
LAYER_1
 10
199.5017
 20
290.4841
 42
0.4139023779
  0
VERTEX
  8
LAYER_1
 10
214.4877
 20
275.4769
 42
0.4136112437
  0
VERTEX
  8
LAYER_1
 10
229.4949
 20
290.4841
  0
SEQEND
  0
POLYLINE
  8
LAYER_1
 40
0.1693
 41
0.1693
 66
1
 10
0
 20
0
 30
0
  0
VERTEX
  8
LAYER_1
 10
224.4784
 20
290.4841
 42
0.4135736446
  0
VERTEX
  8
LAYER_1
 10
214.4877
 20
300.4536
 42
0.4140110299
  0
VERTEX
  8
LAYER_1
 10
204.5182
 20
290.4841
 42
0.4135730373
  0
VERTEX
  8
LAYER_1
 10
214.4877
 20
280.4934
 42
0.4131373707
  0
VERTEX
  8
LAYER_1
 10
224.4784
 20
290.4841
  0
SEQEND
  0
POLYLINE
  8
LAYER_1
 40
0.0847
 41
0.0847
 66
1
 10
0
 20
0
 30
0
  0
VERTEX
  8
LAYER_1
 10
224.9863
 20
290.4841
 42
0.4147305381
  0
VERTEX
  8
LAYER_1
 10
214.4877
 20
300.9616
 42
0.4151510485
  0
VERTEX
  8
LAYER_1
 10
204.0102
 20
290.4841
 42
0.4147337445
  0
VERTEX
  8
LAYER_1
 10
214.4877
 20
279.9854
 42
0.4143147982
  0
VERTEX
  8
LAYER_1
 10
224.9863
 20
290.4841
  0
SEQEND
  0
POLYLINE
  8
LAYER_1
 40
0.1693
 41
0.1693
 66
1
 10
0
 20
0
 30
0
  0
VERTEX
  8
LAYER_1
 10
203.2905
 20
329.7694
  0
VERTEX
  8
LAYER_1
 10
225.7695
 20
329.7694
  0
SEQEND
  0
POLYLINE
  8
LAYER_1
 40
0.1693
 41
0.1693
 66
1
 10
0
 20
0
 30
0
  0
VERTEX
  8
LAYER_1
 10
203.2905
 20
326.2769
  0
VERTEX
  8
LAYER_1
 10
203.2905
 20
329.7694
  0
SEQEND
  0
POLYLINE
  8
LAYER_1
 40
0.1693
 41
0.1693
 66
1
 10
0
 20
0
 30
0
  0
VERTEX
  8
LAYER_1
 10
203.2905
 20
326.2769
  0
VERTEX
  8
LAYER_1
 10
225.7695
 20
326.2769
  0
VERTEX
  8
LAYER_1
 10
225.7695
 20
329.7694
  0
SEQEND
  0
POLYLINE
  8
LAYER_1
 40
0.1693
 41
0.1693
 66
1
 10
0
 20
0
 30
0
  0
VERTEX
  8
LAYER_1
 10
229.9817
 20
348.7771
 42
0.4142162933
  0
VERTEX
  8
LAYER_1
 10
214.4877
 20
364.2499
 42
0.4145008441
  0
VERTEX
  8
LAYER_1
 10
199.0148
 20
348.7771
 42
0.4142184161
  0
VERTEX
  8
LAYER_1
 10
214.4877
 20
333.2831
 42
0.4139345818
  0
VERTEX
  8
LAYER_1
 10
229.9817
 20
348.7771
  0
SEQEND
  0
POLYLINE
  8
LAYER_1
 40
0.0847
 41
0.0847
 66
1
 10
0
 20
0
 30
0
  0
VERTEX
  8
LAYER_1
 10
228.4789
 20
348.7771
 42
0.4144576492
  0
VERTEX
  8
LAYER_1
 10
214.4877
 20
362.7471
 42
0.4147721105
  0
VERTEX
  8
LAYER_1
 10
200.5177
 20
348.7771
 42
0.4144591001
  0
VERTEX
  8
LAYER_1
 10
214.4877
 20
334.7859
 42
0.4141455164
  0
VERTEX
  8
LAYER_1
 10
228.4789
 20
348.7771
  0
SEQEND
  0
POLYLINE
  8
LAYER_1
 40
0.1693
 41
0.1693
 66
1
 10
0
 20
0
 30
0
  0
VERTEX
  8
LAYER_1
 10
222.4463
 20
341.4957
  0
VERTEX
  8
LAYER_1
 10
222.0018
 20
341.7497
  0
SEQEND
  0
POLYLINE
  8
LAYER_1
 40
0.1693
 41
0.1693
 66
1
 10
0
 20
0
 30
0
  0
VERTEX
  8
LAYER_1
 10
221.769
 20
340.8184
  0
VERTEX
  8
LAYER_1
 10
221.515
 20
341.2629
  0
SEQEND
  0
POLYLINE
  8
LAYER_1
 40
0.1693
 41
0.1693
 66
1
 10
0
 20
0
 30
0
  0
VERTEX
  8
LAYER_1
 10
222.0018
 20
341.7497
 42
0.09781876715
  0
VERTEX
  8
LAYER_1
 10
221.515
 20
341.2629
  0
SEQEND
  0
POLYLINE
  8
LAYER_1
 40
0.1693
 41
0.1693
 66
1
 10
0
 20
0
 30
0
  0
VERTEX
  8
LAYER_1
 10
207.2698
 20
356.6934
  0
VERTEX
  8
LAYER_1
 10
207.545
 20
356.2277
  0
SEQEND
  0
POLYLINE
  8
LAYER_1
 40
0.1693
 41
0.1693
 66
1
 10
0
 20
0
 30
0
  0
VERTEX
  8
LAYER_1
 10
206.5925
 20
355.9949
  0
VERTEX
  8
LAYER_1
 10
207.037
 20
355.7409
 42
0.062501382
  0
VERTEX
  8
LAYER_1
 10
207.545
 20
356.2489
  0
SEQEND
  0
POLYLINE
  8
LAYER_1
 40
0.1693
 41
0.1693
 66
1
 10
0
 20
0
 30
0
  0
VERTEX
  8
LAYER_1
 10
207.2698
 20
340.8184
  0
VERTEX
  8
LAYER_1
 10
207.545
 20
341.2629
  0
SEQEND
  0
POLYLINE
  8
LAYER_1
 40
0.1693
 41
0.1693
 66
1
 10
0
 20
0
 30
0
  0
VERTEX
  8
LAYER_1
 10
206.5925
 20
341.4957
  0
VERTEX
  8
LAYER_1
 10
207.037
 20
341.7497
  0
SEQEND
  0
POLYLINE
  8
LAYER_1
 40
0.1693
 41
0.1693
 66
1
 10
0
 20
0
 30
0
  0
VERTEX
  8
LAYER_1
 10
207.5238
 20
341.2841
 42
0.09781534963
  0
VERTEX
  8
LAYER_1
 10
207.037
 20
341.7709
  0
SEQEND
  0
POLYLINE
  8
LAYER_1
 40
0.1693
 41
0.1693
 66
1
 10
0
 20
0
 30
0
  0
VERTEX
  8
LAYER_1
 10
222.4463
 20
355.9949
  0
VERTEX
  8
LAYER_1
 10
222.0018
 20
355.7409
  0
SEQEND
  0
POLYLINE
  8
LAYER_1
 40
0.1693
 41
0.1693
 66
1
 10
0
 20
0
 30
0
  0
VERTEX
  8
LAYER_1
 10
221.769
 20
356.6934
  0
VERTEX
  8
LAYER_1
 10
221.515
 20
356.2277
  0
SEQEND
  0
POLYLINE
  8
LAYER_1
 40
0.1693
 41
0.1693
 66
1
 10
0
 20
0
 30
0
  0
VERTEX
  8
LAYER_1
 10
221.4938
 20
356.2489
 42
0.09782521577
  0
VERTEX
  8
LAYER_1
 10
221.9807
 20
355.7621
  0
SEQEND
  0
POLYLINE
  8
LAYER_1
 40
0.1693
 41
0.1693
 66
1
 10
0
 20
0
 30
0
  0
VERTEX
  8
LAYER_1
 10
207.2275
 20
340.8396
 42
0.0805061436
  0
VERTEX
  8
LAYER_1
 10
210.1403
 20
338.9299
 42
0.1047675589
  0
VERTEX
  8
LAYER_1
 10
214.5088
 20
338.0032
 42
0.08186730313
  0
VERTEX
  8
LAYER_1
 10
217.9249
 20
338.5689
 42
0.1045840364
  0
VERTEX
  8
LAYER_1
 10
221.7478
 20
340.8396
  0
SEQEND
  0
POLYLINE
  8
LAYER_1
 40
0.1693
 41
0.1693
 66
1
 10
0
 20
0
 30
0
  0
VERTEX
  8
LAYER_1
 10
222.4252
 20
341.5169
 42
0.08188282514
  0
VERTEX
  8
LAYER_1
 10
224.3348
 20
344.4173
 42
0.1044763869
  0
VERTEX
  8
LAYER_1
 10
225.2615
 20
348.7559
 42
0.1858254174
  0
VERTEX
  8
LAYER_1
 10
222.4252
 20
356.0372
  0
SEQEND
  0
POLYLINE
  8
LAYER_1
 40
0.1693
 41
0.1693
 66
1
 10
0
 20
0
 30
0
  0
VERTEX
  8
LAYER_1
 10
206.5713
 20
356.0161
 42
0.08304317464
  0
VERTEX
  8
LAYER_1
 10
204.6704
 20
353.1139
 42
0.1039157285
  0
VERTEX
  8
LAYER_1
 10
203.7562
 20
348.7559
 42
0.1681417611
  0
VERTEX
  8
LAYER_1
 10
206.1043
 20
342.0427
 42
0.01589980159
  0
VERTEX
  8
LAYER_1
 10
206.5502
 20
341.5169
  0
SEQEND
  0
POLYLINE
  8
LAYER_1
 40
0.1693
 41
0.1693
 66
1
 10
0
 20
0
 30
0
  0
VERTEX
  8
LAYER_1
 10
221.7479
 20
356.7146
 42
0.1834625315
  0
VERTEX
  8
LAYER_1
 10
214.5088
 20
359.5086
 42
0.1208039437
  0
VERTEX
  8
LAYER_1
 10
209.4815
 20
358.2711
 42
0.06528686719
  0
VERTEX
  8
LAYER_1
 10
207.2487
 20
356.6934
  0
SEQEND
  0
POLYLINE
  8
LAYER_1
 40
0.0847
 41
0.0847
 66
1
 10
0
 20
0
 30
0
  0
VERTEX
  8
LAYER_1
 10
214.5088
 20
368.2504
  0
VERTEX
  8
LAYER_1
 10
214.5088
 20
370.0496
  0
SEQEND
  0
POLYLINE
  8
LAYER_1
 40
0.1693
 41
0.1693
 66
1
 10
0
 20
0
 30
0
  0
VERTEX
  8
LAYER_1
 10
199.036
 20
369.7532
  0
VERTEX
  8
LAYER_1
 10
230.0029
 20
369.7532
  0
SEQEND
  0
POLYLINE
  8
LAYER_1
 40
0.1693
 41
0.1693
 66
1
 10
0
 20
0
 30
0
  0
VERTEX
  8
LAYER_1
 10
199.036
 20
369.7532
  0
VERTEX
  8
LAYER_1
 10
199.036
 20
371.0232
  0
SEQEND
  0
POLYLINE
  8
LAYER_1
 40
0.1693
 41
0.1693
 66
1
 10
0
 20
0
 30
0
  0
VERTEX
  8
LAYER_1
 10
199.1842
 20
371.4254
 42
0.2049108961
  0
VERTEX
  8
LAYER_1
 10
199.0148
 20
371.0444
  0
SEQEND
  0
POLYLINE
  8
LAYER_1
 40
0.1693
 41
0.1693
 66
1
 10
0
 20
0
 30
0
  0
VERTEX
  8
LAYER_1
 10
230.0028
 20
369.7532
  0
VERTEX
  8
LAYER_1
 10
230.0028
 20
371.0232
  0
SEQEND
  0
POLYLINE
  8
LAYER_1
 40
0.1693
 41
0.1693
 66
1
 10
0
 20
0
 30
0
  0
VERTEX
  8
LAYER_1
 10
228.627
 20
372.3991
 42
0.2044769061
  0
VERTEX
  8
LAYER_1
 10
228.3307
 20
372.5049
  0
VERTEX
  8
LAYER_1
 10
228.3095
 20
372.5049
  0
SEQEND
  0
POLYLINE
  8
LAYER_1
 40
0.1693
 41
0.1693
 66
1
 10
0
 20
0
 30
0
  0
VERTEX
  8
LAYER_1
 10
229.8335
 20
371.4042
  0
VERTEX
  8
LAYER_1
 10
228.6482
 20
372.3991
  0
SEQEND
  0
POLYLINE
  8
LAYER_1
 40
0.1693
 41
0.1693
 66
1
 10
0
 20
0
 30
0
  0
VERTEX
  8
LAYER_1
 10
230.024
 20
371.0444
 42
0.2122768783
  0
VERTEX
  8
LAYER_1
 10
229.8123
 20
371.4254
  0
SEQEND
  0
POLYLINE
  8
LAYER_1
 40
0.1693
 41
0.1693
 66
1
 10
0
 20
0
 30
0
  0
VERTEX
  8
LAYER_1
 10
199.2053
 20
371.4042
  0
VERTEX
  8
LAYER_1
 10
200.3906
 20
372.3991
  0
SEQEND
  0
POLYLINE
  8
LAYER_1
 40
0.1693
 41
0.1693
 66
1
 10
0
 20
0
 30
0
  0
VERTEX
  8
LAYER_1
 10
200.7082
 20
372.5049
  0
VERTEX
  8
LAYER_1
 10
228.3307
 20
372.5049
  0
SEQEND
  0
POLYLINE
  8
LAYER_1
 40
0.1693
 41
0.1693
 66
1
 10
0
 20
0
 30
0
  0
VERTEX
  8
LAYER_1
 10
200.687
 20
372.5049
 42
0.1499744774
  0
VERTEX
  8
LAYER_1
 10
200.3695
 20
372.3991
  0
SEQEND
  0
POLYLINE
  8
LAYER_1
 40
0.0847
 41
0.0847
 66
1
 10
0
 20
0
 30
0
  0
VERTEX
  8
LAYER_1
 10
203.7773
 20
369.7532
  0
VERTEX
  8
LAYER_1
 10
203.7773
 20
370.4306
  0
SEQEND
  0
POLYLINE
  8
LAYER_1
 40
0.0847
 41
0.0847
 66
1
 10
0
 20
0
 30
0
  0
VERTEX
  8
LAYER_1
 10
203.7773
 20
371.8064
  0
VERTEX
  8
LAYER_1
 10
203.7773
 20
372.5049
  0
SEQEND
  0
POLYLINE
  8
LAYER_1
 40
0.0847
 41
0.0847
 66
1
 10
0
 20
0
 30
0
  0
VERTEX
  8
LAYER_1
 10
225.2615
 20
369.7532
  0
VERTEX
  8
LAYER_1
 10
225.2615
 20
370.4306
  0
SEQEND
  0
POLYLINE
  8
LAYER_1
 40
0.0847
 41
0.0847
 66
1
 10
0
 20
0
 30
0
  0
VERTEX
  8
LAYER_1
 10
225.2615
 20
371.8064
  0
VERTEX
  8
LAYER_1
 10
225.2615
 20
372.5049
  0
SEQEND
  0
POLYLINE
  8
LAYER_1
 40
0.0847
 41
0.0847
 66
1
 10
0
 20
0
 30
0
  0
VERTEX
  8
LAYER_1
 10
199.036
 20
379.9979
  0
VERTEX
  8
LAYER_1
 10
230.0029
 20
379.9979
  0
SEQEND
  0
POLYLINE
  8
LAYER_1
 40
0.1693
 41
0.1693
 66
1
 10
0
 20
0
 30
0
  0
VERTEX
  8
LAYER_1
 10
230.0028
 20
379.9979
  0
VERTEX
  8
LAYER_1
 10
228.5635
 20
379.6169
  0
SEQEND
  0
POLYLINE
  8
LAYER_1
 40
0.1693
 41
0.1693
 66
1
 10
0
 20
0
 30
0
  0
VERTEX
  8
LAYER_1
 10
230.0028
 20
379.9979
  0
VERTEX
  8
LAYER_1
 10
228.5635
 20
380.4001
  0
SEQEND
  0
POLYLINE
  8
LAYER_1
 40
0.1693
 41
0.1693
 66
1
 10
0
 20
0
 30
0
  0
VERTEX
  8
LAYER_1
 10
199.036
 20
379.9979
  0
VERTEX
  8
LAYER_1
 10
200.4754
 20
380.4001
  0
SEQEND
  0
POLYLINE
  8
LAYER_1
 40
0.1693
 41
0.1693
 66
1
 10
0
 20
0
 30
0
  0
VERTEX
  8
LAYER_1
 10
199.036
 20
379.9979
  0
VERTEX
  8
LAYER_1
 10
200.4754
 20
379.6169
  0
SEQEND
  0
POLYLINE
  8
LAYER_1
 40
0.0847
 41
0.0847
 66
1
 10
0
 20
0
 30
0
  0
VERTEX
  8
LAYER_1
 10
230.0028
 20
372.5049
  0
VERTEX
  8
LAYER_1
 10
230.0028
 20
379.9979
  0
SEQEND
  0
POLYLINE
  8
LAYER_1
 40
0.0847
 41
0.0847
 66
1
 10
0
 20
0
 30
0
  0
VERTEX
  8
LAYER_1
 10
199.036
 20
372.5049
  0
VERTEX
  8
LAYER_1
 10
199.036
 20
379.9979
  0
SEQEND
  0
POLYLINE
  8
LAYER_1
 40
0.0847
 41
0.0847
 66
1
 10
0
 20
0
 30
0
  0
VERTEX
  8
LAYER_1
 10
214.5088
 20
331.3569
  0
VERTEX
  8
LAYER_1
 10
214.5088
 20
333.7487
  0
SEQEND
  0
POLYLINE
  8
LAYER_1
 40
0.0847
 41
0.0847
 66
1
 10
0
 20
0
 30
0
  0
VERTEX
  8
LAYER_1
 10
214.5088
 20
334.7224
  0
VERTEX
  8
LAYER_1
 10
214.5088
 20
335.6749
  0
SEQEND
  0
POLYLINE
  8
LAYER_1
 40
0.0847
 41
0.0847
 66
1
 10
0
 20
0
 30
0
  0
VERTEX
  8
LAYER_1
 10
214.5088
 20
336.6486
  0
VERTEX
  8
LAYER_1
 10
214.5088
 20
341.4534
  0
SEQEND
  0
POLYLINE
  8
LAYER_1
 40
0.0847
 41
0.0847
 66
1
 10
0
 20
0
 30
0
  0
VERTEX
  8
LAYER_1
 10
214.5088
 20
342.4271
  0
VERTEX
  8
LAYER_1
 10
214.5088
 20
343.3796
  0
SEQEND
  0
POLYLINE
  8
LAYER_1
 40
0.0847
 41
0.0847
 66
1
 10
0
 20
0
 30
0
  0
VERTEX
  8
LAYER_1
 10
214.5088
 20
344.3321
  0
VERTEX
  8
LAYER_1
 10
214.5088
 20
349.1581
  0
SEQEND
  0
POLYLINE
  8
LAYER_1
 40
0.0847
 41
0.0847
 66
1
 10
0
 20
0
 30
0
  0
VERTEX
  8
LAYER_1
 10
214.5088
 20
350.1106
  0
VERTEX
  8
LAYER_1
 10
214.5088
 20
351.0842
  0
SEQEND
  0
POLYLINE
  8
LAYER_1
 40
0.0847
 41
0.0847
 66
1
 10
0
 20
0
 30
0
  0
VERTEX
  8
LAYER_1
 10
214.5088
 20
352.0367
  0
VERTEX
  8
LAYER_1
 10
214.5088
 20
356.8627
  0
SEQEND
  0
POLYLINE
  8
LAYER_1
 40
0.0847
 41
0.0847
 66
1
 10
0
 20
0
 30
0
  0
VERTEX
  8
LAYER_1
 10
214.5088
 20
357.8152
  0
VERTEX
  8
LAYER_1
 10
214.5088
 20
358.7889
  0
SEQEND
  0
POLYLINE
  8
LAYER_1
 40
0.0847
 41
0.0847
 66
1
 10
0
 20
0
 30
0
  0
VERTEX
  8
LAYER_1
 10
214.5088
 20
359.7414
  0
VERTEX
  8
LAYER_1
 10
214.5088
 20
364.5674
  0
SEQEND
  0
POLYLINE
  8
LAYER_1
 40
0.0847
 41
0.0847
 66
1
 10
0
 20
0
 30
0
  0
VERTEX
  8
LAYER_1
 10
214.5088
 20
365.5199
  0
VERTEX
  8
LAYER_1
 10
214.5088
 20
366.4724
  0
SEQEND
  0
POLYLINE
  8
LAYER_1
 40
0.0847
 41
0.0847
 66
1
 10
0
 20
0
 30
0
  0
VERTEX
  8
LAYER_1
 10
214.5088
 20
367.4461
  0
VERTEX
  8
LAYER_1
 10
214.5088
 20
372.2509
  0
SEQEND
  0
POLYLINE
  8
LAYER_1
 40
0.0847
 41
0.0847
 66
1
 10
0
 20
0
 30
0
  0
VERTEX
  8
LAYER_1
 10
214.5088
 20
373.2246
  0
VERTEX
  8
LAYER_1
 10
214.5088
 20
374.1771
  0
SEQEND
  0
POLYLINE
  8
LAYER_1
 40
0.0847
 41
0.0847
 66
1
 10
0
 20
0
 30
0
  0
VERTEX
  8
LAYER_1
 10
214.5088
 20
375.1507
  0
VERTEX
  8
LAYER_1
 10
214.5088
 20
377.5637
  0
SEQEND
  0
POLYLINE
  8
LAYER_1
 40
0.1693
 41
0.1693
 66
1
 10
0
 20
0
 30
0
  0
VERTEX
  8
LAYER_1
 10
199.5229
 20
312.0317
  0
VERTEX
  8
LAYER_1
 10
229.516
 20
312.0317
  0
SEQEND
  0
POLYLINE
  8
LAYER_1
 40
0.1693
 41
0.1693
 66
1
 10
0
 20
0
 30
0
  0
VERTEX
  8
LAYER_1
 10
199.5229
 20
312.0317
  0
VERTEX
  8
LAYER_1
 10
199.5229
 20
313.5346
  0
SEQEND
  0
POLYLINE
  8
LAYER_1
 40
0.1693
 41
0.1693
 66
1
 10
0
 20
0
 30
0
  0
VERTEX
  8
LAYER_1
 10
229.516
 20
312.0317
  0
VERTEX
  8
LAYER_1
 10
229.516
 20
313.5346
  0
SEQEND
  0
POLYLINE
  8
LAYER_1
 40
0.0847
 41
0.0847
 66
1
 10
0
 20
0
 30
0
  0
VERTEX
  8
LAYER_1
 10
214.5088
 20
309.0261
  0
VERTEX
  8
LAYER_1
 10
214.5088
 20
312.0317
  0
SEQEND
  0
POLYLINE
  8
LAYER_1
 40
0.1693
 41
0.1693
 66
1
 10
0
 20
0
 30
0
  0
VERTEX
  8
LAYER_1
 10
203.1635
 20
309.0261
  0
VERTEX
  8
LAYER_1
 10
203.1635
 20
312.0317
  0
SEQEND
  0
POLYLINE
  8
LAYER_1
 40
0.1693
 41
0.1693
 66
1
 10
0
 20
0
 30
0
  0
VERTEX
  8
LAYER_1
 10
203.1635
 20
309.0261
  0
VERTEX
  8
LAYER_1
 10
225.8754
 20
309.0261
  0
VERTEX
  8
LAYER_1
 10
225.8754
 20
312.0317
  0
SEQEND
  0
POLYLINE
  8
LAYER_1
 40
0.1693
 41
0.1693
 66
1
 10
0
 20
0
 30
0
  0
VERTEX
  8
LAYER_1
 10
199.5229
 20
313.5346
  0
VERTEX
  8
LAYER_1
 10
229.516
 20
313.5346
  0
SEQEND
  0
POLYLINE
  8
LAYER_1
 40
0.0847
 41
0.0847
 66
1
 10
0
 20
0
 30
0
  0
VERTEX
  8
LAYER_1
 10
224.5207
 20
309.0261
  0
VERTEX
  8
LAYER_1
 10
224.5207
 20
309.5764
  0
SEQEND
  0
POLYLINE
  8
LAYER_1
 40
0.0847
 41
0.0847
 66
1
 10
0
 20
0
 30
0
  0
VERTEX
  8
LAYER_1
 10
224.5207
 20
310.6982
  0
VERTEX
  8
LAYER_1
 10
224.5207
 20
311.8412
  0
SEQEND
  0
POLYLINE
  8
LAYER_1
 40
0.0847
 41
0.0847
 66
1
 10
0
 20
0
 30
0
  0
VERTEX
  8
LAYER_1
 10
224.5207
 20
312.9631
  0
VERTEX
  8
LAYER_1
 10
224.5207
 20
313.5346
  0
SEQEND
  0
POLYLINE
  8
LAYER_1
 40
0.0847
 41
0.0847
 66
1
 10
0
 20
0
 30
0
  0
VERTEX
  8
LAYER_1
 10
204.5393
 20
309.0261
  0
VERTEX
  8
LAYER_1
 10
204.5393
 20
309.5764
  0
SEQEND
  0
POLYLINE
  8
LAYER_1
 40
0.0847
 41
0.0847
 66
1
 10
0
 20
0
 30
0
  0
VERTEX
  8
LAYER_1
 10
204.5393
 20
310.6982
  0
VERTEX
  8
LAYER_1
 10
204.5393
 20
311.8412
  0
SEQEND
  0
POLYLINE
  8
LAYER_1
 40
0.0847
 41
0.0847
 66
1
 10
0
 20
0
 30
0
  0
VERTEX
  8
LAYER_1
 10
204.5393
 20
312.9631
  0
VERTEX
  8
LAYER_1
 10
204.5393
 20
313.5346
  0
SEQEND
  0
POLYLINE
  8
LAYER_1
 40
0.0847
 41
0.0847
 66
1
 10
0
 20
0
 30
0
  0
VERTEX
  8
LAYER_1
 10
199.5229
 20
321.0276
  0
VERTEX
  8
LAYER_1
 10
229.516
 20
321.0276
  0
SEQEND
  0
POLYLINE
  8
LAYER_1
 40
0.1693
 41
0.1693
 66
1
 10
0
 20
0
 30
0
  0
VERTEX
  8
LAYER_1
 10
229.516
 20
321.0276
  0
VERTEX
  8
LAYER_1
 10
228.0555
 20
320.6466
  0
SEQEND
  0
POLYLINE
  8
LAYER_1
 40
0.1693
 41
0.1693
 66
1
 10
0
 20
0
 30
0
  0
VERTEX
  8
LAYER_1
 10
229.516
 20
321.0276
  0
VERTEX
  8
LAYER_1
 10
228.0555
 20
321.4297
  0
SEQEND
  0
POLYLINE
  8
LAYER_1
 40
0.1693
 41
0.1693
 66
1
 10
0
 20
0
 30
0
  0
VERTEX
  8
LAYER_1
 10
199.5229
 20
321.0276
  0
VERTEX
  8
LAYER_1
 10
200.9834
 20
321.4297
  0
SEQEND
  0
POLYLINE
  8
LAYER_1
 40
0.1693
 41
0.1693
 66
1
 10
0
 20
0
 30
0
  0
VERTEX
  8
LAYER_1
 10
199.5229
 20
321.0276
  0
VERTEX
  8
LAYER_1
 10
200.9834
 20
320.6466
  0
SEQEND
  0
POLYLINE
  8
LAYER_1
 40
0.0847
 41
0.0847
 66
1
 10
0
 20
0
 30
0
  0
VERTEX
  8
LAYER_1
 10
229.516
 20
313.5346
  0
VERTEX
  8
LAYER_1
 10
229.516
 20
321.0276
  0
SEQEND
  0
POLYLINE
  8
LAYER_1
 40
0.0847
 41
0.0847
 66
1
 10
0
 20
0
 30
0
  0
VERTEX
  8
LAYER_1
 10
199.5229
 20
313.5346
  0
VERTEX
  8
LAYER_1
 10
199.5229
 20
321.0276
  0
SEQEND
  0
POLYLINE
  8
LAYER_1
 40
0.0847
 41
0.0847
 66
1
 10
0
 20
0
 30
0
  0
VERTEX
  8
LAYER_1
 10
214.5088
 20
273.4237
  0
VERTEX
  8
LAYER_1
 10
214.5088
 20
275.7521
  0
SEQEND
  0
POLYLINE
  8
LAYER_1
 40
0.0847
 41
0.0847
 66
1
 10
0
 20
0
 30
0
  0
VERTEX
  8
LAYER_1
 10
214.5088
 20
276.6834
  0
VERTEX
  8
LAYER_1
 10
214.5088
 20
277.6359
  0
SEQEND
  0
POLYLINE
  8
LAYER_1
 40
0.0847
 41
0.0847
 66
1
 10
0
 20
0
 30
0
  0
VERTEX
  8
LAYER_1
 10
214.5088
 20
278.5672
  0
VERTEX
  8
LAYER_1
 10
214.5088
 20
283.2451
  0
SEQEND
  0
POLYLINE
  8
LAYER_1
 40
0.0847
 41
0.0847
 66
1
 10
0
 20
0
 30
0
  0
VERTEX
  8
LAYER_1
 10
214.5088
 20
284.1976
  0
VERTEX
  8
LAYER_1
 10
214.5088
 20
285.1289
  0
SEQEND
  0
POLYLINE
  8
LAYER_1
 40
0.0847
 41
0.0847
 66
1
 10
0
 20
0
 30
0
  0
VERTEX
  8
LAYER_1
 10
214.5088
 20
286.0602
  0
VERTEX
  8
LAYER_1
 10
214.5088
 20
290.7592
  0
SEQEND
  0
POLYLINE
  8
LAYER_1
 40
0.0847
 41
0.0847
 66
1
 10
0
 20
0
 30
0
  0
VERTEX
  8
LAYER_1
 10
214.5088
 20
291.6906
  0
VERTEX
  8
LAYER_1
 10
214.5088
 20
292.6219
  0
SEQEND
  0
POLYLINE
  8
LAYER_1
 40
0.0847
 41
0.0847
 66
1
 10
0
 20
0
 30
0
  0
VERTEX
  8
LAYER_1
 10
214.5088
 20
293.5532
  0
VERTEX
  8
LAYER_1
 10
214.5088
 20
298.2522
  0
SEQEND
  0
POLYLINE
  8
LAYER_1
 40
0.0847
 41
0.0847
 66
1
 10
0
 20
0
 30
0
  0
VERTEX
  8
LAYER_1
 10
214.5088
 20
299.1836
  0
VERTEX
  8
LAYER_1
 10
214.5088
 20
300.1149
  0
SEQEND
  0
POLYLINE
  8
LAYER_1
 40
0.0847
 41
0.0847
 66
1
 10
0
 20
0
 30
0
  0
VERTEX
  8
LAYER_1
 10
214.5088
 20
301.0462
  0
VERTEX
  8
LAYER_1
 10
214.5088
 20
305.7452
  0
SEQEND
  0
POLYLINE
  8
LAYER_1
 40
0.0847
 41
0.0847
 66
1
 10
0
 20
0
 30
0
  0
VERTEX
  8
LAYER_1
 10
214.5088
 20
306.6766
  0
VERTEX
  8
LAYER_1
 10
214.5088
 20
307.6079
  0
SEQEND
  0
POLYLINE
  8
LAYER_1
 40
0.0847
 41
0.0847
 66
1
 10
0
 20
0
 30
0
  0
VERTEX
  8
LAYER_1
 10
214.5088
 20
308.5604
  0
VERTEX
  8
LAYER_1
 10
214.5088
 20
313.2382
  0
SEQEND
  0
POLYLINE
  8
LAYER_1
 40
0.0847
 41
0.0847
 66
1
 10
0
 20
0
 30
0
  0
VERTEX
  8
LAYER_1
 10
214.5088
 20
314.1696
  0
VERTEX
  8
LAYER_1
 10
214.5088
 20
315.1221
  0
SEQEND
  0
POLYLINE
  8
LAYER_1
 40
0.0847
 41
0.0847
 66
1
 10
0
 20
0
 30
0
  0
VERTEX
  8
LAYER_1
 10
214.5088
 20
316.0534
  0
VERTEX
  8
LAYER_1
 10
214.5088
 20
318.4029
  0
SEQEND
  0
TEXT
  8
LAYER_1
 10
208.5397
 20
268.9998
 11
208.5397
 21
268.9998
 40
2.0536
 41
0.5
  1
ì└òté½âiâbâg
  0
TEXT
  8
LAYER_1
 10
208.54
 20
327.2928
 11
208.54
 21
327.2928
 40
2.0536
 41
0.5
  1
Ä¸ÄëâpâbâLâô
  0
TEXT
  8
LAYER_1
 10
226.7646
 20
327.2134
 11
226.7646
 21
327.2134
 40
2.4232
 41
0.5
  1
S=1/2
  0
POLYLINE
  8
LAYER_1
 40
0.1693
 41
0.1693
 66
1
 10
0
 20
0
 30
0
  0
VERTEX
  8
LAYER_1
 10
102.4525
 20
348.3749
  0
VERTEX
  8
LAYER_1
 10
132.9537
 20
348.3749
  0
SEQEND
  0
POLYLINE
  8
LAYER_1
 40
0.0847
 41
0.0847
 66
1
 10
0
 20
0
 30
0
  0
VERTEX
  8
LAYER_1
 10
107.3208
 20
317.3657
  0
VERTEX
  8
LAYER_1
 10
128.0642
 20
318.0642
  0
SEQEND
  0
POLYLINE
  8
LAYER_1
 40
0.1693
 41
0.1693
 66
1
 10
0
 20
0
 30
0
  0
VERTEX
  8
LAYER_1
 10
113.946
 20
350.3646
  0
VERTEX
  8
LAYER_1
 10
113.946
 20
354.8731
  0
SEQEND
  0
POLYLINE
  8
LAYER_1
 40
0.1693
 41
0.1693
 66
1
 10
0
 20
0
 30
0
  0
VERTEX
  8
LAYER_1
 10
121.439
 20
350.3646
  0
VERTEX
  8
LAYER_1
 10
121.439
 20
354.8731
  0
SEQEND
  0
POLYLINE
  8
LAYER_1
 40
0.1693
 41
0.1693
 66
1
 10
0
 20
0
 30
0
  0
VERTEX
  8
LAYER_1
 10
102.4525
 20
345.3692
  0
VERTEX
  8
LAYER_1
 10
132.9537
 20
345.3692
  0
VERTEX
  8
LAYER_1
 10
132.9537
 20
348.3749
  0
SEQEND
  0
POLYLINE
  8
LAYER_1
 40
0.1693
 41
0.1693
 66
1
 10
0
 20
0
 30
0
  0
VERTEX
  8
LAYER_1
 10
102.4525
 20
345.3692
  0
VERTEX
  8
LAYER_1
 10
102.4525
 20
348.3749
  0
SEQEND
  0
POLYLINE
  8
LAYER_1
 40
0.1693
 41
0.1693
 66
1
 10
0
 20
0
 30
0
  0
VERTEX
  8
LAYER_1
 10
107.3208
 20
340.3739
  0
VERTEX
  8
LAYER_1
 10
128.0642
 20
340.3739
  0
SEQEND
  0
POLYLINE
  8
LAYER_1
 40
0.1693
 41
0.1693
 66
1
 10
0
 20
0
 30
0
  0
VERTEX
  8
LAYER_1
 10
108.0617
 20
335.5479
  0
VERTEX
  8
LAYER_1
 10
107.3208
 20
334.8917
  0
VERTEX
  8
LAYER_1
 10
108.0617
 20
334.2779
  0
VERTEX
  8
LAYER_1
 10
107.3208
 20
333.6429
  0
VERTEX
  8
LAYER_1
 10
108.0617
 20
333.0291
  0
VERTEX
  8
LAYER_1
 10
107.3208
 20
332.3941
  0
VERTEX
  8
LAYER_1
 10
108.0617
 20
331.7802
  0
VERTEX
  8
LAYER_1
 10
107.3208
 20
331.1241
  0
VERTEX
  8
LAYER_1
 10
108.0617
 20
330.5314
  0
VERTEX
  8
LAYER_1
 10
107.3208
 20
329.8752
  0
VERTEX
  8
LAYER_1
 10
108.0617
 20
329.2826
  0
VERTEX
  8
LAYER_1
 10
107.3208
 20
328.6264
  0
VERTEX
  8
LAYER_1
 10
108.0617
 20
328.0337
  0
VERTEX
  8
LAYER_1
 10
107.3208
 20
327.3776
  0
VERTEX
  8
LAYER_1
 10
108.0617
 20
326.7849
  0
VERTEX
  8
LAYER_1
 10
107.3208
 20
326.1287
  0
VERTEX
  8
LAYER_1
 10
108.0617
 20
325.5361
  0
VERTEX
  8
LAYER_1
 10
107.3208
 20
324.8799
  0
VERTEX
  8
LAYER_1
 10
108.0617
 20
324.2872
  0
VERTEX
  8
LAYER_1
 10
107.3208
 20
323.6311
  0
VERTEX
  8
LAYER_1
 10
108.0617
 20
323.0384
  0
VERTEX
  8
LAYER_1
 10
107.3208
 20
322.3822
  0
VERTEX
  8
LAYER_1
 10
108.0617
 20
321.7896
  0
VERTEX
  8
LAYER_1
 10
107.3208
 20
321.1334
  0
VERTEX
  8
LAYER_1
 10
108.0617
 20
320.5196
  0
VERTEX
  8
LAYER_1
 10
107.3208
 20
319.8846
  0
VERTEX
  8
LAYER_1
 10
108.0617
 20
319.2707
  0
VERTEX
  8
LAYER_1
 10
107.3208
 20
318.6357
  0
VERTEX
  8
LAYER_1
 10
108.0617
 20
318.0219
  0
VERTEX
  8
LAYER_1
 10
107.3208
 20
317.3657
  0
SEQEND
  0
POLYLINE
  8
LAYER_1
 40
0.1693
 41
0.1693
 66
1
 10
0
 20
0
 30
0
  0
VERTEX
  8
LAYER_1
 10
107.3208
 20
309.8727
  0
VERTEX
  8
LAYER_1
 10
108.0617
 20
309.2801
  0
VERTEX
  8
LAYER_1
 10
107.3208
 20
308.6239
  0
VERTEX
  8
LAYER_1
 10
108.0617
 20
308.0312
  0
VERTEX
  8
LAYER_1
 10
107.3208
 20
307.3751
  0
VERTEX
  8
LAYER_1
 10
108.0617
 20
306.7612
  0
VERTEX
  8
LAYER_1
 10
107.3208
 20
306.1262
  0
VERTEX
  8
LAYER_1
 10
108.0617
 20
305.5124
  0
VERTEX
  8
LAYER_1
 10
107.3208
 20
304.8562
  0
VERTEX
  8
LAYER_1
 10
108.0617
 20
304.2636
  0
VERTEX
  8
LAYER_1
 10
107.3208
 20
303.6074
  0
VERTEX
  8
LAYER_1
 10
108.0617
 20
303.0147
  0
VERTEX
  8
LAYER_1
 10
107.3208
 20
302.3586
  0
VERTEX
  8
LAYER_1
 10
108.0617
 20
301.7659
  0
VERTEX
  8
LAYER_1
 10
107.3208
 20
301.1097
  0
VERTEX
  8
LAYER_1
 10
108.0617
 20
300.5171
  0
SEQEND
  0
POLYLINE
  8
LAYER_1
 40
0.1693
 41
0.1693
 66
1
 10
0
 20
0
 30
0
  0
VERTEX
  8
LAYER_1
 10
107.3208
 20
336.1406
  0
VERTEX
  8
LAYER_1
 10
108.0617
 20
335.5479
  0
SEQEND
  0
POLYLINE
  8
LAYER_1
 40
0.1693
 41
0.1693
 66
1
 10
0
 20
0
 30
0
  0
VERTEX
  8
LAYER_1
 10
127.3233
 20
336.2252
  0
VERTEX
  8
LAYER_1
 10
128.0642
 20
335.5902
  0
VERTEX
  8
LAYER_1
 10
127.3233
 20
334.9764
  0
VERTEX
  8
LAYER_1
 10
128.0642
 20
334.3414
  0
VERTEX
  8
LAYER_1
 10
127.3233
 20
333.7276
  0
VERTEX
  8
LAYER_1
 10
128.0642
 20
333.0714
  0
VERTEX
  8
LAYER_1
 10
127.3233
 20
332.4787
  0
VERTEX
  8
LAYER_1
 10
128.0642
 20
331.8226
  0
VERTEX
  8
LAYER_1
 10
127.3233
 20
331.2299
  0
VERTEX
  8
LAYER_1
 10
128.0642
 20
330.5737
  0
VERTEX
  8
LAYER_1
 10
127.3233
 20
329.9811
  0
VERTEX
  8
LAYER_1
 10
128.0642
 20
329.3249
  0
VERTEX
  8
LAYER_1
 10
127.3233
 20
328.7322
  0
VERTEX
  8
LAYER_1
 10
128.0642
 20
328.0761
  0
VERTEX
  8
LAYER_1
 10
127.3233
 20
327.4834
  0
VERTEX
  8
LAYER_1
 10
128.0642
 20
326.8272
  0
VERTEX
  8
LAYER_1
 10
127.3233
 20
326.2346
  0
VERTEX
  8
LAYER_1
 10
128.0642
 20
325.5784
  0
VERTEX
  8
LAYER_1
 10
127.3233
 20
324.9857
  0
VERTEX
  8
LAYER_1
 10
128.0642
 20
324.3296
  0
VERTEX
  8
LAYER_1
 10
127.3233
 20
323.7369
  0
VERTEX
  8
LAYER_1
 10
128.0642
 20
323.0807
  0
VERTEX
  8
LAYER_1
 10
127.3233
 20
322.4669
  0
VERTEX
  8
LAYER_1
 10
128.0642
 20
321.8319
  0
VERTEX
  8
LAYER_1
 10
127.3233
 20
321.2181
  0
VERTEX
  8
LAYER_1
 10
128.0642
 20
320.5619
  0
VERTEX
  8
LAYER_1
 10
127.3233
 20
319.9692
  0
VERTEX
  8
LAYER_1
 10
128.0642
 20
319.3131
  0
VERTEX
  8
LAYER_1
 10
127.3233
 20
318.7204
  0
VERTEX
  8
LAYER_1
 10
128.0642
 20
318.0642
  0
VERTEX
  8
LAYER_1
 10
127.3233
 20
317.4716
  0
SEQEND
  0
POLYLINE
  8
LAYER_1
 40
0.1693
 41
0.1693
 66
1
 10
0
 20
0
 30
0
  0
VERTEX
  8
LAYER_1
 10
127.3233
 20
309.9574
  0
VERTEX
  8
LAYER_1
 10
128.0642
 20
309.3224
  0
VERTEX
  8
LAYER_1
 10
127.3233
 20
308.7086
  0
VERTEX
  8
LAYER_1
 10
128.0642
 20
308.0736
  0
VERTEX
  8
LAYER_1
 10
127.3233
 20
307.4597
  0
VERTEX
  8
LAYER_1
 10
128.0642
 20
306.8036
  0
VERTEX
  8
LAYER_1
 10
127.3233
 20
306.2109
  0
VERTEX
  8
LAYER_1
 10
128.0642
 20
305.5547
  0
VERTEX
  8
LAYER_1
 10
127.3233
 20
304.9621
  0
VERTEX
  8
LAYER_1
 10
128.0642
 20
304.3059
  0
VERTEX
  8
LAYER_1
 10
127.3233
 20
303.7132
  0
VERTEX
  8
LAYER_1
 10
128.0642
 20
303.0571
  0
VERTEX
  8
LAYER_1
 10
127.3233
 20
302.4644
  0
VERTEX
  8
LAYER_1
 10
128.0642
 20
301.8082
  0
VERTEX
  8
LAYER_1
 10
127.3233
 20
301.2156
  0
VERTEX
  8
LAYER_1
 10
128.0642
 20
300.5594
  0
SEQEND
  0
POLYLINE
  8
LAYER_1
 40
0.1693
 41
0.1693
 66
1
 10
0
 20
0
 30
0
  0
VERTEX
  8
LAYER_1
 10
127.3233
 20
336.2252
  0
VERTEX
  8
LAYER_1
 10
108.0617
 20
335.5479
  0
SEQEND
  0
POLYLINE
  8
LAYER_1
 40
0.1693
 41
0.1693
 66
1
 10
0
 20
0
 30
0
  0
VERTEX
  8
LAYER_1
 10
127.3233
 20
301.2156
  0
VERTEX
  8
LAYER_1
 10
108.0617
 20
300.5171
  0
SEQEND
  0
POLYLINE
  8
LAYER_1
 40
0.1693
 41
0.1693
 66
1
 10
0
 20
0
 30
0
  0
VERTEX
  8
LAYER_1
 10
127.3233
 20
302.4644
  0
VERTEX
  8
LAYER_1
 10
108.0617
 20
301.7659
  0
SEQEND
  0
POLYLINE
  8
LAYER_1
 40
0.1693
 41
0.1693
 66
1
 10
0
 20
0
 30
0
  0
VERTEX
  8
LAYER_1
 10
127.3233
 20
303.7132
  0
VERTEX
  8
LAYER_1
 10
108.0617
 20
303.0147
  0
SEQEND
  0
POLYLINE
  8
LAYER_1
 40
0.1693
 41
0.1693
 66
1
 10
0
 20
0
 30
0
  0
VERTEX
  8
LAYER_1
 10
127.3233
 20
304.9621
  0
VERTEX
  8
LAYER_1
 10
108.0617
 20
304.2636
  0
SEQEND
  0
POLYLINE
  8
LAYER_1
 40
0.1693
 41
0.1693
 66
1
 10
0
 20
0
 30
0
  0
VERTEX
  8
LAYER_1
 10
127.3233
 20
306.2109
  0
VERTEX
  8
LAYER_1
 10
108.0617
 20
305.5124
  0
SEQEND
  0
POLYLINE
  8
LAYER_1
 40
0.1693
 41
0.1693
 66
1
 10
0
 20
0
 30
0
  0
VERTEX
  8
LAYER_1
 10
127.3233
 20
307.4598
  0
VERTEX
  8
LAYER_1
 10
108.0617
 20
306.7612
  0
SEQEND
  0
POLYLINE
  8
LAYER_1
 40
0.1693
 41
0.1693
 66
1
 10
0
 20
0
 30
0
  0
VERTEX
  8
LAYER_1
 10
127.3233
 20
308.7086
  0
VERTEX
  8
LAYER_1
 10
108.0617
 20
308.0312
  0
SEQEND
  0
POLYLINE
  8
LAYER_1
 40
0.1693
 41
0.1693
 66
1
 10
0
 20
0
 30
0
  0
VERTEX
  8
LAYER_1
 10
127.3233
 20
309.9574
  0
VERTEX
  8
LAYER_1
 10
108.0617
 20
309.2801
  0
SEQEND
  0
POLYLINE
  8
LAYER_1
 40
0.1693
 41
0.1693
 66
1
 10
0
 20
0
 30
0
  0
VERTEX
  8
LAYER_1
 10
127.3233
 20
318.7204
  0
VERTEX
  8
LAYER_1
 10
108.0617
 20
318.0219
  0
SEQEND
  0
POLYLINE
  8
LAYER_1
 40
0.1693
 41
0.1693
 66
1
 10
0
 20
0
 30
0
  0
VERTEX
  8
LAYER_1
 10
127.3233
 20
319.9693
  0
VERTEX
  8
LAYER_1
 10
108.0617
 20
319.2708
  0
SEQEND
  0
POLYLINE
  8
LAYER_1
 40
0.1693
 41
0.1693
 66
1
 10
0
 20
0
 30
0
  0
VERTEX
  8
LAYER_1
 10
127.3233
 20
321.2181
  0
VERTEX
  8
LAYER_1
 10
108.0617
 20
320.5196
  0
SEQEND
  0
POLYLINE
  8
LAYER_1
 40
0.1693
 41
0.1693
 66
1
 10
0
 20
0
 30
0
  0
VERTEX
  8
LAYER_1
 10
127.3233
 20
322.4669
  0
VERTEX
  8
LAYER_1
 10
108.0617
 20
321.7896
  0
SEQEND
  0
POLYLINE
  8
LAYER_1
 40
0.1693
 41
0.1693
 66
1
 10
0
 20
0
 30
0
  0
VERTEX
  8
LAYER_1
 10
127.3233
 20
323.7369
  0
VERTEX
  8
LAYER_1
 10
108.0617
 20
323.0384
  0
SEQEND
  0
POLYLINE
  8
LAYER_1
 40
0.1693
 41
0.1693
 66
1
 10
0
 20
0
 30
0
  0
VERTEX
  8
LAYER_1
 10
127.3233
 20
324.9858
  0
VERTEX
  8
LAYER_1
 10
108.0617
 20
324.2873
  0
SEQEND
  0
POLYLINE
  8
LAYER_1
 40
0.1693
 41
0.1693
 66
1
 10
0
 20
0
 30
0
  0
VERTEX
  8
LAYER_1
 10
127.3233
 20
326.2346
  0
VERTEX
  8
LAYER_1
 10
108.0617
 20
325.5361
  0
SEQEND
  0
POLYLINE
  8
LAYER_1
 40
0.1693
 41
0.1693
 66
1
 10
0
 20
0
 30
0
  0
VERTEX
  8
LAYER_1
 10
127.3233
 20
327.4834
  0
VERTEX
  8
LAYER_1
 10
108.0617
 20
326.7849
  0
SEQEND
  0
POLYLINE
  8
LAYER_1
 40
0.1693
 41
0.1693
 66
1
 10
0
 20
0
 30
0
  0
VERTEX
  8
LAYER_1
 10
127.3233
 20
328.7323
  0
VERTEX
  8
LAYER_1
 10
108.0617
 20
328.0338
  0
SEQEND
  0
POLYLINE
  8
LAYER_1
 40
0.1693
 41
0.1693
 66
1
 10
0
 20
0
 30
0
  0
VERTEX
  8
LAYER_1
 10
127.3233
 20
329.9811
  0
VERTEX
  8
LAYER_1
 10
108.0617
 20
329.2826
  0
SEQEND
  0
POLYLINE
  8
LAYER_1
 40
0.1693
 41
0.1693
 66
1
 10
0
 20
0
 30
0
  0
VERTEX
  8
LAYER_1
 10
127.3233
 20
331.2299
  0
VERTEX
  8
LAYER_1
 10
108.0617
 20
330.5314
  0
SEQEND
  0
POLYLINE
  8
LAYER_1
 40
0.1693
 41
0.1693
 66
1
 10
0
 20
0
 30
0
  0
VERTEX
  8
LAYER_1
 10
127.3233
 20
332.4788
  0
VERTEX
  8
LAYER_1
 10
108.0617
 20
331.7803
  0
SEQEND
  0
POLYLINE
  8
LAYER_1
 40
0.1693
 41
0.1693
 66
1
 10
0
 20
0
 30
0
  0
VERTEX
  8
LAYER_1
 10
127.3233
 20
333.7276
  0
VERTEX
  8
LAYER_1
 10
108.0617
 20
333.0291
  0
SEQEND
  0
POLYLINE
  8
LAYER_1
 40
0.1693
 41
0.1693
 66
1
 10
0
 20
0
 30
0
  0
VERTEX
  8
LAYER_1
 10
127.3233
 20
334.9764
  0
VERTEX
  8
LAYER_1
 10
108.0617
 20
334.2779
  0
SEQEND
  0
POLYLINE
  8
LAYER_1
 40
0.1693
 41
0.1693
 66
1
 10
0
 20
0
 30
0
  0
VERTEX
  8
LAYER_1
 10
107.3208
 20
336.6063
  0
VERTEX
  8
LAYER_1
 10
128.0642
 20
336.6063
  0
SEQEND
  0
POLYLINE
  8
LAYER_1
 40
0.1693
 41
0.1693
 66
1
 10
0
 20
0
 30
0
  0
VERTEX
  8
LAYER_1
 10
107.8712
 20
336.6063
  0
VERTEX
  8
LAYER_1
 10
107.3208
 20
336.1406
  0
SEQEND
  0
POLYLINE
  8
LAYER_1
 40
0.1693
 41
0.1693
 66
1
 10
0
 20
0
 30
0
  0
VERTEX
  8
LAYER_1
 10
127.789
 20
336.6063
  0
VERTEX
  8
LAYER_1
 10
127.3233
 20
336.2253
  0
SEQEND
  0
POLYLINE
  8
LAYER_1
 40
0.0847
 41
0.0847
 66
1
 10
0
 20
0
 30
0
  0
VERTEX
  8
LAYER_1
 10
107.3208
 20
334.8917
  0
VERTEX
  8
LAYER_1
 10
128.0642
 20
335.5902
  0
SEQEND
  0
POLYLINE
  8
LAYER_1
 40
0.0847
 41
0.0847
 66
1
 10
0
 20
0
 30
0
  0
VERTEX
  8
LAYER_1
 10
107.3208
 20
336.1406
  0
VERTEX
  8
LAYER_1
 10
120.5712
 20
336.6062
  0
SEQEND
  0
POLYLINE
  8
LAYER_1
 40
0.0847
 41
0.0847
 66
1
 10
0
 20
0
 30
0
  0
VERTEX
  8
LAYER_1
 10
107.3208
 20
333.6429
  0
VERTEX
  8
LAYER_1
 10
128.0642
 20
334.3414
  0
SEQEND
  0
POLYLINE
  8
LAYER_1
 40
0.0847
 41
0.0847
 66
1
 10
0
 20
0
 30
0
  0
VERTEX
  8
LAYER_1
 10
107.3208
 20
332.3941
  0
VERTEX
  8
LAYER_1
 10
128.0642
 20
333.0714
  0
SEQEND
  0
POLYLINE
  8
LAYER_1
 40
0.0847
 41
0.0847
 66
1
 10
0
 20
0
 30
0
  0
VERTEX
  8
LAYER_1
 10
107.3208
 20
331.1241
  0
VERTEX
  8
LAYER_1
 10
128.0642
 20
331.8226
  0
SEQEND
  0
POLYLINE
  8
LAYER_1
 40
0.0847
 41
0.0847
 66
1
 10
0
 20
0
 30
0
  0
VERTEX
  8
LAYER_1
 10
107.3208
 20
329.8752
  0
VERTEX
  8
LAYER_1
 10
128.0642
 20
330.5737
  0
SEQEND
  0
POLYLINE
  8
LAYER_1
 40
0.0847
 41
0.0847
 66
1
 10
0
 20
0
 30
0
  0
VERTEX
  8
LAYER_1
 10
107.3208
 20
328.6264
  0
VERTEX
  8
LAYER_1
 10
128.0642
 20
329.3249
  0
SEQEND
  0
POLYLINE
  8
LAYER_1
 40
0.0847
 41
0.0847
 66
1
 10
0
 20
0
 30
0
  0
VERTEX
  8
LAYER_1
 10
107.3208
 20
327.3776
  0
VERTEX
  8
LAYER_1
 10
128.0642
 20
328.0761
  0
SEQEND
  0
POLYLINE
  8
LAYER_1
 40
0.0847
 41
0.0847
 66
1
 10
0
 20
0
 30
0
  0
VERTEX
  8
LAYER_1
 10
107.3208
 20
326.1287
  0
VERTEX
  8
LAYER_1
 10
128.0642
 20
326.8272
  0
SEQEND
  0
POLYLINE
  8
LAYER_1
 40
0.0847
 41
0.0847
 66
1
 10
0
 20
0
 30
0
  0
VERTEX
  8
LAYER_1
 10
107.3208
 20
324.8799
  0
VERTEX
  8
LAYER_1
 10
128.0642
 20
325.5784
  0
SEQEND
  0
POLYLINE
  8
LAYER_1
 40
0.0847
 41
0.0847
 66
1
 10
0
 20
0
 30
0
  0
VERTEX
  8
LAYER_1
 10
107.3208
 20
323.6311
  0
VERTEX
  8
LAYER_1
 10
128.0642
 20
324.3296
  0
SEQEND
  0
POLYLINE
  8
LAYER_1
 40
0.0847
 41
0.0847
 66
1
 10
0
 20
0
 30
0
  0
VERTEX
  8
LAYER_1
 10
107.3208
 20
322.3822
  0
VERTEX
  8
LAYER_1
 10
128.0642
 20
323.0807
  0
SEQEND
  0
POLYLINE
  8
LAYER_1
 40
0.0847
 41
0.0847
 66
1
 10
0
 20
0
 30
0
  0
VERTEX
  8
LAYER_1
 10
107.3208
 20
321.1334
  0
VERTEX
  8
LAYER_1
 10
128.0642
 20
321.8319
  0
SEQEND
  0
POLYLINE
  8
LAYER_1
 40
0.0847
 41
0.0847
 66
1
 10
0
 20
0
 30
0
  0
VERTEX
  8
LAYER_1
 10
107.3208
 20
319.8846
  0
VERTEX
  8
LAYER_1
 10
128.0642
 20
320.5619
  0
SEQEND
  0
POLYLINE
  8
LAYER_1
 40
0.0847
 41
0.0847
 66
1
 10
0
 20
0
 30
0
  0
VERTEX
  8
LAYER_1
 10
107.3208
 20
318.6357
  0
VERTEX
  8
LAYER_1
 10
128.0642
 20
319.3131
  0
SEQEND
  0
POLYLINE
  8
LAYER_1
 40
0.0847
 41
0.0847
 66
1
 10
0
 20
0
 30
0
  0
VERTEX
  8
LAYER_1
 10
107.3208
 20
308.6239
  0
VERTEX
  8
LAYER_1
 10
128.0642
 20
309.3224
  0
SEQEND
  0
POLYLINE
  8
LAYER_1
 40
0.0847
 41
0.0847
 66
1
 10
0
 20
0
 30
0
  0
VERTEX
  8
LAYER_1
 10
107.3208
 20
307.375
  0
VERTEX
  8
LAYER_1
 10
128.0642
 20
308.0735
  0
SEQEND
  0
POLYLINE
  8
LAYER_1
 40
0.0847
 41
0.0847
 66
1
 10
0
 20
0
 30
0
  0
VERTEX
  8
LAYER_1
 10
107.3208
 20
306.1262
  0
VERTEX
  8
LAYER_1
 10
128.0642
 20
306.8035
  0
SEQEND
  0
POLYLINE
  8
LAYER_1
 40
0.0847
 41
0.0847
 66
1
 10
0
 20
0
 30
0
  0
VERTEX
  8
LAYER_1
 10
107.3208
 20
304.8562
  0
VERTEX
  8
LAYER_1
 10
128.0642
 20
305.5547
  0
SEQEND
  0
POLYLINE
  8
LAYER_1
 40
0.0847
 41
0.0847
 66
1
 10
0
 20
0
 30
0
  0
VERTEX
  8
LAYER_1
 10
107.3208
 20
303.6074
  0
VERTEX
  8
LAYER_1
 10
128.0642
 20
304.3059
  0
SEQEND
  0
POLYLINE
  8
LAYER_1
 40
0.0847
 41
0.0847
 66
1
 10
0
 20
0
 30
0
  0
VERTEX
  8
LAYER_1
 10
107.3208
 20
302.3585
  0
VERTEX
  8
LAYER_1
 10
128.0642
 20
303.057
  0
SEQEND
  0
POLYLINE
  8
LAYER_1
 40
0.0847
 41
0.0847
 66
1
 10
0
 20
0
 30
0
  0
VERTEX
  8
LAYER_1
 10
107.3208
 20
301.1097
  0
VERTEX
  8
LAYER_1
 10
128.0642
 20
301.8082
  0
SEQEND
  0
POLYLINE
  8
LAYER_1
 40
0.1693
 41
0.1693
 66
1
 10
0
 20
0
 30
0
  0
VERTEX
  8
LAYER_1
 10
102.6854
 20
313.1112
  0
VERTEX
  8
LAYER_1
 10
132.6997
 20
313.1112
  0
SEQEND
  0
POLYLINE
  8
LAYER_1
 40
0.1693
 41
0.1693
 66
1
 10
0
 20
0
 30
0
  0
VERTEX
  8
LAYER_1
 10
102.1985
 20
314.6141
  0
VERTEX
  8
LAYER_1
 10
102.1985
 20
315.8841
  0
SEQEND
  0
POLYLINE
  8
LAYER_1
 40
0.1693
 41
0.1693
 66
1
 10
0
 20
0
 30
0
  0
VERTEX
  8
LAYER_1
 10
102.3467
 20
316.2862
 42
0.2049147906
  0
VERTEX
  8
LAYER_1
 10
102.1773
 20
315.9052
  0
SEQEND
  0
POLYLINE
  8
LAYER_1
 40
0.1693
 41
0.1693
 66
1
 10
0
 20
0
 30
0
  0
VERTEX
  8
LAYER_1
 10
133.1865
 20
314.6141
  0
VERTEX
  8
LAYER_1
 10
133.1865
 20
315.8841
  0
SEQEND
  0
POLYLINE
  8
LAYER_1
 40
0.1693
 41
0.1693
 66
1
 10
0
 20
0
 30
0
  0
VERTEX
  8
LAYER_1
 10
102.1985
 20
314.6141
  0
VERTEX
  8
LAYER_1
 10
133.1865
 20
314.6141
  0
SEQEND
  0
POLYLINE
  8
LAYER_1
 40
0.1693
 41
0.1693
 66
1
 10
0
 20
0
 30
0
  0
VERTEX
  8
LAYER_1
 10
131.8107
 20
317.2599
 42
0.2046956011
  0
VERTEX
  8
LAYER_1
 10
131.5144
 20
317.3657
  0
VERTEX
  8
LAYER_1
 10
131.4932
 20
317.3657
  0
SEQEND
  0
POLYLINE
  8
LAYER_1
 40
0.1693
 41
0.1693
 66
1
 10
0
 20
0
 30
0
  0
VERTEX
  8
LAYER_1
 10
133.0172
 20
316.2651
  0
VERTEX
  8
LAYER_1
 10
131.8319
 20
317.2599
  0
SEQEND
  0
POLYLINE
  8
LAYER_1
 40
0.1693
 41
0.1693
 66
1
 10
0
 20
0
 30
0
  0
VERTEX
  8
LAYER_1
 10
133.2077
 20
315.9052
 42
0.2123144673
  0
VERTEX
  8
LAYER_1
 10
132.996
 20
316.2862
  0
SEQEND
  0
POLYLINE
  8
LAYER_1
 40
0.1693
 41
0.1693
 66
1
 10
0
 20
0
 30
0
  0
VERTEX
  8
LAYER_1
 10
102.3679
 20
316.2651
  0
VERTEX
  8
LAYER_1
 10
103.5532
 20
317.2599
  0
SEQEND
  0
POLYLINE
  8
LAYER_1
 40
0.1693
 41
0.1693
 66
1
 10
0
 20
0
 30
0
  0
VERTEX
  8
LAYER_1
 10
103.8707
 20
317.3657
  0
VERTEX
  8
LAYER_1
 10
131.5144
 20
317.3657
  0
SEQEND
  0
POLYLINE
  8
LAYER_1
 40
0.1693
 41
0.1693
 66
1
 10
0
 20
0
 30
0
  0
VERTEX
  8
LAYER_1
 10
103.8495
 20
317.3657
 42
0.1499947673
  0
VERTEX
  8
LAYER_1
 10
103.532
 20
317.2599
  0
SEQEND
  0
POLYLINE
  8
LAYER_1
 40
0.1693
 41
0.1693
 66
1
 10
0
 20
0
 30
0
  0
VERTEX
  8
LAYER_1
 10
102.6854
 20
313.1112
  0
VERTEX
  8
LAYER_1
 10
102.6854
 20
314.6141
  0
SEQEND
  0
POLYLINE
  8
LAYER_1
 40
0.1693
 41
0.1693
 66
1
 10
0
 20
0
 30
0
  0
VERTEX
  8
LAYER_1
 10
132.6997
 20
313.1112
  0
VERTEX
  8
LAYER_1
 10
132.6997
 20
314.6141
  0
SEQEND
  0
POLYLINE
  8
LAYER_1
 40
0.0847
 41
0.0847
 66
1
 10
0
 20
0
 30
0
  0
VERTEX
  8
LAYER_1
 10
117.6925
 20
310.1056
  0
VERTEX
  8
LAYER_1
 10
117.6925
 20
313.1112
  0
SEQEND
  0
POLYLINE
  8
LAYER_1
 40
0.1693
 41
0.1693
 66
1
 10
0
 20
0
 30
0
  0
VERTEX
  8
LAYER_1
 10
106.326
 20
310.1056
  0
VERTEX
  8
LAYER_1
 10
106.326
 20
313.1112
  0
SEQEND
  0
POLYLINE
  8
LAYER_1
 40
0.1693
 41
0.1693
 66
1
 10
0
 20
0
 30
0
  0
VERTEX
  8
LAYER_1
 10
106.326
 20
310.1056
  0
VERTEX
  8
LAYER_1
 10
129.0802
 20
310.1056
  0
VERTEX
  8
LAYER_1
 10
129.0802
 20
313.1112
  0
SEQEND
  0
POLYLINE
  8
LAYER_1
 40
0.1693
 41
0.1693
 66
1
 10
0
 20
0
 30
0
  0
VERTEX
  8
LAYER_1
 10
127.5139
 20
310.1056
  0
VERTEX
  8
LAYER_1
 10
127.3233
 20
309.9574
  0
SEQEND
  0
POLYLINE
  8
LAYER_1
 40
0.0847
 41
0.0847
 66
1
 10
0
 20
0
 30
0
  0
VERTEX
  8
LAYER_1
 10
107.3208
 20
309.8727
  0
VERTEX
  8
LAYER_1
 10
114.6657
 20
310.1056
  0
SEQEND
  0
POLYLINE
  8
LAYER_1
 40
0.1693
 41
0.1693
 66
1
 10
0
 20
0
 30
0
  0
VERTEX
  8
LAYER_1
 10
107.596
 20
310.1056
  0
VERTEX
  8
LAYER_1
 10
107.3208
 20
309.8727
  0
SEQEND
  0
POLYLINE
  8
LAYER_1
 40
0.1693
 41
0.1693
 66
1
 10
0
 20
0
 30
0
  0
VERTEX
  8
LAYER_1
 10
107.3208
 20
317.3657
  0
SEQEND
  0
POLYLINE
  8
LAYER_1
 40
0.1693
 41
0.1693
 66
1
 10
0
 20
0
 30
0
  0
VERTEX
  8
LAYER_1
 10
127.3233
 20
317.4716
  0
VERTEX
  8
LAYER_1
 10
124.3812
 20
317.3657
  0
SEQEND
  0
POLYLINE
  8
LAYER_1
 40
0.1693
 41
0.1693
 66
1
 10
0
 20
0
 30
0
  0
VERTEX
  8
LAYER_1
 10
127.3233
 20
317.4716
  0
VERTEX
  8
LAYER_1
 10
127.4503
 20
317.3657
  0
SEQEND
  0
POLYLINE
  8
LAYER_1
 40
0.1693
 41
0.1693
 66
1
 10
0
 20
0
 30
0
  0
VERTEX
  8
LAYER_1
 10
107.3208
 20
336.6062
  0
VERTEX
  8
LAYER_1
 10
107.3208
 20
345.3692
  0
SEQEND
  0
POLYLINE
  8
LAYER_1
 40
0.1693
 41
0.1693
 66
1
 10
0
 20
0
 30
0
  0
VERTEX
  8
LAYER_1
 10
128.0642
 20
336.6062
  0
VERTEX
  8
LAYER_1
 10
128.0642
 20
345.3692
  0
SEQEND
  0
POLYLINE
  8
LAYER_1
 40
0.0847
 41
0.0847
 66
1
 10
0
 20
0
 30
0
  0
VERTEX
  8
LAYER_1
 10
107.3208
 20
345.3692
  0
VERTEX
  8
LAYER_1
 10
107.3208
 20
346.1101
  0
SEQEND
  0
POLYLINE
  8
LAYER_1
 40
0.0847
 41
0.0847
 66
1
 10
0
 20
0
 30
0
  0
VERTEX
  8
LAYER_1
 10
107.3208
 20
347.6129
  0
VERTEX
  8
LAYER_1
 10
107.3208
 20
348.3749
  0
SEQEND
  0
POLYLINE
  8
LAYER_1
 40
0.0847
 41
0.0847
 66
1
 10
0
 20
0
 30
0
  0
VERTEX
  8
LAYER_1
 10
128.0642
 20
345.3692
  0
VERTEX
  8
LAYER_1
 10
128.0642
 20
346.1101
  0
SEQEND
  0
POLYLINE
  8
LAYER_1
 40
0.0847
 41
0.0847
 66
1
 10
0
 20
0
 30
0
  0
VERTEX
  8
LAYER_1
 10
128.0642
 20
347.6129
  0
VERTEX
  8
LAYER_1
 10
128.0642
 20
348.3749
  0
SEQEND
  0
POLYLINE
  8
LAYER_1
 40
0.1693
 41
0.1693
 66
1
 10
0
 20
0
 30
0
  0
VERTEX
  8
LAYER_1
 10
108.0617
 20
300.5171
  0
VERTEX
  8
LAYER_1
 10
107.8923
 20
300.3689
  0
SEQEND
  0
POLYLINE
  8
LAYER_1
 40
0.1693
 41
0.1693
 66
1
 10
0
 20
0
 30
0
  0
VERTEX
  8
LAYER_1
 10
107.6807
 20
299.8609
  0
VERTEX
  8
LAYER_1
 10
127.7044
 20
299.8609
  0
VERTEX
  8
LAYER_1
 10
127.7044
 20
300.3689
  0
SEQEND
  0
POLYLINE
  8
LAYER_1
 40
0.0847
 41
0.0847
 66
1
 10
0
 20
0
 30
0
  0
VERTEX
  8
LAYER_1
 10
122.3068
 20
300.3689
  0
VERTEX
  8
LAYER_1
 10
128.0642
 20
300.5594
  0
SEQEND
  0
POLYLINE
  8
LAYER_1
 40
0.1693
 41
0.1693
 66
1
 10
0
 20
0
 30
0
  0
VERTEX
  8
LAYER_1
 10
128.0642
 20
300.5594
  0
VERTEX
  8
LAYER_1
 10
127.8314
 20
300.3689
  0
SEQEND
  0
POLYLINE
  8
LAYER_1
 40
0.0847
 41
0.0847
 66
1
 10
0
 20
0
 30
0
  0
VERTEX
  8
LAYER_1
 10
99.7008
 20
370.9597
  0
VERTEX
  8
LAYER_1
 10
135.7053
 20
370.9597
  0
SEQEND
  0
POLYLINE
  8
LAYER_1
 40
0.1693
 41
0.1693
 66
1
 10
0
 20
0
 30
0
  0
VERTEX
  8
LAYER_1
 10
99.7008
 20
354.9577
  0
VERTEX
  8
LAYER_1
 10
99.7008
 20
355.0847
  0
SEQEND
  0
POLYLINE
  8
LAYER_1
 40
0.1693
 41
0.1693
 66
1
 10
0
 20
0
 30
0
  0
VERTEX
  8
LAYER_1
 10
99.6797
 20
354.9789
  0
VERTEX
  8
LAYER_1
 10
99.6797
 20
354.9577
 42
0.4408516217
  0
VERTEX
  8
LAYER_1
 10
99.7643
 20
354.8731
  0
SEQEND
  0
POLYLINE
  8
LAYER_1
 40
0.1693
 41
0.1693
 66
1
 10
0
 20
0
 30
0
  0
VERTEX
  8
LAYER_1
 10
135.7053
 20
354.9577
  0
VERTEX
  8
LAYER_1
 10
135.7053
 20
355.0847
  0
SEQEND
  0
POLYLINE
  8
LAYER_1
 40
0.1693
 41
0.1693
 66
1
 10
0
 20
0
 30
0
  0
VERTEX
  8
LAYER_1
 10
135.5783
 20
354.8731
 42
0.4459787268
  0
VERTEX
  8
LAYER_1
 10
135.5995
 20
354.8519
 42
0.2999510735
  0
VERTEX
  8
LAYER_1
 10
135.7053
 20
354.9577
 42
0.4471283441
  0
VERTEX
  8
LAYER_1
 10
135.6842
 20
354.9789
  0
SEQEND
  0
POLYLINE
  8
LAYER_1
 40
0.1693
 41
0.1693
 66
1
 10
0
 20
0
 30
0
  0
VERTEX
  8
LAYER_1
 10
99.7855
 20
354.8731
  0
VERTEX
  8
LAYER_1
 10
135.5995
 20
354.8731
  0
SEQEND
  0
POLYLINE
  8
LAYER_1
 40
0.1693
 41
0.1693
 66
1
 10
0
 20
0
 30
0
  0
VERTEX
  8
LAYER_1
 10
99.976
 20
355.5081
 42
0.3198639045
  0
VERTEX
  8
LAYER_1
 10
99.6797
 20
355.0636
  0
SEQEND
  0
POLYLINE
  8
LAYER_1
 40
0.1693
 41
0.1693
 66
1
 10
0
 20
0
 30
0
  0
VERTEX
  8
LAYER_1
 10
135.3667
 20
355.5081
 42
0.04069257403
  0
VERTEX
  8
LAYER_1
 10
128.9596
 20
357.8432
 42
0.04030838496
  0
VERTEX
  8
LAYER_1
 10
122.2579
 20
359.1157
 42
0.02680426664
  0
VERTEX
  8
LAYER_1
 10
117.6925
 20
359.3604
 42
0.04009473414
  0
VERTEX
  8
LAYER_1
 10
110.8516
 20
358.8112
 42
0.04025719298
  0
VERTEX
  8
LAYER_1
 10
104.2206
 20
357.1816
 42
0.02697308166
  0
VERTEX
  8
LAYER_1
 10
99.976
 20
355.5081
  0
SEQEND
  0
POLYLINE
  8
LAYER_1
 40
0.1693
 41
0.1693
 66
1
 10
0
 20
0
 30
0
  0
VERTEX
  8
LAYER_1
 10
135.7054
 20
355.0636
 42
0.2748266031
  0
VERTEX
  8
LAYER_1
 10
135.3879
 20
355.5081
  0
SEQEND
  0
POLYLINE
  8
LAYER_1
 40
0.1693
 41
0.1693
 66
1
 10
0
 20
0
 30
0
  0
VERTEX
  8
LAYER_1
 10
99.7009
 20
370.9597
  0
VERTEX
  8
LAYER_1
 10
101.1402
 20
371.3407
  0
SEQEND
  0
POLYLINE
  8
LAYER_1
 40
0.1693
 41
0.1693
 66
1
 10
0
 20
0
 30
0
  0
VERTEX
  8
LAYER_1
 10
99.7009
 20
370.9597
  0
VERTEX
  8
LAYER_1
 10
101.1402
 20
370.5787
  0
SEQEND
  0
POLYLINE
  8
LAYER_1
 40
0.1693
 41
0.1693
 66
1
 10
0
 20
0
 30
0
  0
VERTEX
  8
LAYER_1
 10
135.7054
 20
370.9597
  0
VERTEX
  8
LAYER_1
 10
134.2448
 20
370.5787
  0
SEQEND
  0
POLYLINE
  8
LAYER_1
 40
0.1693
 41
0.1693
 66
1
 10
0
 20
0
 30
0
  0
VERTEX
  8
LAYER_1
 10
135.7054
 20
370.9597
  0
VERTEX
  8
LAYER_1
 10
134.2448
 20
371.3407
  0
SEQEND
  0
POLYLINE
  8
LAYER_1
 40
0.0847
 41
0.0847
 66
1
 10
0
 20
0
 30
0
  0
VERTEX
  8
LAYER_1
 10
99.7008
 20
355.9949
  0
VERTEX
  8
LAYER_1
 10
99.7008
 20
370.9597
  0
SEQEND
  0
POLYLINE
  8
LAYER_1
 40
0.0847
 41
0.0847
 66
1
 10
0
 20
0
 30
0
  0
VERTEX
  8
LAYER_1
 10
135.7053
 20
355.9949
  0
VERTEX
  8
LAYER_1
 10
135.7053
 20
370.9597
  0
SEQEND
  0
POLYLINE
  8
LAYER_1
 40
0.0847
 41
0.0847
 66
1
 10
0
 20
0
 30
0
  0
VERTEX
  8
LAYER_1
 10
87.6358
 20
300.3689
  0
VERTEX
  8
LAYER_1
 10
87.6358
 20
350.3646
  0
SEQEND
  0
POLYLINE
  8
LAYER_1
 40
0.1693
 41
0.1693
 66
1
 10
0
 20
0
 30
0
  0
VERTEX
  8
LAYER_1
 10
87.6358
 20
350.3646
  0
VERTEX
  8
LAYER_1
 10
88.0168
 20
348.9252
  0
SEQEND
  0
POLYLINE
  8
LAYER_1
 40
0.1693
 41
0.1693
 66
1
 10
0
 20
0
 30
0
  0
VERTEX
  8
LAYER_1
 10
87.6358
 20
350.3646
  0
VERTEX
  8
LAYER_1
 10
87.2548
 20
348.9252
  0
SEQEND
  0
POLYLINE
  8
LAYER_1
 40
0.1693
 41
0.1693
 66
1
 10
0
 20
0
 30
0
  0
VERTEX
  8
LAYER_1
 10
87.6358
 20
300.3689
  0
VERTEX
  8
LAYER_1
 10
87.2548
 20
301.8082
  0
SEQEND
  0
POLYLINE
  8
LAYER_1
 40
0.1693
 41
0.1693
 66
1
 10
0
 20
0
 30
0
  0
VERTEX
  8
LAYER_1
 10
87.6358
 20
300.3689
  0
VERTEX
  8
LAYER_1
 10
88.0168
 20
301.8082
  0
SEQEND
  0
POLYLINE
  8
LAYER_1
 40
0.0847
 41
0.0847
 66
1
 10
0
 20
0
 30
0
  0
VERTEX
  8
LAYER_1
 10
87.6358
 20
300.3689
  0
VERTEX
  8
LAYER_1
 10
102.3255
 20
300.3689
  0
SEQEND
  0
POLYLINE
  8
LAYER_1
 40
0.1693
 41
0.1693
 66
1
 10
0
 20
0
 30
0
  0
VERTEX
  8
LAYER_1
 10
107.6807
 20
299.8609
  0
VERTEX
  8
LAYER_1
 10
107.6807
 20
300.3689
  0
VERTEX
  8
LAYER_1
 10
127.8314
 20
300.3689
  0
SEQEND
  0
POLYLINE
  8
LAYER_1
 40
0.0847
 41
0.0847
 66
1
 10
0
 20
0
 30
0
  0
VERTEX
  8
LAYER_1
 10
93.2238
 20
317.3657
  0
VERTEX
  8
LAYER_1
 10
93.2238
 20
349.8566
  0
SEQEND
  0
POLYLINE
  8
LAYER_1
 40
0.1693
 41
0.1693
 66
1
 10
0
 20
0
 30
0
  0
VERTEX
  8
LAYER_1
 10
93.2238
 20
349.8566
  0
VERTEX
  8
LAYER_1
 10
93.626
 20
348.4172
  0
SEQEND
  0
POLYLINE
  8
LAYER_1
 40
0.1693
 41
0.1693
 66
1
 10
0
 20
0
 30
0
  0
VERTEX
  8
LAYER_1
 10
93.2238
 20
349.8566
  0
VERTEX
  8
LAYER_1
 10
92.8429
 20
348.4172
  0
SEQEND
  0
POLYLINE
  8
LAYER_1
 40
0.1693
 41
0.1693
 66
1
 10
0
 20
0
 30
0
  0
VERTEX
  8
LAYER_1
 10
93.2238
 20
317.3657
  0
VERTEX
  8
LAYER_1
 10
92.8429
 20
318.8051
  0
SEQEND
  0
POLYLINE
  8
LAYER_1
 40
0.1693
 41
0.1693
 66
1
 10
0
 20
0
 30
0
  0
VERTEX
  8
LAYER_1
 10
93.2238
 20
317.3657
  0
VERTEX
  8
LAYER_1
 10
93.626
 20
318.8051
  0
SEQEND
  0
POLYLINE
  8
LAYER_1
 40
0.0847
 41
0.0847
 66
1
 10
0
 20
0
 30
0
  0
VERTEX
  8
LAYER_1
 10
93.2238
 20
317.3657
  0
VERTEX
  8
LAYER_1
 10
102.3255
 20
317.3657
  0
SEQEND
  0
TEXT
  8
LAYER_1
 10
99.1925
 20
290.0445
 11
99.1925
 21
290.0445
 40
2.4232
 41
0.5
  1
JORGERÉ╗ örÉàïÓï´ âNâìü[âÇâüâbâL100å@
  0
POLYLINE
  8
LAYER_1
 40
0.1693
 41
0.1693
 66
1
 10
0
 20
0
 30
0
  0
VERTEX
  8
LAYER_1
 10
98.452
 20
292.5796
  0
VERTEX
  8
LAYER_1
 10
141.8076
 20
292.5796
  0
SEQEND
  0
POLYLINE
  8
LAYER_1
 40
0.1693
 41
0.1693
 66
1
 10
0
 20
0
 30
0
  0
VERTEX
  8
LAYER_1
 10
141.8076
 20
289.0871
  0
VERTEX
  8
LAYER_1
 10
141.8076
 20
292.5796
  0
SEQEND
  0
POLYLINE
  8
LAYER_1
 40
0.1693
 41
0.1693
 66
1
 10
0
 20
0
 30
0
  0
VERTEX
  8
LAYER_1
 10
98.452
 20
289.0871
  0
VERTEX
  8
LAYER_1
 10
141.8076
 20
289.0871
  0
SEQEND
  0
POLYLINE
  8
LAYER_1
 40
0.1693
 41
0.1693
 66
1
 10
0
 20
0
 30
0
  0
VERTEX
  8
LAYER_1
 10
98.452
 20
289.0871
  0
VERTEX
  8
LAYER_1
 10
98.452
 20
292.5796
  0
SEQEND
  0
POLYLINE
  8
LAYER_1
 40
0.0847
 41
0.0847
 66
1
 10
0
 20
0
 30
0
  0
VERTEX
  8
LAYER_1
 10
131.7472
 20
346.1736
  0
VERTEX
  8
LAYER_1
 10
201.4702
 20
388.9091
  0
SEQEND
  0
POLYLINE
  8
LAYER_1
 40
0.0847
 41
0.0847
 66
1
 10
0
 20
0
 30
0
  0
VERTEX
  8
LAYER_1
 10
131.7049
 20
316.1169
  0
VERTEX
  8
LAYER_1
 10
198.3799
 20
367.9964
  0
SEQEND
  0
POLYLINE
  8
LAYER_1
 40
0.0847
 41
0.0847
 66
1
 10
0
 20
0
 30
0
  0
VERTEX
  8
LAYER_1
 10
128.3605
 20
311.4179
  0
VERTEX
  8
LAYER_1
 10
198.9302
 20
312.2222
  0
SEQEND
  0
POLYLINE
  8
LAYER_1
 40
0.0847
 41
0.0847
 66
1
 10
0
 20
0
 30
0
  0
VERTEX
  8
LAYER_1
 10
208.7515
 20
301.9564
  0
VERTEX
  8
LAYER_1
 10
220.2873
 20
301.9564
  0
SEQEND
  0
POLYLINE
  8
LAYER_1
 40
0.0847
 41
0.0847
 66
1
 10
0
 20
0
 30
0
  0
VERTEX
  8
LAYER_1
 10
208.7303
 20
301.9564
 42
0.2611758864
  0
VERTEX
  8
LAYER_1
 10
207.4392
 20
301.2156
  0
SEQEND
  0
POLYLINE
  8
LAYER_1
 40
0.0847
 41
0.0847
 66
1
 10
0
 20
0
 30
0
  0
VERTEX
  8
LAYER_1
 10
201.6818
 20
291.2037
  0
VERTEX
  8
LAYER_1
 10
207.4604
 20
301.1944
  0
SEQEND
  0
POLYLINE
  8
LAYER_1
 40
0.0847
 41
0.0847
 66
1
 10
0
 20
0
 30
0
  0
VERTEX
  8
LAYER_1
 10
201.6818
 20
291.2249
 42
0.1269466984
  0
VERTEX
  8
LAYER_1
 10
201.4914
 20
290.4629
 42
0.1331690832
  0
VERTEX
  8
LAYER_1
 10
201.6818
 20
289.7432
  0
SEQEND
  0
POLYLINE
  8
LAYER_1
 40
0.0847
 41
0.0847
 66
1
 10
0
 20
0
 30
0
  0
VERTEX
  8
LAYER_1
 10
207.4604
 20
279.7102
  0
VERTEX
  8
LAYER_1
 10
201.6818
 20
289.7009
  0
SEQEND
  0
POLYLINE
  8
LAYER_1
 40
0.0847
 41
0.0847
 66
1
 10
0
 20
0
 30
0
  0
VERTEX
  8
LAYER_1
 10
207.4392
 20
279.7314
 42
0.2336832548
  0
VERTEX
  8
LAYER_1
 10
208.509
 20
278.9721
 42
0.03414950621
  0
VERTEX
  8
LAYER_1
 10
208.7303
 20
278.9482
  0
SEQEND
  0
POLYLINE
  8
LAYER_1
 40
0.0847
 41
0.0847
 66
1
 10
0
 20
0
 30
0
  0
VERTEX
  8
LAYER_1
 10
208.7515
 20
278.9482
  0
VERTEX
  8
LAYER_1
 10
220.2873
 20
278.9482
  0
SEQEND
  0
POLYLINE
  8
LAYER_1
 40
0.0847
 41
0.0847
 66
1
 10
0
 20
0
 30
0
  0
VERTEX
  8
LAYER_1
 10
220.2662
 20
278.9482
  0
VERTEX
  8
LAYER_1
 10
220.2873
 20
278.9482
 42
0.2705885941
  0
VERTEX
  8
LAYER_1
 10
221.5785
 20
279.7102
  0
VERTEX
  8
LAYER_1
 10
227.357
 20
289.7009
  0
SEQEND
  0
POLYLINE
  8
LAYER_1
 40
0.0847
 41
0.0847
 66
1
 10
0
 20
0
 30
0
  0
VERTEX
  8
LAYER_1
 10
227.357
 20
289.7221
 42
0.1236981785
  0
VERTEX
  8
LAYER_1
 10
227.5687
 20
290.4629
 42
0.1317089499
  0
VERTEX
  8
LAYER_1
 10
227.357
 20
291.2249
  0
SEQEND
  0
POLYLINE
  8
LAYER_1
 40
0.0847
 41
0.0847
 66
1
 10
0
 20
0
 30
0
  0
VERTEX
  8
LAYER_1
 10
227.357
 20
291.2037
  0
VERTEX
  8
LAYER_1
 10
221.5785
 20
301.1944
  0
SEQEND
  0
POLYLINE
  8
LAYER_1
 40
0.0847
 41
0.0847
 66
1
 10
0
 20
0
 30
0
  0
VERTEX
  8
LAYER_1
 10
221.5785
 20
301.2156
 42
0.2599052163
  0
VERTEX
  8
LAYER_1
 10
220.2873
 20
301.9564
  0
VERTEX
  8
LAYER_1
 10
220.2662
 20
301.9564
  0
SEQEND
  0
POLYLINE
  8
LAYER_1
 40
0.0847
 41
0.0847
 66
1
 10
0
 20
0
 30
0
  0
VERTEX
  8
LAYER_1
 10
191.3102
 20
290.4629
  0
VERTEX
  8
LAYER_1
 10
193.575
 20
290.4629
  0
SEQEND
  0
POLYLINE
  8
LAYER_1
 40
0.0847
 41
0.0847
 66
1
 10
0
 20
0
 30
0
  0
VERTEX
  8
LAYER_1
 10
194.4852
 20
290.4629
  0
VERTEX
  8
LAYER_1
 10
195.3953
 20
290.4629
  0
SEQEND
  0
POLYLINE
  8
LAYER_1
 40
0.0847
 41
0.0847
 66
1
 10
0
 20
0
 30
0
  0
VERTEX
  8
LAYER_1
 10
196.3055
 20
290.4629
  0
VERTEX
  8
LAYER_1
 10
200.8352
 20
290.4629
  0
SEQEND
  0
POLYLINE
  8
LAYER_1
 40
0.0847
 41
0.0847
 66
1
 10
0
 20
0
 30
0
  0
VERTEX
  8
LAYER_1
 10
201.7453
 20
290.4629
  0
VERTEX
  8
LAYER_1
 10
202.6555
 20
290.4629
  0
SEQEND
  0
POLYLINE
  8
LAYER_1
 40
0.0847
 41
0.0847
 66
1
 10
0
 20
0
 30
0
  0
VERTEX
  8
LAYER_1
 10
203.5656
 20
290.4629
  0
VERTEX
  8
LAYER_1
 10
208.1165
 20
290.4629
  0
SEQEND
  0
POLYLINE
  8
LAYER_1
 40
0.0847
 41
0.0847
 66
1
 10
0
 20
0
 30
0
  0
VERTEX
  8
LAYER_1
 10
209.0266
 20
290.4629
  0
VERTEX
  8
LAYER_1
 10
209.9368
 20
290.4629
  0
SEQEND
  0
POLYLINE
  8
LAYER_1
 40
0.0847
 41
0.0847
 66
1
 10
0
 20
0
 30
0
  0
VERTEX
  8
LAYER_1
 10
210.847
 20
290.4629
  0
VERTEX
  8
LAYER_1
 10
215.3766
 20
290.4629
  0
SEQEND
  0
POLYLINE
  8
LAYER_1
 40
0.0847
 41
0.0847
 66
1
 10
0
 20
0
 30
0
  0
VERTEX
  8
LAYER_1
 10
216.2868
 20
290.4629
  0
VERTEX
  8
LAYER_1
 10
217.197
 20
290.4629
  0
SEQEND
  0
POLYLINE
  8
LAYER_1
 40
0.0847
 41
0.0847
 66
1
 10
0
 20
0
 30
0
  0
VERTEX
  8
LAYER_1
 10
218.1071
 20
290.4629
  0
VERTEX
  8
LAYER_1
 10
222.658
 20
290.4629
  0
SEQEND
  0
POLYLINE
  8
LAYER_1
 40
0.0847
 41
0.0847
 66
1
 10
0
 20
0
 30
0
  0
VERTEX
  8
LAYER_1
 10
223.5681
 20
290.4629
  0
VERTEX
  8
LAYER_1
 10
224.4783
 20
290.4629
  0
SEQEND
  0
POLYLINE
  8
LAYER_1
 40
0.0847
 41
0.0847
 66
1
 10
0
 20
0
 30
0
  0
VERTEX
  8
LAYER_1
 10
225.3884
 20
290.4629
  0
VERTEX
  8
LAYER_1
 10
229.9181
 20
290.4629
  0
SEQEND
  0
POLYLINE
  8
LAYER_1
 40
0.0847
 41
0.0847
 66
1
 10
0
 20
0
 30
0
  0
VERTEX
  8
LAYER_1
 10
230.8283
 20
290.4629
  0
VERTEX
  8
LAYER_1
 10
231.7384
 20
290.4629
  0
SEQEND
  0
POLYLINE
  8
LAYER_1
 40
0.0847
 41
0.0847
 66
1
 10
0
 20
0
 30
0
  0
VERTEX
  8
LAYER_1
 10
232.6486
 20
290.4629
  0
VERTEX
  8
LAYER_1
 10
234.9346
 20
290.4629
  0
SEQEND
  0
TEXT
  8
LAYER_1
 10
203.4837
 20
388.1682
 11
203.4837
 21
388.1682
 40
2.4232
 41
0.5
  1
âXâ`âìü[âïâpâbâLâô%%c60
  0
POLYLINE
  8
LAYER_1
 40
0.1693
 41
0.1693
 66
1
 10
0
 20
0
 30
0
  0
VERTEX
  8
LAYER_1
 10
201.7877
 20
387.1311
  0
VERTEX
  8
LAYER_1
 10
201.7877
 20
390.6236
  0
VERTEX
  8
LAYER_1
 10
227.2512
 20
390.6236
  0
SEQEND
  0
POLYLINE
  8
LAYER_1
 40
0.1693
 41
0.1693
 66
1
 10
0
 20
0
 30
0
  0
VERTEX
  8
LAYER_1
 10
227.2512
 20
387.1311
  0
VERTEX
  8
LAYER_1
 10
227.2512
 20
390.6236
  0
SEQEND
  0
POLYLINE
  8
LAYER_1
 40
0.1693
 41
0.1693
 66
1
 10
0
 20
0
 30
0
  0
VERTEX
  8
LAYER_1
 10
201.7877
 20
387.1311
  0
VERTEX
  8
LAYER_1
 10
227.2512
 20
387.1311
  0
SEQEND
  0
TEXT
  8
LAYER_1
 10
211.7114
 20
380.8658
 11
211.7114
 21
380.8658
 40
3.0419
 41
0.5
  1
%%c62
  0
TEXT
  8
LAYER_1
 10
211.7114
 20
321.8954
 11
211.7114
 21
321.8954
 40
3.0419
 41
0.5
  1
%%c60
  0
POLYLINE
  8
LAYER_1
 40
0.1693
 41
0.1693
 66
1
 10
0
 20
0
 30
0
  0
VERTEX
  8
LAYER_1
 10
101.6693
 20
350.3646
 42
0.4052609679
  0
VERTEX
  8
LAYER_1
 10
101.4365
 20
350.1106
 42
0.3594932975
  0
VERTEX
  8
LAYER_1
 10
101.6693
 20
349.8566
  0
SEQEND
  0
POLYLINE
  8
LAYER_1
 40
0.1693
 41
0.1693
 66
1
 10
0
 20
0
 30
0
  0
VERTEX
  8
LAYER_1
 10
101.6905
 20
349.8566
  0
VERTEX
  8
LAYER_1
 10
107.3208
 20
348.3749
  0
SEQEND
  0
POLYLINE
  8
LAYER_1
 40
0.1693
 41
0.1693
 66
1
 10
0
 20
0
 30
0
  0
VERTEX
  8
LAYER_1
 10
133.6945
 20
349.8566
  0
VERTEX
  8
LAYER_1
 10
128.0642
 20
348.3749
  0
SEQEND
  0
POLYLINE
  8
LAYER_1
 40
0.1693
 41
0.1693
 66
1
 10
0
 20
0
 30
0
  0
VERTEX
  8
LAYER_1
 10
101.6905
 20
350.3646
  0
VERTEX
  8
LAYER_1
 10
133.6945
 20
350.3646
  0
SEQEND
  0
POLYLINE
  8
LAYER_1
 40
0.1693
 41
0.1693
 66
1
 10
0
 20
0
 30
0
  0
VERTEX
  8
LAYER_1
 10
101.6905
 20
349.8566
  0
VERTEX
  8
LAYER_1
 10
133.6945
 20
349.8566
  0
SEQEND
  0
POLYLINE
  8
LAYER_1
 40
0.1693
 41
0.1693
 66
1
 10
0
 20
0
 30
0
  0
VERTEX
  8
LAYER_1
 10
133.6733
 20
349.8566
  0
VERTEX
  8
LAYER_1
 10
133.6945
 20
349.8566
 42
0.3750497176
  0
VERTEX
  8
LAYER_1
 10
133.9485
 20
350.1106
 42
0.3888895321
  0
VERTEX
  8
LAYER_1
 10
133.6945
 20
350.3646
  0
VERTEX
  8
LAYER_1
 10
133.6733
 20
350.3646
  0
SEQEND
  0
POLYLINE
  8
LAYER_1
 40
0.0847
 41
0.0847
 66
1
 10
0
 20
0
 30
0
  0
VERTEX
  8
LAYER_1
 10
87.6358
 20
350.3646
  0
VERTEX
  8
LAYER_1
 10
101.6905
 20
350.3646
  0
SEQEND
  0
POLYLINE
  8
LAYER_1
 40
0.0847
 41
0.0847
 66
1
 10
0
 20
0
 30
0
  0
VERTEX
  8
LAYER_1
 10
93.2238
 20
349.8566
  0
VERTEX
  8
LAYER_1
 10
101.6905
 20
349.8566
  0
SEQEND
  0
POLYLINE
  8
LAYER_1
 40
0.0847
 41
0.0847
 66
1
 10
0
 20
0
 30
0
  0
VERTEX
  8
LAYER_1
 10
50.7
 20
180.8619
  0
VERTEX
  8
LAYER_1
 10
51.0598
 20
180.8619
  0
SEQEND
  0
POLYLINE
  8
LAYER_1
 40
0.0847
 41
0.0847
 66
1
 10
0
 20
0
 30
0
  0
VERTEX
  8
LAYER_1
 10
51.8218
 20
180.8619
  0
VERTEX
  8
LAYER_1
 10
52.2028
 20
180.8619
  0
SEQEND
  0
POLYLINE
  8
LAYER_1
 40
0.0847
 41
0.0847
 66
1
 10
0
 20
0
 30
0
  0
VERTEX
  8
LAYER_1
 10
79.6983
 20
180.8619
  0
VERTEX
  8
LAYER_1
 10
80.0582
 20
180.8619
  0
SEQEND
  0
POLYLINE
  8
LAYER_1
 40
0.0847
 41
0.0847
 66
1
 10
0
 20
0
 30
0
  0
VERTEX
  8
LAYER_1
 10
80.8202
 20
180.8619
  0
VERTEX
  8
LAYER_1
 10
81.2012
 20
180.8619
  0
SEQEND
  0
POLYLINE
  8
LAYER_1
 40
0.0847
 41
0.0847
 66
1
 10
0
 20
0
 30
0
  0
VERTEX
  8
LAYER_1
 10
79.6983
 20
180.8619
  0
VERTEX
  8
LAYER_1
 10
79.6983
 20
181.0312
  0
SEQEND
  0
POLYLINE
  8
LAYER_1
 40
0.0847
 41
0.0847
 66
1
 10
0
 20
0
 30
0
  0
VERTEX
  8
LAYER_1
 10
79.6983
 20
181.4122
  0
VERTEX
  8
LAYER_1
 10
79.6983
 20
181.6027
  0
SEQEND
  0
POLYLINE
  8
LAYER_1
 40
0.0847
 41
0.0847
 66
1
 10
0
 20
0
 30
0
  0
VERTEX
  8
LAYER_1
 10
81.2012
 20
180.8619
  0
VERTEX
  8
LAYER_1
 10
81.2012
 20
181.0312
  0
SEQEND
  0
POLYLINE
  8
LAYER_1
 40
0.0847
 41
0.0847
 66
1
 10
0
 20
0
 30
0
  0
VERTEX
  8
LAYER_1
 10
81.2012
 20
181.4122
  0
VERTEX
  8
LAYER_1
 10
81.2012
 20
181.6027
  0
SEQEND
  0
POLYLINE
  8
LAYER_1
 40
0.0847
 41
0.0847
 66
1
 10
0
 20
0
 30
0
  0
VERTEX
  8
LAYER_1
 10
50.7
 20
180.8619
  0
VERTEX
  8
LAYER_1
 10
50.7
 20
181.0312
  0
SEQEND
  0
POLYLINE
  8
LAYER_1
 40
0.0847
 41
0.0847
 66
1
 10
0
 20
0
 30
0
  0
VERTEX
  8
LAYER_1
 10
50.7
 20
181.4122
  0
VERTEX
  8
LAYER_1
 10
50.7
 20
181.6027
  0
SEQEND
  0
POLYLINE
  8
LAYER_1
 40
0.0847
 41
0.0847
 66
1
 10
0
 20
0
 30
0
  0
VERTEX
  8
LAYER_1
 10
52.2028
 20
180.8619
  0
VERTEX
  8
LAYER_1
 10
52.2028
 20
181.0312
  0
SEQEND
  0
POLYLINE
  8
LAYER_1
 40
0.0847
 41
0.0847
 66
1
 10
0
 20
0
 30
0
  0
VERTEX
  8
LAYER_1
 10
52.2028
 20
181.4122
  0
VERTEX
  8
LAYER_1
 10
52.2028
 20
181.6027
  0
SEQEND
  0
POLYLINE
  8
LAYER_1
 40
0.0847
 41
0.0847
 66
1
 10
0
 20
0
 30
0
  0
VERTEX
  8
LAYER_1
 10
183.2033
 20
178.3642
  0
VERTEX
  8
LAYER_1
 10
183.5632
 20
178.3642
  0
SEQEND
  0
POLYLINE
  8
LAYER_1
 40
0.0847
 41
0.0847
 66
1
 10
0
 20
0
 30
0
  0
VERTEX
  8
LAYER_1
 10
184.3252
 20
178.3642
  0
VERTEX
  8
LAYER_1
 10
184.7062
 20
178.3642
  0
SEQEND
  0
POLYLINE
  8
LAYER_1
 40
0.0847
 41
0.0847
 66
1
 10
0
 20
0
 30
0
  0
VERTEX
  8
LAYER_1
 10
154.205
 20
178.3642
  0
VERTEX
  8
LAYER_1
 10
154.5648
 20
178.3642
  0
SEQEND
  0
POLYLINE
  8
LAYER_1
 40
0.0847
 41
0.0847
 66
1
 10
0
 20
0
 30
0
  0
VERTEX
  8
LAYER_1
 10
155.3057
 20
178.3642
  0
VERTEX
  8
LAYER_1
 10
155.6866
 20
178.3642
  0
VERTEX
  8
LAYER_1
 10
155.6866
 20
178.5335
  0
SEQEND
  0
POLYLINE
  8
LAYER_1
 40
0.0847
 41
0.0847
 66
1
 10
0
 20
0
 30
0
  0
VERTEX
  8
LAYER_1
 10
155.6866
 20
178.9146
  0
VERTEX
  8
LAYER_1
 10
155.6866
 20
179.105
  0
SEQEND
  0
POLYLINE
  8
LAYER_1
 40
0.0847
 41
0.0847
 66
1
 10
0
 20
0
 30
0
  0
VERTEX
  8
LAYER_1
 10
154.205
 20
178.3642
  0
VERTEX
  8
LAYER_1
 10
154.205
 20
178.5335
  0
SEQEND
  0
POLYLINE
  8
LAYER_1
 40
0.0847
 41
0.0847
 66
1
 10
0
 20
0
 30
0
  0
VERTEX
  8
LAYER_1
 10
154.205
 20
178.9146
  0
VERTEX
  8
LAYER_1
 10
154.205
 20
179.105
  0
SEQEND
  0
POLYLINE
  8
LAYER_1
 40
0.0847
 41
0.0847
 66
1
 10
0
 20
0
 30
0
  0
VERTEX
  8
LAYER_1
 10
183.2033
 20
178.3642
  0
VERTEX
  8
LAYER_1
 10
183.2033
 20
178.5335
  0
SEQEND
  0
POLYLINE
  8
LAYER_1
 40
0.0847
 41
0.0847
 66
1
 10
0
 20
0
 30
0
  0
VERTEX
  8
LAYER_1
 10
183.2033
 20
178.9146
  0
VERTEX
  8
LAYER_1
 10
183.2033
 20
179.105
  0
SEQEND
  0
POLYLINE
  8
LAYER_1
 40
0.0847
 41
0.0847
 66
1
 10
0
 20
0
 30
0
  0
VERTEX
  8
LAYER_1
 10
184.7061
 20
178.3642
  0
VERTEX
  8
LAYER_1
 10
184.7061
 20
178.5335
  0
SEQEND
  0
POLYLINE
  8
LAYER_1
 40
0.0847
 41
0.0847
 66
1
 10
0
 20
0
 30
0
  0
VERTEX
  8
LAYER_1
 10
184.7061
 20
178.9146
  0
VERTEX
  8
LAYER_1
 10
184.7061
 20
179.105
  0
SEQEND
  0
POLYLINE
  8
LAYER_1
 40
0.0847
 41
0.0847
 66
1
 10
0
 20
0
 30
0
  0
VERTEX
  8
LAYER_1
 10
329.8671
 20
236.0857
  0
VERTEX
  8
LAYER_1
 10
329.8671
 20
238.3506
  0
SEQEND
  0
POLYLINE
  8
LAYER_1
 40
0.0847
 41
0.0847
 66
1
 10
0
 20
0
 30
0
  0
VERTEX
  8
LAYER_1
 10
329.8671
 20
239.2607
  0
VERTEX
  8
LAYER_1
 10
329.8671
 20
240.1709
  0
SEQEND
  0
POLYLINE
  8
LAYER_1
 40
0.0847
 41
0.0847
 66
1
 10
0
 20
0
 30
0
  0
VERTEX
  8
LAYER_1
 10
329.8671
 20
241.0811
  0
VERTEX
  8
LAYER_1
 10
329.8671
 20
245.6319
  0
SEQEND
  0
POLYLINE
  8
LAYER_1
 40
0.0847
 41
0.0847
 66
1
 10
0
 20
0
 30
0
  0
VERTEX
  8
LAYER_1
 10
329.8671
 20
246.5421
  0
VERTEX
  8
LAYER_1
 10
329.8671
 20
247.4522
  0
SEQEND
  0
POLYLINE
  8
LAYER_1
 40
0.0847
 41
0.0847
 66
1
 10
0
 20
0
 30
0
  0
VERTEX
  8
LAYER_1
 10
329.8671
 20
248.3624
  0
VERTEX
  8
LAYER_1
 10
329.8671
 20
252.9132
  0
SEQEND
  0
POLYLINE
  8
LAYER_1
 40
0.0847
 41
0.0847
 66
1
 10
0
 20
0
 30
0
  0
VERTEX
  8
LAYER_1
 10
329.8671
 20
253.8234
  0
VERTEX
  8
LAYER_1
 10
329.8671
 20
254.7336
  0
SEQEND
  0
POLYLINE
  8
LAYER_1
 40
0.0847
 41
0.0847
 66
1
 10
0
 20
0
 30
0
  0
VERTEX
  8
LAYER_1
 10
329.8671
 20
255.6437
  0
VERTEX
  8
LAYER_1
 10
329.8671
 20
260.1946
  0
SEQEND
  0
POLYLINE
  8
LAYER_1
 40
0.0847
 41
0.0847
 66
1
 10
0
 20
0
 30
0
  0
VERTEX
  8
LAYER_1
 10
329.8671
 20
261.1047
  0
VERTEX
  8
LAYER_1
 10
329.8671
 20
262.0149
  0
SEQEND
  0
POLYLINE
  8
LAYER_1
 40
0.0847
 41
0.0847
 66
1
 10
0
 20
0
 30
0
  0
VERTEX
  8
LAYER_1
 10
329.8671
 20
262.9251
  0
VERTEX
  8
LAYER_1
 10
329.8671
 20
267.4759
  0
SEQEND
  0
POLYLINE
  8
LAYER_1
 40
0.0847
 41
0.0847
 66
1
 10
0
 20
0
 30
0
  0
VERTEX
  8
LAYER_1
 10
329.8671
 20
268.3861
  0
VERTEX
  8
LAYER_1
 10
329.8671
 20
269.2962
  0
SEQEND
  0
POLYLINE
  8
LAYER_1
 40
0.0847
 41
0.0847
 66
1
 10
0
 20
0
 30
0
  0
VERTEX
  8
LAYER_1
 10
329.8671
 20
270.2064
  0
VERTEX
  8
LAYER_1
 10
329.8671
 20
274.7572
  0
SEQEND
  0
POLYLINE
  8
LAYER_1
 40
0.0847
 41
0.0847
 66
1
 10
0
 20
0
 30
0
  0
VERTEX
  8
LAYER_1
 10
329.8671
 20
275.6674
  0
VERTEX
  8
LAYER_1
 10
329.8671
 20
276.5564
  0
SEQEND
  0
POLYLINE
  8
LAYER_1
 40
0.0847
 41
0.0847
 66
1
 10
0
 20
0
 30
0
  0
VERTEX
  8
LAYER_1
 10
329.8671
 20
277.4666
  0
VERTEX
  8
LAYER_1
 10
329.8671
 20
282.0174
  0
SEQEND
  0
POLYLINE
  8
LAYER_1
 40
0.0847
 41
0.0847
 66
1
 10
0
 20
0
 30
0
  0
VERTEX
  8
LAYER_1
 10
329.8671
 20
282.9276
  0
VERTEX
  8
LAYER_1
 10
329.8671
 20
283.8377
  0
SEQEND
  0
POLYLINE
  8
LAYER_1
 40
0.0847
 41
0.0847
 66
1
 10
0
 20
0
 30
0
  0
VERTEX
  8
LAYER_1
 10
329.8671
 20
284.7479
  0
VERTEX
  8
LAYER_1
 10
329.8671
 20
289.2987
  0
SEQEND
  0
POLYLINE
  8
LAYER_1
 40
0.0847
 41
0.0847
 66
1
 10
0
 20
0
 30
0
  0
VERTEX
  8
LAYER_1
 10
329.8671
 20
290.2089
  0
VERTEX
  8
LAYER_1
 10
329.8671
 20
291.1191
  0
SEQEND
  0
POLYLINE
  8
LAYER_1
 40
0.0847
 41
0.0847
 66
1
 10
0
 20
0
 30
0
  0
VERTEX
  8
LAYER_1
 10
329.8671
 20
292.0293
  0
VERTEX
  8
LAYER_1
 10
329.8671
 20
296.5801
  0
SEQEND
  0
POLYLINE
  8
LAYER_1
 40
0.0847
 41
0.0847
 66
1
 10
0
 20
0
 30
0
  0
VERTEX
  8
LAYER_1
 10
329.8671
 20
297.4903
  0
VERTEX
  8
LAYER_1
 10
329.8671
 20
298.4004
  0
SEQEND
  0
POLYLINE
  8
LAYER_1
 40
0.0847
 41
0.0847
 66
1
 10
0
 20
0
 30
0
  0
VERTEX
  8
LAYER_1
 10
329.8671
 20
299.3106
  0
VERTEX
  8
LAYER_1
 10
329.8671
 20
303.8614
  0
SEQEND
  0
POLYLINE
  8
LAYER_1
 40
0.0847
 41
0.0847
 66
1
 10
0
 20
0
 30
0
  0
VERTEX
  8
LAYER_1
 10
329.8671
 20
304.7716
  0
VERTEX
  8
LAYER_1
 10
329.8671
 20
305.6818
  0
SEQEND
  0
POLYLINE
  8
LAYER_1
 40
0.0847
 41
0.0847
 66
1
 10
0
 20
0
 30
0
  0
VERTEX
  8
LAYER_1
 10
329.8671
 20
306.5919
  0
VERTEX
  8
LAYER_1
 10
329.8671
 20
311.1428
  0
SEQEND
  0
POLYLINE
  8
LAYER_1
 40
0.0847
 41
0.0847
 66
1
 10
0
 20
0
 30
0
  0
VERTEX
  8
LAYER_1
 10
329.8671
 20
312.0529
  0
VERTEX
  8
LAYER_1
 10
329.8671
 20
312.9631
  0
SEQEND
  0
POLYLINE
  8
LAYER_1
 40
0.0847
 41
0.0847
 66
1
 10
0
 20
0
 30
0
  0
VERTEX
  8
LAYER_1
 10
329.8671
 20
313.8733
  0
VERTEX
  8
LAYER_1
 10
329.8671
 20
316.1593
  0
SEQEND
  0
POLYLINE
  8
LAYER_1
 40
0.1693
 41
0.1693
 66
1
 10
0
 20
0
 30
0
  0
VERTEX
  8
LAYER_1
 10
319.7918
 20
271.8997
 42
0.3804823984
  0
VERTEX
  8
LAYER_1
 10
319.0722
 20
271.1166
  0
SEQEND
  0
POLYLINE
  8
LAYER_1
 40
0.1693
 41
0.1693
 66
1
 10
0
 20
0
 30
0
  0
VERTEX
  8
LAYER_1
 10
322.0778
 20
272.8099
  0
SEQEND
  0
POLYLINE
  8
LAYER_1
 40
0.1693
 41
0.1693
 66
1
 10
0
 20
0
 30
0
  0
VERTEX
  8
LAYER_1
 10
321.337
 20
272.0267
  0
VERTEX
  8
LAYER_1
 10
319.7918
 20
271.8786
  0
SEQEND
  0
POLYLINE
  8
LAYER_1
 40
0.1693
 41
0.1693
 66
1
 10
0
 20
0
 30
0
  0
VERTEX
  8
LAYER_1
 10
321.3158
 20
272.0267
 42
0.4007841917
  0
VERTEX
  8
LAYER_1
 10
322.0778
 20
272.8099
  0
VERTEX
  8
LAYER_1
 10
322.0778
 20
272.8311
  0
SEQEND
  0
POLYLINE
  8
LAYER_1
 40
0.1693
 41
0.1693
 66
1
 10
0
 20
0
 30
0
  0
VERTEX
  8
LAYER_1
 10
319.0722
 20
270.8202
  0
VERTEX
  8
LAYER_1
 10
319.0722
 20
271.0954
  0
SEQEND
  0
POLYLINE
  8
LAYER_1
 40
0.254
 41
0.254
 66
1
 10
0
 20
0
 30
0
  0
VERTEX
  8
LAYER_1
 10
323.369
 20
261.8456
  0
VERTEX
  8
LAYER_1
 10
323.369
 20
270.8202
  0
SEQEND
  0
POLYLINE
  8
LAYER_1
 40
0.254
 41
0.254
 66
1
 10
0
 20
0
 30
0
  0
VERTEX
  8
LAYER_1
 10
336.3654
 20
261.8456
  0
VERTEX
  8
LAYER_1
 10
336.3654
 20
270.8202
  0
SEQEND
  0
POLYLINE
  8
LAYER_1
 40
0.1693
 41
0.1693
 66
1
 10
0
 20
0
 30
0
  0
VERTEX
  8
LAYER_1
 10
334.5662
 20
260.8296
  0
VERTEX
  8
LAYER_1
 10
338.0587
 20
260.8296
  0
SEQEND
  0
POLYLINE
  8
LAYER_1
 40
0.1693
 41
0.1693
 66
1
 10
0
 20
0
 30
0
  0
VERTEX
  8
LAYER_1
 10
320.2152
 20
261.1471
  0
VERTEX
  8
LAYER_1
 10
321.7604
 20
261.1471
  0
SEQEND
  0
POLYLINE
  8
LAYER_1
 40
0.1693
 41
0.1693
 66
1
 10
0
 20
0
 30
0
  0
VERTEX
  8
LAYER_1
 10
319.7918
 20
261.2529
 42
0.07497006617
  0
VERTEX
  8
LAYER_1
 10
320.194
 20
261.1471
  0
SEQEND
  0
POLYLINE
  8
LAYER_1
 40
0.1693
 41
0.1693
 66
1
 10
0
 20
0
 30
0
  0
VERTEX
  8
LAYER_1
 10
319.0722
 20
261.7821
  0
VERTEX
  8
LAYER_1
 10
319.0722
 20
261.8456
  0
SEQEND
  0
POLYLINE
  8
LAYER_1
 40
0.1693
 41
0.1693
 66
1
 10
0
 20
0
 30
0
  0
VERTEX
  8
LAYER_1
 10
319.0722
 20
261.7186
 42
0.06721402297
  0
VERTEX
  8
LAYER_1
 10
319.7707
 20
261.2317
  0
SEQEND
  0
POLYLINE
  8
LAYER_1
 40
0.1693
 41
0.1693
 66
1
 10
0
 20
0
 30
0
  0
VERTEX
  8
LAYER_1
 10
319.0722
 20
261.8032
  0
VERTEX
  8
LAYER_1
 10
319.0722
 20
261.7821
  0
VERTEX
  8
LAYER_1
 10
319.0722
 20
261.7397
  0
SEQEND
  0
POLYLINE
  8
LAYER_1
 40
0.1693
 41
0.1693
 66
1
 10
0
 20
0
 30
0
  0
VERTEX
  8
LAYER_1
 10
322.0567
 20
260.8507
 42
0.368042005
  0
VERTEX
  8
LAYER_1
 10
321.7604
 20
261.1259
  0
VERTEX
  8
LAYER_1
 10
321.7392
 20
261.1259
  0
SEQEND
  0
POLYLINE
  8
LAYER_1
 40
0.1693
 41
0.1693
 66
1
 10
0
 20
0
 30
0
  0
VERTEX
  8
LAYER_1
 10
338.3762
 20
261.1471
  0
VERTEX
  8
LAYER_1
 10
339.9214
 20
261.1471
  0
SEQEND
  0
POLYLINE
  8
LAYER_1
 40
0.1693
 41
0.1693
 66
1
 10
0
 20
0
 30
0
  0
VERTEX
  8
LAYER_1
 10
339.9002
 20
261.1471
  0
VERTEX
  8
LAYER_1
 10
339.9214
 20
261.1471
 42
0.1076838853
  0
VERTEX
  8
LAYER_1
 10
340.3235
 20
261.2529
  0
SEQEND
  0
POLYLINE
  8
LAYER_1
 40
0.1693
 41
0.1693
 66
1
 10
0
 20
0
 30
0
  0
VERTEX
  8
LAYER_1
 10
341.0644
 20
261.782
  0
VERTEX
  8
LAYER_1
 10
341.0644
 20
261.8455
  0
SEQEND
  0
POLYLINE
  8
LAYER_1
 40
0.1693
 41
0.1693
 66
1
 10
0
 20
0
 30
0
  0
VERTEX
  8
LAYER_1
 10
340.3235
 20
261.2317
 42
0.1039626911
  0
VERTEX
  8
LAYER_1
 10
341.022
 20
261.7186
  0
VERTEX
  8
LAYER_1
 10
341.0644
 20
261.782
 42
0.4459787266
  0
VERTEX
  8
LAYER_1
 10
341.0432
 20
261.8032
  0
SEQEND
  0
POLYLINE
  8
LAYER_1
 40
0.1693
 41
0.1693
 66
1
 10
0
 20
0
 30
0
  0
VERTEX
  8
LAYER_1
 10
338.355
 20
261.1259
 42
0.4038261316
  0
VERTEX
  8
LAYER_1
 10
338.0799
 20
260.8507
  0
SEQEND
  0
POLYLINE
  8
LAYER_1
 40
0.1693
 41
0.1693
 66
1
 10
0
 20
0
 30
0
  0
VERTEX
  8
LAYER_1
 10
322.0779
 20
260.8296
  0
VERTEX
  8
LAYER_1
 10
325.1682
 20
260.8296
  0
SEQEND
  0
POLYLINE
  8
LAYER_1
 40
0.1693
 41
0.1693
 66
1
 10
0
 20
0
 30
0
  0
VERTEX
  8
LAYER_1
 10
324.3427
 20
260.8296
  0
VERTEX
  8
LAYER_1
 10
335.3917
 20
260.8296
  0
SEQEND
  0
POLYLINE
  8
LAYER_1
 40
0.1693
 41
0.1693
 66
1
 10
0
 20
0
 30
0
  0
VERTEX
  8
LAYER_1
 10
324.3215
 20
260.8296
 42
0.3551278831
  0
VERTEX
  8
LAYER_1
 10
324.2157
 20
260.7872
  0
SEQEND
  0
POLYLINE
  8
LAYER_1
 40
0.1693
 41
0.1693
 66
1
 10
0
 20
0
 30
0
  0
VERTEX
  8
LAYER_1
 10
323.75
 20
260.4062
  0
VERTEX
  8
LAYER_1
 10
324.2157
 20
260.7872
  0
SEQEND
  0
POLYLINE
  8
LAYER_1
 40
0.1693
 41
0.1693
 66
1
 10
0
 20
0
 30
0
  0
VERTEX
  8
LAYER_1
 10
323.75
 20
260.3851
 42
0.2328101076
  0
VERTEX
  8
LAYER_1
 10
323.6865
 20
260.2581
  0
SEQEND
  0
POLYLINE
  8
LAYER_1
 40
0.1693
 41
0.1693
 66
1
 10
0
 20
0
 30
0
  0
VERTEX
  8
LAYER_1
 10
323.6654
 20
259.7501
  0
VERTEX
  8
LAYER_1
 10
323.6654
 20
260.2369
  0
SEQEND
  0
POLYLINE
  8
LAYER_1
 40
0.1693
 41
0.1693
 66
1
 10
0
 20
0
 30
0
  0
VERTEX
  8
LAYER_1
 10
323.6654
 20
259.7501
  0
VERTEX
  8
LAYER_1
 10
336.069
 20
259.7501
  0
VERTEX
  8
LAYER_1
 10
336.069
 20
260.2369
  0
SEQEND
  0
POLYLINE
  8
LAYER_1
 40
0.1693
 41
0.1693
 66
1
 10
0
 20
0
 30
0
  0
VERTEX
  8
LAYER_1
 10
336.069
 20
260.2581
 42
0.1336575704
  0
VERTEX
  8
LAYER_1
 10
335.9844
 20
260.4062
  0
SEQEND
  0
POLYLINE
  8
LAYER_1
 40
0.1693
 41
0.1693
 66
1
 10
0
 20
0
 30
0
  0
VERTEX
  8
LAYER_1
 10
336.0055
 20
260.4062
  0
VERTEX
  8
LAYER_1
 10
335.5187
 20
260.7872
  0
SEQEND
  0
POLYLINE
  8
LAYER_1
 40
0.1693
 41
0.1693
 66
1
 10
0
 20
0
 30
0
  0
VERTEX
  8
LAYER_1
 10
335.4975
 20
260.8084
  0
VERTEX
  8
LAYER_1
 10
335.3917
 20
260.8296
  0
VERTEX
  8
LAYER_1
 10
335.3705
 20
260.8296
  0
SEQEND
  0
POLYLINE
  8
LAYER_1
 40
0.1693
 41
0.1693
 66
1
 10
0
 20
0
 30
0
  0
VERTEX
  8
LAYER_1
 10
323.877
 20
259.1362
  0
VERTEX
  8
LAYER_1
 10
335.8785
 20
259.1362
  0
SEQEND
  0
POLYLINE
  8
LAYER_1
 40
0.1693
 41
0.1693
 66
1
 10
0
 20
0
 30
0
  0
VERTEX
  8
LAYER_1
 10
325.3164
 20
257.9297
  0
VERTEX
  8
LAYER_1
 10
325.3164
 20
259.1362
  0
SEQEND
  0
POLYLINE
  8
LAYER_1
 40
0.1693
 41
0.1693
 66
1
 10
0
 20
0
 30
0
  0
VERTEX
  8
LAYER_1
 10
323.877
 20
259.1362
  0
VERTEX
  8
LAYER_1
 10
323.877
 20
259.7501
  0
SEQEND
  0
POLYLINE
  8
LAYER_1
 40
0.1693
 41
0.1693
 66
1
 10
0
 20
0
 30
0
  0
VERTEX
  8
LAYER_1
 10
334.418
 20
257.9297
  0
VERTEX
  8
LAYER_1
 10
334.418
 20
259.1362
  0
SEQEND
  0
POLYLINE
  8
LAYER_1
 40
0.1693
 41
0.1693
 66
1
 10
0
 20
0
 30
0
  0
VERTEX
  8
LAYER_1
 10
325.3164
 20
257.9297
  0
VERTEX
  8
LAYER_1
 10
334.418
 20
257.9297
  0
SEQEND
  0
POLYLINE
  8
LAYER_1
 40
0.1693
 41
0.1693
 66
1
 10
0
 20
0
 30
0
  0
VERTEX
  8
LAYER_1
 10
335.8785
 20
259.1362
  0
VERTEX
  8
LAYER_1
 10
335.8785
 20
259.7501
  0
SEQEND
  0
POLYLINE
  8
LAYER_1
 40
0.1693
 41
0.1693
 66
1
 10
0
 20
0
 30
0
  0
VERTEX
  8
LAYER_1
 10
319.0722
 20
270.8202
  0
VERTEX
  8
LAYER_1
 10
325.3587
 20
270.8202
  0
SEQEND
  0
POLYLINE
  8
LAYER_1
 40
0.1693
 41
0.1693
 66
1
 10
0
 20
0
 30
0
  0
VERTEX
  8
LAYER_1
 10
319.0722
 20
261.8456
  0
VERTEX
  8
LAYER_1
 10
325.1682
 20
261.8456
  0
SEQEND
  0
POLYLINE
  8
LAYER_1
 40
0.1693
 41
0.1693
 66
1
 10
0
 20
0
 30
0
  0
VERTEX
  8
LAYER_1
 10
334.5662
 20
261.8456
  0
VERTEX
  8
LAYER_1
 10
341.0643
 20
261.8456
  0
SEQEND
  0
POLYLINE
  8
LAYER_1
 40
0.0847
 41
0.0847
 66
1
 10
0
 20
0
 30
0
  0
VERTEX
  8
LAYER_1
 10
340.7469
 20
261.4646
  0
VERTEX
  8
LAYER_1
 10
341.0644
 20
261.7821
  0
SEQEND
  0
POLYLINE
  8
LAYER_1
 40
0.0847
 41
0.0847
 66
1
 10
0
 20
0
 30
0
  0
VERTEX
  8
LAYER_1
 10
340.1754
 20
261.1682
  0
VERTEX
  8
LAYER_1
 10
340.8315
 20
261.8456
  0
SEQEND
  0
POLYLINE
  8
LAYER_1
 40
0.0847
 41
0.0847
 66
1
 10
0
 20
0
 30
0
  0
VERTEX
  8
LAYER_1
 10
339.8578
 20
261.1471
  0
VERTEX
  8
LAYER_1
 10
340.5563
 20
261.8456
  0
SEQEND
  0
POLYLINE
  8
LAYER_1
 40
0.0847
 41
0.0847
 66
1
 10
0
 20
0
 30
0
  0
VERTEX
  8
LAYER_1
 10
339.5615
 20
261.1471
  0
VERTEX
  8
LAYER_1
 10
340.26
 20
261.8456
  0
SEQEND
  0
POLYLINE
  8
LAYER_1
 40
0.0847
 41
0.0847
 66
1
 10
0
 20
0
 30
0
  0
VERTEX
  8
LAYER_1
 10
339.2863
 20
261.1471
  0
VERTEX
  8
LAYER_1
 10
339.9848
 20
261.8456
  0
SEQEND
  0
POLYLINE
  8
LAYER_1
 40
0.0847
 41
0.0847
 66
1
 10
0
 20
0
 30
0
  0
VERTEX
  8
LAYER_1
 10
339.0111
 20
261.1471
  0
VERTEX
  8
LAYER_1
 10
339.7096
 20
261.8456
  0
SEQEND
  0
POLYLINE
  8
LAYER_1
 40
0.0847
 41
0.0847
 66
1
 10
0
 20
0
 30
0
  0
VERTEX
  8
LAYER_1
 10
338.7148
 20
261.1471
  0
VERTEX
  8
LAYER_1
 10
339.4133
 20
261.8456
  0
SEQEND
  0
POLYLINE
  8
LAYER_1
 40
0.0847
 41
0.0847
 66
1
 10
0
 20
0
 30
0
  0
VERTEX
  8
LAYER_1
 10
338.4396
 20
261.1471
  0
VERTEX
  8
LAYER_1
 10
339.1381
 20
261.8456
  0
SEQEND
  0
POLYLINE
  8
LAYER_1
 40
0.0847
 41
0.0847
 66
1
 10
0
 20
0
 30
0
  0
VERTEX
  8
LAYER_1
 10
337.847
 20
260.8296
  0
VERTEX
  8
LAYER_1
 10
338.863
 20
261.8456
  0
SEQEND
  0
POLYLINE
  8
LAYER_1
 40
0.0847
 41
0.0847
 66
1
 10
0
 20
0
 30
0
  0
VERTEX
  8
LAYER_1
 10
337.5718
 20
260.8296
  0
VERTEX
  8
LAYER_1
 10
338.5666
 20
261.8456
  0
SEQEND
  0
POLYLINE
  8
LAYER_1
 40
0.0847
 41
0.0847
 66
1
 10
0
 20
0
 30
0
  0
VERTEX
  8
LAYER_1
 10
337.2966
 20
260.8296
  0
VERTEX
  8
LAYER_1
 10
338.2914
 20
261.8456
  0
SEQEND
  0
POLYLINE
  8
LAYER_1
 40
0.0847
 41
0.0847
 66
1
 10
0
 20
0
 30
0
  0
VERTEX
  8
LAYER_1
 10
336.1536
 20
260.8296
  0
VERTEX
  8
LAYER_1
 10
337.1485
 20
261.8456
  0
SEQEND
  0
POLYLINE
  8
LAYER_1
 40
0.0847
 41
0.0847
 66
1
 10
0
 20
0
 30
0
  0
VERTEX
  8
LAYER_1
 10
335.8784
 20
260.8296
  0
VERTEX
  8
LAYER_1
 10
336.8733
 20
261.8456
  0
SEQEND
  0
POLYLINE
  8
LAYER_1
 40
0.0847
 41
0.0847
 66
1
 10
0
 20
0
 30
0
  0
VERTEX
  8
LAYER_1
 10
334.7354
 20
260.8296
  0
VERTEX
  8
LAYER_1
 10
335.7514
 20
261.8456
  0
SEQEND
  0
POLYLINE
  8
LAYER_1
 40
0.0847
 41
0.0847
 66
1
 10
0
 20
0
 30
0
  0
VERTEX
  8
LAYER_1
 10
334.5661
 20
260.9566
  0
VERTEX
  8
LAYER_1
 10
335.4551
 20
261.8456
  0
SEQEND
  0
POLYLINE
  8
LAYER_1
 40
0.0847
 41
0.0847
 66
1
 10
0
 20
0
 30
0
  0
VERTEX
  8
LAYER_1
 10
334.5661
 20
261.2317
  0
VERTEX
  8
LAYER_1
 10
335.1799
 20
261.8456
  0
SEQEND
  0
POLYLINE
  8
LAYER_1
 40
0.0847
 41
0.0847
 66
1
 10
0
 20
0
 30
0
  0
VERTEX
  8
LAYER_1
 10
334.5661
 20
261.5069
  0
VERTEX
  8
LAYER_1
 10
334.9048
 20
261.8456
  0
SEQEND
  0
POLYLINE
  8
LAYER_1
 40
0.0847
 41
0.0847
 66
1
 10
0
 20
0
 30
0
  0
VERTEX
  8
LAYER_1
 10
334.5661
 20
261.8032
  0
VERTEX
  8
LAYER_1
 10
334.6084
 20
261.8456
  0
SEQEND
  0
POLYLINE
  8
LAYER_1
 40
0.0847
 41
0.0847
 66
1
 10
0
 20
0
 30
0
  0
VERTEX
  8
LAYER_1
 10
325.1258
 20
260.8296
  0
VERTEX
  8
LAYER_1
 10
325.1681
 20
260.8719
  0
SEQEND
  0
POLYLINE
  8
LAYER_1
 40
0.0847
 41
0.0847
 66
1
 10
0
 20
0
 30
0
  0
VERTEX
  8
LAYER_1
 10
324.8506
 20
260.8296
  0
VERTEX
  8
LAYER_1
 10
325.1681
 20
261.1682
  0
SEQEND
  0
POLYLINE
  8
LAYER_1
 40
0.0847
 41
0.0847
 66
1
 10
0
 20
0
 30
0
  0
VERTEX
  8
LAYER_1
 10
323.4324
 20
260.8296
  0
VERTEX
  8
LAYER_1
 10
324.4273
 20
261.8456
  0
SEQEND
  0
POLYLINE
  8
LAYER_1
 40
0.0847
 41
0.0847
 66
1
 10
0
 20
0
 30
0
  0
VERTEX
  8
LAYER_1
 10
323.1361
 20
260.8296
  0
VERTEX
  8
LAYER_1
 10
324.1521
 20
261.8456
  0
SEQEND
  0
POLYLINE
  8
LAYER_1
 40
0.0847
 41
0.0847
 66
1
 10
0
 20
0
 30
0
  0
VERTEX
  8
LAYER_1
 10
322.8609
 20
260.8296
  0
VERTEX
  8
LAYER_1
 10
323.8557
 20
261.8456
  0
SEQEND
  0
POLYLINE
  8
LAYER_1
 40
0.0847
 41
0.0847
 66
1
 10
0
 20
0
 30
0
  0
VERTEX
  8
LAYER_1
 10
322.5857
 20
260.8296
  0
VERTEX
  8
LAYER_1
 10
323.5806
 20
261.8456
  0
SEQEND
  0
POLYLINE
  8
LAYER_1
 40
0.0847
 41
0.0847
 66
1
 10
0
 20
0
 30
0
  0
VERTEX
  8
LAYER_1
 10
322.2894
 20
260.8296
  0
VERTEX
  8
LAYER_1
 10
323.3054
 20
261.8456
  0
SEQEND
  0
POLYLINE
  8
LAYER_1
 40
0.0847
 41
0.0847
 66
1
 10
0
 20
0
 30
0
  0
VERTEX
  8
LAYER_1
 10
322.0566
 20
260.8931
  0
VERTEX
  8
LAYER_1
 10
323.0091
 20
261.8456
  0
SEQEND
  0
POLYLINE
  8
LAYER_1
 40
0.0847
 41
0.0847
 66
1
 10
0
 20
0
 30
0
  0
VERTEX
  8
LAYER_1
 10
321.9719
 20
261.0624
  0
VERTEX
  8
LAYER_1
 10
322.7339
 20
261.8456
  0
SEQEND
  0
POLYLINE
  8
LAYER_1
 40
0.0847
 41
0.0847
 66
1
 10
0
 20
0
 30
0
  0
VERTEX
  8
LAYER_1
 10
321.1887
 20
261.1471
  0
VERTEX
  8
LAYER_1
 10
321.8872
 20
261.8456
  0
SEQEND
  0
POLYLINE
  8
LAYER_1
 40
0.0847
 41
0.0847
 66
1
 10
0
 20
0
 30
0
  0
VERTEX
  8
LAYER_1
 10
320.8924
 20
261.1471
  0
VERTEX
  8
LAYER_1
 10
321.5909
 20
261.8456
  0
SEQEND
  0
POLYLINE
  8
LAYER_1
 40
0.0847
 41
0.0847
 66
1
 10
0
 20
0
 30
0
  0
VERTEX
  8
LAYER_1
 10
320.6172
 20
261.1471
  0
VERTEX
  8
LAYER_1
 10
321.3157
 20
261.8456
  0
SEQEND
  0
POLYLINE
  8
LAYER_1
 40
0.0847
 41
0.0847
 66
1
 10
0
 20
0
 30
0
  0
VERTEX
  8
LAYER_1
 10
320.342
 20
261.1471
  0
VERTEX
  8
LAYER_1
 10
321.0405
 20
261.8456
  0
SEQEND
  0
POLYLINE
  8
LAYER_1
 40
0.0847
 41
0.0847
 66
1
 10
0
 20
0
 30
0
  0
VERTEX
  8
LAYER_1
 10
320.0669
 20
261.1471
  0
VERTEX
  8
LAYER_1
 10
320.7442
 20
261.8456
  0
SEQEND
  0
POLYLINE
  8
LAYER_1
 40
0.0847
 41
0.0847
 66
1
 10
0
 20
0
 30
0
  0
VERTEX
  8
LAYER_1
 10
319.834
 20
261.2106
  0
VERTEX
  8
LAYER_1
 10
320.469
 20
261.8456
  0
SEQEND
  0
POLYLINE
  8
LAYER_1
 40
0.0847
 41
0.0847
 66
1
 10
0
 20
0
 30
0
  0
VERTEX
  8
LAYER_1
 10
319.6436
 20
261.2952
  0
VERTEX
  8
LAYER_1
 10
320.1939
 20
261.8456
  0
SEQEND
  0
POLYLINE
  8
LAYER_1
 40
0.0847
 41
0.0847
 66
1
 10
0
 20
0
 30
0
  0
VERTEX
  8
LAYER_1
 10
319.4742
 20
261.4011
  0
VERTEX
  8
LAYER_1
 10
319.8976
 20
261.8456
  0
SEQEND
  0
POLYLINE
  8
LAYER_1
 40
0.0847
 41
0.0847
 66
1
 10
0
 20
0
 30
0
  0
VERTEX
  8
LAYER_1
 10
319.3049
 20
261.528
  0
VERTEX
  8
LAYER_1
 10
319.6224
 20
261.8455
  0
SEQEND
  0
POLYLINE
  8
LAYER_1
 40
0.0847
 41
0.0847
 66
1
 10
0
 20
0
 30
0
  0
VERTEX
  8
LAYER_1
 10
319.1567
 20
261.655
  0
VERTEX
  8
LAYER_1
 10
319.3472
 20
261.8455
  0
SEQEND
  0
POLYLINE
  8
LAYER_1
 40
0.0847
 41
0.0847
 66
1
 10
0
 20
0
 30
0
  0
VERTEX
  8
LAYER_1
 10
325.2316
 20
270.8202
  0
VERTEX
  8
LAYER_1
 10
325.3586
 20
270.9684
  0
SEQEND
  0
POLYLINE
  8
LAYER_1
 40
0.0847
 41
0.0847
 66
1
 10
0
 20
0
 30
0
  0
VERTEX
  8
LAYER_1
 10
324.9352
 20
270.8202
  0
VERTEX
  8
LAYER_1
 10
325.3586
 20
271.2436
  0
SEQEND
  0
POLYLINE
  8
LAYER_1
 40
0.0847
 41
0.0847
 66
1
 10
0
 20
0
 30
0
  0
VERTEX
  8
LAYER_1
 10
324.66
 20
270.8202
  0
VERTEX
  8
LAYER_1
 10
325.3585
 20
271.5187
  0
SEQEND
  0
POLYLINE
  8
LAYER_1
 40
0.0847
 41
0.0847
 66
1
 10
0
 20
0
 30
0
  0
VERTEX
  8
LAYER_1
 10
324.3849
 20
270.8202
  0
VERTEX
  8
LAYER_1
 10
325.3585
 20
271.815
  0
SEQEND
  0
POLYLINE
  8
LAYER_1
 40
0.0847
 41
0.0847
 66
1
 10
0
 20
0
 30
0
  0
VERTEX
  8
LAYER_1
 10
324.0885
 20
270.8202
  0
VERTEX
  8
LAYER_1
 10
325.3585
 20
272.0902
  0
SEQEND
  0
POLYLINE
  8
LAYER_1
 40
0.0847
 41
0.0847
 66
1
 10
0
 20
0
 30
0
  0
VERTEX
  8
LAYER_1
 10
323.8133
 20
270.8202
  0
VERTEX
  8
LAYER_1
 10
325.3585
 20
272.3654
  0
SEQEND
  0
POLYLINE
  8
LAYER_1
 40
0.0847
 41
0.0847
 66
1
 10
0
 20
0
 30
0
  0
VERTEX
  8
LAYER_1
 10
323.5382
 20
270.8202
  0
VERTEX
  8
LAYER_1
 10
325.3585
 20
272.6617
  0
SEQEND
  0
POLYLINE
  8
LAYER_1
 40
0.0847
 41
0.0847
 66
1
 10
0
 20
0
 30
0
  0
VERTEX
  8
LAYER_1
 10
323.2418
 20
270.8202
  0
VERTEX
  8
LAYER_1
 10
325.2527
 20
272.8099
  0
SEQEND
  0
POLYLINE
  8
LAYER_1
 40
0.0847
 41
0.0847
 66
1
 10
0
 20
0
 30
0
  0
VERTEX
  8
LAYER_1
 10
322.9667
 20
270.8202
  0
VERTEX
  8
LAYER_1
 10
324.9563
 20
272.8099
  0
SEQEND
  0
POLYLINE
  8
LAYER_1
 40
0.0847
 41
0.0847
 66
1
 10
0
 20
0
 30
0
  0
VERTEX
  8
LAYER_1
 10
322.6915
 20
270.8202
  0
VERTEX
  8
LAYER_1
 10
324.6811
 20
272.8099
  0
SEQEND
  0
POLYLINE
  8
LAYER_1
 40
0.0847
 41
0.0847
 66
1
 10
0
 20
0
 30
0
  0
VERTEX
  8
LAYER_1
 10
322.3951
 20
270.8202
  0
VERTEX
  8
LAYER_1
 10
324.406
 20
272.8099
  0
SEQEND
  0
POLYLINE
  8
LAYER_1
 40
0.0847
 41
0.0847
 66
1
 10
0
 20
0
 30
0
  0
VERTEX
  8
LAYER_1
 10
322.12
 20
270.8202
  0
VERTEX
  8
LAYER_1
 10
324.1096
 20
272.8099
  0
SEQEND
  0
POLYLINE
  8
LAYER_1
 40
0.0847
 41
0.0847
 66
1
 10
0
 20
0
 30
0
  0
VERTEX
  8
LAYER_1
 10
321.8236
 20
270.8202
  0
VERTEX
  8
LAYER_1
 10
323.8344
 20
272.8099
  0
SEQEND
  0
POLYLINE
  8
LAYER_1
 40
0.0847
 41
0.0847
 66
1
 10
0
 20
0
 30
0
  0
VERTEX
  8
LAYER_1
 10
321.5484
 20
270.8202
  0
VERTEX
  8
LAYER_1
 10
323.5593
 20
272.8099
  0
SEQEND
  0
POLYLINE
  8
LAYER_1
 40
0.0847
 41
0.0847
 66
1
 10
0
 20
0
 30
0
  0
VERTEX
  8
LAYER_1
 10
321.2733
 20
270.8202
  0
VERTEX
  8
LAYER_1
 10
323.2629
 20
272.8099
  0
SEQEND
  0
POLYLINE
  8
LAYER_1
 40
0.0847
 41
0.0847
 66
1
 10
0
 20
0
 30
0
  0
VERTEX
  8
LAYER_1
 10
320.9769
 20
270.8202
  0
VERTEX
  8
LAYER_1
 10
322.9878
 20
272.8099
  0
SEQEND
  0
POLYLINE
  8
LAYER_1
 40
0.0847
 41
0.0847
 66
1
 10
0
 20
0
 30
0
  0
VERTEX
  8
LAYER_1
 10
320.7017
 20
270.8202
  0
VERTEX
  8
LAYER_1
 10
322.6914
 20
272.8099
  0
SEQEND
  0
POLYLINE
  8
LAYER_1
 40
0.0847
 41
0.0847
 66
1
 10
0
 20
0
 30
0
  0
VERTEX
  8
LAYER_1
 10
320.4266
 20
270.8202
  0
VERTEX
  8
LAYER_1
 10
322.4162
 20
272.8099
  0
SEQEND
  0
POLYLINE
  8
LAYER_1
 40
0.0847
 41
0.0847
 66
1
 10
0
 20
0
 30
0
  0
VERTEX
  8
LAYER_1
 10
320.1302
 20
270.8202
  0
VERTEX
  8
LAYER_1
 10
321.3367
 20
272.0267
  0
SEQEND
  0
POLYLINE
  8
LAYER_1
 40
0.0847
 41
0.0847
 66
1
 10
0
 20
0
 30
0
  0
VERTEX
  8
LAYER_1
 10
322.0564
 20
272.7464
  0
VERTEX
  8
LAYER_1
 10
322.1411
 20
272.8099
  0
SEQEND
  0
POLYLINE
  8
LAYER_1
 40
0.0847
 41
0.0847
 66
1
 10
0
 20
0
 30
0
  0
VERTEX
  8
LAYER_1
 10
319.8551
 20
270.8202
  0
VERTEX
  8
LAYER_1
 10
321.0192
 20
271.9844
  0
SEQEND
  0
POLYLINE
  8
LAYER_1
 40
0.0847
 41
0.0847
 66
1
 10
0
 20
0
 30
0
  0
VERTEX
  8
LAYER_1
 10
319.5799
 20
270.8202
  0
VERTEX
  8
LAYER_1
 10
320.7229
 20
271.9632
  0
SEQEND
  0
POLYLINE
  8
LAYER_1
 40
0.0847
 41
0.0847
 66
1
 10
0
 20
0
 30
0
  0
VERTEX
  8
LAYER_1
 10
319.2835
 20
270.8202
  0
VERTEX
  8
LAYER_1
 10
320.4054
 20
271.942
  0
SEQEND
  0
POLYLINE
  8
LAYER_1
 40
0.0847
 41
0.0847
 66
1
 10
0
 20
0
 30
0
  0
VERTEX
  8
LAYER_1
 10
319.0719
 20
270.8837
  0
VERTEX
  8
LAYER_1
 10
320.0879
 20
271.8997
  0
SEQEND
  0
POLYLINE
  8
LAYER_1
 40
0.0847
 41
0.0847
 66
1
 10
0
 20
0
 30
0
  0
VERTEX
  8
LAYER_1
 10
319.0719
 20
271.18
  0
VERTEX
  8
LAYER_1
 10
319.7915
 20
271.8785
  0
SEQEND
  0
POLYLINE
  8
LAYER_1
 40
0.254
 41
0.254
 66
1
 10
0
 20
0
 30
0
  0
VERTEX
  8
LAYER_1
 10
258.7049
 20
270.8202
  0
VERTEX
  8
LAYER_1
 10
323.369
 20
270.8202
  0
SEQEND
  0
POLYLINE
  8
LAYER_1
 40
0.254
 41
0.254
 66
1
 10
0
 20
0
 30
0
  0
VERTEX
  8
LAYER_1
 10
336.3654
 20
270.8202
  0
VERTEX
  8
LAYER_1
 10
401.0295
 20
270.8202
  0
SEQEND
  0
POLYLINE
  8
LAYER_1
 40
0.254
 41
0.254
 66
1
 10
0
 20
0
 30
0
  0
VERTEX
  8
LAYER_1
 10
336.3654
 20
261.8456
  0
VERTEX
  8
LAYER_1
 10
401.0295
 20
261.8456
  0
SEQEND
  0
POLYLINE
  8
LAYER_1
 40
0.0847
 41
0.0847
 66
1
 10
0
 20
0
 30
0
  0
VERTEX
  8
LAYER_1
 10
400.7967
 20
261.8456
  0
VERTEX
  8
LAYER_1
 10
401.474
 20
262.5017
  0
SEQEND
  0
POLYLINE
  8
LAYER_1
 40
0.0847
 41
0.0847
 66
1
 10
0
 20
0
 30
0
  0
VERTEX
  8
LAYER_1
 10
397.9604
 20
261.8456
  0
VERTEX
  8
LAYER_1
 10
401.601
 20
265.4651
  0
SEQEND
  0
POLYLINE
  8
LAYER_1
 40
0.0847
 41
0.0847
 66
1
 10
0
 20
0
 30
0
  0
VERTEX
  8
LAYER_1
 10
395.1452
 20
261.8456
  0
VERTEX
  8
LAYER_1
 10
400.4792
 20
267.1796
  0
SEQEND
  0
POLYLINE
  8
LAYER_1
 40
0.0847
 41
0.0847
 66
1
 10
0
 20
0
 30
0
  0
VERTEX
  8
LAYER_1
 10
392.3088
 20
261.8456
  0
VERTEX
  8
LAYER_1
 10
400.5003
 20
269.9947
  0
SEQEND
  0
POLYLINE
  8
LAYER_1
 40
0.0847
 41
0.0847
 66
1
 10
0
 20
0
 30
0
  0
VERTEX
  8
LAYER_1
 10
389.4937
 20
261.8456
  0
VERTEX
  8
LAYER_1
 10
398.4895
 20
270.8202
  0
SEQEND
  0
POLYLINE
  8
LAYER_1
 40
0.0847
 41
0.0847
 66
1
 10
0
 20
0
 30
0
  0
VERTEX
  8
LAYER_1
 10
372.518
 20
261.8456
  0
VERTEX
  8
LAYER_1
 10
381.5139
 20
270.8202
  0
SEQEND
  0
POLYLINE
  8
LAYER_1
 40
0.0847
 41
0.0847
 66
1
 10
0
 20
0
 30
0
  0
VERTEX
  8
LAYER_1
 10
369.6817
 20
261.8456
  0
VERTEX
  8
LAYER_1
 10
378.6775
 20
270.8202
  0
SEQEND
  0
POLYLINE
  8
LAYER_1
 40
0.0847
 41
0.0847
 66
1
 10
0
 20
0
 30
0
  0
VERTEX
  8
LAYER_1
 10
366.8665
 20
261.8456
  0
VERTEX
  8
LAYER_1
 10
375.8623
 20
270.8202
  0
SEQEND
  0
POLYLINE
  8
LAYER_1
 40
0.0847
 41
0.0847
 66
1
 10
0
 20
0
 30
0
  0
VERTEX
  8
LAYER_1
 10
364.0302
 20
261.8456
  0
VERTEX
  8
LAYER_1
 10
373.026
 20
270.8202
  0
SEQEND
  0
POLYLINE
  8
LAYER_1
 40
0.0847
 41
0.0847
 66
1
 10
0
 20
0
 30
0
  0
VERTEX
  8
LAYER_1
 10
361.1938
 20
261.8456
  0
VERTEX
  8
LAYER_1
 10
370.1897
 20
270.8202
  0
SEQEND
  0
POLYLINE
  8
LAYER_1
 40
0.0847
 41
0.0847
 66
1
 10
0
 20
0
 30
0
  0
VERTEX
  8
LAYER_1
 10
358.3787
 20
261.8456
  0
VERTEX
  8
LAYER_1
 10
367.3745
 20
270.8202
  0
SEQEND
  0
POLYLINE
  8
LAYER_1
 40
0.0847
 41
0.0847
 66
1
 10
0
 20
0
 30
0
  0
VERTEX
  8
LAYER_1
 10
355.5424
 20
261.8456
  0
VERTEX
  8
LAYER_1
 10
364.5382
 20
270.8202
  0
SEQEND
  0
POLYLINE
  8
LAYER_1
 40
0.0847
 41
0.0847
 66
1
 10
0
 20
0
 30
0
  0
VERTEX
  8
LAYER_1
 10
352.706
 20
261.8456
  0
VERTEX
  8
LAYER_1
 10
361.723
 20
270.8202
  0
SEQEND
  0
POLYLINE
  8
LAYER_1
 40
0.0847
 41
0.0847
 66
1
 10
0
 20
0
 30
0
  0
VERTEX
  8
LAYER_1
 10
349.8909
 20
261.8456
  0
VERTEX
  8
LAYER_1
 10
358.8867
 20
270.8202
  0
SEQEND
  0
POLYLINE
  8
LAYER_1
 40
0.0847
 41
0.0847
 66
1
 10
0
 20
0
 30
0
  0
VERTEX
  8
LAYER_1
 10
347.0545
 20
261.8456
  0
VERTEX
  8
LAYER_1
 10
356.0504
 20
270.8202
  0
SEQEND
  0
POLYLINE
  8
LAYER_1
 40
0.0847
 41
0.0847
 66
1
 10
0
 20
0
 30
0
  0
VERTEX
  8
LAYER_1
 10
344.2394
 20
261.8456
  0
VERTEX
  8
LAYER_1
 10
353.2352
 20
270.8202
  0
SEQEND
  0
POLYLINE
  8
LAYER_1
 40
0.0847
 41
0.0847
 66
1
 10
0
 20
0
 30
0
  0
VERTEX
  8
LAYER_1
 10
341.4031
 20
261.8456
  0
VERTEX
  8
LAYER_1
 10
350.3989
 20
270.8202
  0
SEQEND
  0
POLYLINE
  8
LAYER_1
 40
0.0847
 41
0.0847
 66
1
 10
0
 20
0
 30
0
  0
VERTEX
  8
LAYER_1
 10
338.5667
 20
261.8456
  0
VERTEX
  8
LAYER_1
 10
347.5626
 20
270.8202
  0
SEQEND
  0
POLYLINE
  8
LAYER_1
 40
0.0847
 41
0.0847
 66
1
 10
0
 20
0
 30
0
  0
VERTEX
  8
LAYER_1
 10
336.3654
 20
262.4594
  0
VERTEX
  8
LAYER_1
 10
344.7474
 20
270.8202
  0
SEQEND
  0
POLYLINE
  8
LAYER_1
 40
0.0847
 41
0.0847
 66
1
 10
0
 20
0
 30
0
  0
VERTEX
  8
LAYER_1
 10
336.3654
 20
265.2957
  0
VERTEX
  8
LAYER_1
 10
341.9111
 20
270.8202
  0
SEQEND
  0
POLYLINE
  8
LAYER_1
 40
0.0847
 41
0.0847
 66
1
 10
0
 20
0
 30
0
  0
VERTEX
  8
LAYER_1
 10
336.3654
 20
268.1321
  0
VERTEX
  8
LAYER_1
 10
339.0959
 20
270.8202
  0
SEQEND
  0
POLYLINE
  8
LAYER_1
 40
0.0847
 41
0.0847
 66
1
 10
0
 20
0
 30
0
  0
VERTEX
  8
LAYER_1
 10
321.5911
 20
261.8456
  0
VERTEX
  8
LAYER_1
 10
323.3691
 20
263.6024
  0
SEQEND
  0
POLYLINE
  8
LAYER_1
 40
0.0847
 41
0.0847
 66
1
 10
0
 20
0
 30
0
  0
VERTEX
  8
LAYER_1
 10
318.7759
 20
261.8456
  0
VERTEX
  8
LAYER_1
 10
323.3691
 20
266.4387
  0
SEQEND
  0
POLYLINE
  8
LAYER_1
 40
0.0847
 41
0.0847
 66
1
 10
0
 20
0
 30
0
  0
VERTEX
  8
LAYER_1
 10
315.9396
 20
261.8456
  0
VERTEX
  8
LAYER_1
 10
323.3691
 20
269.2539
  0
SEQEND
  0
POLYLINE
  8
LAYER_1
 40
0.0847
 41
0.0847
 66
1
 10
0
 20
0
 30
0
  0
VERTEX
  8
LAYER_1
 10
313.1244
 20
261.8456
  0
VERTEX
  8
LAYER_1
 10
322.1203
 20
270.8202
  0
SEQEND
  0
POLYLINE
  8
LAYER_1
 40
0.0847
 41
0.0847
 66
1
 10
0
 20
0
 30
0
  0
VERTEX
  8
LAYER_1
 10
310.2881
 20
261.8456
  0
VERTEX
  8
LAYER_1
 10
319.2839
 20
270.8202
  0
SEQEND
  0
POLYLINE
  8
LAYER_1
 40
0.0847
 41
0.0847
 66
1
 10
0
 20
0
 30
0
  0
VERTEX
  8
LAYER_1
 10
307.4518
 20
261.8456
  0
VERTEX
  8
LAYER_1
 10
316.4688
 20
270.8202
  0
SEQEND
  0
POLYLINE
  8
LAYER_1
 40
0.0847
 41
0.0847
 66
1
 10
0
 20
0
 30
0
  0
VERTEX
  8
LAYER_1
 10
304.6366
 20
261.8456
  0
VERTEX
  8
LAYER_1
 10
313.6324
 20
270.8202
  0
SEQEND
  0
POLYLINE
  8
LAYER_1
 40
0.0847
 41
0.0847
 66
1
 10
0
 20
0
 30
0
  0
VERTEX
  8
LAYER_1
 10
301.8003
 20
261.8456
  0
VERTEX
  8
LAYER_1
 10
310.7961
 20
270.8202
  0
SEQEND
  0
POLYLINE
  8
LAYER_1
 40
0.0847
 41
0.0847
 66
1
 10
0
 20
0
 30
0
  0
VERTEX
  8
LAYER_1
 10
298.964
 20
261.8456
  0
VERTEX
  8
LAYER_1
 10
307.981
 20
270.8202
  0
SEQEND
  0
POLYLINE
  8
LAYER_1
 40
0.0847
 41
0.0847
 66
1
 10
0
 20
0
 30
0
  0
VERTEX
  8
LAYER_1
 10
296.1488
 20
261.8456
  0
VERTEX
  8
LAYER_1
 10
305.1446
 20
270.8202
  0
SEQEND
  0
POLYLINE
  8
LAYER_1
 40
0.0847
 41
0.0847
 66
1
 10
0
 20
0
 30
0
  0
VERTEX
  8
LAYER_1
 10
293.3125
 20
261.8456
  0
VERTEX
  8
LAYER_1
 10
302.3083
 20
270.8202
  0
SEQEND
  0
POLYLINE
  8
LAYER_1
 40
0.0847
 41
0.0847
 66
1
 10
0
 20
0
 30
0
  0
VERTEX
  8
LAYER_1
 10
290.4973
 20
261.8456
  0
VERTEX
  8
LAYER_1
 10
299.4931
 20
270.8202
  0
SEQEND
  0
POLYLINE
  8
LAYER_1
 40
0.0847
 41
0.0847
 66
1
 10
0
 20
0
 30
0
  0
VERTEX
  8
LAYER_1
 10
287.661
 20
261.8456
  0
VERTEX
  8
LAYER_1
 10
296.6568
 20
270.8202
  0
SEQEND
  0
POLYLINE
  8
LAYER_1
 40
0.0847
 41
0.0847
 66
1
 10
0
 20
0
 30
0
  0
VERTEX
  8
LAYER_1
 10
284.8247
 20
261.8456
  0
VERTEX
  8
LAYER_1
 10
293.8205
 20
270.8202
  0
SEQEND
  0
POLYLINE
  8
LAYER_1
 40
0.0847
 41
0.0847
 66
1
 10
0
 20
0
 30
0
  0
VERTEX
  8
LAYER_1
 10
282.0095
 20
261.8456
  0
VERTEX
  8
LAYER_1
 10
291.0053
 20
270.8202
  0
SEQEND
  0
POLYLINE
  8
LAYER_1
 40
0.0847
 41
0.0847
 66
1
 10
0
 20
0
 30
0
  0
VERTEX
  8
LAYER_1
 10
279.1732
 20
261.8456
  0
VERTEX
  8
LAYER_1
 10
288.169
 20
270.8202
  0
SEQEND
  0
POLYLINE
  8
LAYER_1
 40
0.0847
 41
0.0847
 66
1
 10
0
 20
0
 30
0
  0
VERTEX
  8
LAYER_1
 10
276.3369
 20
261.8456
  0
VERTEX
  8
LAYER_1
 10
285.3539
 20
270.8202
  0
SEQEND
  0
POLYLINE
  8
LAYER_1
 40
0.0847
 41
0.0847
 66
1
 10
0
 20
0
 30
0
  0
VERTEX
  8
LAYER_1
 10
273.5217
 20
261.8456
  0
VERTEX
  8
LAYER_1
 10
282.5175
 20
270.8202
  0
SEQEND
  0
POLYLINE
  8
LAYER_1
 40
0.0847
 41
0.0847
 66
1
 10
0
 20
0
 30
0
  0
VERTEX
  8
LAYER_1
 10
270.6854
 20
261.8456
  0
VERTEX
  8
LAYER_1
 10
279.6812
 20
270.8202
  0
SEQEND
  0
POLYLINE
  8
LAYER_1
 40
0.0847
 41
0.0847
 66
1
 10
0
 20
0
 30
0
  0
VERTEX
  8
LAYER_1
 10
267.8702
 20
261.8456
  0
VERTEX
  8
LAYER_1
 10
276.866
 20
270.8202
  0
SEQEND
  0
POLYLINE
  8
LAYER_1
 40
0.0847
 41
0.0847
 66
1
 10
0
 20
0
 30
0
  0
VERTEX
  8
LAYER_1
 10
265.0339
 20
261.8456
  0
VERTEX
  8
LAYER_1
 10
274.0297
 20
270.8202
  0
SEQEND
  0
POLYLINE
  8
LAYER_1
 40
0.0847
 41
0.0847
 66
1
 10
0
 20
0
 30
0
  0
VERTEX
  8
LAYER_1
 10
262.1976
 20
261.8456
  0
VERTEX
  8
LAYER_1
 10
271.1934
 20
270.8202
  0
SEQEND
  0
POLYLINE
  8
LAYER_1
 40
0.0847
 41
0.0847
 66
1
 10
0
 20
0
 30
0
  0
VERTEX
  8
LAYER_1
 10
259.3824
 20
261.8456
  0
VERTEX
  8
LAYER_1
 10
268.3782
 20
270.8202
  0
SEQEND
  0
POLYLINE
  8
LAYER_1
 40
0.0847
 41
0.0847
 66
1
 10
0
 20
0
 30
0
  0
VERTEX
  8
LAYER_1
 10
257.9007
 20
263.2002
  0
VERTEX
  8
LAYER_1
 10
265.5419
 20
270.8202
  0
SEQEND
  0
POLYLINE
  8
LAYER_1
 40
0.0847
 41
0.0847
 66
1
 10
0
 20
0
 30
0
  0
VERTEX
  8
LAYER_1
 10
259.4882
 20
267.6029
  0
VERTEX
  8
LAYER_1
 10
262.7267
 20
270.8202
  0
SEQEND
  0
POLYLINE
  8
LAYER_1
 40
0.0847
 41
0.0847
 66
1
 10
0
 20
0
 30
0
  0
VERTEX
  8
LAYER_1
 10
259.1707
 20
270.1006
  0
VERTEX
  8
LAYER_1
 10
259.8904
 20
270.8202
  0
SEQEND
  0
POLYLINE
  8
LAYER_1
 40
0.0847
 41
0.0847
 66
1
 10
0
 20
0
 30
0
  0
VERTEX
  8
LAYER_1
 10
337.8472
 20
271.7939
  0
VERTEX
  8
LAYER_1
 10
374.0211
 20
272.8734
  0
SEQEND
  0
POLYLINE
  8
LAYER_1
 40
0.0847
 41
0.0847
 66
1
 10
0
 20
0
 30
0
  0
VERTEX
  8
LAYER_1
 10
323.9619
 20
272.5136
  0
VERTEX
  8
LAYER_1
 10
324.1101
 20
272.5136
  0
SEQEND
  0
POLYLINE
  8
LAYER_1
 40
0.0847
 41
0.0847
 66
1
 10
0
 20
0
 30
0
  0
VERTEX
  8
LAYER_1
 10
324.4064
 20
272.5136
  0
VERTEX
  8
LAYER_1
 10
324.5757
 20
272.5136
  0
SEQEND
  0
POLYLINE
  8
LAYER_1
 40
0.0847
 41
0.0847
 66
1
 10
0
 20
0
 30
0
  0
VERTEX
  8
LAYER_1
 10
323.9619
 20
272.5136
  0
VERTEX
  8
LAYER_1
 10
323.9619
 20
272.5771
  0
SEQEND
  0
POLYLINE
  8
LAYER_1
 40
0.0847
 41
0.0847
 66
1
 10
0
 20
0
 30
0
  0
VERTEX
  8
LAYER_1
 10
323.9619
 20
272.7252
  0
VERTEX
  8
LAYER_1
 10
323.9619
 20
272.8099
  0
SEQEND
  0
POLYLINE
  8
LAYER_1
 40
0.0847
 41
0.0847
 66
1
 10
0
 20
0
 30
0
  0
VERTEX
  8
LAYER_1
 10
324.5757
 20
272.5136
  0
VERTEX
  8
LAYER_1
 10
324.5757
 20
272.5771
  0
SEQEND
  0
POLYLINE
  8
LAYER_1
 40
0.0847
 41
0.0847
 66
1
 10
0
 20
0
 30
0
  0
VERTEX
  8
LAYER_1
 10
324.5757
 20
272.7252
  0
VERTEX
  8
LAYER_1
 10
324.5757
 20
272.8099
  0
SEQEND
  0
POLYLINE
  8
LAYER_1
 40
0.0847
 41
0.0847
 66
1
 10
0
 20
0
 30
0
  0
VERTEX
  8
LAYER_1
 10
323.9619
 20
261.1471
  0
VERTEX
  8
LAYER_1
 10
324.1101
 20
261.1471
  0
SEQEND
  0
POLYLINE
  8
LAYER_1
 40
0.0847
 41
0.0847
 66
1
 10
0
 20
0
 30
0
  0
VERTEX
  8
LAYER_1
 10
324.4064
 20
261.1471
  0
VERTEX
  8
LAYER_1
 10
324.5757
 20
261.1471
  0
SEQEND
  0
POLYLINE
  8
LAYER_1
 40
0.0847
 41
0.0847
 66
1
 10
0
 20
0
 30
0
  0
VERTEX
  8
LAYER_1
 10
323.9619
 20
260.8296
  0
VERTEX
  8
LAYER_1
 10
323.9619
 20
260.8931
  0
SEQEND
  0
POLYLINE
  8
LAYER_1
 40
0.0847
 41
0.0847
 66
1
 10
0
 20
0
 30
0
  0
VERTEX
  8
LAYER_1
 10
323.9619
 20
261.0624
  0
VERTEX
  8
LAYER_1
 10
323.9619
 20
261.1471
  0
SEQEND
  0
POLYLINE
  8
LAYER_1
 40
0.0847
 41
0.0847
 66
1
 10
0
 20
0
 30
0
  0
VERTEX
  8
LAYER_1
 10
324.5757
 20
260.8296
  0
VERTEX
  8
LAYER_1
 10
324.5757
 20
260.8931
  0
SEQEND
  0
POLYLINE
  8
LAYER_1
 40
0.0847
 41
0.0847
 66
1
 10
0
 20
0
 30
0
  0
VERTEX
  8
LAYER_1
 10
324.5757
 20
261.0624
  0
VERTEX
  8
LAYER_1
 10
324.5757
 20
261.1471
  0
SEQEND
  0
POLYLINE
  8
LAYER_1
 40
0.0847
 41
0.0847
 66
1
 10
0
 20
0
 30
0
  0
VERTEX
  8
LAYER_1
 10
335.7729
 20
260.8296
  0
VERTEX
  8
LAYER_1
 10
335.7729
 20
260.8931
  0
SEQEND
  0
POLYLINE
  8
LAYER_1
 40
0.0847
 41
0.0847
 66
1
 10
0
 20
0
 30
0
  0
VERTEX
  8
LAYER_1
 10
335.7729
 20
261.0624
  0
VERTEX
  8
LAYER_1
 10
335.7729
 20
261.1471
  0
SEQEND
  0
POLYLINE
  8
LAYER_1
 40
0.0847
 41
0.0847
 66
1
 10
0
 20
0
 30
0
  0
VERTEX
  8
LAYER_1
 10
335.1591
 20
261.1471
  0
VERTEX
  8
LAYER_1
 10
335.3072
 20
261.1471
  0
SEQEND
  0
POLYLINE
  8
LAYER_1
 40
0.0847
 41
0.0847
 66
1
 10
0
 20
0
 30
0
  0
VERTEX
  8
LAYER_1
 10
335.6036
 20
261.1471
  0
VERTEX
  8
LAYER_1
 10
335.7729
 20
261.1471
  0
SEQEND
  0
POLYLINE
  8
LAYER_1
 40
0.0847
 41
0.0847
 66
1
 10
0
 20
0
 30
0
  0
VERTEX
  8
LAYER_1
 10
335.1591
 20
260.8296
  0
VERTEX
  8
LAYER_1
 10
335.1591
 20
260.8931
  0
SEQEND
  0
POLYLINE
  8
LAYER_1
 40
0.0847
 41
0.0847
 66
1
 10
0
 20
0
 30
0
  0
VERTEX
  8
LAYER_1
 10
335.1591
 20
261.0624
  0
VERTEX
  8
LAYER_1
 10
335.1591
 20
261.1471
  0
SEQEND
  0
POLYLINE
  8
LAYER_1
 40
0.1693
 41
0.1693
 66
1
 10
0
 20
0
 30
0
  0
VERTEX
  8
LAYER_1
 10
324.3427
 20
270.8202
  0
VERTEX
  8
LAYER_1
 10
335.3917
 20
270.8202
  0
SEQEND
  0
POLYLINE
  8
LAYER_1
 40
0.1693
 41
0.1693
 66
1
 10
0
 20
0
 30
0
  0
VERTEX
  8
LAYER_1
 10
324.3215
 20
270.7991
 42
0.3551278831
  0
VERTEX
  8
LAYER_1
 10
324.2157
 20
270.7567
  0
SEQEND
  0
POLYLINE
  8
LAYER_1
 40
0.1693
 41
0.1693
 66
1
 10
0
 20
0
 30
0
  0
VERTEX
  8
LAYER_1
 10
323.75
 20
270.3757
  0
VERTEX
  8
LAYER_1
 10
324.2157
 20
270.7779
  0
SEQEND
  0
POLYLINE
  8
LAYER_1
 40
0.1693
 41
0.1693
 66
1
 10
0
 20
0
 30
0
  0
VERTEX
  8
LAYER_1
 10
323.75
 20
270.3757
 42
0.233112743
  0
VERTEX
  8
LAYER_1
 10
323.6865
 20
270.2487
  0
SEQEND
  0
POLYLINE
  8
LAYER_1
 40
0.1693
 41
0.1693
 66
1
 10
0
 20
0
 30
0
  0
VERTEX
  8
LAYER_1
 10
323.6654
 20
269.7196
  0
VERTEX
  8
LAYER_1
 10
323.6654
 20
270.2276
  0
SEQEND
  0
POLYLINE
  8
LAYER_1
 40
0.1693
 41
0.1693
 66
1
 10
0
 20
0
 30
0
  0
VERTEX
  8
LAYER_1
 10
323.6654
 20
269.7196
  0
VERTEX
  8
LAYER_1
 10
336.069
 20
269.7196
  0
VERTEX
  8
LAYER_1
 10
336.069
 20
270.2276
  0
SEQEND
  0
POLYLINE
  8
LAYER_1
 40
0.1693
 41
0.1693
 66
1
 10
0
 20
0
 30
0
  0
VERTEX
  8
LAYER_1
 10
336.069
 20
270.2487
 42
0.1337828565
  0
VERTEX
  8
LAYER_1
 10
335.9844
 20
270.3969
  0
SEQEND
  0
POLYLINE
  8
LAYER_1
 40
0.1693
 41
0.1693
 66
1
 10
0
 20
0
 30
0
  0
VERTEX
  8
LAYER_1
 10
336.0055
 20
270.3757
  0
VERTEX
  8
LAYER_1
 10
335.5187
 20
270.7779
  0
SEQEND
  0
POLYLINE
  8
LAYER_1
 40
0.1693
 41
0.1693
 66
1
 10
0
 20
0
 30
0
  0
VERTEX
  8
LAYER_1
 10
323.877
 20
269.1481
  0
VERTEX
  8
LAYER_1
 10
335.8785
 20
269.1481
  0
SEQEND
  0
POLYLINE
  8
LAYER_1
 40
0.1693
 41
0.1693
 66
1
 10
0
 20
0
 30
0
  0
VERTEX
  8
LAYER_1
 10
325.3164
 20
267.9416
  0
VERTEX
  8
LAYER_1
 10
325.3164
 20
269.1481
  0
SEQEND
  0
POLYLINE
  8
LAYER_1
 40
0.1693
 41
0.1693
 66
1
 10
0
 20
0
 30
0
  0
VERTEX
  8
LAYER_1
 10
323.877
 20
269.1481
  0
VERTEX
  8
LAYER_1
 10
323.877
 20
269.7196
  0
SEQEND
  0
POLYLINE
  8
LAYER_1
 40
0.1693
 41
0.1693
 66
1
 10
0
 20
0
 30
0
  0
VERTEX
  8
LAYER_1
 10
334.418
 20
267.9416
  0
VERTEX
  8
LAYER_1
 10
334.418
 20
269.1481
  0
SEQEND
  0
POLYLINE
  8
LAYER_1
 40
0.1693
 41
0.1693
 66
1
 10
0
 20
0
 30
0
  0
VERTEX
  8
LAYER_1
 10
325.3164
 20
267.9416
  0
VERTEX
  8
LAYER_1
 10
334.418
 20
267.9416
  0
SEQEND
  0
POLYLINE
  8
LAYER_1
 40
0.1693
 41
0.1693
 66
1
 10
0
 20
0
 30
0
  0
VERTEX
  8
LAYER_1
 10
335.8785
 20
269.1481
  0
VERTEX
  8
LAYER_1
 10
335.8785
 20
269.7196
  0
SEQEND
  0
TEXT
  8
LAYER_1
 10
374.5423
 20
275.7097
 11
374.5423
 21
275.7097
 40
2.5779
 41
0.5
  1
âXâ`âìü[âïâpâbâLâô
  0
TEXT
  8
LAYER_1
 10
374.9072
 20
272.1961
 11
374.9072
 21
272.1961
 40
2.5779
 41
0.5
  1
â}âEâôâeâBâôâOâfâBâXâN
  0
TEXT
  8
LAYER_1
 10
340.9797
 20
289.4951
 11
340.9797
 21
289.4951
 40
3.0419
 41
0.5
  1
JORGERÉ╗ örÉàïÓï´100mm
  0
POLYLINE
  8
LAYER_1
 40
0.0847
 41
0.0847
 66
1
 10
0
 20
0
 30
0
  0
VERTEX
  8
LAYER_1
 10
325.3587
 20
270.8202
  0
VERTEX
  8
LAYER_1
 10
325.3587
 20
271.5611
  0
SEQEND
  0
POLYLINE
  8
LAYER_1
 40
0.0847
 41
0.0847
 66
1
 10
0
 20
0
 30
0
  0
VERTEX
  8
LAYER_1
 10
325.3587
 20
272.0479
  0
VERTEX
  8
LAYER_1
 10
325.3587
 20
272.8099
  0
SEQEND
  0
POLYLINE
  8
LAYER_1
 40
0.0847
 41
0.0847
 66
1
 10
0
 20
0
 30
0
  0
VERTEX
  8
LAYER_1
 10
325.1682
 20
260.8296
  0
VERTEX
  8
LAYER_1
 10
325.1682
 20
261.2106
  0
SEQEND
  0
POLYLINE
  8
LAYER_1
 40
0.0847
 41
0.0847
 66
1
 10
0
 20
0
 30
0
  0
VERTEX
  8
LAYER_1
 10
325.1682
 20
261.4646
  0
VERTEX
  8
LAYER_1
 10
325.1682
 20
261.8456
  0
SEQEND
  0
POLYLINE
  8
LAYER_1
 40
0.0847
 41
0.0847
 66
1
 10
0
 20
0
 30
0
  0
VERTEX
  8
LAYER_1
 10
334.5662
 20
260.8296
  0
VERTEX
  8
LAYER_1
 10
334.5662
 20
261.2106
  0
SEQEND
  0
POLYLINE
  8
LAYER_1
 40
0.0847
 41
0.0847
 66
1
 10
0
 20
0
 30
0
  0
VERTEX
  8
LAYER_1
 10
334.5662
 20
261.4646
  0
VERTEX
  8
LAYER_1
 10
334.5662
 20
261.8456
  0
SEQEND
  0
POLYLINE
  8
LAYER_1
 40
0.0847
 41
0.0847
 66
1
 10
0
 20
0
 30
0
  0
VERTEX
  8
LAYER_1
 10
325.1682
 20
261.8456
  0
VERTEX
  8
LAYER_1
 10
325.4434
 20
261.8456
  0
SEQEND
  0
POLYLINE
  8
LAYER_1
 40
0.0847
 41
0.0847
 66
1
 10
0
 20
0
 30
0
  0
VERTEX
  8
LAYER_1
 10
325.655
 20
261.8456
  0
VERTEX
  8
LAYER_1
 10
325.9514
 20
261.8456
  0
SEQEND
  0
POLYLINE
  8
LAYER_1
 40
0.0847
 41
0.0847
 66
1
 10
0
 20
0
 30
0
  0
VERTEX
  8
LAYER_1
 10
333.9735
 20
261.8456
  0
VERTEX
  8
LAYER_1
 10
334.1852
 20
261.8456
  0
SEQEND
  0
POLYLINE
  8
LAYER_1
 40
0.0847
 41
0.0847
 66
1
 10
0
 20
0
 30
0
  0
VERTEX
  8
LAYER_1
 10
334.3334
 20
261.8456
  0
VERTEX
  8
LAYER_1
 10
334.5662
 20
261.8456
  0
SEQEND
  0
POLYLINE
  8
LAYER_1
 40
0.0847
 41
0.0847
 66
1
 10
0
 20
0
 30
0
  0
VERTEX
  8
LAYER_1
 10
332.2167
 20
279.0752
  0
VERTEX
  8
LAYER_1
 10
340.3024
 20
289.3622
  0
SEQEND
  0
TEXT
  8
LAYER_1
 10
364.5591
 20
257.7604
 11
364.5591
 21
257.7604
 40
4.2535
 41
0.5
  1
ôVö┬èJî¹Éíû@üF65067
  0
POLYLINE
  8
LAYER_1
 40
0.1693
 41
0.1693
 66
1
 10
0
 20
0
 30
0
  0
VERTEX
  8
LAYER_1
 10
318.3949
 20
364.3346
 42
0.413901661
  0
VERTEX
  8
LAYER_1
 10
303.3877
 20
379.3206
 42
0.4141943966
  0
VERTEX
  8
LAYER_1
 10
288.4017
 20
364.3346
 42
0.4139031373
  0
VERTEX
  8
LAYER_1
 10
303.3877
 20
349.3274
 42
0.4136111632
  0
VERTEX
  8
LAYER_1
 10
318.3949
 20
364.3346
  0
SEQEND
  0
POLYLINE
  8
LAYER_1
 40
0.1693
 41
0.1693
 66
1
 10
0
 20
0
 30
0
  0
VERTEX
  8
LAYER_1
 10
317.1884
 20
364.3346
 42
0.4144272245
  0
VERTEX
  8
LAYER_1
 10
303.3877
 20
378.1141
 42
0.4147457506
  0
VERTEX
  8
LAYER_1
 10
289.6082
 20
364.3346
 42
0.4144285701
  0
VERTEX
  8
LAYER_1
 10
303.3877
 20
350.5339
 42
0.4141109467
  0
VERTEX
  8
LAYER_1
 10
317.1884
 20
364.3346
  0
SEQEND
  0
POLYLINE
  8
LAYER_1
 40
0.0847
 41
0.0847
 66
1
 10
0
 20
0
 30
0
  0
VERTEX
  8
LAYER_1
 10
288.4017
 20
390.6024
  0
VERTEX
  8
LAYER_1
 10
318.416
 20
390.6024
  0
SEQEND
  0
POLYLINE
  8
LAYER_1
 40
0.1693
 41
0.1693
 66
1
 10
0
 20
0
 30
0
  0
VERTEX
  8
LAYER_1
 10
318.416
 20
390.6024
  0
VERTEX
  8
LAYER_1
 10
316.9555
 20
390.2214
  0
SEQEND
  0
POLYLINE
  8
LAYER_1
 40
0.1693
 41
0.1693
 66
1
 10
0
 20
0
 30
0
  0
VERTEX
  8
LAYER_1
 10
318.416
 20
390.6024
  0
VERTEX
  8
LAYER_1
 10
316.9555
 20
390.9834
  0
SEQEND
  0
POLYLINE
  8
LAYER_1
 40
0.1693
 41
0.1693
 66
1
 10
0
 20
0
 30
0
  0
VERTEX
  8
LAYER_1
 10
288.4017
 20
390.6024
  0
VERTEX
  8
LAYER_1
 10
289.8622
 20
390.9834
  0
SEQEND
  0
POLYLINE
  8
LAYER_1
 40
0.1693
 41
0.1693
 66
1
 10
0
 20
0
 30
0
  0
VERTEX
  8
LAYER_1
 10
288.4017
 20
390.6024
  0
VERTEX
  8
LAYER_1
 10
289.8622
 20
390.2214
  0
SEQEND
  0
POLYLINE
  8
LAYER_1
 40
0.0847
 41
0.0847
 66
1
 10
0
 20
0
 30
0
  0
VERTEX
  8
LAYER_1
 10
318.416
 20
373.3727
  0
VERTEX
  8
LAYER_1
 10
318.416
 20
390.6024
  0
SEQEND
  0
POLYLINE
  8
LAYER_1
 40
0.0847
 41
0.0847
 66
1
 10
0
 20
0
 30
0
  0
VERTEX
  8
LAYER_1
 10
288.4017
 20
373.3727
  0
VERTEX
  8
LAYER_1
 10
288.4017
 20
390.6024
  0
SEQEND
  0
POLYLINE
  8
LAYER_1
 40
0.0847
 41
0.0847
 66
1
 10
0
 20
0
 30
0
  0
VERTEX
  8
LAYER_1
 10
321.9085
 20
261.5492
  0
VERTEX
  8
LAYER_1
 10
322.4165
 20
261.5492
  0
SEQEND
  0
POLYLINE
  8
LAYER_1
 40
0.0847
 41
0.0847
 66
1
 10
0
 20
0
 30
0
  0
VERTEX
  8
LAYER_1
 10
321.9085
 20
261.5492
  0
VERTEX
  8
LAYER_1
 10
321.9085
 20
261.8456
  0
SEQEND
  0
POLYLINE
  8
LAYER_1
 40
0.0847
 41
0.0847
 66
1
 10
0
 20
0
 30
0
  0
VERTEX
  8
LAYER_1
 10
322.4165
 20
261.5492
  0
VERTEX
  8
LAYER_1
 10
322.4165
 20
261.8456
  0
SEQEND
  0
POLYLINE
  8
LAYER_1
 40
0.0847
 41
0.0847
 66
1
 10
0
 20
0
 30
0
  0
VERTEX
  8
LAYER_1
 10
337.3178
 20
261.5492
  0
VERTEX
  8
LAYER_1
 10
337.8258
 20
261.5492
  0
VERTEX
  8
LAYER_1
 10
337.8258
 20
261.8456
  0
SEQEND
  0
POLYLINE
  8
LAYER_1
 40
0.0847
 41
0.0847
 66
1
 10
0
 20
0
 30
0
  0
VERTEX
  8
LAYER_1
 10
337.3178
 20
261.5492
  0
VERTEX
  8
LAYER_1
 10
337.3178
 20
261.8456
  0
SEQEND
  0
POLYLINE
  8
LAYER_1
 40
0.0847
 41
0.0847
 66
1
 10
0
 20
0
 30
0
  0
VERTEX
  8
LAYER_1
 10
321.9085
 20
271.1166
  0
VERTEX
  8
LAYER_1
 10
322.4165
 20
271.1166
  0
SEQEND
  0
POLYLINE
  8
LAYER_1
 40
0.0847
 41
0.0847
 66
1
 10
0
 20
0
 30
0
  0
VERTEX
  8
LAYER_1
 10
321.9085
 20
270.8202
  0
VERTEX
  8
LAYER_1
 10
321.9085
 20
271.1166
  0
SEQEND
  0
POLYLINE
  8
LAYER_1
 40
0.0847
 41
0.0847
 66
1
 10
0
 20
0
 30
0
  0
VERTEX
  8
LAYER_1
 10
322.4165
 20
270.8202
  0
VERTEX
  8
LAYER_1
 10
322.4165
 20
271.1166
  0
SEQEND
  0
POLYLINE
  8
LAYER_1
 40
0.1693
 41
0.1693
 66
1
 10
0
 20
0
 30
0
  0
VERTEX
  8
LAYER_1
 10
377.6404
 20
364.3346
 42
0.4144392309
  0
VERTEX
  8
LAYER_1
 10
359.0137
 20
382.9401
 42
0.4146756183
  0
VERTEX
  8
LAYER_1
 10
340.4082
 20
364.3346
 42
0.4144407429
  0
VERTEX
  8
LAYER_1
 10
359.0137
 20
345.7079
 42
0.414204851
  0
VERTEX
  8
LAYER_1
 10
377.6404
 20
364.3346
  0
SEQEND
  0
POLYLINE
  8
LAYER_1
 40
0.0847
 41
0.0847
 66
1
 10
0
 20
0
 30
0
  0
VERTEX
  8
LAYER_1
 10
291.4285
 20
356.2912
  0
VERTEX
  8
LAYER_1
 10
280.7817
 20
347.6129
  0
SEQEND
  0
POLYLINE
  8
LAYER_1
 40
0.0847
 41
0.0847
 66
1
 10
0
 20
0
 30
0
  0
VERTEX
  8
LAYER_1
 10
341.657
 20
356.2912
  0
VERTEX
  8
LAYER_1
 10
331.0102
 20
347.6129
  0
SEQEND
  0
TEXT
  8
LAYER_1
 10
327.1578
 20
346.237
 11
327.1578
 21
346.237
 40
2.5779
 41
0.5
  1
ìò
  0
TEXT
  8
LAYER_1
 10
274.474
 20
346.237
 11
274.474
 21
346.237
 40
2.5779
 41
0.5
  1
ô¹öÆ
  0
TEXT
  8
LAYER_1
 10
320.4057
 20
337.6435
 11
320.4057
 21
337.6435
 40
2.4232
 41
0.5
  1
äOâèâôâOü@ô¹öÆüEìòü@èe1
  0
POLYLINE
  8
LAYER_1
 40
0.0847
 41
0.0847
 66
1
 10
0
 20
0
 30
0
  0
VERTEX
  8
LAYER_1
 10
339.3922
 20
390.6024
  0
VERTEX
  8
LAYER_1
 10
378.6564
 20
390.6024
  0
SEQEND
  0
POLYLINE
  8
LAYER_1
 40
0.1693
 41
0.1693
 66
1
 10
0
 20
0
 30
0
  0
VERTEX
  8
LAYER_1
 10
378.6564
 20
390.6024
  0
VERTEX
  8
LAYER_1
 10
377.1959
 20
390.2214
  0
SEQEND
  0
POLYLINE
  8
LAYER_1
 40
0.1693
 41
0.1693
 66
1
 10
0
 20
0
 30
0
  0
VERTEX
  8
LAYER_1
 10
378.6564
 20
390.6024
  0
VERTEX
  8
LAYER_1
 10
377.1959
 20
390.9834
  0
SEQEND
  0
POLYLINE
  8
LAYER_1
 40
0.1693
 41
0.1693
 66
1
 10
0
 20
0
 30
0
  0
VERTEX
  8
LAYER_1
 10
339.3922
 20
390.6024
  0
VERTEX
  8
LAYER_1
 10
340.8527
 20
390.9834
  0
SEQEND
  0
POLYLINE
  8
LAYER_1
 40
0.1693
 41
0.1693
 66
1
 10
0
 20
0
 30
0
  0
VERTEX
  8
LAYER_1
 10
339.3922
 20
390.6024
  0
VERTEX
  8
LAYER_1
 10
340.8527
 20
390.2214
  0
SEQEND
  0
POLYLINE
  8
LAYER_1
 40
0.0847
 41
0.0847
 66
1
 10
0
 20
0
 30
0
  0
VERTEX
  8
LAYER_1
 10
378.6564
 20
373.3727
  0
VERTEX
  8
LAYER_1
 10
378.6564
 20
390.6024
  0
SEQEND
  0
POLYLINE
  8
LAYER_1
 40
0.0847
 41
0.0847
 66
1
 10
0
 20
0
 30
0
  0
VERTEX
  8
LAYER_1
 10
339.3922
 20
373.3727
  0
VERTEX
  8
LAYER_1
 10
339.3922
 20
390.6024
  0
SEQEND
  0
POLYLINE
  8
LAYER_1
 40
0.1693
 41
0.1693
 66
1
 10
0
 20
0
 30
0
  0
VERTEX
  8
LAYER_1
 10
272.6113
 20
200.3352
  0
VERTEX
  8
LAYER_1
 10
389.7053
 20
200.3352
  0
SEQEND
  0
TEXT
  8
LAYER_1
 10
275.6202
 20
193.816
 11
275.6202
 21
193.816
 40
3.1022
 41
0.5
  1
üyâZâbâgôÓùeüz
  0
TEXT
  8
LAYER_1
 10
375.3967
 20
246.5845
 11
375.3967
 21
246.5845
 40
2.5779
 41
0.5
  1
äOâèâôâOüiô¹öÆüj
  0
POLYLINE
  8
LAYER_1
 40
0.0847
 41
0.0847
 66
1
 10
0
 20
0
 30
0
  0
VERTEX
  8
LAYER_1
 10
331.4547
 20
249.0397
  0
VERTEX
  8
LAYER_1
 10
376.0317
 20
240.8906
  0
SEQEND
  0
TEXT
  8
LAYER_1
 10
377.0266
 20
239.7052
 11
377.0266
 21
239.7052
 40
3.0419
 41
0.5
  1
örÉàèÃ%%c32
  0
POLYLINE
  8
LAYER_1
 40
0.0847
 41
0.0847
 66
1
 10
0
 20
0
 30
0
  0
VERTEX
  8
LAYER_1
 10
324.893
 20
269.6561
  0
VERTEX
  8
LAYER_1
 10
275.6805
 20
242.9014
  0
SEQEND
  0
POLYLINE
  8
LAYER_1
 40
0.0847
 41
0.0847
 66
1
 10
0
 20
0
 30
0
  0
VERTEX
  8
LAYER_1
 10
326.3535
 20
258.3107
  0
VERTEX
  8
LAYER_1
 10
275.6805
 20
242.9014
  0
SEQEND
  0
TEXT
  8
LAYER_1
 10
242.4911
 20
241.5255
 11
242.4911
 21
241.5255
 40
2.5779
 41
0.5
  1
Ä¸ÄëâpâbâLâôòtì└òté½âiâbâg
  0
POLYLINE
  8
LAYER_1
 40
0.0847
 41
0.0847
 66
1
 10
0
 20
0
 30
0
  0
VERTEX
  8
LAYER_1
 10
322.1625
 20
271.0107
  0
VERTEX
  8
LAYER_1
 10
274.5587
 20
251.0294
  0
SEQEND
  0
TEXT
  8
LAYER_1
 10
257.0752
 20
250.098
 11
257.0752
 21
250.098
 40
2.5779
 41
0.5
  1
äOâèâôâOüiìòüj
  0
POLYLINE
  8
LAYER_1
 40
0.1693
 41
0.1693
 66
1
 10
0
 20
0
 30
0
  0
VERTEX
  8
LAYER_1
 10
309.0392
 20
228.9314
  0
VERTEX
  8
LAYER_1
 10
309.0392
 20
232.4451
  0
SEQEND
  0
POLYLINE
  8
LAYER_1
 40
0.1693
 41
0.1693
 66
1
 10
0
 20
0
 30
0
  0
VERTEX
  8
LAYER_1
 10
309.0392
 20
228.9314
  0
VERTEX
  8
LAYER_1
 10
347.5414
 20
228.9314
  0
VERTEX
  8
LAYER_1
 10
347.5414
 20
232.4451
  0
SEQEND
  0
POLYLINE
  8
LAYER_1
 40
0.1693
 41
0.1693
 66
1
 10
0
 20
0
 30
0
  0
VERTEX
  8
LAYER_1
 10
309.0392
 20
232.4451
  0
VERTEX
  8
LAYER_1
 10
347.5414
 20
232.4451
  0
SEQEND
  0
POLYLINE
  8
LAYER_1
 40
0.1693
 41
0.1693
 66
1
 10
0
 20
0
 30
0
  0
VERTEX
  8
LAYER_1
 10
339.879
 20
368.6102
 42
0.05675833663
  0
VERTEX
  8
LAYER_1
 10
339.4133
 20
364.3134
 42
0.06292640903
  0
VERTEX
  8
LAYER_1
 10
340.031
 20
359.4165
 42
0.0916677333
  0
VERTEX
  8
LAYER_1
 10
343.0332
 20
352.9637
 42
0.1499091426
  0
VERTEX
  8
LAYER_1
 10
352.288
 20
345.8848
 42
0.08821774711
  0
VERTEX
  8
LAYER_1
 10
359.0348
 20
344.6919
 42
0.06297876227
  0
VERTEX
  8
LAYER_1
 10
363.9388
 20
345.3109
 42
0.09177751248
  0
VERTEX
  8
LAYER_1
 10
370.3938
 20
348.3177
 42
0.149859963
  0
VERTEX
  8
LAYER_1
 10
377.4658
 20
357.5751
 42
0.08809973181
  0
VERTEX
  8
LAYER_1
 10
378.6564
 20
364.3134
 42
0.414240088
  0
VERTEX
  8
LAYER_1
 10
359.0348
 20
383.9349
 42
0.05927444346
  0
VERTEX
  8
LAYER_1
 10
354.4004
 20
383.3839
 42
0.253151138
  0
VERTEX
  8
LAYER_1
 10
340.4082
 20
370.5152
  0
SEQEND
  0
TEXT
  8
LAYER_1
 10
276.0078
 20
188.8206
 11
276.0078
 21
188.8206
 40
3.6606
 41
0.5
  1
üESUS304 âXâeâôâîâX â}âEâôâeâBâôâOâfâBâXâN 5/10mmâXâyü[âTü[
  0
TEXT
  8
LAYER_1
 10
276.0078
 20
183.8252
 11
276.0078
 21
183.8252
 40
3.6606
 41
0.5
  1
üEäOâèâôâOü~2üiô¹öÆüEìò èe1üj
  0
TEXT
  8
LAYER_1
 10
355.8386
 20
201.7958
 11
355.8386
 21
201.7958
 40
3.6606
 41
0.5
  1
üªôVö┬î·ü@10045å@æ╬ë×
  0
TEXT
  8
LAYER_1
 10
278.3687
 20
204.5686
 11
278.3687
 21
204.5686
 40
4.2535
 41
0.5
  1
òiü@öÈüFSC-WBM-0174590S-100
  0
TEXT
  8
LAYER_1
 10
278.3687
 20
209.6485
 11
278.3687
 21
209.6485
 40
4.2535
 41
0.5
  1
Åñòiû╝üFâ}âWâFâXâeâBâbâN â}âEâôâeâBâôâOâfâBâXâNâZâbâg100mm
  0
POLYLINE
  8
LAYER_1
 40
0.0847
 41
0.0847
 66
1
 10
0
 20
0
 30
0
  0
VERTEX
  8
LAYER_1
 10
258.7049
 20
270.8202
  0
VERTEX
  8
LAYER_1
 10
258.853
 20
270.6086
  0
VERTEX
  8
LAYER_1
 10
259.0859
 20
270.2487
  0
VERTEX
  8
LAYER_1
 10
259.3187
 20
269.8677
  0
VERTEX
  8
LAYER_1
 10
259.5092
 20
269.5291
  0
VERTEX
  8
LAYER_1
 10
259.6362
 20
269.1692
  0
VERTEX
  8
LAYER_1
 10
259.7209
 20
268.8094
  0
VERTEX
  8
LAYER_1
 10
259.742
 20
268.5977
  0
VERTEX
  8
LAYER_1
 10
259.7209
 20
268.3861
  0
VERTEX
  8
LAYER_1
 10
259.6362
 20
268.0051
  0
VERTEX
  8
LAYER_1
 10
259.5092
 20
267.6452
  0
VERTEX
  8
LAYER_1
 10
259.3187
 20
267.2854
  0
VERTEX
  8
LAYER_1
 10
259.0859
 20
266.9256
  0
VERTEX
  8
LAYER_1
 10
258.853
 20
266.5446
  0
VERTEX
  8
LAYER_1
 10
258.5567
 20
266.1212
  0
VERTEX
  8
LAYER_1
 10
258.3238
 20
265.7614
  0
VERTEX
  8
LAYER_1
 10
258.1122
 20
265.4016
  0
VERTEX
  8
LAYER_1
 10
257.9217
 20
265.0417
  0
VERTEX
  8
LAYER_1
 10
257.7735
 20
264.6607
  0
VERTEX
  8
LAYER_1
 10
257.6889
 20
264.3009
  0
VERTEX
  8
LAYER_1
 10
257.6889
 20
264.0892
  0
VERTEX
  8
LAYER_1
 10
257.6889
 20
263.8776
  0
VERTEX
  8
LAYER_1
 10
257.7735
 20
263.5177
  0
VERTEX
  8
LAYER_1
 10
257.9217
 20
263.1579
  0
VERTEX
  8
LAYER_1
 10
258.1122
 20
262.7769
  0
VERTEX
  8
LAYER_1
 10
258.3238
 20
262.4171
  0
VERTEX
  8
LAYER_1
 10
258.5567
 20
262.0572
  0
VERTEX
  8
LAYER_1
 10
258.7049
 20
261.8456
  0
SEQEND
  0
POLYLINE
  8
LAYER_1
 40
0.0847
 41
0.0847
 66
1
 10
0
 20
0
 30
0
  0
VERTEX
  8
LAYER_1
 10
401.0295
 20
270.8202
  0
VERTEX
  8
LAYER_1
 10
400.8813
 20
270.6086
  0
VERTEX
  8
LAYER_1
 10
400.6485
 20
270.2487
  0
VERTEX
  8
LAYER_1
 10
400.4157
 20
269.8677
  0
VERTEX
  8
LAYER_1
 10
400.2252
 20
269.5291
  0
VERTEX
  8
LAYER_1
 10
400.0982
 20
269.1692
  0
VERTEX
  8
LAYER_1
 10
400.0135
 20
268.8094
  0
VERTEX
  8
LAYER_1
 10
399.9924
 20
268.5977
  0
VERTEX
  8
LAYER_1
 10
400.0135
 20
268.3861
  0
VERTEX
  8
LAYER_1
 10
400.0982
 20
268.0051
  0
VERTEX
  8
LAYER_1
 10
400.2252
 20
267.6452
  0
VERTEX
  8
LAYER_1
 10
400.4157
 20
267.2854
  0
VERTEX
  8
LAYER_1
 10
400.6485
 20
266.9256
  0
VERTEX
  8
LAYER_1
 10
400.8813
 20
266.5446
  0
VERTEX
  8
LAYER_1
 10
401.1777
 20
266.1212
  0
VERTEX
  8
LAYER_1
 10
401.4105
 20
265.7614
  0
VERTEX
  8
LAYER_1
 10
401.6433
 20
265.4016
  0
VERTEX
  8
LAYER_1
 10
401.8127
 20
265.0417
  0
VERTEX
  8
LAYER_1
 10
401.9608
 20
264.6607
  0
VERTEX
  8
LAYER_1
 10
402.0455
 20
264.3009
  0
VERTEX
  8
LAYER_1
 10
402.0455
 20
264.0892
  0
VERTEX
  8
LAYER_1
 10
402.0455
 20
263.8776
  0
VERTEX
  8
LAYER_1
 10
401.9608
 20
263.5177
  0
VERTEX
  8
LAYER_1
 10
401.8127
 20
263.1579
  0
VERTEX
  8
LAYER_1
 10
401.6433
 20
262.7769
  0
VERTEX
  8
LAYER_1
 10
401.4105
 20
262.4171
  0
VERTEX
  8
LAYER_1
 10
401.1777
 20
262.0572
  0
VERTEX
  8
LAYER_1
 10
401.0295
 20
261.8456
  0
SEQEND
  0
TEXT
  8
LAYER_1
 10
276.9507
 20
163.5053
 11
276.9507
 21
163.5053
 40
3.1022
 41
0.5
  1
üªâ}âEâôâeâBâôâOâfâBâXâNé═üAÉàÉ­é╠ìéé│üEôVö┬é╠î·é¦é╔ë×éÂé─ÅÒë║ô³éÛæÍéªë┬ö\é┼éÀüB
  0
TEXT
  8
LAYER_1
 10
275.8386
 20
178.5126
 11
275.8386
 21
178.5126
 40
3.6606
 41
0.5
  1
üEJORGERÉ╗ örÉàïÓï´ âNâìü[âÇâüâbâLüi100å@üj
  0
TEXT
  8
LAYER_1
 10
275.8386
 20
173.5172
 11
275.8386
 21
173.5172
 40
3.1022
 41
0.5
  1
üEâXâ`âìü[âïâpâbâLâô
  0
TEXT
  8
LAYER_1
 10
275.9234
 20
168.5007
 11
275.9234
 21
168.5007
 40
3.6606
 41
0.5
  1
üEôVö┬î┼ÆÞùp Ä¸ÄëâpâbâLâôòtì└òté½âiâbâgü~2
  0
POLYLINE
  8
LAYER_1
 40
0.1693
 41
0.1693
 66
1
 10
0
 20
0
 30
0
  0
VERTEX
  8
LAYER_1
 10
315.8337
 20
275.8791
  0
VERTEX
  8
LAYER_1
 10
316.4052
 20
275.8579
  0
SEQEND
  0
POLYLINE
  8
LAYER_1
 40
0.1693
 41
0.1693
 66
1
 10
0
 20
0
 30
0
  0
VERTEX
  8
LAYER_1
 10
318.7759
 20
275.6251
  0
VERTEX
  8
LAYER_1
 10
318.3314
 20
275.6674
  0
SEQEND
  0
POLYLINE
  8
LAYER_1
 40
0.0847
 41
0.0847
 66
1
 10
0
 20
0
 30
0
  0
VERTEX
  8
LAYER_1
 10
272.6748
 20
299.5222
  0
VERTEX
  8
LAYER_1
 10
275.2995
 20
295.5006
  0
SEQEND
  0
POLYLINE
  8
LAYER_1
 40
0.0847
 41
0.0847
 66
1
 10
0
 20
0
 30
0
  0
VERTEX
  8
LAYER_1
 10
272.6748
 20
299.5011
 42
0.275946282
  0
VERTEX
  8
LAYER_1
 10
270.8969
 20
300.6017
  0
VERTEX
  8
LAYER_1
 10
270.8757
 20
300.6017
  0
SEQEND
  0
POLYLINE
  8
LAYER_1
 40
0.1693
 41
0.1693
 66
1
 10
0
 20
0
 30
0
  0
VERTEX
  8
LAYER_1
 10
263.0652
 20
298.0194
  0
VERTEX
  8
LAYER_1
 10
263.0863
 20
298.4004
  0
VERTEX
  8
LAYER_1
 10
263.1075
 20
298.7602
  0
VERTEX
  8
LAYER_1
 10
263.171
 20
299.0777
  0
SEQEND
  0
POLYLINE
  8
LAYER_1
 40
0.1693
 41
0.1693
 66
1
 10
0
 20
0
 30
0
  0
VERTEX
  8
LAYER_1
 10
263.2557
 20
299.3741
  0
VERTEX
  8
LAYER_1
 10
263.3615
 20
299.6281
  0
VERTEX
  8
LAYER_1
 10
263.4885
 20
299.8609
  0
VERTEX
  8
LAYER_1
 10
263.6367
 20
300.0726
  0
VERTEX
  8
LAYER_1
 10
263.8272
 20
300.2419
  0
VERTEX
  8
LAYER_1
 10
264.0177
 20
300.3689
  0
VERTEX
  8
LAYER_1
 10
264.2505
 20
300.4747
  0
VERTEX
  8
LAYER_1
 10
264.5045
 20
300.5594
  0
VERTEX
  8
LAYER_1
 10
264.7797
 20
300.6017
  0
VERTEX
  8
LAYER_1
 10
265.076
 20
300.6229
  0
SEQEND
  0
POLYLINE
  8
LAYER_1
 40
0.1693
 41
0.1693
 66
1
 10
0
 20
0
 30
0
  0
VERTEX
  8
LAYER_1
 10
396.6692
 20
298.0194
  0
VERTEX
  8
LAYER_1
 10
396.648
 20
298.4004
  0
VERTEX
  8
LAYER_1
 10
396.6268
 20
298.7602
  0
VERTEX
  8
LAYER_1
 10
396.5633
 20
299.0777
  0
VERTEX
  8
LAYER_1
 10
396.4787
 20
299.3741
  0
VERTEX
  8
LAYER_1
 10
396.3729
 20
299.6281
  0
VERTEX
  8
LAYER_1
 10
396.2459
 20
299.8609
  0
VERTEX
  8
LAYER_1
 10
396.0977
 20
300.0726
  0
VERTEX
  8
LAYER_1
 10
395.9072
 20
300.2419
  0
VERTEX
  8
LAYER_1
 10
395.7167
 20
300.3689
  0
VERTEX
  8
LAYER_1
 10
395.4838
 20
300.4747
  0
VERTEX
  8
LAYER_1
 10
395.2299
 20
300.5594
  0
VERTEX
  8
LAYER_1
 10
394.9758
 20
300.6017
  0
VERTEX
  8
LAYER_1
 10
394.6795
 20
300.6229
  0
SEQEND
  0
POLYLINE
  8
LAYER_1
 40
0.0847
 41
0.0847
 66
1
 10
0
 20
0
 30
0
  0
VERTEX
  8
LAYER_1
 10
366.2527
 20
279.4774
  0
VERTEX
  8
LAYER_1
 10
365.7447
 20
279.3292
  0
VERTEX
  8
LAYER_1
 10
365.1943
 20
279.1811
  0
VERTEX
  8
LAYER_1
 10
364.263
 20
278.9694
  0
VERTEX
  8
LAYER_1
 10
363.3105
 20
278.7577
  0
VERTEX
  8
LAYER_1
 10
359.7545
 20
278.2497
  0
VERTEX
  8
LAYER_1
 10
358.167
 20
278.0592
  0
VERTEX
  8
LAYER_1
 10
356.5584
 20
277.9111
  0
VERTEX
  8
LAYER_1
 10
354.9709
 20
277.7841
  0
VERTEX
  8
LAYER_1
 10
354.357
 20
277.7841
  0
VERTEX
  8
LAYER_1
 10
353.7008
 20
277.7841
  0
VERTEX
  8
LAYER_1
 10
353.0447
 20
277.8052
  0
VERTEX
  8
LAYER_1
 10
352.4097
 20
277.8052
  0
VERTEX
  8
LAYER_1
 10
351.7747
 20
277.8264
  0
VERTEX
  8
LAYER_1
 10
351.1397
 20
277.8264
  0
VERTEX
  8
LAYER_1
 10
350.5047
 20
277.8476
  0
VERTEX
  8
LAYER_1
 10
349.8908
 20
277.8687
  0
VERTEX
  8
LAYER_1
 10
349.2559
 20
277.8687
  0
SEQEND
  0
POLYLINE
  8
LAYER_1
 40
0.0847
 41
0.0847
 66
1
 10
0
 20
0
 30
0
  0
VERTEX
  8
LAYER_1
 10
309.8435
 20
277.8687
  0
VERTEX
  8
LAYER_1
 10
309.2297
 20
277.8476
  0
VERTEX
  8
LAYER_1
 10
308.5947
 20
277.8264
  0
VERTEX
  8
LAYER_1
 10
307.9808
 20
277.8264
  0
VERTEX
  8
LAYER_1
 10
307.3458
 20
277.8052
  0
VERTEX
  8
LAYER_1
 10
306.6897
 20
277.8052
  0
VERTEX
  8
LAYER_1
 10
306.0547
 20
277.7841
  0
VERTEX
  8
LAYER_1
 10
305.3985
 20
277.7841
  0
VERTEX
  8
LAYER_1
 10
304.7635
 20
277.7841
  0
VERTEX
  8
LAYER_1
 10
303.176
 20
277.9111
  0
VERTEX
  8
LAYER_1
 10
301.5673
 20
278.0592
  0
VERTEX
  8
LAYER_1
 10
299.9798
 20
278.2497
  0
VERTEX
  8
LAYER_1
 10
296.4238
 20
278.7577
  0
VERTEX
  8
LAYER_1
 10
295.4713
 20
278.9694
  0
VERTEX
  8
LAYER_1
 10
294.54
 20
279.1811
  0
VERTEX
  8
LAYER_1
 10
293.9897
 20
279.3292
  0
VERTEX
  8
LAYER_1
 10
293.4817
 20
279.4774
  0
VERTEX
  8
LAYER_1
 10
292.6138
 20
279.7737
  0
VERTEX
  8
LAYER_1
 10
291.7248
 20
280.0912
  0
VERTEX
  8
LAYER_1
 10
290.857
 20
280.4511
  0
VERTEX
  8
LAYER_1
 10
290.0104
 20
280.8109
  0
VERTEX
  8
LAYER_1
 10
289.1425
 20
281.2131
  0
VERTEX
  8
LAYER_1
 10
288.6345
 20
281.4671
  0
VERTEX
  8
LAYER_1
 10
287.9995
 20
281.7846
  0
SEQEND
  0
POLYLINE
  8
LAYER_1
 40
0.1693
 41
0.1693
 66
1
 10
0
 20
0
 30
0
  0
VERTEX
  8
LAYER_1
 10
275.8075
 20
290.6322
  0
VERTEX
  8
LAYER_1
 10
276.7177
 20
289.4046
  0
VERTEX
  8
LAYER_1
 10
277.7125
 20
288.2404
  0
VERTEX
  8
LAYER_1
 10
278.0723
 20
287.7959
  0
VERTEX
  8
LAYER_1
 10
278.6862
 20
287.0339
  0
VERTEX
  8
LAYER_1
 10
279.3
 20
286.2719
  0
VERTEX
  8
LAYER_1
 10
279.9562
 20
285.5311
  0
VERTEX
  8
LAYER_1
 10
280.6123
 20
284.8114
  0
VERTEX
  8
LAYER_1
 10
281.3108
 20
284.1341
  0
VERTEX
  8
LAYER_1
 10
281.713
 20
283.7319
  0
VERTEX
  8
LAYER_1
 10
282.2633
 20
283.2662
  0
VERTEX
  8
LAYER_1
 10
283.237
 20
282.4831
  0
VERTEX
  8
LAYER_1
 10
284.2742
 20
281.7634
  0
VERTEX
  8
LAYER_1
 10
285.3325
 20
281.1072
  0
VERTEX
  8
LAYER_1
 10
286.4332
 20
280.4722
  0
VERTEX
  8
LAYER_1
 10
287.555
 20
279.8796
  0
VERTEX
  8
LAYER_1
 10
288.2112
 20
279.5409
  0
VERTEX
  8
LAYER_1
 10
288.7192
 20
279.3081
  0
VERTEX
  8
LAYER_1
 10
289.587
 20
278.8847
  0
VERTEX
  8
LAYER_1
 10
290.476
 20
278.5037
  0
VERTEX
  8
LAYER_1
 10
291.365
 20
278.1439
  0
VERTEX
  8
LAYER_1
 10
292.2752
 20
277.8052
  0
VERTEX
  8
LAYER_1
 10
293.1854
 20
277.5089
  0
VERTEX
  8
LAYER_1
 10
293.7145
 20
277.3607
  0
VERTEX
  8
LAYER_1
 10
294.286
 20
277.2126
  0
VERTEX
  8
LAYER_1
 10
295.2597
 20
276.9797
  0
VERTEX
  8
LAYER_1
 10
296.2545
 20
276.7681
  0
VERTEX
  8
LAYER_1
 10
299.8529
 20
276.2389
  0
VERTEX
  8
LAYER_1
 10
301.4827
 20
276.0484
  0
VERTEX
  8
LAYER_1
 10
303.0913
 20
275.9002
  0
VERTEX
  8
LAYER_1
 10
304.7212
 20
275.7732
  0
VERTEX
  8
LAYER_1
 10
305.3985
 20
275.7732
  0
VERTEX
  8
LAYER_1
 10
306.0547
 20
275.7732
  0
VERTEX
  8
LAYER_1
 10
306.7108
 20
275.7944
  0
VERTEX
  8
LAYER_1
 10
307.3459
 20
275.7944
  0
VERTEX
  8
LAYER_1
 10
307.9809
 20
275.8156
  0
VERTEX
  8
LAYER_1
 10
308.6158
 20
275.8156
  0
VERTEX
  8
LAYER_1
 10
309.2508
 20
275.8367
  0
VERTEX
  8
LAYER_1
 10
309.8647
 20
275.8579
  0
SEQEND
  0
POLYLINE
  8
LAYER_1
 40
0.1693
 41
0.1693
 66
1
 10
0
 20
0
 30
0
  0
VERTEX
  8
LAYER_1
 10
346.2078
 20
275.9002
  0
VERTEX
  8
LAYER_1
 10
345.6152
 20
275.9002
  0
SEQEND
  0
POLYLINE
  8
LAYER_1
 40
0.1693
 41
0.1693
 66
1
 10
0
 20
0
 30
0
  0
VERTEX
  8
LAYER_1
 10
346.8005
 20
275.9002
  0
VERTEX
  8
LAYER_1
 10
346.2078
 20
275.9002
  0
SEQEND
  0
POLYLINE
  8
LAYER_1
 40
0.1693
 41
0.1693
 66
1
 10
0
 20
0
 30
0
  0
VERTEX
  8
LAYER_1
 10
347.4143
 20
275.9002
  0
VERTEX
  8
LAYER_1
 10
346.8005
 20
275.9002
  0
SEQEND
  0
POLYLINE
  8
LAYER_1
 40
0.1693
 41
0.1693
 66
1
 10
0
 20
0
 30
0
  0
VERTEX
  8
LAYER_1
 10
348.0282
 20
275.8791
  0
VERTEX
  8
LAYER_1
 10
347.4143
 20
275.9002
  0
SEQEND
  0
POLYLINE
  8
LAYER_1
 40
0.1693
 41
0.1693
 66
1
 10
0
 20
0
 30
0
  0
VERTEX
  8
LAYER_1
 10
348.6208
 20
275.8791
  0
VERTEX
  8
LAYER_1
 10
348.0282
 20
275.8791
  0
SEQEND
  0
POLYLINE
  8
LAYER_1
 40
0.1693
 41
0.1693
 66
1
 10
0
 20
0
 30
0
  0
VERTEX
  8
LAYER_1
 10
349.2347
 20
275.8579
  0
VERTEX
  8
LAYER_1
 10
348.6208
 20
275.8791
  0
SEQEND
  0
POLYLINE
  8
LAYER_1
 40
0.1693
 41
0.1693
 66
1
 10
0
 20
0
 30
0
  0
VERTEX
  8
LAYER_1
 10
349.8697
 20
275.8579
  0
VERTEX
  8
LAYER_1
 10
349.2347
 20
275.8579
  0
SEQEND
  0
POLYLINE
  8
LAYER_1
 40
0.1693
 41
0.1693
 66
1
 10
0
 20
0
 30
0
  0
VERTEX
  8
LAYER_1
 10
350.4835
 20
275.8367
  0
VERTEX
  8
LAYER_1
 10
349.8697
 20
275.8579
  0
SEQEND
  0
POLYLINE
  8
LAYER_1
 40
0.1693
 41
0.1693
 66
1
 10
0
 20
0
 30
0
  0
VERTEX
  8
LAYER_1
 10
351.1185
 20
275.8156
  0
VERTEX
  8
LAYER_1
 10
350.4835
 20
275.8367
  0
SEQEND
  0
POLYLINE
  8
LAYER_1
 40
0.1693
 41
0.1693
 66
1
 10
0
 20
0
 30
0
  0
VERTEX
  8
LAYER_1
 10
351.7535
 20
275.8156
  0
VERTEX
  8
LAYER_1
 10
351.1185
 20
275.8156
  0
SEQEND
  0
POLYLINE
  8
LAYER_1
 40
0.1693
 41
0.1693
 66
1
 10
0
 20
0
 30
0
  0
VERTEX
  8
LAYER_1
 10
352.3885
 20
275.7944
  0
VERTEX
  8
LAYER_1
 10
351.7535
 20
275.8156
  0
SEQEND
  0
POLYLINE
  8
LAYER_1
 40
0.1693
 41
0.1693
 66
1
 10
0
 20
0
 30
0
  0
VERTEX
  8
LAYER_1
 10
353.0235
 20
275.7944
  0
VERTEX
  8
LAYER_1
 10
352.3885
 20
275.7944
  0
SEQEND
  0
POLYLINE
  8
LAYER_1
 40
0.1693
 41
0.1693
 66
1
 10
0
 20
0
 30
0
  0
VERTEX
  8
LAYER_1
 10
353.6796
 20
275.7732
  0
VERTEX
  8
LAYER_1
 10
353.0235
 20
275.7944
  0
SEQEND
  0
POLYLINE
  8
LAYER_1
 40
0.1693
 41
0.1693
 66
1
 10
0
 20
0
 30
0
  0
VERTEX
  8
LAYER_1
 10
354.3358
 20
275.7732
  0
VERTEX
  8
LAYER_1
 10
353.6796
 20
275.7732
  0
SEQEND
  0
POLYLINE
  8
LAYER_1
 40
0.1693
 41
0.1693
 66
1
 10
0
 20
0
 30
0
  0
VERTEX
  8
LAYER_1
 10
355.0131
 20
275.7732
  0
VERTEX
  8
LAYER_1
 10
354.3358
 20
275.7732
  0
SEQEND
  0
POLYLINE
  8
LAYER_1
 40
0.1693
 41
0.1693
 66
1
 10
0
 20
0
 30
0
  0
VERTEX
  8
LAYER_1
 10
356.643
 20
275.9002
  0
VERTEX
  8
LAYER_1
 10
355.0131
 20
275.7732
  0
SEQEND
  0
POLYLINE
  8
LAYER_1
 40
0.1693
 41
0.1693
 66
1
 10
0
 20
0
 30
0
  0
VERTEX
  8
LAYER_1
 10
358.2728
 20
276.0484
  0
VERTEX
  8
LAYER_1
 10
356.643
 20
275.9002
  0
SEQEND
  0
POLYLINE
  8
LAYER_1
 40
0.1693
 41
0.1693
 66
1
 10
0
 20
0
 30
0
  0
VERTEX
  8
LAYER_1
 10
359.8815
 20
276.2389
  0
VERTEX
  8
LAYER_1
 10
358.2728
 20
276.0484
  0
SEQEND
  0
POLYLINE
  8
LAYER_1
 40
0.1693
 41
0.1693
 66
1
 10
0
 20
0
 30
0
  0
VERTEX
  8
LAYER_1
 10
363.501
 20
276.7681
  0
VERTEX
  8
LAYER_1
 10
359.8815
 20
276.2389
  0
SEQEND
  0
POLYLINE
  8
LAYER_1
 40
0.1693
 41
0.1693
 66
1
 10
0
 20
0
 30
0
  0
VERTEX
  8
LAYER_1
 10
364.4746
 20
276.9797
  0
VERTEX
  8
LAYER_1
 10
363.501
 20
276.7681
  0
SEQEND
  0
POLYLINE
  8
LAYER_1
 40
0.1693
 41
0.1693
 66
1
 10
0
 20
0
 30
0
  0
VERTEX
  8
LAYER_1
 10
365.4483
 20
277.2126
  0
VERTEX
  8
LAYER_1
 10
364.4746
 20
276.9797
  0
SEQEND
  0
POLYLINE
  8
LAYER_1
 40
0.1693
 41
0.1693
 66
1
 10
0
 20
0
 30
0
  0
VERTEX
  8
LAYER_1
 10
366.0198
 20
277.3607
  0
VERTEX
  8
LAYER_1
 10
365.4483
 20
277.2126
  0
SEQEND
  0
POLYLINE
  8
LAYER_1
 40
0.1693
 41
0.1693
 66
1
 10
0
 20
0
 30
0
  0
VERTEX
  8
LAYER_1
 10
366.549
 20
277.5089
  0
VERTEX
  8
LAYER_1
 10
366.0198
 20
277.3607
  0
SEQEND
  0
POLYLINE
  8
LAYER_1
 40
0.1693
 41
0.1693
 66
1
 10
0
 20
0
 30
0
  0
VERTEX
  8
LAYER_1
 10
367.4591
 20
277.8053
  0
VERTEX
  8
LAYER_1
 10
366.549
 20
277.5089
  0
SEQEND
  0
POLYLINE
  8
LAYER_1
 40
0.1693
 41
0.1693
 66
1
 10
0
 20
0
 30
0
  0
VERTEX
  8
LAYER_1
 10
368.3693
 20
278.1439
  0
VERTEX
  8
LAYER_1
 10
367.4591
 20
277.8053
  0
SEQEND
  0
POLYLINE
  8
LAYER_1
 40
0.1693
 41
0.1693
 66
1
 10
0
 20
0
 30
0
  0
VERTEX
  8
LAYER_1
 10
369.2583
 20
278.5037
  0
VERTEX
  8
LAYER_1
 10
368.3693
 20
278.1439
  0
SEQEND
  0
POLYLINE
  8
LAYER_1
 40
0.1693
 41
0.1693
 66
1
 10
0
 20
0
 30
0
  0
VERTEX
  8
LAYER_1
 10
370.1473
 20
278.8847
  0
VERTEX
  8
LAYER_1
 10
369.2583
 20
278.5037
  0
SEQEND
  0
POLYLINE
  8
LAYER_1
 40
0.1693
 41
0.1693
 66
1
 10
0
 20
0
 30
0
  0
VERTEX
  8
LAYER_1
 10
371.0363
 20
279.3081
  0
VERTEX
  8
LAYER_1
 10
370.1473
 20
278.8847
  0
SEQEND
  0
POLYLINE
  8
LAYER_1
 40
0.1693
 41
0.1693
 66
1
 10
0
 20
0
 30
0
  0
VERTEX
  8
LAYER_1
 10
371.5443
 20
279.5409
  0
VERTEX
  8
LAYER_1
 10
371.0363
 20
279.3081
  0
SEQEND
  0
POLYLINE
  8
LAYER_1
 40
0.1693
 41
0.1693
 66
1
 10
0
 20
0
 30
0
  0
VERTEX
  8
LAYER_1
 10
372.1793
 20
279.8796
  0
VERTEX
  8
LAYER_1
 10
371.5443
 20
279.5409
  0
SEQEND
  0
POLYLINE
  8
LAYER_1
 40
0.1693
 41
0.1693
 66
1
 10
0
 20
0
 30
0
  0
VERTEX
  8
LAYER_1
 10
373.3011
 20
280.4722
  0
VERTEX
  8
LAYER_1
 10
372.1793
 20
279.8796
  0
SEQEND
  0
POLYLINE
  8
LAYER_1
 40
0.1693
 41
0.1693
 66
1
 10
0
 20
0
 30
0
  0
VERTEX
  8
LAYER_1
 10
374.4018
 20
281.1072
  0
VERTEX
  8
LAYER_1
 10
373.3011
 20
280.4722
  0
SEQEND
  0
POLYLINE
  8
LAYER_1
 40
0.1693
 41
0.1693
 66
1
 10
0
 20
0
 30
0
  0
VERTEX
  8
LAYER_1
 10
375.4601
 20
281.7634
  0
VERTEX
  8
LAYER_1
 10
374.4018
 20
281.1072
  0
SEQEND
  0
POLYLINE
  8
LAYER_1
 40
0.1693
 41
0.1693
 66
1
 10
0
 20
0
 30
0
  0
VERTEX
  8
LAYER_1
 10
376.4973
 20
282.4831
  0
VERTEX
  8
LAYER_1
 10
375.4601
 20
281.7634
  0
SEQEND
  0
POLYLINE
  8
LAYER_1
 40
0.1693
 41
0.1693
 66
1
 10
0
 20
0
 30
0
  0
VERTEX
  8
LAYER_1
 10
377.4709
 20
283.2662
  0
VERTEX
  8
LAYER_1
 10
376.4973
 20
282.4831
  0
SEQEND
  0
POLYLINE
  8
LAYER_1
 40
0.1693
 41
0.1693
 66
1
 10
0
 20
0
 30
0
  0
VERTEX
  8
LAYER_1
 10
378.0213
 20
283.7319
  0
VERTEX
  8
LAYER_1
 10
377.4709
 20
283.2662
  0
SEQEND
  0
POLYLINE
  8
LAYER_1
 40
0.1693
 41
0.1693
 66
1
 10
0
 20
0
 30
0
  0
VERTEX
  8
LAYER_1
 10
378.4235
 20
284.1341
  0
VERTEX
  8
LAYER_1
 10
378.0213
 20
283.7319
  0
SEQEND
  0
POLYLINE
  8
LAYER_1
 40
0.1693
 41
0.1693
 66
1
 10
0
 20
0
 30
0
  0
VERTEX
  8
LAYER_1
 10
379.122
 20
284.8114
  0
VERTEX
  8
LAYER_1
 10
378.4235
 20
284.1341
  0
SEQEND
  0
POLYLINE
  8
LAYER_1
 40
0.1693
 41
0.1693
 66
1
 10
0
 20
0
 30
0
  0
VERTEX
  8
LAYER_1
 10
379.7781
 20
285.5311
  0
VERTEX
  8
LAYER_1
 10
379.122
 20
284.8114
  0
SEQEND
  0
POLYLINE
  8
LAYER_1
 40
0.1693
 41
0.1693
 66
1
 10
0
 20
0
 30
0
  0
VERTEX
  8
LAYER_1
 10
380.4343
 20
286.2719
  0
VERTEX
  8
LAYER_1
 10
379.7781
 20
285.5311
  0
SEQEND
  0
POLYLINE
  8
LAYER_1
 40
0.1693
 41
0.1693
 66
1
 10
0
 20
0
 30
0
  0
VERTEX
  8
LAYER_1
 10
381.0481
 20
287.0339
  0
VERTEX
  8
LAYER_1
 10
380.4343
 20
286.2719
  0
SEQEND
  0
POLYLINE
  8
LAYER_1
 40
0.1693
 41
0.1693
 66
1
 10
0
 20
0
 30
0
  0
VERTEX
  8
LAYER_1
 10
381.6619
 20
287.7959
  0
VERTEX
  8
LAYER_1
 10
381.0481
 20
287.0339
  0
SEQEND
  0
POLYLINE
  8
LAYER_1
 40
0.1693
 41
0.1693
 66
1
 10
0
 20
0
 30
0
  0
VERTEX
  8
LAYER_1
 10
382.0218
 20
288.2404
  0
VERTEX
  8
LAYER_1
 10
381.6619
 20
287.7959
  0
SEQEND
  0
POLYLINE
  8
LAYER_1
 40
0.1693
 41
0.1693
 66
1
 10
0
 20
0
 30
0
  0
VERTEX
  8
LAYER_1
 10
383.0166
 20
289.4046
  0
VERTEX
  8
LAYER_1
 10
382.0218
 20
288.2404
  0
SEQEND
  0
POLYLINE
  8
LAYER_1
 40
0.1693
 41
0.1693
 66
1
 10
0
 20
0
 30
0
  0
VERTEX
  8
LAYER_1
 10
383.9268
 20
290.6323
  0
VERTEX
  8
LAYER_1
 10
383.0166
 20
289.4046
  0
SEQEND
  0
POLYLINE
  8
LAYER_1
 40
0.1693
 41
0.1693
 66
1
 10
0
 20
0
 30
0
  0
VERTEX
  8
LAYER_1
 10
384.7946
 20
291.9446
  0
VERTEX
  8
LAYER_1
 10
383.9268
 20
290.6323
  0
SEQEND
  0
POLYLINE
  8
LAYER_1
 40
0.1693
 41
0.1693
 66
1
 10
0
 20
0
 30
0
  0
VERTEX
  8
LAYER_1
 10
385.5989
 20
293.3204
  0
VERTEX
  8
LAYER_1
 10
384.7946
 20
291.9446
  0
SEQEND
  0
POLYLINE
  8
LAYER_1
 40
0.1693
 41
0.1693
 66
1
 10
0
 20
0
 30
0
  0
VERTEX
  8
LAYER_1
 10
386.3397
 20
294.8233
  0
VERTEX
  8
LAYER_1
 10
385.5989
 20
293.3204
  0
SEQEND
  0
POLYLINE
  8
LAYER_1
 40
0.1693
 41
0.1693
 66
1
 10
0
 20
0
 30
0
  0
VERTEX
  8
LAYER_1
 10
386.4033
 20
294.9714
  0
VERTEX
  8
LAYER_1
 10
386.3397
 20
294.8233
  0
SEQEND
  0
POLYLINE
  8
LAYER_1
 40
0.1693
 41
0.1693
 66
1
 10
0
 20
0
 30
0
  0
VERTEX
  8
LAYER_1
 10
388.4987
 20
296.8764
  0
VERTEX
  8
LAYER_1
 10
388.4564
 20
296.8764
  0
VERTEX
  8
LAYER_1
 10
388.4141
 20
296.8553
  0
VERTEX
  8
LAYER_1
 10
388.3717
 20
296.8341
  0
VERTEX
  8
LAYER_1
 10
388.3506
 20
296.8341
  0
VERTEX
  8
LAYER_1
 10
388.3082
 20
296.8129
  0
VERTEX
  8
LAYER_1
 10
388.2659
 20
296.7918
  0
VERTEX
  8
LAYER_1
 10
388.2236
 20
296.7706
  0
VERTEX
  8
LAYER_1
 10
388.1812
 20
296.7494
  0
VERTEX
  8
LAYER_1
 10
388.1389
 20
296.7494
  0
VERTEX
  8
LAYER_1
 10
388.0966
 20
296.7283
  0
VERTEX
  8
LAYER_1
 10
388.0754
 20
296.7071
  0
VERTEX
  8
LAYER_1
 10
388.0331
 20
296.6859
  0
VERTEX
  8
LAYER_1
 10
387.9908
 20
296.6648
  0
VERTEX
  8
LAYER_1
 10
387.9484
 20
296.6224
  0
VERTEX
  8
LAYER_1
 10
387.9061
 20
296.6013
  0
VERTEX
  8
LAYER_1
 10
387.8637
 20
296.5801
  0
VERTEX
  8
LAYER_1
 10
387.8214
 20
296.5589
  0
VERTEX
  8
LAYER_1
 10
387.7791
 20
296.5378
  0
VERTEX
  8
LAYER_1
 10
387.7579
 20
296.4954
  0
VERTEX
  8
LAYER_1
 10
387.7156
 20
296.4743
  0
VERTEX
  8
LAYER_1
 10
387.6733
 20
296.4531
  0
VERTEX
  8
LAYER_1
 10
387.6309
 20
296.4108
  0
VERTEX
  8
LAYER_1
 10
387.5886
 20
296.3896
  0
VERTEX
  8
LAYER_1
 10
387.5463
 20
296.3684
  0
VERTEX
  8
LAYER_1
 10
387.5039
 20
296.3261
  0
VERTEX
  8
LAYER_1
 10
387.4827
 20
296.3049
  0
VERTEX
  8
LAYER_1
 10
387.4404
 20
296.2626
  0
VERTEX
  8
LAYER_1
 10
387.3981
 20
296.2414
  0
VERTEX
  8
LAYER_1
 10
387.3557
 20
296.1991
  0
VERTEX
  8
LAYER_1
 10
387.3134
 20
296.1779
  0
VERTEX
  8
LAYER_1
 10
387.2922
 20
296.1356
  0
VERTEX
  8
LAYER_1
 10
387.2499
 20
296.1144
  0
VERTEX
  8
LAYER_1
 10
387.2076
 20
296.0721
  0
VERTEX
  8
LAYER_1
 10
387.1652
 20
296.0298
  0
VERTEX
  8
LAYER_1
 10
387.1441
 20
296.0086
  0
VERTEX
  8
LAYER_1
 10
387.1018
 20
295.9663
  0
VERTEX
  8
LAYER_1
 10
387.0594
 20
295.9239
  0
VERTEX
  8
LAYER_1
 10
387.0382
 20
295.9028
  0
VERTEX
  8
LAYER_1
 10
386.9959
 20
295.8604
  0
VERTEX
  8
LAYER_1
 10
386.9748
 20
295.8181
  0
VERTEX
  8
LAYER_1
 10
386.9324
 20
295.7969
  0
VERTEX
  8
LAYER_1
 10
386.9112
 20
295.7546
  0
VERTEX
  8
LAYER_1
 10
386.8689
 20
295.7123
  0
VERTEX
  8
LAYER_1
 10
386.8477
 20
295.6699
  0
VERTEX
  8
LAYER_1
 10
386.8054
 20
295.6276
  0
VERTEX
  8
LAYER_1
 10
386.7842
 20
295.6064
  0
VERTEX
  8
LAYER_1
 10
386.7419
 20
295.5641
  0
VERTEX
  8
LAYER_1
 10
386.7207
 20
295.5218
  0
VERTEX
  8
LAYER_1
 10
386.6996
 20
295.4794
  0
VERTEX
  8
LAYER_1
 10
386.6784
 20
295.4583
  0
VERTEX
  8
LAYER_1
 10
386.6361
 20
295.4159
  0
VERTEX
  8
LAYER_1
 10
386.6149
 20
295.3736
  0
VERTEX
  8
LAYER_1
 10
386.5937
 20
295.3313
  0
VERTEX
  8
LAYER_1
 10
386.5726
 20
295.3101
  0
VERTEX
  8
LAYER_1
 10
386.5514
 20
295.2678
  0
VERTEX
  8
LAYER_1
 10
386.5303
 20
295.2254
  0
VERTEX
  8
LAYER_1
 10
386.5091
 20
295.1831
  0
VERTEX
  8
LAYER_1
 10
386.4879
 20
295.1619
  0
VERTEX
  8
LAYER_1
 10
386.4667
 20
295.1196
  0
VERTEX
  8
LAYER_1
 10
386.4456
 20
295.0773
  0
VERTEX
  8
LAYER_1
 10
386.4244
 20
295.0349
  0
VERTEX
  8
LAYER_1
 10
386.4244
 20
295.0138
  0
VERTEX
  8
LAYER_1
 10
386.4033
 20
294.9714
  0
SEQEND
  0
POLYLINE
  8
LAYER_1
 40
0.1693
 41
0.1693
 66
1
 10
0
 20
0
 30
0
  0
VERTEX
  8
LAYER_1
 10
274.9396
 20
291.9446
  0
VERTEX
  8
LAYER_1
 10
275.8074
 20
290.6323
  0
SEQEND
  0
POLYLINE
  8
LAYER_1
 40
0.1693
 41
0.1693
 66
1
 10
0
 20
0
 30
0
  0
VERTEX
  8
LAYER_1
 10
274.1352
 20
293.3204
  0
VERTEX
  8
LAYER_1
 10
274.9396
 20
291.9446
  0
SEQEND
  0
POLYLINE
  8
LAYER_1
 40
0.1693
 41
0.1693
 66
1
 10
0
 20
0
 30
0
  0
VERTEX
  8
LAYER_1
 10
273.3944
 20
294.8233
  0
VERTEX
  8
LAYER_1
 10
274.1352
 20
293.3204
  0
SEQEND
  0
POLYLINE
  8
LAYER_1
 40
0.1693
 41
0.1693
 66
1
 10
0
 20
0
 30
0
  0
VERTEX
  8
LAYER_1
 10
273.3309
 20
294.9714
  0
VERTEX
  8
LAYER_1
 10
273.3944
 20
294.8233
  0
SEQEND
  0
POLYLINE
  8
LAYER_1
 40
0.1693
 41
0.1693
 66
1
 10
0
 20
0
 30
0
  0
VERTEX
  8
LAYER_1
 10
273.3309
 20
294.9714
  0
VERTEX
  8
LAYER_1
 10
273.3097
 20
295.0138
  0
VERTEX
  8
LAYER_1
 10
273.3097
 20
295.0561
  0
VERTEX
  8
LAYER_1
 10
273.2886
 20
295.0773
  0
VERTEX
  8
LAYER_1
 10
273.2674
 20
295.1196
  0
VERTEX
  8
LAYER_1
 10
273.2462
 20
295.1619
  0
VERTEX
  8
LAYER_1
 10
273.2251
 20
295.2043
  0
VERTEX
  8
LAYER_1
 10
273.2039
 20
295.2254
  0
VERTEX
  8
LAYER_1
 10
273.1827
 20
295.2678
  0
VERTEX
  8
LAYER_1
 10
273.1616
 20
295.3101
  0
VERTEX
  8
LAYER_1
 10
273.1404
 20
295.3524
  0
VERTEX
  8
LAYER_1
 10
273.1192
 20
295.3736
  0
VERTEX
  8
LAYER_1
 10
273.0769
 20
295.4159
  0
VERTEX
  8
LAYER_1
 10
273.0557
 20
295.4583
  0
VERTEX
  8
LAYER_1
 10
273.0346
 20
295.5006
  0
VERTEX
  8
LAYER_1
 10
273.0134
 20
295.5218
  0
VERTEX
  8
LAYER_1
 10
272.9711
 20
295.5641
  0
VERTEX
  8
LAYER_1
 10
272.9499
 20
295.6064
  0
VERTEX
  8
LAYER_1
 10
272.9287
 20
295.6488
  0
VERTEX
  8
LAYER_1
 10
272.8864
 20
295.6911
  0
VERTEX
  8
LAYER_1
 10
272.8652
 20
295.7123
  0
VERTEX
  8
LAYER_1
 10
272.8229
 20
295.7546
  0
VERTEX
  8
LAYER_1
 10
272.8017
 20
295.7969
  0
VERTEX
  8
LAYER_1
 10
272.7594
 20
295.8393
  0
VERTEX
  8
LAYER_1
 10
272.7382
 20
295.8604
  0
VERTEX
  8
LAYER_1
 10
272.6959
 20
295.9028
  0
VERTEX
  8
LAYER_1
 10
272.6536
 20
295.9451
  0
VERTEX
  8
LAYER_1
 10
272.6324
 20
295.9663
  0
VERTEX
  8
LAYER_1
 10
272.5901
 20
296.0086
  0
VERTEX
  8
LAYER_1
 10
272.5477
 20
296.0509
  0
VERTEX
  8
LAYER_1
 10
272.5266
 20
296.0721
  0
VERTEX
  8
LAYER_1
 10
272.4842
 20
296.1144
  0
VERTEX
  8
LAYER_1
 10
272.4419
 20
296.1356
  0
VERTEX
  8
LAYER_1
 10
272.3996
 20
296.1779
  0
VERTEX
  8
LAYER_1
 10
272.3784
 20
296.2203
  0
VERTEX
  8
LAYER_1
 10
272.3361
 20
296.2414
  0
VERTEX
  8
LAYER_1
 10
272.2937
 20
296.2838
  0
VERTEX
  8
LAYER_1
 10
272.2514
 20
296.3049
  0
VERTEX
  8
LAYER_1
 10
272.2091
 20
296.3473
  0
VERTEX
  8
LAYER_1
 10
272.1879
 20
296.3684
  0
VERTEX
  8
LAYER_1
 10
272.1456
 20
296.3896
  0
VERTEX
  8
LAYER_1
 10
272.1032
 20
296.4319
  0
VERTEX
  8
LAYER_1
 10
272.0609
 20
296.4531
  0
VERTEX
  8
LAYER_1
 10
272.0186
 20
296.4743
  0
VERTEX
  8
LAYER_1
 10
271.9762
 20
296.5166
  0
VERTEX
  8
LAYER_1
 10
271.9339
 20
296.5378
  0
SEQEND
  0
POLYLINE
  8
LAYER_1
 40
0.1693
 41
0.1693
 66
1
 10
0
 20
0
 30
0
  0
VERTEX
  8
LAYER_1
 10
271.934
 20
296.5377
  0
VERTEX
  8
LAYER_1
 10
271.8917
 20
296.5589
  0
VERTEX
  8
LAYER_1
 10
271.8705
 20
296.5801
  0
VERTEX
  8
LAYER_1
 10
271.8282
 20
296.6224
  0
VERTEX
  8
LAYER_1
 10
271.7859
 20
296.6436
  0
VERTEX
  8
LAYER_1
 10
271.7435
 20
296.6647
  0
VERTEX
  8
LAYER_1
 10
271.7012
 20
296.6859
  0
VERTEX
  8
LAYER_1
 10
271.6588
 20
296.7071
  0
VERTEX
  8
LAYER_1
 10
271.6165
 20
296.7282
  0
VERTEX
  8
LAYER_1
 10
271.5742
 20
296.7494
  0
VERTEX
  8
LAYER_1
 10
271.553
 20
296.7706
  0
VERTEX
  8
LAYER_1
 10
271.5107
 20
296.7706
  0
VERTEX
  8
LAYER_1
 10
271.4684
 20
296.7917
  0
VERTEX
  8
LAYER_1
 10
271.426
 20
296.8129
  0
VERTEX
  8
LAYER_1
 10
271.3837
 20
296.8341
  0
VERTEX
  8
LAYER_1
 10
271.3414
 20
296.8552
  0
VERTEX
  8
LAYER_1
 10
271.3202
 20
296.8552
  0
VERTEX
  8
LAYER_1
 10
271.2779
 20
296.8764
  0
VERTEX
  8
LAYER_1
 10
271.2355
 20
296.8764
  0
VERTEX
  8
LAYER_1
 10
267.7642
 20
298.0194
  0
SEQEND
  0
POLYLINE
  8
LAYER_1
 40
0.1693
 41
0.1693
 66
1
 10
0
 20
0
 30
0
  0
VERTEX
  8
LAYER_1
 10
388.4989
 20
296.8764
  0
VERTEX
  8
LAYER_1
 10
391.9702
 20
298.0194
  0
SEQEND
  0
POLYLINE
  8
LAYER_1
 40
0.1693
 41
0.1693
 66
1
 10
0
 20
0
 30
0
  0
VERTEX
  8
LAYER_1
 10
386.2975
 20
298.0194
  0
VERTEX
  8
LAYER_1
 10
396.6692
 20
298.0194
  0
SEQEND
  0
POLYLINE
  8
LAYER_1
 40
0.1693
 41
0.1693
 66
1
 10
0
 20
0
 30
0
  0
VERTEX
  8
LAYER_1
 10
265.076
 20
300.6229
  0
VERTEX
  8
LAYER_1
 10
270.8969
 20
300.6229
  0
SEQEND
  0
POLYLINE
  8
LAYER_1
 40
0.1693
 41
0.1693
 66
1
 10
0
 20
0
 30
0
  0
VERTEX
  8
LAYER_1
 10
388.8376
 20
300.6229
  0
VERTEX
  8
LAYER_1
 10
394.9759
 20
300.6229
  0
SEQEND
  0
POLYLINE
  8
LAYER_1
 40
0.1693
 41
0.1693
 66
1
 10
0
 20
0
 30
0
  0
VERTEX
  8
LAYER_1
 10
263.0652
 20
298.0194
  0
VERTEX
  8
LAYER_1
 10
273.4369
 20
298.0194
  0
SEQEND
  0
POLYLINE
  8
LAYER_1
 40
0.0847
 41
0.0847
 66
1
 10
0
 20
0
 30
0
  0
VERTEX
  8
LAYER_1
 10
284.4435
 20
284.0917
  0
VERTEX
  8
LAYER_1
 10
283.5333
 20
284.8114
  0
VERTEX
  8
LAYER_1
 10
283.0465
 20
285.2347
  0
VERTEX
  8
LAYER_1
 10
282.6867
 20
285.5734
  0
VERTEX
  8
LAYER_1
 10
282.0517
 20
286.2084
  0
VERTEX
  8
LAYER_1
 10
281.4378
 20
286.8646
  0
VERTEX
  8
LAYER_1
 10
280.8452
 20
287.5631
  0
VERTEX
  8
LAYER_1
 10
280.2313
 20
288.3039
  0
VERTEX
  8
LAYER_1
 10
279.6175
 20
289.0447
  0
VERTEX
  8
LAYER_1
 10
279.2577
 20
289.5104
  0
VERTEX
  8
LAYER_1
 10
278.284
 20
290.6534
  0
VERTEX
  8
LAYER_1
 10
277.4373
 20
291.7752
  0
VERTEX
  8
LAYER_1
 10
276.6542
 20
292.9817
  0
VERTEX
  8
LAYER_1
 10
275.9133
 20
294.2729
  0
SEQEND
  0
POLYLINE
  8
LAYER_1
 40
0.0847
 41
0.0847
 66
1
 10
0
 20
0
 30
0
  0
VERTEX
  8
LAYER_1
 10
275.2995
 20
295.5006
  0
VERTEX
  8
LAYER_1
 10
275.9133
 20
294.2729
  0
SEQEND
  0
POLYLINE
  8
LAYER_1
 40
0.0847
 41
0.0847
 66
1
 10
0
 20
0
 30
0
  0
VERTEX
  8
LAYER_1
 10
286.8142
 20
282.4407
  0
VERTEX
  8
LAYER_1
 10
287.0258
 20
282.3137
  0
SEQEND
  0
POLYLINE
  8
LAYER_1
 40
0.0847
 41
0.0847
 66
1
 10
0
 20
0
 30
0
  0
VERTEX
  8
LAYER_1
 10
287.047
 20
282.2926
  0
VERTEX
  8
LAYER_1
 10
287.9995
 20
281.7846
  0
SEQEND
  0
POLYLINE
  8
LAYER_1
 40
0.0847
 41
0.0847
 66
1
 10
0
 20
0
 30
0
  0
VERTEX
  8
LAYER_1
 10
286.8354
 20
282.4196
  0
VERTEX
  8
LAYER_1
 10
284.4435
 20
284.0917
  0
SEQEND
  0
POLYLINE
  8
LAYER_1
 40
0.0847
 41
0.0847
 66
1
 10
0
 20
0
 30
0
  0
VERTEX
  8
LAYER_1
 10
387.0595
 20
299.5222
  0
VERTEX
  8
LAYER_1
 10
384.4349
 20
295.5006
  0
SEQEND
  0
POLYLINE
  8
LAYER_1
 40
0.0847
 41
0.0847
 66
1
 10
0
 20
0
 30
0
  0
VERTEX
  8
LAYER_1
 10
388.8163
 20
300.6017
 42
0.2784076816
  0
VERTEX
  8
LAYER_1
 10
387.0383
 20
299.5011
  0
SEQEND
  0
POLYLINE
  8
LAYER_1
 40
0.0847
 41
0.0847
 66
1
 10
0
 20
0
 30
0
  0
VERTEX
  8
LAYER_1
 10
370.5918
 20
281.2131
  0
VERTEX
  8
LAYER_1
 10
371.0998
 20
281.4671
  0
VERTEX
  8
LAYER_1
 10
371.7348
 20
281.7846
  0
SEQEND
  0
POLYLINE
  8
LAYER_1
 40
0.0847
 41
0.0847
 66
1
 10
0
 20
0
 30
0
  0
VERTEX
  8
LAYER_1
 10
375.2908
 20
284.0917
  0
VERTEX
  8
LAYER_1
 10
376.201
 20
284.8114
  0
VERTEX
  8
LAYER_1
 10
376.6878
 20
285.2347
  0
VERTEX
  8
LAYER_1
 10
377.0476
 20
285.5734
  0
VERTEX
  8
LAYER_1
 10
377.6826
 20
286.2084
  0
VERTEX
  8
LAYER_1
 10
378.2965
 20
286.8646
  0
VERTEX
  8
LAYER_1
 10
378.9103
 20
287.5631
  0
VERTEX
  8
LAYER_1
 10
379.5029
 20
288.3039
  0
VERTEX
  8
LAYER_1
 10
380.1168
 20
289.0447
  0
VERTEX
  8
LAYER_1
 10
380.4766
 20
289.5104
  0
VERTEX
  8
LAYER_1
 10
381.4503
 20
290.6534
  0
VERTEX
  8
LAYER_1
 10
382.297
 20
291.7752
  0
VERTEX
  8
LAYER_1
 10
383.0801
 20
292.9817
  0
VERTEX
  8
LAYER_1
 10
383.821
 20
294.2729
  0
SEQEND
  0
POLYLINE
  8
LAYER_1
 40
0.0847
 41
0.0847
 66
1
 10
0
 20
0
 30
0
  0
VERTEX
  8
LAYER_1
 10
384.4348
 20
295.5006
  0
VERTEX
  8
LAYER_1
 10
383.821
 20
294.2729
  0
SEQEND
  0
POLYLINE
  8
LAYER_1
 40
0.0847
 41
0.0847
 66
1
 10
0
 20
0
 30
0
  0
VERTEX
  8
LAYER_1
 10
372.6662
 20
282.2926
  0
VERTEX
  8
LAYER_1
 10
372.8778
 20
282.4196
  0
SEQEND
  0
POLYLINE
  8
LAYER_1
 40
0.0847
 41
0.0847
 66
1
 10
0
 20
0
 30
0
  0
VERTEX
  8
LAYER_1
 10
372.6873
 20
282.2926
  0
VERTEX
  8
LAYER_1
 10
371.7349
 20
281.7846
  0
SEQEND
  0
POLYLINE
  8
LAYER_1
 40
0.0847
 41
0.0847
 66
1
 10
0
 20
0
 30
0
  0
VERTEX
  8
LAYER_1
 10
372.899
 20
282.4196
  0
VERTEX
  8
LAYER_1
 10
375.2908
 20
284.0917
  0
SEQEND
  0
POLYLINE
  8
LAYER_1
 40
0.0847
 41
0.0847
 66
1
 10
0
 20
0
 30
0
  0
VERTEX
  8
LAYER_1
 10
366.2527
 20
279.4774
  0
VERTEX
  8
LAYER_1
 10
367.1417
 20
279.7737
  0
VERTEX
  8
LAYER_1
 10
368.0095
 20
280.0912
  0
VERTEX
  8
LAYER_1
 10
368.8773
 20
280.4511
  0
VERTEX
  8
LAYER_1
 10
369.7452
 20
280.8109
  0
VERTEX
  8
LAYER_1
 10
370.5919
 20
281.2131
  0
SEQEND
  0
POLYLINE
  8
LAYER_1
 40
0.0847
 41
0.0847
 66
1
 10
0
 20
0
 30
0
  0
VERTEX
  8
LAYER_1
 10
273.4369
 20
298.0194
  0
VERTEX
  8
LAYER_1
 10
274.2835
 20
298.0194
  0
SEQEND
  0
POLYLINE
  8
LAYER_1
 40
0.0847
 41
0.0847
 66
1
 10
0
 20
0
 30
0
  0
VERTEX
  8
LAYER_1
 10
275.998
 20
298.0194
  0
VERTEX
  8
LAYER_1
 10
277.6914
 20
298.0194
  0
SEQEND
  0
POLYLINE
  8
LAYER_1
 40
0.0847
 41
0.0847
 66
1
 10
0
 20
0
 30
0
  0
VERTEX
  8
LAYER_1
 10
279.4059
 20
298.0194
  0
VERTEX
  8
LAYER_1
 10
281.1203
 20
298.0194
  0
SEQEND
  0
POLYLINE
  8
LAYER_1
 40
0.0847
 41
0.0847
 66
1
 10
0
 20
0
 30
0
  0
VERTEX
  8
LAYER_1
 10
282.8348
 20
298.0194
  0
VERTEX
  8
LAYER_1
 10
284.5493
 20
298.0194
  0
SEQEND
  0
POLYLINE
  8
LAYER_1
 40
0.0847
 41
0.0847
 66
1
 10
0
 20
0
 30
0
  0
VERTEX
  8
LAYER_1
 10
286.2427
 20
298.0194
  0
VERTEX
  8
LAYER_1
 10
287.9572
 20
298.0194
  0
SEQEND
  0
POLYLINE
  8
LAYER_1
 40
0.0847
 41
0.0847
 66
1
 10
0
 20
0
 30
0
  0
VERTEX
  8
LAYER_1
 10
289.6717
 20
298.0194
  0
VERTEX
  8
LAYER_1
 10
291.3861
 20
298.0194
  0
SEQEND
  0
POLYLINE
  8
LAYER_1
 40
0.0847
 41
0.0847
 66
1
 10
0
 20
0
 30
0
  0
VERTEX
  8
LAYER_1
 10
293.1006
 20
298.0194
  0
VERTEX
  8
LAYER_1
 10
294.794
 20
298.0194
  0
SEQEND
  0
POLYLINE
  8
LAYER_1
 40
0.0847
 41
0.0847
 66
1
 10
0
 20
0
 30
0
  0
VERTEX
  8
LAYER_1
 10
296.5085
 20
298.0194
  0
VERTEX
  8
LAYER_1
 10
298.223
 20
298.0194
  0
SEQEND
  0
POLYLINE
  8
LAYER_1
 40
0.0847
 41
0.0847
 66
1
 10
0
 20
0
 30
0
  0
VERTEX
  8
LAYER_1
 10
299.9375
 20
298.0194
  0
VERTEX
  8
LAYER_1
 10
301.652
 20
298.0194
  0
SEQEND
  0
POLYLINE
  8
LAYER_1
 40
0.0847
 41
0.0847
 66
1
 10
0
 20
0
 30
0
  0
VERTEX
  8
LAYER_1
 10
303.3453
 20
298.0194
  0
VERTEX
  8
LAYER_1
 10
305.0598
 20
298.0194
  0
SEQEND
  0
POLYLINE
  8
LAYER_1
 40
0.0847
 41
0.0847
 66
1
 10
0
 20
0
 30
0
  0
VERTEX
  8
LAYER_1
 10
306.7743
 20
298.0194
  0
VERTEX
  8
LAYER_1
 10
308.4888
 20
298.0194
  0
SEQEND
  0
POLYLINE
  8
LAYER_1
 40
0.0847
 41
0.0847
 66
1
 10
0
 20
0
 30
0
  0
VERTEX
  8
LAYER_1
 10
310.1821
 20
298.0194
  0
VERTEX
  8
LAYER_1
 10
311.8966
 20
298.0194
  0
SEQEND
  0
POLYLINE
  8
LAYER_1
 40
0.0847
 41
0.0847
 66
1
 10
0
 20
0
 30
0
  0
VERTEX
  8
LAYER_1
 10
313.6111
 20
298.0194
  0
VERTEX
  8
LAYER_1
 10
315.3256
 20
298.0194
  0
SEQEND
  0
POLYLINE
  8
LAYER_1
 40
0.0847
 41
0.0847
 66
1
 10
0
 20
0
 30
0
  0
VERTEX
  8
LAYER_1
 10
317.0401
 20
298.0194
  0
VERTEX
  8
LAYER_1
 10
318.7334
 20
298.0194
  0
SEQEND
  0
POLYLINE
  8
LAYER_1
 40
0.0847
 41
0.0847
 66
1
 10
0
 20
0
 30
0
  0
VERTEX
  8
LAYER_1
 10
320.4479
 20
298.0194
  0
VERTEX
  8
LAYER_1
 10
322.1624
 20
298.0194
  0
SEQEND
  0
POLYLINE
  8
LAYER_1
 40
0.0847
 41
0.0847
 66
1
 10
0
 20
0
 30
0
  0
VERTEX
  8
LAYER_1
 10
323.8769
 20
298.0194
  0
VERTEX
  8
LAYER_1
 10
325.5914
 20
298.0194
  0
SEQEND
  0
POLYLINE
  8
LAYER_1
 40
0.0847
 41
0.0847
 66
1
 10
0
 20
0
 30
0
  0
VERTEX
  8
LAYER_1
 10
327.2847
 20
298.0194
  0
VERTEX
  8
LAYER_1
 10
328.9992
 20
298.0194
  0
SEQEND
  0
POLYLINE
  8
LAYER_1
 40
0.0847
 41
0.0847
 66
1
 10
0
 20
0
 30
0
  0
VERTEX
  8
LAYER_1
 10
330.7137
 20
298.0194
  0
VERTEX
  8
LAYER_1
 10
332.4282
 20
298.0194
  0
SEQEND
  0
POLYLINE
  8
LAYER_1
 40
0.0847
 41
0.0847
 66
1
 10
0
 20
0
 30
0
  0
VERTEX
  8
LAYER_1
 10
334.1215
 20
298.0194
  0
VERTEX
  8
LAYER_1
 10
335.836
 20
298.0194
  0
SEQEND
  0
POLYLINE
  8
LAYER_1
 40
0.0847
 41
0.0847
 66
1
 10
0
 20
0
 30
0
  0
VERTEX
  8
LAYER_1
 10
337.5505
 20
298.0194
  0
VERTEX
  8
LAYER_1
 10
339.265
 20
298.0194
  0
SEQEND
  0
POLYLINE
  8
LAYER_1
 40
0.0847
 41
0.0847
 66
1
 10
0
 20
0
 30
0
  0
VERTEX
  8
LAYER_1
 10
340.9795
 20
298.0194
  0
VERTEX
  8
LAYER_1
 10
342.6728
 20
298.0194
  0
SEQEND
  0
POLYLINE
  8
LAYER_1
 40
0.0847
 41
0.0847
 66
1
 10
0
 20
0
 30
0
  0
VERTEX
  8
LAYER_1
 10
344.3873
 20
298.0194
  0
VERTEX
  8
LAYER_1
 10
346.1018
 20
298.0194
  0
SEQEND
  0
POLYLINE
  8
LAYER_1
 40
0.0847
 41
0.0847
 66
1
 10
0
 20
0
 30
0
  0
VERTEX
  8
LAYER_1
 10
347.8163
 20
298.0194
  0
VERTEX
  8
LAYER_1
 10
349.5308
 20
298.0194
  0
SEQEND
  0
POLYLINE
  8
LAYER_1
 40
0.0847
 41
0.0847
 66
1
 10
0
 20
0
 30
0
  0
VERTEX
  8
LAYER_1
 10
351.2241
 20
298.0194
  0
VERTEX
  8
LAYER_1
 10
352.9386
 20
298.0194
  0
SEQEND
  0
POLYLINE
  8
LAYER_1
 40
0.0847
 41
0.0847
 66
1
 10
0
 20
0
 30
0
  0
VERTEX
  8
LAYER_1
 10
354.6531
 20
298.0194
  0
VERTEX
  8
LAYER_1
 10
356.3676
 20
298.0194
  0
SEQEND
  0
POLYLINE
  8
LAYER_1
 40
0.0847
 41
0.0847
 66
1
 10
0
 20
0
 30
0
  0
VERTEX
  8
LAYER_1
 10
358.061
 20
298.0194
  0
VERTEX
  8
LAYER_1
 10
359.7755
 20
298.0194
  0
SEQEND
  0
POLYLINE
  8
LAYER_1
 40
0.0847
 41
0.0847
 66
1
 10
0
 20
0
 30
0
  0
VERTEX
  8
LAYER_1
 10
361.49
 20
298.0194
  0
VERTEX
  8
LAYER_1
 10
363.2045
 20
298.0194
  0
SEQEND
  0
POLYLINE
  8
LAYER_1
 40
0.0847
 41
0.0847
 66
1
 10
0
 20
0
 30
0
  0
VERTEX
  8
LAYER_1
 10
364.919
 20
298.0194
  0
VERTEX
  8
LAYER_1
 10
366.6123
 20
298.0194
  0
SEQEND
  0
POLYLINE
  8
LAYER_1
 40
0.0847
 41
0.0847
 66
1
 10
0
 20
0
 30
0
  0
VERTEX
  8
LAYER_1
 10
368.3268
 20
298.0194
  0
VERTEX
  8
LAYER_1
 10
370.0413
 20
298.0194
  0
SEQEND
  0
POLYLINE
  8
LAYER_1
 40
0.0847
 41
0.0847
 66
1
 10
0
 20
0
 30
0
  0
VERTEX
  8
LAYER_1
 10
371.7558
 20
298.0194
  0
VERTEX
  8
LAYER_1
 10
373.4703
 20
298.0194
  0
SEQEND
  0
POLYLINE
  8
LAYER_1
 40
0.0847
 41
0.0847
 66
1
 10
0
 20
0
 30
0
  0
VERTEX
  8
LAYER_1
 10
375.1636
 20
298.0194
  0
VERTEX
  8
LAYER_1
 10
376.8781
 20
298.0194
  0
SEQEND
  0
POLYLINE
  8
LAYER_1
 40
0.0847
 41
0.0847
 66
1
 10
0
 20
0
 30
0
  0
VERTEX
  8
LAYER_1
 10
378.5926
 20
298.0194
  0
VERTEX
  8
LAYER_1
 10
380.3071
 20
298.0194
  0
SEQEND
  0
POLYLINE
  8
LAYER_1
 40
0.0847
 41
0.0847
 66
1
 10
0
 20
0
 30
0
  0
VERTEX
  8
LAYER_1
 10
382.0216
 20
298.0194
  0
VERTEX
  8
LAYER_1
 10
383.715
 20
298.0194
  0
SEQEND
  0
POLYLINE
  8
LAYER_1
 40
0.0847
 41
0.0847
 66
1
 10
0
 20
0
 30
0
  0
VERTEX
  8
LAYER_1
 10
385.4295
 20
298.0194
  0
VERTEX
  8
LAYER_1
 10
386.2973
 20
298.0194
  0
SEQEND
  0
POLYLINE
  8
LAYER_1
 40
0.0847
 41
0.0847
 66
1
 10
0
 20
0
 30
0
  0
VERTEX
  8
LAYER_1
 10
270.8966
 20
300.6229
  0
VERTEX
  8
LAYER_1
 10
271.7433
 20
300.6229
  0
SEQEND
  0
POLYLINE
  8
LAYER_1
 40
0.0847
 41
0.0847
 66
1
 10
0
 20
0
 30
0
  0
VERTEX
  8
LAYER_1
 10
273.479
 20
300.6229
  0
VERTEX
  8
LAYER_1
 10
275.2146
 20
300.6229
  0
SEQEND
  0
POLYLINE
  8
LAYER_1
 40
0.0847
 41
0.0847
 66
1
 10
0
 20
0
 30
0
  0
VERTEX
  8
LAYER_1
 10
276.9503
 20
300.6229
  0
VERTEX
  8
LAYER_1
 10
278.686
 20
300.6229
  0
SEQEND
  0
POLYLINE
  8
LAYER_1
 40
0.0847
 41
0.0847
 66
1
 10
0
 20
0
 30
0
  0
VERTEX
  8
LAYER_1
 10
280.4216
 20
300.6229
  0
VERTEX
  8
LAYER_1
 10
282.1573
 20
300.6229
  0
SEQEND
  0
POLYLINE
  8
LAYER_1
 40
0.0847
 41
0.0847
 66
1
 10
0
 20
0
 30
0
  0
VERTEX
  8
LAYER_1
 10
283.893
 20
300.6229
  0
VERTEX
  8
LAYER_1
 10
285.6286
 20
300.6229
  0
SEQEND
  0
POLYLINE
  8
LAYER_1
 40
0.0847
 41
0.0847
 66
1
 10
0
 20
0
 30
0
  0
VERTEX
  8
LAYER_1
 10
287.3643
 20
300.6229
  0
VERTEX
  8
LAYER_1
 10
289.1
 20
300.6229
  0
SEQEND
  0
POLYLINE
  8
LAYER_1
 40
0.0847
 41
0.0847
 66
1
 10
0
 20
0
 30
0
  0
VERTEX
  8
LAYER_1
 10
290.8357
 20
300.6229
  0
VERTEX
  8
LAYER_1
 10
292.5713
 20
300.6229
  0
SEQEND
  0
POLYLINE
  8
LAYER_1
 40
0.0847
 41
0.0847
 66
1
 10
0
 20
0
 30
0
  0
VERTEX
  8
LAYER_1
 10
294.307
 20
300.6229
  0
VERTEX
  8
LAYER_1
 10
296.0427
 20
300.6229
  0
SEQEND
  0
POLYLINE
  8
LAYER_1
 40
0.0847
 41
0.0847
 66
1
 10
0
 20
0
 30
0
  0
VERTEX
  8
LAYER_1
 10
297.7784
 20
300.6229
  0
VERTEX
  8
LAYER_1
 10
299.514
 20
300.6229
  0
SEQEND
  0
POLYLINE
  8
LAYER_1
 40
0.0847
 41
0.0847
 66
1
 10
0
 20
0
 30
0
  0
VERTEX
  8
LAYER_1
 10
301.2285
 20
300.6229
  0
VERTEX
  8
LAYER_1
 10
302.9642
 20
300.6229
  0
SEQEND
  0
POLYLINE
  8
LAYER_1
 40
0.0847
 41
0.0847
 66
1
 10
0
 20
0
 30
0
  0
VERTEX
  8
LAYER_1
 10
304.6999
 20
300.6229
  0
VERTEX
  8
LAYER_1
 10
306.4355
 20
300.6229
  0
SEQEND
  0
POLYLINE
  8
LAYER_1
 40
0.0847
 41
0.0847
 66
1
 10
0
 20
0
 30
0
  0
VERTEX
  8
LAYER_1
 10
308.1712
 20
300.6229
  0
VERTEX
  8
LAYER_1
 10
309.9069
 20
300.6229
  0
SEQEND
  0
POLYLINE
  8
LAYER_1
 40
0.0847
 41
0.0847
 66
1
 10
0
 20
0
 30
0
  0
VERTEX
  8
LAYER_1
 10
311.6426
 20
300.6229
  0
VERTEX
  8
LAYER_1
 10
313.3782
 20
300.6229
  0
SEQEND
  0
POLYLINE
  8
LAYER_1
 40
0.0847
 41
0.0847
 66
1
 10
0
 20
0
 30
0
  0
VERTEX
  8
LAYER_1
 10
315.1139
 20
300.6229
  0
VERTEX
  8
LAYER_1
 10
316.8496
 20
300.6229
  0
SEQEND
  0
POLYLINE
  8
LAYER_1
 40
0.0847
 41
0.0847
 66
1
 10
0
 20
0
 30
0
  0
VERTEX
  8
LAYER_1
 10
318.5852
 20
300.6229
  0
VERTEX
  8
LAYER_1
 10
320.3209
 20
300.6229
  0
SEQEND
  0
POLYLINE
  8
LAYER_1
 40
0.0847
 41
0.0847
 66
1
 10
0
 20
0
 30
0
  0
VERTEX
  8
LAYER_1
 10
322.0566
 20
300.6229
  0
VERTEX
  8
LAYER_1
 10
323.7922
 20
300.6229
  0
SEQEND
  0
POLYLINE
  8
LAYER_1
 40
0.0847
 41
0.0847
 66
1
 10
0
 20
0
 30
0
  0
VERTEX
  8
LAYER_1
 10
325.5279
 20
300.6229
  0
VERTEX
  8
LAYER_1
 10
327.2636
 20
300.6229
  0
SEQEND
  0
POLYLINE
  8
LAYER_1
 40
0.0847
 41
0.0847
 66
1
 10
0
 20
0
 30
0
  0
VERTEX
  8
LAYER_1
 10
328.9993
 20
300.6229
  0
VERTEX
  8
LAYER_1
 10
330.7138
 20
300.6229
  0
SEQEND
  0
POLYLINE
  8
LAYER_1
 40
0.0847
 41
0.0847
 66
1
 10
0
 20
0
 30
0
  0
VERTEX
  8
LAYER_1
 10
332.4494
 20
300.6229
  0
VERTEX
  8
LAYER_1
 10
334.1851
 20
300.6229
  0
SEQEND
  0
POLYLINE
  8
LAYER_1
 40
0.0847
 41
0.0847
 66
1
 10
0
 20
0
 30
0
  0
VERTEX
  8
LAYER_1
 10
335.9208
 20
300.6229
  0
VERTEX
  8
LAYER_1
 10
337.6565
 20
300.6229
  0
SEQEND
  0
POLYLINE
  8
LAYER_1
 40
0.0847
 41
0.0847
 66
1
 10
0
 20
0
 30
0
  0
VERTEX
  8
LAYER_1
 10
339.3921
 20
300.6229
  0
VERTEX
  8
LAYER_1
 10
341.1278
 20
300.6229
  0
SEQEND
  0
POLYLINE
  8
LAYER_1
 40
0.0847
 41
0.0847
 66
1
 10
0
 20
0
 30
0
  0
VERTEX
  8
LAYER_1
 10
342.8635
 20
300.6229
  0
VERTEX
  8
LAYER_1
 10
344.5991
 20
300.6229
  0
SEQEND
  0
POLYLINE
  8
LAYER_1
 40
0.0847
 41
0.0847
 66
1
 10
0
 20
0
 30
0
  0
VERTEX
  8
LAYER_1
 10
346.3348
 20
300.6229
  0
VERTEX
  8
LAYER_1
 10
348.0705
 20
300.6229
  0
SEQEND
  0
POLYLINE
  8
LAYER_1
 40
0.0847
 41
0.0847
 66
1
 10
0
 20
0
 30
0
  0
VERTEX
  8
LAYER_1
 10
349.8062
 20
300.6229
  0
VERTEX
  8
LAYER_1
 10
351.5418
 20
300.6229
  0
SEQEND
  0
POLYLINE
  8
LAYER_1
 40
0.0847
 41
0.0847
 66
1
 10
0
 20
0
 30
0
  0
VERTEX
  8
LAYER_1
 10
353.2775
 20
300.6229
  0
VERTEX
  8
LAYER_1
 10
355.0132
 20
300.6229
  0
SEQEND
  0
POLYLINE
  8
LAYER_1
 40
0.0847
 41
0.0847
 66
1
 10
0
 20
0
 30
0
  0
VERTEX
  8
LAYER_1
 10
356.7488
 20
300.6229
  0
VERTEX
  8
LAYER_1
 10
358.4845
 20
300.6229
  0
SEQEND
  0
POLYLINE
  8
LAYER_1
 40
0.0847
 41
0.0847
 66
1
 10
0
 20
0
 30
0
  0
VERTEX
  8
LAYER_1
 10
360.199
 20
300.6229
  0
VERTEX
  8
LAYER_1
 10
361.9347
 20
300.6229
  0
SEQEND
  0
POLYLINE
  8
LAYER_1
 40
0.0847
 41
0.0847
 66
1
 10
0
 20
0
 30
0
  0
VERTEX
  8
LAYER_1
 10
363.6704
 20
300.6229
  0
VERTEX
  8
LAYER_1
 10
365.406
 20
300.6229
  0
SEQEND
  0
POLYLINE
  8
LAYER_1
 40
0.0847
 41
0.0847
 66
1
 10
0
 20
0
 30
0
  0
VERTEX
  8
LAYER_1
 10
367.1417
 20
300.6229
  0
VERTEX
  8
LAYER_1
 10
368.8774
 20
300.6229
  0
SEQEND
  0
POLYLINE
  8
LAYER_1
 40
0.0847
 41
0.0847
 66
1
 10
0
 20
0
 30
0
  0
VERTEX
  8
LAYER_1
 10
370.613
 20
300.6229
  0
VERTEX
  8
LAYER_1
 10
372.3487
 20
300.6229
  0
SEQEND
  0
POLYLINE
  8
LAYER_1
 40
0.0847
 41
0.0847
 66
1
 10
0
 20
0
 30
0
  0
VERTEX
  8
LAYER_1
 10
374.0843
 20
300.6229
  0
VERTEX
  8
LAYER_1
 10
375.82
 20
300.6229
  0
SEQEND
  0
POLYLINE
  8
LAYER_1
 40
0.0847
 41
0.0847
 66
1
 10
0
 20
0
 30
0
  0
VERTEX
  8
LAYER_1
 10
377.5557
 20
300.6229
  0
VERTEX
  8
LAYER_1
 10
379.2913
 20
300.6229
  0
SEQEND
  0
POLYLINE
  8
LAYER_1
 40
0.0847
 41
0.0847
 66
1
 10
0
 20
0
 30
0
  0
VERTEX
  8
LAYER_1
 10
381.027
 20
300.6229
  0
VERTEX
  8
LAYER_1
 10
382.7627
 20
300.6229
  0
SEQEND
  0
POLYLINE
  8
LAYER_1
 40
0.0847
 41
0.0847
 66
1
 10
0
 20
0
 30
0
  0
VERTEX
  8
LAYER_1
 10
384.4983
 20
300.6229
  0
VERTEX
  8
LAYER_1
 10
386.234
 20
300.6229
  0
SEQEND
  0
POLYLINE
  8
LAYER_1
 40
0.0847
 41
0.0847
 66
1
 10
0
 20
0
 30
0
  0
VERTEX
  8
LAYER_1
 10
387.9696
 20
300.6229
  0
VERTEX
  8
LAYER_1
 10
388.8374
 20
300.6229
  0
SEQEND
  0
POLYLINE
  8
LAYER_1
 40
0.0847
 41
0.0847
 66
1
 10
0
 20
0
 30
0
  0
VERTEX
  8
LAYER_1
 10
312.3199
 20
277.9111
  0
VERTEX
  8
LAYER_1
 10
311.7061
 20
277.8899
  0
VERTEX
  8
LAYER_1
 10
311.0923
 20
277.8899
  0
VERTEX
  8
LAYER_1
 10
310.4785
 20
277.8687
  0
VERTEX
  8
LAYER_1
 10
309.8434
 20
277.8687
  0
SEQEND
  0
POLYLINE
  8
LAYER_1
 40
0.1693
 41
0.1693
 66
1
 10
0
 20
0
 30
0
  0
VERTEX
  8
LAYER_1
 10
309.8647
 20
275.8579
  0
VERTEX
  8
LAYER_1
 10
310.4997
 20
275.8579
  0
VERTEX
  8
LAYER_1
 10
311.1135
 20
275.8791
  0
VERTEX
  8
LAYER_1
 10
311.7273
 20
275.8791
  0
VERTEX
  8
LAYER_1
 10
312.32
 20
275.9002
  0
VERTEX
  8
LAYER_1
 10
312.9338
 20
275.9002
  0
VERTEX
  8
LAYER_1
 10
313.5265
 20
275.9002
  0
VERTEX
  8
LAYER_1
 10
314.1192
 20
275.9002
  0
VERTEX
  8
LAYER_1
 10
314.6907
 20
275.9002
  0
VERTEX
  8
LAYER_1
 10
315.2622
 20
275.8791
  0
VERTEX
  8
LAYER_1
 10
315.8337
 20
275.8791
  0
SEQEND
  0
POLYLINE
  8
LAYER_1
 40
0.1693
 41
0.1693
 66
1
 10
0
 20
0
 30
0
  0
VERTEX
  8
LAYER_1
 10
321.8662
 20
275.0112
  0
VERTEX
  8
LAYER_1
 10
321.6757
 20
275.0536
  0
VERTEX
  8
LAYER_1
 10
321.3582
 20
275.1171
  0
VERTEX
  8
LAYER_1
 10
321.0407
 20
275.2017
  0
VERTEX
  8
LAYER_1
 10
320.7232
 20
275.2652
  0
VERTEX
  8
LAYER_1
 10
320.4057
 20
275.3499
  0
VERTEX
  8
LAYER_1
 10
320.0882
 20
275.4134
  0
VERTEX
  8
LAYER_1
 10
319.8977
 20
275.4346
  0
VERTEX
  8
LAYER_1
 10
319.6437
 20
275.4769
  0
VERTEX
  8
LAYER_1
 10
319.1992
 20
275.5616
  0
VERTEX
  8
LAYER_1
 10
318.7758
 20
275.6251
  0
SEQEND
  0
POLYLINE
  8
LAYER_1
 40
0.1693
 41
0.1693
 66
1
 10
0
 20
0
 30
0
  0
VERTEX
  8
LAYER_1
 10
318.3313
 20
275.6674
  0
VERTEX
  8
LAYER_1
 10
317.8868
 20
275.7309
  0
VERTEX
  8
LAYER_1
 10
317.4635
 20
275.7732
  0
SEQEND
  0
POLYLINE
  8
LAYER_1
 40
0.1693
 41
0.1693
 66
1
 10
0
 20
0
 30
0
  0
VERTEX
  8
LAYER_1
 10
316.4052
 20
275.8579
  0
VERTEX
  8
LAYER_1
 10
317.1883
 20
275.8156
  0
SEQEND
  0
POLYLINE
  8
LAYER_1
 40
0.1693
 41
0.1693
 66
1
 10
0
 20
0
 30
0
  0
VERTEX
  8
LAYER_1
 10
317.4635
 20
275.7732
  0
VERTEX
  8
LAYER_1
 10
317.1883
 20
275.8156
  0
SEQEND
  0
POLYLINE
  8
LAYER_1
 40
0.0847
 41
0.0847
 66
1
 10
0
 20
0
 30
0
  0
VERTEX
  8
LAYER_1
 10
313.5265
 20
277.9111
  0
VERTEX
  8
LAYER_1
 10
312.9127
 20
277.9111
  0
VERTEX
  8
LAYER_1
 10
312.32
 20
277.9111
  0
SEQEND
  0
POLYLINE
  8
LAYER_1
 40
0.0847
 41
0.0847
 66
1
 10
0
 20
0
 30
0
  0
VERTEX
  8
LAYER_1
 10
323.3902
 20
275.0112
  0
VERTEX
  8
LAYER_1
 10
323.2844
 20
275.1171
  0
SEQEND
  0
POLYLINE
  8
LAYER_1
 40
0.1693
 41
0.1693
 66
1
 10
0
 20
0
 30
0
  0
VERTEX
  8
LAYER_1
 10
343.9007
 20
275.8791
  0
VERTEX
  8
LAYER_1
 10
343.3504
 20
275.8579
  0
SEQEND
  0
POLYLINE
  8
LAYER_1
 40
0.1693
 41
0.1693
 66
1
 10
0
 20
0
 30
0
  0
VERTEX
  8
LAYER_1
 10
340.9585
 20
275.6251
  0
VERTEX
  8
LAYER_1
 10
341.403
 20
275.6674
  0
SEQEND
  0
POLYLINE
  8
LAYER_1
 40
0.1693
 41
0.1693
 66
1
 10
0
 20
0
 30
0
  0
VERTEX
  8
LAYER_1
 10
345.6152
 20
275.9002
  0
VERTEX
  8
LAYER_1
 10
345.0437
 20
275.9002
  0
VERTEX
  8
LAYER_1
 10
344.4722
 20
275.8791
  0
VERTEX
  8
LAYER_1
 10
343.9007
 20
275.8791
  0
SEQEND
  0
POLYLINE
  8
LAYER_1
 40
0.1693
 41
0.1693
 66
1
 10
0
 20
0
 30
0
  0
VERTEX
  8
LAYER_1
 10
337.8682
 20
275.0112
  0
VERTEX
  8
LAYER_1
 10
338.0587
 20
275.0536
  0
VERTEX
  8
LAYER_1
 10
338.3762
 20
275.1171
  0
VERTEX
  8
LAYER_1
 10
338.6937
 20
275.2017
  0
VERTEX
  8
LAYER_1
 10
339.0112
 20
275.2652
  0
VERTEX
  8
LAYER_1
 10
339.3287
 20
275.3499
  0
VERTEX
  8
LAYER_1
 10
339.6462
 20
275.4134
  0
VERTEX
  8
LAYER_1
 10
339.8367
 20
275.4346
  0
VERTEX
  8
LAYER_1
 10
340.0907
 20
275.4769
  0
VERTEX
  8
LAYER_1
 10
340.5352
 20
275.5616
  0
VERTEX
  8
LAYER_1
 10
340.9585
 20
275.6251
  0
SEQEND
  0
POLYLINE
  8
LAYER_1
 40
0.1693
 41
0.1693
 66
1
 10
0
 20
0
 30
0
  0
VERTEX
  8
LAYER_1
 10
341.403
 20
275.6674
  0
VERTEX
  8
LAYER_1
 10
341.8475
 20
275.7309
  0
VERTEX
  8
LAYER_1
 10
342.2709
 20
275.7732
  0
SEQEND
  0
POLYLINE
  8
LAYER_1
 40
0.1693
 41
0.1693
 66
1
 10
0
 20
0
 30
0
  0
VERTEX
  8
LAYER_1
 10
343.3504
 20
275.8579
  0
VERTEX
  8
LAYER_1
 10
342.5672
 20
275.8156
  0
SEQEND
  0
POLYLINE
  8
LAYER_1
 40
0.1693
 41
0.1693
 66
1
 10
0
 20
0
 30
0
  0
VERTEX
  8
LAYER_1
 10
342.2709
 20
275.7732
  0
VERTEX
  8
LAYER_1
 10
342.5672
 20
275.8156
  0
SEQEND
  0
POLYLINE
  8
LAYER_1
 40
0.0847
 41
0.0847
 66
1
 10
0
 20
0
 30
0
  0
VERTEX
  8
LAYER_1
 10
346.2078
 20
277.9111
  0
VERTEX
  8
LAYER_1
 10
346.8217
 20
277.9111
  0
SEQEND
  0
POLYLINE
  8
LAYER_1
 40
0.0847
 41
0.0847
 66
1
 10
0
 20
0
 30
0
  0
VERTEX
  8
LAYER_1
 10
336.3653
 20
275.0112
  0
VERTEX
  8
LAYER_1
 10
336.4712
 20
275.1171
  0
SEQEND
  0
POLYLINE
  8
LAYER_1
 40
0.0847
 41
0.0847
 66
1
 10
0
 20
0
 30
0
  0
VERTEX
  8
LAYER_1
 10
347.4143
 20
277.9111
  0
VERTEX
  8
LAYER_1
 10
348.0282
 20
277.8899
  0
VERTEX
  8
LAYER_1
 10
348.642
 20
277.8899
  0
VERTEX
  8
LAYER_1
 10
349.2558
 20
277.8687
  0
SEQEND
  0
POLYLINE
  8
LAYER_1
 40
0.0847
 41
0.0847
 66
1
 10
0
 20
0
 30
0
  0
VERTEX
  8
LAYER_1
 10
346.8217
 20
277.9111
  0
VERTEX
  8
LAYER_1
 10
347.4143
 20
277.9111
  0
SEQEND
  0
POLYLINE
  8
LAYER_1
 40
0.0847
 41
0.0847
 66
1
 10
0
 20
0
 30
0
  0
VERTEX
  8
LAYER_1
 10
345.4247
 20
277.9111
  0
VERTEX
  8
LAYER_1
 10
346.2078
 20
277.9111
  0
SEQEND
  0
POLYLINE
  8
LAYER_1
 40
0.0847
 41
0.0847
 66
1
 10
0
 20
0
 30
0
  0
VERTEX
  8
LAYER_1
 10
323.3902
 20
275.0112
  0
VERTEX
  8
LAYER_1
 10
323.1785
 20
275.2017
  0
VERTEX
  8
LAYER_1
 10
322.8187
 20
275.5192
  0
VERTEX
  8
LAYER_1
 10
322.4588
 20
275.8156
  0
VERTEX
  8
LAYER_1
 10
322.099
 20
276.1119
  0
VERTEX
  8
LAYER_1
 10
321.718
 20
276.3871
  0
VERTEX
  8
LAYER_1
 10
321.3158
 20
276.6411
  0
VERTEX
  8
LAYER_1
 10
321.083
 20
276.7681
  0
VERTEX
  8
LAYER_1
 10
320.8925
 20
276.8527
  0
VERTEX
  8
LAYER_1
 10
320.575
 20
276.9797
  0
VERTEX
  8
LAYER_1
 10
320.2575
 20
277.1067
  0
VERTEX
  8
LAYER_1
 10
319.9188
 20
277.2126
  0
VERTEX
  8
LAYER_1
 10
319.5802
 20
277.2972
  0
VERTEX
  8
LAYER_1
 10
319.2203
 20
277.3819
  0
VERTEX
  8
LAYER_1
 10
319.0298
 20
277.4242
  0
VERTEX
  8
LAYER_1
 10
318.6277
 20
277.4877
  0
VERTEX
  8
LAYER_1
 10
317.9503
 20
277.5936
  0
VERTEX
  8
LAYER_1
 10
317.273
 20
277.6782
  0
VERTEX
  8
LAYER_1
 10
316.5957
 20
277.7417
  0
VERTEX
  8
LAYER_1
 10
315.9183
 20
277.8052
  0
VERTEX
  8
LAYER_1
 10
315.2198
 20
277.8476
  0
VERTEX
  8
LAYER_1
 10
314.8388
 20
277.8687
  0
VERTEX
  8
LAYER_1
 10
314.3308
 20
277.9111
  0
VERTEX
  8
LAYER_1
 10
313.5265
 20
277.9111
  0
SEQEND
  0
POLYLINE
  8
LAYER_1
 40
0.0847
 41
0.0847
 66
1
 10
0
 20
0
 30
0
  0
VERTEX
  8
LAYER_1
 10
336.3653
 20
275.0112
  0
VERTEX
  8
LAYER_1
 10
336.5558
 20
275.2017
  0
VERTEX
  8
LAYER_1
 10
336.9156
 20
275.5192
  0
VERTEX
  8
LAYER_1
 10
337.2755
 20
275.8156
  0
VERTEX
  8
LAYER_1
 10
337.6353
 20
276.1119
  0
VERTEX
  8
LAYER_1
 10
338.0163
 20
276.3871
  0
VERTEX
  8
LAYER_1
 10
338.4185
 20
276.6411
  0
VERTEX
  8
LAYER_1
 10
338.6513
 20
276.7681
  0
VERTEX
  8
LAYER_1
 10
338.8418
 20
276.8527
  0
VERTEX
  8
LAYER_1
 10
339.1593
 20
276.9797
  0
VERTEX
  8
LAYER_1
 10
339.4768
 20
277.1067
  0
VERTEX
  8
LAYER_1
 10
339.8155
 20
277.2126
  0
VERTEX
  8
LAYER_1
 10
340.1541
 20
277.2972
  0
VERTEX
  8
LAYER_1
 10
340.514
 20
277.3819
  0
VERTEX
  8
LAYER_1
 10
340.7045
 20
277.4242
  0
VERTEX
  8
LAYER_1
 10
341.1067
 20
277.4877
  0
VERTEX
  8
LAYER_1
 10
341.784
 20
277.5936
  0
VERTEX
  8
LAYER_1
 10
342.4613
 20
277.6782
  0
VERTEX
  8
LAYER_1
 10
343.1387
 20
277.7417
  0
VERTEX
  8
LAYER_1
 10
343.816
 20
277.8052
  0
VERTEX
  8
LAYER_1
 10
344.5145
 20
277.8476
  0
VERTEX
  8
LAYER_1
 10
344.8955
 20
277.8687
  0
VERTEX
  8
LAYER_1
 10
345.4246
 20
277.9111
  0
SEQEND
  0
POLYLINE
  8
LAYER_1
 40
0.1693
 41
0.1693
 66
1
 10
0
 20
0
 30
0
  0
VERTEX
  8
LAYER_1
 10
328.3643
 20
275.2017
  0
VERTEX
  8
LAYER_1
 10
328.3643
 20
277.0009
  0
SEQEND
  0
POLYLINE
  8
LAYER_1
 40
0.1693
 41
0.1693
 66
1
 10
0
 20
0
 30
0
  0
VERTEX
  8
LAYER_1
 10
331.37
 20
275.2017
  0
VERTEX
  8
LAYER_1
 10
331.37
 20
277.0009
  0
SEQEND
  0
POLYLINE
  8
LAYER_1
 40
0.1693
 41
0.1693
 66
1
 10
0
 20
0
 30
0
  0
VERTEX
  8
LAYER_1
 10
325.7185
 20
271.2012
  0
VERTEX
  8
LAYER_1
 10
334.0158
 20
271.2012
  0
SEQEND
  0
POLYLINE
  8
LAYER_1
 40
0.1693
 41
0.1693
 66
1
 10
0
 20
0
 30
0
  0
VERTEX
  8
LAYER_1
 10
326.0148
 20
266.7986
  0
VERTEX
  8
LAYER_1
 10
325.7185
 20
266.5234
  0
VERTEX
  8
LAYER_1
 10
326.0148
 20
266.2906
  0
VERTEX
  8
LAYER_1
 10
325.7185
 20
266.0366
  0
VERTEX
  8
LAYER_1
 10
326.0148
 20
265.8037
  0
VERTEX
  8
LAYER_1
 10
325.7185
 20
265.5286
  0
VERTEX
  8
LAYER_1
 10
326.0148
 20
265.2957
  0
VERTEX
  8
LAYER_1
 10
325.7185
 20
265.0417
  0
VERTEX
  8
LAYER_1
 10
326.0148
 20
264.7877
  0
VERTEX
  8
LAYER_1
 10
325.7185
 20
264.5337
  0
VERTEX
  8
LAYER_1
 10
326.0148
 20
264.3009
  0
VERTEX
  8
LAYER_1
 10
325.7185
 20
264.0257
  0
VERTEX
  8
LAYER_1
 10
326.0148
 20
263.7929
  0
VERTEX
  8
LAYER_1
 10
325.7185
 20
263.5389
  0
VERTEX
  8
LAYER_1
 10
326.0148
 20
263.2849
  0
VERTEX
  8
LAYER_1
 10
325.7185
 20
263.0309
  0
VERTEX
  8
LAYER_1
 10
326.0148
 20
262.7981
  0
VERTEX
  8
LAYER_1
 10
325.7185
 20
262.5229
  0
VERTEX
  8
LAYER_1
 10
326.0148
 20
262.2901
  0
VERTEX
  8
LAYER_1
 10
325.7185
 20
262.0361
  0
SEQEND
  0
POLYLINE
  8
LAYER_1
 40
0.1693
 41
0.1693
 66
1
 10
0
 20
0
 30
0
  0
VERTEX
  8
LAYER_1
 10
326.0148
 20
256.7867
  0
VERTEX
  8
LAYER_1
 10
325.7185
 20
256.5327
  0
VERTEX
  8
LAYER_1
 10
326.0148
 20
256.2787
  0
VERTEX
  8
LAYER_1
 10
325.7185
 20
256.0247
  0
VERTEX
  8
LAYER_1
 10
326.0148
 20
255.7919
  0
VERTEX
  8
LAYER_1
 10
325.7185
 20
255.5167
  0
VERTEX
  8
LAYER_1
 10
326.0148
 20
255.2839
  0
SEQEND
  0
POLYLINE
  8
LAYER_1
 40
0.1693
 41
0.1693
 66
1
 10
0
 20
0
 30
0
  0
VERTEX
  8
LAYER_1
 10
334.0158
 20
266.8197
  0
VERTEX
  8
LAYER_1
 10
333.7195
 20
266.5657
  0
VERTEX
  8
LAYER_1
 10
334.0158
 20
266.3117
  0
VERTEX
  8
LAYER_1
 10
333.7195
 20
266.0789
  0
VERTEX
  8
LAYER_1
 10
334.0158
 20
265.8037
  0
VERTEX
  8
LAYER_1
 10
333.7195
 20
265.5709
  0
VERTEX
  8
LAYER_1
 10
334.0158
 20
265.3169
  0
VERTEX
  8
LAYER_1
 10
333.7195
 20
265.0629
  0
VERTEX
  8
LAYER_1
 10
334.0158
 20
264.8089
  0
VERTEX
  8
LAYER_1
 10
333.7195
 20
264.5761
  0
SEQEND
  0
POLYLINE
  8
LAYER_1
 40
0.1693
 41
0.1693
 66
1
 10
0
 20
0
 30
0
  0
VERTEX
  8
LAYER_1
 10
334.0158
 20
256.8079
  0
VERTEX
  8
LAYER_1
 10
333.7195
 20
256.5751
  0
VERTEX
  8
LAYER_1
 10
334.0158
 20
256.2999
  0
VERTEX
  8
LAYER_1
 10
333.7195
 20
256.0671
  0
VERTEX
  8
LAYER_1
 10
334.0158
 20
255.8131
  0
VERTEX
  8
LAYER_1
 10
333.7195
 20
255.5591
  0
VERTEX
  8
LAYER_1
 10
334.0158
 20
255.3051
  0
SEQEND
  0
POLYLINE
  8
LAYER_1
 40
0.1693
 41
0.1693
 66
1
 10
0
 20
0
 30
0
  0
VERTEX
  8
LAYER_1
 10
325.7185
 20
262.0361
  0
VERTEX
  8
LAYER_1
 10
326.0148
 20
261.7821
  0
SEQEND
  0
POLYLINE
  8
LAYER_1
 40
0.1693
 41
0.1693
 66
1
 10
0
 20
0
 30
0
  0
VERTEX
  8
LAYER_1
 10
326.0148
 20
255.2839
  0
VERTEX
  8
LAYER_1
 10
325.9514
 20
255.2204
  0
SEQEND
  0
POLYLINE
  8
LAYER_1
 40
0.1693
 41
0.1693
 66
1
 10
0
 20
0
 30
0
  0
VERTEX
  8
LAYER_1
 10
325.8667
 20
255.0299
  0
VERTEX
  8
LAYER_1
 10
333.8677
 20
255.0299
  0
VERTEX
  8
LAYER_1
 10
333.8677
 20
255.2204
  0
SEQEND
  0
POLYLINE
  8
LAYER_1
 40
0.1693
 41
0.1693
 66
1
 10
0
 20
0
 30
0
  0
VERTEX
  8
LAYER_1
 10
334.0158
 20
255.3051
  0
VERTEX
  8
LAYER_1
 10
333.9312
 20
255.2204
  0
SEQEND
  0
POLYLINE
  8
LAYER_1
 40
0.1693
 41
0.1693
 66
1
 10
0
 20
0
 30
0
  0
VERTEX
  8
LAYER_1
 10
322.6705
 20
277.0432
  0
VERTEX
  8
LAYER_1
 10
322.6705
 20
277.0856
  0
SEQEND
  0
POLYLINE
  8
LAYER_1
 40
0.1693
 41
0.1693
 66
1
 10
0
 20
0
 30
0
  0
VERTEX
  8
LAYER_1
 10
322.6705
 20
277.0644
  0
VERTEX
  8
LAYER_1
 10
322.6705
 20
277.0432
  0
VERTEX
  8
LAYER_1
 10
322.6917
 20
277.0221
  0
SEQEND
  0
POLYLINE
  8
LAYER_1
 40
0.1693
 41
0.1693
 66
1
 10
0
 20
0
 30
0
  0
VERTEX
  8
LAYER_1
 10
337.0639
 20
277.0432
  0
VERTEX
  8
LAYER_1
 10
337.0639
 20
277.0856
  0
SEQEND
  0
POLYLINE
  8
LAYER_1
 40
0.1693
 41
0.1693
 66
1
 10
0
 20
0
 30
0
  0
VERTEX
  8
LAYER_1
 10
337.0004
 20
277.0221
  0
VERTEX
  8
LAYER_1
 10
337.0215
 20
277.0009
 42
0.3846916085
  0
VERTEX
  8
LAYER_1
 10
337.0639
 20
277.0432
  0
VERTEX
  8
LAYER_1
 10
337.0427
 20
277.0644
  0
SEQEND
  0
POLYLINE
  8
LAYER_1
 40
0.1693
 41
0.1693
 66
1
 10
0
 20
0
 30
0
  0
VERTEX
  8
LAYER_1
 10
322.7129
 20
277.0009
  0
VERTEX
  8
LAYER_1
 10
337.0215
 20
277.0009
  0
SEQEND
  0
POLYLINE
  8
LAYER_1
 40
0.1693
 41
0.1693
 66
1
 10
0
 20
0
 30
0
  0
VERTEX
  8
LAYER_1
 10
322.7764
 20
277.2761
 42
0.2516873711
  0
VERTEX
  8
LAYER_1
 10
322.6705
 20
277.1067
  0
SEQEND
  0
POLYLINE
  8
LAYER_1
 40
0.1693
 41
0.1693
 66
1
 10
0
 20
0
 30
0
  0
VERTEX
  8
LAYER_1
 10
336.9157
 20
277.2972
 42
0.06895381162
  0
VERTEX
  8
LAYER_1
 10
332.5867
 20
278.6069
 42
0.03951469515
  0
VERTEX
  8
LAYER_1
 10
329.8672
 20
278.8212
 42
0.1073082061
  0
VERTEX
  8
LAYER_1
 10
322.7764
 20
277.2761
  0
SEQEND
  0
POLYLINE
  8
LAYER_1
 40
0.1693
 41
0.1693
 66
1
 10
0
 20
0
 30
0
  0
VERTEX
  8
LAYER_1
 10
337.0639
 20
277.1067
 42
0.2988160851
  0
VERTEX
  8
LAYER_1
 10
336.9157
 20
277.2761
  0
SEQEND
  0
POLYLINE
  8
LAYER_1
 40
0.1693
 41
0.1693
 66
1
 10
0
 20
0
 30
0
  0
VERTEX
  8
LAYER_1
 10
325.8667
 20
255.0299
  0
VERTEX
  8
LAYER_1
 10
325.8667
 20
255.2204
  0
VERTEX
  8
LAYER_1
 10
333.9312
 20
255.2204
  0
SEQEND
  0
POLYLINE
  8
LAYER_1
 40
0.1693
 41
0.1693
 66
1
 10
0
 20
0
 30
0
  0
VERTEX
  8
LAYER_1
 10
326.0148
 20
261.7821
  0
VERTEX
  8
LAYER_1
 10
325.7185
 20
261.5281
  0
VERTEX
  8
LAYER_1
 10
326.0148
 20
261.2952
  0
VERTEX
  8
LAYER_1
 10
325.7185
 20
261.0201
  0
SEQEND
  0
POLYLINE
  8
LAYER_1
 40
0.1693
 41
0.1693
 66
1
 10
0
 20
0
 30
0
  0
VERTEX
  8
LAYER_1
 10
333.7195
 20
262.0784
  0
VERTEX
  8
LAYER_1
 10
334.0159
 20
261.8032
  0
VERTEX
  8
LAYER_1
 10
333.7195
 20
261.5704
  0
VERTEX
  8
LAYER_1
 10
334.0159
 20
261.3164
  0
VERTEX
  8
LAYER_1
 10
333.7195
 20
261.0624
  0
SEQEND
  0
POLYLINE
  8
LAYER_1
 40
0.1693
 41
0.1693
 66
1
 10
0
 20
0
 30
0
  0
VERTEX
  8
LAYER_1
 10
333.7195
 20
264.5761
  0
VERTEX
  8
LAYER_1
 10
334.0159
 20
264.3009
  0
VERTEX
  8
LAYER_1
 10
333.7195
 20
264.0681
  0
VERTEX
  8
LAYER_1
 10
334.0159
 20
263.8141
  0
VERTEX
  8
LAYER_1
 10
333.7195
 20
263.5601
  0
VERTEX
  8
LAYER_1
 10
334.0159
 20
263.3061
  0
VERTEX
  8
LAYER_1
 10
333.7195
 20
263.0732
  0
VERTEX
  8
LAYER_1
 10
334.0159
 20
262.8192
  0
VERTEX
  8
LAYER_1
 10
333.7195
 20
262.5652
  0
VERTEX
  8
LAYER_1
 10
334.0159
 20
262.3112
  0
VERTEX
  8
LAYER_1
 10
333.7195
 20
262.0784
  0
SEQEND
  0
POLYLINE
  8
LAYER_1
 40
0.1693
 41
0.1693
 66
1
 10
0
 20
0
 30
0
  0
VERTEX
  8
LAYER_1
 10
323.4537
 20
275.2017
 42
0.3779057319
  0
VERTEX
  8
LAYER_1
 10
323.369
 20
275.0959
 42
0.440718166
  0
VERTEX
  8
LAYER_1
 10
323.4537
 20
275.0112
  0
SEQEND
  0
POLYLINE
  8
LAYER_1
 40
0.1693
 41
0.1693
 66
1
 10
0
 20
0
 30
0
  0
VERTEX
  8
LAYER_1
 10
323.4749
 20
275.0112
  0
VERTEX
  8
LAYER_1
 10
325.7185
 20
274.3974
  0
SEQEND
  0
POLYLINE
  8
LAYER_1
 40
0.1693
 41
0.1693
 66
1
 10
0
 20
0
 30
0
  0
VERTEX
  8
LAYER_1
 10
336.2595
 20
275.0112
  0
VERTEX
  8
LAYER_1
 10
334.0159
 20
274.3974
  0
SEQEND
  0
POLYLINE
  8
LAYER_1
 40
0.1693
 41
0.1693
 66
1
 10
0
 20
0
 30
0
  0
VERTEX
  8
LAYER_1
 10
323.4749
 20
275.2017
  0
VERTEX
  8
LAYER_1
 10
336.2595
 20
275.2017
  0
SEQEND
  0
POLYLINE
  8
LAYER_1
 40
0.1693
 41
0.1693
 66
1
 10
0
 20
0
 30
0
  0
VERTEX
  8
LAYER_1
 10
336.2384
 20
275.0112
 42
0.4471283443
  0
VERTEX
  8
LAYER_1
 10
336.2595
 20
274.99
 42
0.3001375836
  0
VERTEX
  8
LAYER_1
 10
336.3654
 20
275.0959
 42
0.3600644205
  0
VERTEX
  8
LAYER_1
 10
336.2595
 20
275.2017
  0
VERTEX
  8
LAYER_1
 10
336.2384
 20
275.2017
  0
SEQEND
  0
POLYLINE
  8
LAYER_1
 40
0.1693
 41
0.1693
 66
1
 10
0
 20
0
 30
0
  0
VERTEX
  8
LAYER_1
 10
323.4749
 20
275.0112
  0
VERTEX
  8
LAYER_1
 10
336.2595
 20
275.0112
  0
SEQEND
  0
POLYLINE
  8
LAYER_1
 40
0.1693
 41
0.1693
 66
1
 10
0
 20
0
 30
0
  0
VERTEX
  8
LAYER_1
 10
325.7185
 20
267.0314
  0
VERTEX
  8
LAYER_1
 10
326.0149
 20
266.7985
  0
SEQEND
  0
POLYLINE
  8
LAYER_1
 40
0.1693
 41
0.1693
 66
1
 10
0
 20
0
 30
0
  0
VERTEX
  8
LAYER_1
 10
333.7195
 20
267.0737
  0
VERTEX
  8
LAYER_1
 10
334.0159
 20
266.8197
  0
SEQEND
  0
POLYLINE
  8
LAYER_1
 40
0.1693
 41
0.1693
 66
1
 10
0
 20
0
 30
0
  0
VERTEX
  8
LAYER_1
 10
333.7195
 20
257.0619
  0
VERTEX
  8
LAYER_1
 10
334.0159
 20
256.8079
  0
SEQEND
  0
POLYLINE
  8
LAYER_1
 40
0.1693
 41
0.1693
 66
1
 10
0
 20
0
 30
0
  0
VERTEX
  8
LAYER_1
 10
325.7185
 20
257.0195
  0
VERTEX
  8
LAYER_1
 10
326.0149
 20
256.7867
  0
SEQEND
  0
POLYLINE
  8
LAYER_1
 40
0.0847
 41
0.0847
 66
1
 10
0
 20
0
 30
0
  0
VERTEX
  8
LAYER_1
 10
326.2265
 20
255.0299
  0
VERTEX
  8
LAYER_1
 10
326.2265
 20
256.5116
  0
SEQEND
  0
POLYLINE
  8
LAYER_1
 40
0.0847
 41
0.0847
 66
1
 10
0
 20
0
 30
0
  0
VERTEX
  8
LAYER_1
 10
326.2265
 20
257.5276
  0
VERTEX
  8
LAYER_1
 10
326.2265
 20
260.5121
  0
SEQEND
  0
POLYLINE
  8
LAYER_1
 40
0.0847
 41
0.0847
 66
1
 10
0
 20
0
 30
0
  0
VERTEX
  8
LAYER_1
 10
326.2265
 20
261.5069
  0
VERTEX
  8
LAYER_1
 10
326.2265
 20
264.5126
  0
SEQEND
  0
POLYLINE
  8
LAYER_1
 40
0.0847
 41
0.0847
 66
1
 10
0
 20
0
 30
0
  0
VERTEX
  8
LAYER_1
 10
326.2265
 20
265.5074
  0
VERTEX
  8
LAYER_1
 10
326.2265
 20
268.5131
  0
SEQEND
  0
POLYLINE
  8
LAYER_1
 40
0.0847
 41
0.0847
 66
1
 10
0
 20
0
 30
0
  0
VERTEX
  8
LAYER_1
 10
326.2265
 20
269.5079
  0
VERTEX
  8
LAYER_1
 10
326.2265
 20
272.5136
  0
SEQEND
  0
POLYLINE
  8
LAYER_1
 40
0.0847
 41
0.0847
 66
1
 10
0
 20
0
 30
0
  0
VERTEX
  8
LAYER_1
 10
326.2265
 20
273.5084
  0
VERTEX
  8
LAYER_1
 10
326.2265
 20
275.0112
  0
SEQEND
  0
POLYLINE
  8
LAYER_1
 40
0.0847
 41
0.0847
 66
1
 10
0
 20
0
 30
0
  0
VERTEX
  8
LAYER_1
 10
321.8662
 20
275.0112
  0
VERTEX
  8
LAYER_1
 10
323.369
 20
275.0112
  0
SEQEND
  0
POLYLINE
  8
LAYER_1
 40
0.0847
 41
0.0847
 66
1
 10
0
 20
0
 30
0
  0
VERTEX
  8
LAYER_1
 10
336.3653
 20
275.0112
  0
VERTEX
  8
LAYER_1
 10
337.8682
 20
275.0112
  0
SEQEND
  0
POLYLINE
  8
LAYER_1
 40
0.0847
 41
0.0847
 66
1
 10
0
 20
0
 30
0
  0
VERTEX
  8
LAYER_1
 10
323.3902
 20
275.0112
  0
VERTEX
  8
LAYER_1
 10
324.4697
 20
275.0112
  0
SEQEND
  0
POLYLINE
  8
LAYER_1
 40
0.0847
 41
0.0847
 66
1
 10
0
 20
0
 30
0
  0
VERTEX
  8
LAYER_1
 10
326.6287
 20
275.0112
  0
VERTEX
  8
LAYER_1
 10
328.7877
 20
275.0112
  0
SEQEND
  0
POLYLINE
  8
LAYER_1
 40
0.0847
 41
0.0847
 66
1
 10
0
 20
0
 30
0
  0
VERTEX
  8
LAYER_1
 10
330.9467
 20
275.0112
  0
VERTEX
  8
LAYER_1
 10
333.1057
 20
275.0112
  0
SEQEND
  0
POLYLINE
  8
LAYER_1
 40
0.0847
 41
0.0847
 66
1
 10
0
 20
0
 30
0
  0
VERTEX
  8
LAYER_1
 10
335.2647
 20
275.0112
  0
VERTEX
  8
LAYER_1
 10
336.3653
 20
275.0112
  0
SEQEND
  0
POLYLINE
  8
LAYER_1
 40
0.1693
 41
0.1693
 66
1
 10
0
 20
0
 30
0
  0
VERTEX
  8
LAYER_1
 10
326.0148
 20
257.7816
  0
VERTEX
  8
LAYER_1
 10
325.7185
 20
257.5276
  0
VERTEX
  8
LAYER_1
 10
326.0148
 20
257.2947
  0
VERTEX
  8
LAYER_1
 10
325.7185
 20
257.0196
  0
SEQEND
  0
POLYLINE
  8
LAYER_1
 40
0.1693
 41
0.1693
 66
1
 10
0
 20
0
 30
0
  0
VERTEX
  8
LAYER_1
 10
325.8244
 20
257.9509
  0
VERTEX
  8
LAYER_1
 10
326.0148
 20
257.7816
  0
SEQEND
  0
POLYLINE
  8
LAYER_1
 40
0.1693
 41
0.1693
 66
1
 10
0
 20
0
 30
0
  0
VERTEX
  8
LAYER_1
 10
334.0158
 20
257.8027
  0
VERTEX
  8
LAYER_1
 10
333.7195
 20
257.5699
  0
VERTEX
  8
LAYER_1
 10
334.0158
 20
257.3159
  0
VERTEX
  8
LAYER_1
 10
333.7195
 20
257.0619
  0
SEQEND
  0
POLYLINE
  8
LAYER_1
 40
0.1693
 41
0.1693
 66
1
 10
0
 20
0
 30
0
  0
VERTEX
  8
LAYER_1
 10
333.8677
 20
257.9509
  0
VERTEX
  8
LAYER_1
 10
334.0158
 20
257.8027
  0
SEQEND
  0
POLYLINE
  8
LAYER_1
 40
0.1693
 41
0.1693
 66
1
 10
0
 20
0
 30
0
  0
VERTEX
  8
LAYER_1
 10
326.0148
 20
267.7934
  0
VERTEX
  8
LAYER_1
 10
325.7185
 20
267.5394
  0
VERTEX
  8
LAYER_1
 10
326.0148
 20
267.2854
  0
VERTEX
  8
LAYER_1
 10
325.7185
 20
267.0314
  0
SEQEND
  0
POLYLINE
  8
LAYER_1
 40
0.1693
 41
0.1693
 66
1
 10
0
 20
0
 30
0
  0
VERTEX
  8
LAYER_1
 10
325.8455
 20
267.9416
  0
VERTEX
  8
LAYER_1
 10
326.0148
 20
267.7934
  0
SEQEND
  0
POLYLINE
  8
LAYER_1
 40
0.1693
 41
0.1693
 66
1
 10
0
 20
0
 30
0
  0
VERTEX
  8
LAYER_1
 10
334.0158
 20
267.8146
  0
VERTEX
  8
LAYER_1
 10
333.7195
 20
267.5817
  0
VERTEX
  8
LAYER_1
 10
334.0158
 20
267.3066
  0
VERTEX
  8
LAYER_1
 10
333.7195
 20
267.0737
  0
SEQEND
  0
POLYLINE
  8
LAYER_1
 40
0.1693
 41
0.1693
 66
1
 10
0
 20
0
 30
0
  0
VERTEX
  8
LAYER_1
 10
333.8677
 20
267.9416
  0
VERTEX
  8
LAYER_1
 10
334.0158
 20
267.8146
  0
SEQEND
  0
POLYLINE
  8
LAYER_1
 40
0.1693
 41
0.1693
 66
1
 10
0
 20
0
 30
0
  0
VERTEX
  8
LAYER_1
 10
325.7185
 20
261.0201
  0
VERTEX
  8
LAYER_1
 10
325.9514
 20
260.8296
  0
SEQEND
  0
POLYLINE
  8
LAYER_1
 40
0.1693
 41
0.1693
 66
1
 10
0
 20
0
 30
0
  0
VERTEX
  8
LAYER_1
 10
333.7195
 20
261.0624
  0
VERTEX
  8
LAYER_1
 10
333.9735
 20
260.8296
  0
SEQEND
  0
POLYLINE
  8
LAYER_1
 40
0.0847
 41
0.0847
 66
1
 10
0
 20
0
 30
0
  0
VERTEX
  8
LAYER_1
 10
333.5078
 20
272.8099
  0
VERTEX
  8
LAYER_1
 10
333.5078
 20
273.6354
  0
SEQEND
  0
POLYLINE
  8
LAYER_1
 40
0.0847
 41
0.0847
 66
1
 10
0
 20
0
 30
0
  0
VERTEX
  8
LAYER_1
 10
333.5078
 20
274.1857
  0
VERTEX
  8
LAYER_1
 10
333.5078
 20
275.0112
  0
SEQEND
  0
POLYLINE
  8
LAYER_1
 40
0.0847
 41
0.0847
 66
1
 10
0
 20
0
 30
0
  0
VERTEX
  8
LAYER_1
 10
326.671
 20
243.6634
  0
VERTEX
  8
LAYER_1
 10
326.6922
 20
243.6846
  0
SEQEND
  0
POLYLINE
  8
LAYER_1
 40
0.0847
 41
0.0847
 66
1
 10
0
 20
0
 30
0
  0
VERTEX
  8
LAYER_1
 10
326.7768
 20
243.7481
  0
VERTEX
  8
LAYER_1
 10
326.8192
 20
243.7904
  0
VERTEX
  8
LAYER_1
 10
326.8827
 20
243.8539
  0
SEQEND
  0
POLYLINE
  8
LAYER_1
 40
0.0847
 41
0.0847
 66
1
 10
0
 20
0
 30
0
  0
VERTEX
  8
LAYER_1
 10
327.0097
 20
243.9809
  0
VERTEX
  8
LAYER_1
 10
327.0732
 20
244.0444
  0
VERTEX
  8
LAYER_1
 10
327.1367
 20
244.0867
  0
SEQEND
  0
POLYLINE
  8
LAYER_1
 40
0.0847
 41
0.0847
 66
1
 10
0
 20
0
 30
0
  0
VERTEX
  8
LAYER_1
 10
327.2637
 20
244.1926
  0
VERTEX
  8
LAYER_1
 10
327.3483
 20
244.2561
  0
VERTEX
  8
LAYER_1
 10
327.4118
 20
244.2984
  0
SEQEND
  0
POLYLINE
  8
LAYER_1
 40
0.0847
 41
0.0847
 66
1
 10
0
 20
0
 30
0
  0
VERTEX
  8
LAYER_1
 10
327.5388
 20
244.3831
  0
VERTEX
  8
LAYER_1
 10
327.6023
 20
244.4254
  0
VERTEX
  8
LAYER_1
 10
327.6658
 20
244.4466
  0
SEQEND
  0
POLYLINE
  8
LAYER_1
 40
0.0847
 41
0.0847
 66
1
 10
0
 20
0
 30
0
  0
VERTEX
  8
LAYER_1
 10
327.7928
 20
244.5312
  0
VERTEX
  8
LAYER_1
 10
327.8563
 20
244.5736
  0
VERTEX
  8
LAYER_1
 10
327.9198
 20
244.5736
  0
SEQEND
  0
POLYLINE
  8
LAYER_1
 40
0.0847
 41
0.0847
 66
1
 10
0
 20
0
 30
0
  0
VERTEX
  8
LAYER_1
 10
328.0468
 20
244.6159
  0
VERTEX
  8
LAYER_1
 10
328.1103
 20
244.6371
  0
VERTEX
  8
LAYER_1
 10
328.1315
 20
244.6371
  0
SEQEND
  0
POLYLINE
  8
LAYER_1
 40
0.0847
 41
0.0847
 66
1
 10
0
 20
0
 30
0
  0
VERTEX
  8
LAYER_1
 10
328.2161
 20
244.6371
  0
VERTEX
  8
LAYER_1
 10
328.2585
 20
244.6582
  0
VERTEX
  8
LAYER_1
 10
328.3008
 20
244.6582
  0
SEQEND
  0
POLYLINE
  8
LAYER_1
 40
0.0847
 41
0.0847
 66
1
 10
0
 20
0
 30
0
  0
VERTEX
  8
LAYER_1
 10
328.3855
 20
244.6582
  0
VERTEX
  8
LAYER_1
 10
328.4278
 20
244.6371
  0
VERTEX
  8
LAYER_1
 10
328.4913
 20
244.6371
  0
SEQEND
  0
POLYLINE
  8
LAYER_1
 40
0.0847
 41
0.0847
 66
1
 10
0
 20
0
 30
0
  0
VERTEX
  8
LAYER_1
 10
328.6183
 20
244.5947
  0
VERTEX
  8
LAYER_1
 10
328.6818
 20
244.5736
  0
VERTEX
  8
LAYER_1
 10
328.7453
 20
244.5524
  0
SEQEND
  0
POLYLINE
  8
LAYER_1
 40
0.0847
 41
0.0847
 66
1
 10
0
 20
0
 30
0
  0
VERTEX
  8
LAYER_1
 10
328.8723
 20
244.4678
  0
VERTEX
  8
LAYER_1
 10
328.9358
 20
244.4254
  0
VERTEX
  8
LAYER_1
 10
328.9993
 20
244.3831
  0
SEQEND
  0
POLYLINE
  8
LAYER_1
 40
0.0847
 41
0.0847
 66
1
 10
0
 20
0
 30
0
  0
VERTEX
  8
LAYER_1
 10
329.1263
 20
244.2984
  0
VERTEX
  8
LAYER_1
 10
329.1898
 20
244.2561
  0
VERTEX
  8
LAYER_1
 10
329.2533
 20
244.2138
  0
SEQEND
  0
POLYLINE
  8
LAYER_1
 40
0.0847
 41
0.0847
 66
1
 10
0
 20
0
 30
0
  0
VERTEX
  8
LAYER_1
 10
329.3803
 20
244.1079
  0
VERTEX
  8
LAYER_1
 10
329.4649
 20
244.0444
  0
VERTEX
  8
LAYER_1
 10
329.5284
 20
243.9809
  0
SEQEND
  0
POLYLINE
  8
LAYER_1
 40
0.0847
 41
0.0847
 66
1
 10
0
 20
0
 30
0
  0
VERTEX
  8
LAYER_1
 10
329.6554
 20
243.8539
  0
VERTEX
  8
LAYER_1
 10
329.7189
 20
243.7904
  0
VERTEX
  8
LAYER_1
 10
329.7824
 20
243.7269
  0
SEQEND
  0
POLYLINE
  8
LAYER_1
 40
0.0847
 41
0.0847
 66
1
 10
0
 20
0
 30
0
  0
VERTEX
  8
LAYER_1
 10
329.9306
 20
243.5999
  0
VERTEX
  8
LAYER_1
 10
330.0153
 20
243.5152
  0
VERTEX
  8
LAYER_1
 10
330.0788
 20
243.4729
  0
SEQEND
  0
POLYLINE
  8
LAYER_1
 40
0.0847
 41
0.0847
 66
1
 10
0
 20
0
 30
0
  0
VERTEX
  8
LAYER_1
 10
330.2058
 20
243.3459
  0
VERTEX
  8
LAYER_1
 10
330.2693
 20
243.2824
  0
VERTEX
  8
LAYER_1
 10
330.3328
 20
243.2401
  0
SEQEND
  0
POLYLINE
  8
LAYER_1
 40
0.0847
 41
0.0847
 66
1
 10
0
 20
0
 30
0
  0
VERTEX
  8
LAYER_1
 10
330.4598
 20
243.1342
  0
VERTEX
  8
LAYER_1
 10
330.5444
 20
243.0707
  0
VERTEX
  8
LAYER_1
 10
330.6079
 20
243.0284
  0
SEQEND
  0
POLYLINE
  8
LAYER_1
 40
0.0847
 41
0.0847
 66
1
 10
0
 20
0
 30
0
  0
VERTEX
  8
LAYER_1
 10
330.735
 20
242.9437
  0
VERTEX
  8
LAYER_1
 10
330.7985
 20
242.8802
  0
VERTEX
  8
LAYER_1
 10
330.8619
 20
242.8591
  0
SEQEND
  0
POLYLINE
  8
LAYER_1
 40
0.0847
 41
0.0847
 66
1
 10
0
 20
0
 30
0
  0
VERTEX
  8
LAYER_1
 10
330.9889
 20
242.7956
  0
VERTEX
  8
LAYER_1
 10
331.0524
 20
242.7532
  0
VERTEX
  8
LAYER_1
 10
331.1159
 20
242.7321
  0
SEQEND
  0
POLYLINE
  8
LAYER_1
 40
0.0847
 41
0.0847
 66
1
 10
0
 20
0
 30
0
  0
VERTEX
  8
LAYER_1
 10
331.2429
 20
242.6897
  0
VERTEX
  8
LAYER_1
 10
331.3276
 20
242.6686
  0
VERTEX
  8
LAYER_1
 10
331.3488
 20
242.6686
  0
SEQEND
  0
POLYLINE
  8
LAYER_1
 40
0.0847
 41
0.0847
 66
1
 10
0
 20
0
 30
0
  0
VERTEX
  8
LAYER_1
 10
331.4334
 20
242.6686
  0
VERTEX
  8
LAYER_1
 10
331.4758
 20
242.6686
  0
VERTEX
  8
LAYER_1
 10
331.4969
 20
242.6686
  0
SEQEND
  0
POLYLINE
  8
LAYER_1
 40
0.0847
 41
0.0847
 66
1
 10
0
 20
0
 30
0
  0
VERTEX
  8
LAYER_1
 10
331.5816
 20
242.6686
  0
VERTEX
  8
LAYER_1
 10
331.6239
 20
242.6686
  0
VERTEX
  8
LAYER_1
 10
331.6874
 20
242.6897
  0
SEQEND
  0
POLYLINE
  8
LAYER_1
 40
0.0847
 41
0.0847
 66
1
 10
0
 20
0
 30
0
  0
VERTEX
  8
LAYER_1
 10
331.8144
 20
242.7321
  0
VERTEX
  8
LAYER_1
 10
331.8779
 20
242.7532
  0
VERTEX
  8
LAYER_1
 10
331.9414
 20
242.7744
  0
SEQEND
  0
POLYLINE
  8
LAYER_1
 40
0.0847
 41
0.0847
 66
1
 10
0
 20
0
 30
0
  0
VERTEX
  8
LAYER_1
 10
332.0684
 20
242.8379
  0
VERTEX
  8
LAYER_1
 10
332.1319
 20
242.8802
  0
VERTEX
  8
LAYER_1
 10
332.1954
 20
242.9226
  0
SEQEND
  0
POLYLINE
  8
LAYER_1
 40
0.0847
 41
0.0847
 66
1
 10
0
 20
0
 30
0
  0
VERTEX
  8
LAYER_1
 10
332.3224
 20
243.0072
  0
VERTEX
  8
LAYER_1
 10
332.4071
 20
243.0707
  0
VERTEX
  8
LAYER_1
 10
332.4705
 20
243.1131
  0
SEQEND
  0
POLYLINE
  8
LAYER_1
 40
0.0847
 41
0.0847
 66
1
 10
0
 20
0
 30
0
  0
VERTEX
  8
LAYER_1
 10
332.5976
 20
243.2189
  0
VERTEX
  8
LAYER_1
 10
332.6611
 20
243.2824
  0
VERTEX
  8
LAYER_1
 10
332.7246
 20
243.3247
  0
SEQEND
  0
POLYLINE
  8
LAYER_1
 40
0.0847
 41
0.0847
 66
1
 10
0
 20
0
 30
0
  0
VERTEX
  8
LAYER_1
 10
332.8516
 20
243.4517
  0
VERTEX
  8
LAYER_1
 10
332.9151
 20
243.5152
  0
VERTEX
  8
LAYER_1
 10
332.9362
 20
243.5364
  0
SEQEND
  0
POLYLINE
  8
LAYER_1
 40
0.0847
 41
0.0847
 66
1
 10
0
 20
0
 30
0
  0
VERTEX
  8
LAYER_1
 10
333.0209
 20
243.6211
  0
VERTEX
  8
LAYER_1
 10
333.0632
 20
243.6634
  0
SEQEND
  0
POLYLINE
  8
LAYER_1
 40
0.0847
 41
0.0847
 66
1
 10
0
 20
0
 30
0
  0
VERTEX
  8
LAYER_1
 10
326.6709
 20
243.6634
  0
VERTEX
  8
LAYER_1
 10
326.6709
 20
244.5947
  0
SEQEND
  0
POLYLINE
  8
LAYER_1
 40
0.0847
 41
0.0847
 66
1
 10
0
 20
0
 30
0
  0
VERTEX
  8
LAYER_1
 10
326.6709
 20
246.4997
  0
VERTEX
  8
LAYER_1
 10
326.6709
 20
248.3836
  0
SEQEND
  0
POLYLINE
  8
LAYER_1
 40
0.0847
 41
0.0847
 66
1
 10
0
 20
0
 30
0
  0
VERTEX
  8
LAYER_1
 10
326.6709
 20
250.2886
  0
VERTEX
  8
LAYER_1
 10
326.6709
 20
252.1724
  0
SEQEND
  0
POLYLINE
  8
LAYER_1
 40
0.0847
 41
0.0847
 66
1
 10
0
 20
0
 30
0
  0
VERTEX
  8
LAYER_1
 10
326.6709
 20
254.0774
  0
VERTEX
  8
LAYER_1
 10
326.6709
 20
255.0299
  0
SEQEND
  0
POLYLINE
  8
LAYER_1
 40
0.0847
 41
0.0847
 66
1
 10
0
 20
0
 30
0
  0
VERTEX
  8
LAYER_1
 10
333.0632
 20
243.6634
  0
VERTEX
  8
LAYER_1
 10
333.0632
 20
244.5947
  0
SEQEND
  0
POLYLINE
  8
LAYER_1
 40
0.0847
 41
0.0847
 66
1
 10
0
 20
0
 30
0
  0
VERTEX
  8
LAYER_1
 10
333.0632
 20
246.4997
  0
VERTEX
  8
LAYER_1
 10
333.0632
 20
248.3836
  0
SEQEND
  0
POLYLINE
  8
LAYER_1
 40
0.0847
 41
0.0847
 66
1
 10
0
 20
0
 30
0
  0
VERTEX
  8
LAYER_1
 10
333.0632
 20
250.2886
  0
VERTEX
  8
LAYER_1
 10
333.0632
 20
252.1724
  0
SEQEND
  0
POLYLINE
  8
LAYER_1
 40
0.0847
 41
0.0847
 66
1
 10
0
 20
0
 30
0
  0
VERTEX
  8
LAYER_1
 10
333.0632
 20
254.0774
  0
VERTEX
  8
LAYER_1
 10
333.0632
 20
255.0299
  0
SEQEND
  0
POLYLINE
  8
LAYER_1
 40
0.0847
 41
0.0847
 66
1
 10
0
 20
0
 30
0
  0
VERTEX
  8
LAYER_1
 10
335.5186
 20
272.6406
  0
VERTEX
  8
LAYER_1
 10
374.8039
 20
248.3412
  0
SEQEND
  0
TEXT
  8
LAYER_1
 10
316.2782
 20
229.889
 11
316.2782
 21
229.889
 40
2.4232
 41
0.5
  1
VESSELüiÆué½î^üjÄµòtò¹û@
  0
POLYLINE
  8
LAYER_1
 40
0.0847
 41
0.0847
 66
1
 10
0
 20
0
 30
0
  0
VERTEX
  8
LAYER_1
 10
117.6925
 20
294.2729
  0
VERTEX
  8
LAYER_1
 10
117.6925
 20
296.5589
  0
SEQEND
  0
POLYLINE
  8
LAYER_1
 40
0.0847
 41
0.0847
 66
1
 10
0
 20
0
 30
0
  0
VERTEX
  8
LAYER_1
 10
117.6925
 20
297.4902
  0
VERTEX
  8
LAYER_1
 10
117.6925
 20
298.4004
  0
SEQEND
  0
POLYLINE
  8
LAYER_1
 40
0.0847
 41
0.0847
 66
1
 10
0
 20
0
 30
0
  0
VERTEX
  8
LAYER_1
 10
117.6925
 20
299.3317
  0
VERTEX
  8
LAYER_1
 10
117.6925
 20
303.9461
  0
SEQEND
  0
POLYLINE
  8
LAYER_1
 40
0.0847
 41
0.0847
 66
1
 10
0
 20
0
 30
0
  0
VERTEX
  8
LAYER_1
 10
117.6925
 20
304.8562
  0
VERTEX
  8
LAYER_1
 10
117.6925
 20
305.7876
  0
SEQEND
  0
POLYLINE
  8
LAYER_1
 40
0.0847
 41
0.0847
 66
1
 10
0
 20
0
 30
0
  0
VERTEX
  8
LAYER_1
 10
117.6925
 20
306.6977
  0
VERTEX
  8
LAYER_1
 10
117.6925
 20
311.3121
  0
SEQEND
  0
POLYLINE
  8
LAYER_1
 40
0.0847
 41
0.0847
 66
1
 10
0
 20
0
 30
0
  0
VERTEX
  8
LAYER_1
 10
117.6925
 20
312.2434
  0
VERTEX
  8
LAYER_1
 10
117.6925
 20
313.1536
  0
SEQEND
  0
POLYLINE
  8
LAYER_1
 40
0.0847
 41
0.0847
 66
1
 10
0
 20
0
 30
0
  0
VERTEX
  8
LAYER_1
 10
117.6925
 20
314.0849
  0
VERTEX
  8
LAYER_1
 10
117.6925
 20
318.6992
  0
SEQEND
  0
POLYLINE
  8
LAYER_1
 40
0.0847
 41
0.0847
 66
1
 10
0
 20
0
 30
0
  0
VERTEX
  8
LAYER_1
 10
117.6925
 20
319.6094
  0
VERTEX
  8
LAYER_1
 10
117.6925
 20
320.5407
  0
SEQEND
  0
POLYLINE
  8
LAYER_1
 40
0.0847
 41
0.0847
 66
1
 10
0
 20
0
 30
0
  0
VERTEX
  8
LAYER_1
 10
117.6925
 20
321.4509
  0
VERTEX
  8
LAYER_1
 10
117.6925
 20
326.0652
  0
SEQEND
  0
POLYLINE
  8
LAYER_1
 40
0.0847
 41
0.0847
 66
1
 10
0
 20
0
 30
0
  0
VERTEX
  8
LAYER_1
 10
117.6925
 20
326.9966
  0
VERTEX
  8
LAYER_1
 10
117.6925
 20
327.9067
  0
SEQEND
  0
POLYLINE
  8
LAYER_1
 40
0.0847
 41
0.0847
 66
1
 10
0
 20
0
 30
0
  0
VERTEX
  8
LAYER_1
 10
117.6925
 20
328.8381
  0
VERTEX
  8
LAYER_1
 10
117.6925
 20
333.4312
  0
SEQEND
  0
POLYLINE
  8
LAYER_1
 40
0.0847
 41
0.0847
 66
1
 10
0
 20
0
 30
0
  0
VERTEX
  8
LAYER_1
 10
117.6925
 20
334.3626
  0
VERTEX
  8
LAYER_1
 10
117.6925
 20
335.2727
  0
SEQEND
  0
POLYLINE
  8
LAYER_1
 40
0.0847
 41
0.0847
 66
1
 10
0
 20
0
 30
0
  0
VERTEX
  8
LAYER_1
 10
117.6925
 20
336.2041
  0
VERTEX
  8
LAYER_1
 10
117.6925
 20
340.8184
  0
SEQEND
  0
POLYLINE
  8
LAYER_1
 40
0.0847
 41
0.0847
 66
1
 10
0
 20
0
 30
0
  0
VERTEX
  8
LAYER_1
 10
117.6925
 20
341.7286
  0
VERTEX
  8
LAYER_1
 10
117.6925
 20
342.6599
  0
SEQEND
  0
POLYLINE
  8
LAYER_1
 40
0.0847
 41
0.0847
 66
1
 10
0
 20
0
 30
0
  0
VERTEX
  8
LAYER_1
 10
117.6925
 20
343.5701
  0
VERTEX
  8
LAYER_1
 10
117.6925
 20
348.1844
  0
SEQEND
  0
POLYLINE
  8
LAYER_1
 40
0.0847
 41
0.0847
 66
1
 10
0
 20
0
 30
0
  0
VERTEX
  8
LAYER_1
 10
117.6925
 20
349.1157
  0
VERTEX
  8
LAYER_1
 10
117.6925
 20
350.0259
  0
SEQEND
  0
POLYLINE
  8
LAYER_1
 40
0.0847
 41
0.0847
 66
1
 10
0
 20
0
 30
0
  0
VERTEX
  8
LAYER_1
 10
117.6925
 20
350.9572
  0
VERTEX
  8
LAYER_1
 10
117.6925
 20
355.5716
  0
SEQEND
  0
POLYLINE
  8
LAYER_1
 40
0.0847
 41
0.0847
 66
1
 10
0
 20
0
 30
0
  0
VERTEX
  8
LAYER_1
 10
117.6925
 20
356.4817
  0
VERTEX
  8
LAYER_1
 10
117.6925
 20
357.4131
  0
SEQEND
  0
POLYLINE
  8
LAYER_1
 40
0.0847
 41
0.0847
 66
1
 10
0
 20
0
 30
0
  0
VERTEX
  8
LAYER_1
 10
117.6925
 20
358.3232
  0
VERTEX
  8
LAYER_1
 10
117.6925
 20
362.9376
  0
SEQEND
  0
POLYLINE
  8
LAYER_1
 40
0.0847
 41
0.0847
 66
1
 10
0
 20
0
 30
0
  0
VERTEX
  8
LAYER_1
 10
117.6925
 20
363.8689
  0
VERTEX
  8
LAYER_1
 10
117.6925
 20
364.7791
  0
SEQEND
  0
POLYLINE
  8
LAYER_1
 40
0.0847
 41
0.0847
 66
1
 10
0
 20
0
 30
0
  0
VERTEX
  8
LAYER_1
 10
117.6925
 20
365.7104
  0
VERTEX
  8
LAYER_1
 10
117.6925
 20
368.0176
  0
SEQEND
  0
POLYLINE
  8
LAYER_1
 40
0.254
 41
0.254
 66
1
 10
0
 20
0
 30
0
  0
VERTEX
  8
LAYER_1
 10
3.1173
 20
149.6834
  0
VERTEX
  8
LAYER_1
 10
417.095
 20
149.6834
  0
SEQEND
  0
TEXT
  8
LAYER_1
 10
50.3859
 20
138.2078
 11
50.3859
 21
138.2078
 40
4.5833
 41
0.5
  1
Majesticùpâ}âEâôâeâBâôâOâfâBâXâNâZâbâgüi100mmüFôVö┬î·10045mmùpüjüEÆué½î^
  0
INSERT
  8
LAYER_1
  2
AIGNBL01010003
 10
0
 20
0
 30
0
  0
TEXT
  8
LAYER_1
 10
114.8951
 20
371.7004
 11
114.8951
 21
371.7004
 40
3.0419
 41
0.5
  1
%%c72
  0
TEXT
  8
LAYER_1
 10
92.9003
 20
329.8755
 11
92.9003
 21
329.8755
 40
3.0419
 41
0.5
 50
89.99999999
  1
45065
  0
TEXT
  8
LAYER_1
 10
87.2913
 20
323.4831
 11
87.2913
 21
323.4831
 40
3.0419
 41
0.5
 50
89.99999999
  1
100
  0
POLYLINE
  8
LAYER_1
 40
0.0847
 41
0.0847
 66
1
 10
0
 20
0
 30
0
  0
VERTEX
  8
LAYER_1
 10
321.464
 20
261.1471
  0
VERTEX
  8
LAYER_1
 10
321.9085
 20
261.5916
  0
SEQEND
  0
POLYLINE
  8
LAYER_1
 40
0.0847
 41
0.0847
 66
1
 10
0
 20
0
 30
0
  0
VERTEX
  8
LAYER_1
 10
321.7392
 20
261.1471
  0
VERTEX
  8
LAYER_1
 10
322.1414
 20
261.5492
  0
SEQEND
  0
POLYLINE
  8
LAYER_1
 40
0.0847
 41
0.0847
 66
1
 10
0
 20
0
 30
0
  0
VERTEX
  8
LAYER_1
 10
322.4165
 20
261.8032
  0
VERTEX
  8
LAYER_1
 10
322.4588
 20
261.8456
  0
SEQEND
  0
POLYLINE
  8
LAYER_1
 40
0.0847
 41
0.0847
 66
1
 10
0
 20
0
 30
0
  0
VERTEX
  8
LAYER_1
 10
323.7077
 20
260.8296
  0
VERTEX
  8
LAYER_1
 10
323.9617
 20
261.1047
  0
SEQEND
  0
POLYLINE
  8
LAYER_1
 40
0.0847
 41
0.0847
 66
1
 10
0
 20
0
 30
0
  0
VERTEX
  8
LAYER_1
 10
324.004
 20
261.1471
  0
VERTEX
  8
LAYER_1
 10
324.7025
 20
261.8456
  0
SEQEND
  0
POLYLINE
  8
LAYER_1
 40
0.0847
 41
0.0847
 66
1
 10
0
 20
0
 30
0
  0
VERTEX
  8
LAYER_1
 10
324.3004
 20
261.1471
  0
VERTEX
  8
LAYER_1
 10
324.9988
 20
261.8456
  0
SEQEND
  0
POLYLINE
  8
LAYER_1
 40
0.0847
 41
0.0847
 66
1
 10
0
 20
0
 30
0
  0
VERTEX
  8
LAYER_1
 10
324.5755
 20
261.1259
  0
VERTEX
  8
LAYER_1
 10
325.1682
 20
261.7397
  0
SEQEND
  0
POLYLINE
  8
LAYER_1
 40
0.0847
 41
0.0847
 66
1
 10
0
 20
0
 30
0
  0
VERTEX
  8
LAYER_1
 10
324.5755
 20
260.8507
  0
VERTEX
  8
LAYER_1
 10
325.1682
 20
261.4434
  0
SEQEND
  0
POLYLINE
  8
LAYER_1
 40
0.0847
 41
0.0847
 66
1
 10
0
 20
0
 30
0
  0
VERTEX
  8
LAYER_1
 10
335.0319
 20
260.8296
  0
VERTEX
  8
LAYER_1
 10
335.1589
 20
260.9777
  0
SEQEND
  0
POLYLINE
  8
LAYER_1
 40
0.0847
 41
0.0847
 66
1
 10
0
 20
0
 30
0
  0
VERTEX
  8
LAYER_1
 10
335.3282
 20
261.1471
  0
VERTEX
  8
LAYER_1
 10
336.0267
 20
261.8456
  0
SEQEND
  0
POLYLINE
  8
LAYER_1
 40
0.0847
 41
0.0847
 66
1
 10
0
 20
0
 30
0
  0
VERTEX
  8
LAYER_1
 10
335.6034
 20
261.1471
  0
VERTEX
  8
LAYER_1
 10
336.3019
 20
261.8456
  0
SEQEND
  0
POLYLINE
  8
LAYER_1
 40
0.0847
 41
0.0847
 66
1
 10
0
 20
0
 30
0
  0
VERTEX
  8
LAYER_1
 10
335.7727
 20
261.0201
  0
VERTEX
  8
LAYER_1
 10
336.5982
 20
261.8456
  0
SEQEND
  0
POLYLINE
  8
LAYER_1
 40
0.0847
 41
0.0847
 66
1
 10
0
 20
0
 30
0
  0
VERTEX
  8
LAYER_1
 10
336.45
 20
260.8296
  0
VERTEX
  8
LAYER_1
 10
337.3179
 20
261.7186
  0
SEQEND
  0
POLYLINE
  8
LAYER_1
 40
0.0847
 41
0.0847
 66
1
 10
0
 20
0
 30
0
  0
VERTEX
  8
LAYER_1
 10
336.7252
 20
260.8296
  0
VERTEX
  8
LAYER_1
 10
337.4237
 20
261.5492
  0
SEQEND
  0
POLYLINE
  8
LAYER_1
 40
0.0847
 41
0.0847
 66
1
 10
0
 20
0
 30
0
  0
VERTEX
  8
LAYER_1
 10
337.0004
 20
260.8296
  0
VERTEX
  8
LAYER_1
 10
337.6989
 20
261.5492
  0
SEQEND
  0
POLYLINE
  8
LAYER_1
 40
0.0847
 41
0.0847
 66
1
 10
0
 20
0
 30
0
  0
VERTEX
  8
LAYER_1
 10
337.8259
 20
261.6551
  0
VERTEX
  8
LAYER_1
 10
338.0164
 20
261.8456
  0
SEQEND
  0
POLYLINE
  8
LAYER_1
 40
0.1693
 41
0.1693
 66
1
 10
0
 20
0
 30
0
  0
VERTEX
  8
LAYER_1
 10
323.7712
 20
274.7996
  0
VERTEX
  8
LAYER_1
 10
335.9632
 20
274.7996
  0
SEQEND
  0
POLYLINE
  8
LAYER_1
 40
0.1693
 41
0.1693
 66
1
 10
0
 20
0
 30
0
  0
VERTEX
  8
LAYER_1
 10
323.7712
 20
274.7996
  0
VERTEX
  8
LAYER_1
 10
323.7712
 20
275.0112
  0
VERTEX
  8
LAYER_1
 10
335.9632
 20
275.0112
  0
SEQEND
  0
POLYLINE
  8
LAYER_1
 40
0.1693
 41
0.1693
 66
1
 10
0
 20
0
 30
0
  0
VERTEX
  8
LAYER_1
 10
335.9632
 20
274.7996
  0
VERTEX
  8
LAYER_1
 10
335.9632
 20
275.0112
  0
SEQEND
  0
POLYLINE
  8
LAYER_1
 40
0.0847
 41
0.0847
 66
1
 10
0
 20
0
 30
0
  0
VERTEX
  8
LAYER_1
 10
323.9828
 20
275.0112
  0
VERTEX
  8
LAYER_1
 10
324.1733
 20
274.7996
  0
SEQEND
  0
POLYLINE
  8
LAYER_1
 40
0.0847
 41
0.0847
 66
1
 10
0
 20
0
 30
0
  0
VERTEX
  8
LAYER_1
 10
335.8573
 20
275.0112
  0
VERTEX
  8
LAYER_1
 10
335.9632
 20
274.8842
  0
SEQEND
  0
POLYLINE
  8
LAYER_1
 40
0.0847
 41
0.0847
 66
1
 10
0
 20
0
 30
0
  0
VERTEX
  8
LAYER_1
 10
324.8295
 20
275.0112
  0
VERTEX
  8
LAYER_1
 10
325.02
 20
274.7996
  0
SEQEND
  0
POLYLINE
  8
LAYER_1
 40
0.0847
 41
0.0847
 66
1
 10
0
 20
0
 30
0
  0
VERTEX
  8
LAYER_1
 10
325.6762
 20
275.0112
  0
VERTEX
  8
LAYER_1
 10
325.8667
 20
274.7996
  0
SEQEND
  0
POLYLINE
  8
LAYER_1
 40
0.0847
 41
0.0847
 66
1
 10
0
 20
0
 30
0
  0
VERTEX
  8
LAYER_1
 10
326.5229
 20
275.0112
  0
VERTEX
  8
LAYER_1
 10
326.7133
 20
274.7996
  0
SEQEND
  0
POLYLINE
  8
LAYER_1
 40
0.0847
 41
0.0847
 66
1
 10
0
 20
0
 30
0
  0
VERTEX
  8
LAYER_1
 10
327.3695
 20
275.0112
  0
VERTEX
  8
LAYER_1
 10
327.56
 20
274.7996
  0
SEQEND
  0
POLYLINE
  8
LAYER_1
 40
0.0847
 41
0.0847
 66
1
 10
0
 20
0
 30
0
  0
VERTEX
  8
LAYER_1
 10
328.2162
 20
275.0112
  0
VERTEX
  8
LAYER_1
 10
328.4279
 20
274.7996
  0
SEQEND
  0
POLYLINE
  8
LAYER_1
 40
0.0847
 41
0.0847
 66
1
 10
0
 20
0
 30
0
  0
VERTEX
  8
LAYER_1
 10
329.0629
 20
275.0112
  0
VERTEX
  8
LAYER_1
 10
329.2745
 20
274.7996
  0
SEQEND
  0
POLYLINE
  8
LAYER_1
 40
0.0847
 41
0.0847
 66
1
 10
0
 20
0
 30
0
  0
VERTEX
  8
LAYER_1
 10
329.9096
 20
275.0112
  0
VERTEX
  8
LAYER_1
 10
330.1212
 20
274.7996
  0
SEQEND
  0
POLYLINE
  8
LAYER_1
 40
0.0847
 41
0.0847
 66
1
 10
0
 20
0
 30
0
  0
VERTEX
  8
LAYER_1
 10
330.7562
 20
275.0112
  0
VERTEX
  8
LAYER_1
 10
330.9679
 20
274.7996
  0
SEQEND
  0
POLYLINE
  8
LAYER_1
 40
0.0847
 41
0.0847
 66
1
 10
0
 20
0
 30
0
  0
VERTEX
  8
LAYER_1
 10
331.6029
 20
275.0112
  0
VERTEX
  8
LAYER_1
 10
331.8146
 20
274.7996
  0
SEQEND
  0
POLYLINE
  8
LAYER_1
 40
0.0847
 41
0.0847
 66
1
 10
0
 20
0
 30
0
  0
VERTEX
  8
LAYER_1
 10
332.4707
 20
275.0112
  0
VERTEX
  8
LAYER_1
 10
332.6612
 20
274.7996
  0
SEQEND
  0
POLYLINE
  8
LAYER_1
 40
0.0847
 41
0.0847
 66
1
 10
0
 20
0
 30
0
  0
VERTEX
  8
LAYER_1
 10
333.3174
 20
275.0112
  0
VERTEX
  8
LAYER_1
 10
333.5079
 20
274.7996
  0
SEQEND
  0
POLYLINE
  8
LAYER_1
 40
0.0847
 41
0.0847
 66
1
 10
0
 20
0
 30
0
  0
VERTEX
  8
LAYER_1
 10
334.1641
 20
275.0112
  0
VERTEX
  8
LAYER_1
 10
334.3546
 20
274.7996
  0
SEQEND
  0
POLYLINE
  8
LAYER_1
 40
0.0847
 41
0.0847
 66
1
 10
0
 20
0
 30
0
  0
VERTEX
  8
LAYER_1
 10
335.0108
 20
275.0112
  0
VERTEX
  8
LAYER_1
 10
335.2013
 20
274.7996
  0
SEQEND
  0
POLYLINE
  8
LAYER_1
 40
0.0847
 41
0.0847
 66
1
 10
0
 20
0
 30
0
  0
VERTEX
  8
LAYER_1
 10
325.3588
 20
275.0112
  0
VERTEX
  8
LAYER_1
 10
326.4806
 20
275.0112
  0
SEQEND
  0
POLYLINE
  8
LAYER_1
 40
0.0847
 41
0.0847
 66
1
 10
0
 20
0
 30
0
  0
VERTEX
  8
LAYER_1
 10
328.7243
 20
275.0112
  0
VERTEX
  8
LAYER_1
 10
330.9891
 20
275.0112
  0
SEQEND
  0
POLYLINE
  8
LAYER_1
 40
0.0847
 41
0.0847
 66
1
 10
0
 20
0
 30
0
  0
VERTEX
  8
LAYER_1
 10
333.2328
 20
275.0112
  0
VERTEX
  8
LAYER_1
 10
334.3758
 20
275.0112
  0
SEQEND
  0
POLYLINE
  8
LAYER_1
 40
0.0847
 41
0.0847
 66
1
 10
0
 20
0
 30
0
  0
VERTEX
  8
LAYER_1
 10
325.7186
 20
274.7996
  0
VERTEX
  8
LAYER_1
 10
325.7186
 20
274.8631
  0
SEQEND
  0
POLYLINE
  8
LAYER_1
 40
0.0847
 41
0.0847
 66
1
 10
0
 20
0
 30
0
  0
VERTEX
  8
LAYER_1
 10
325.7186
 20
274.9266
  0
VERTEX
  8
LAYER_1
 10
325.7186
 20
275.0112
  0
SEQEND
  0
POLYLINE
  8
LAYER_1
 40
0.0847
 41
0.0847
 66
1
 10
0
 20
0
 30
0
  0
VERTEX
  8
LAYER_1
 10
334.016
 20
274.7996
  0
VERTEX
  8
LAYER_1
 10
334.016
 20
274.8631
  0
SEQEND
  0
POLYLINE
  8
LAYER_1
 40
0.0847
 41
0.0847
 66
1
 10
0
 20
0
 30
0
  0
VERTEX
  8
LAYER_1
 10
334.016
 20
274.9266
  0
VERTEX
  8
LAYER_1
 10
334.016
 20
275.0112
  0
SEQEND
  0
POLYLINE
  8
LAYER_1
 40
0.1693
 41
0.1693
 66
1
 10
0
 20
0
 30
0
  0
VERTEX
  8
LAYER_1
 10
325.7185
 20
270.8202
  0
VERTEX
  8
LAYER_1
 10
325.7185
 20
274.3974
  0
SEQEND
  0
POLYLINE
  8
LAYER_1
 40
0.1693
 41
0.1693
 66
1
 10
0
 20
0
 30
0
  0
VERTEX
  8
LAYER_1
 10
334.0158
 20
270.8202
  0
VERTEX
  8
LAYER_1
 10
334.0158
 20
274.3974
  0
SEQEND
  0
POLYLINE
  8
LAYER_1
 40
0.1693
 41
0.1693
 66
1
 10
0
 20
0
 30
0
  0
VERTEX
  8
LAYER_1
 10
323.369
 20
275.0112
  0
VERTEX
  8
LAYER_1
 10
325.3587
 20
272.8099
  0
SEQEND
  0
POLYLINE
  8
LAYER_1
 40
0.1693
 41
0.1693
 66
1
 10
0
 20
0
 30
0
  0
VERTEX
  8
LAYER_1
 10
336.3654
 20
275.0112
  0
VERTEX
  8
LAYER_1
 10
334.3757
 20
272.8099
  0
SEQEND
  0
POLYLINE
  8
LAYER_1
 40
0.1693
 41
0.1693
 66
1
 10
0
 20
0
 30
0
  0
VERTEX
  8
LAYER_1
 10
321.8662
 20
272.8099
  0
VERTEX
  8
LAYER_1
 10
321.8662
 20
275.0112
  0
SEQEND
  0
POLYLINE
  8
LAYER_1
 40
0.1693
 41
0.1693
 66
1
 10
0
 20
0
 30
0
  0
VERTEX
  8
LAYER_1
 10
321.8662
 20
272.8099
  0
VERTEX
  8
LAYER_1
 10
325.3587
 20
272.8099
  0
SEQEND
  0
POLYLINE
  8
LAYER_1
 40
0.1693
 41
0.1693
 66
1
 10
0
 20
0
 30
0
  0
VERTEX
  8
LAYER_1
 10
340.6622
 20
271.1166
 42
0.3903426202
  0
VERTEX
  8
LAYER_1
 10
339.9002
 20
271.8997
  0
SEQEND
  0
POLYLINE
  8
LAYER_1
 40
0.1693
 41
0.1693
 66
1
 10
0
 20
0
 30
0
  0
VERTEX
  8
LAYER_1
 10
337.6777
 20
272.8099
  0
SEQEND
  0
POLYLINE
  8
LAYER_1
 40
0.1693
 41
0.1693
 66
1
 10
0
 20
0
 30
0
  0
VERTEX
  8
LAYER_1
 10
338.3974
 20
272.0267
  0
VERTEX
  8
LAYER_1
 10
339.9425
 20
271.8786
  0
SEQEND
  0
POLYLINE
  8
LAYER_1
 40
0.1693
 41
0.1693
 66
1
 10
0
 20
0
 30
0
  0
VERTEX
  8
LAYER_1
 10
337.6565
 20
272.8311
  0
VERTEX
  8
LAYER_1
 10
337.6565
 20
272.8099
 42
0.3734897667
  0
VERTEX
  8
LAYER_1
 10
338.3762
 20
272.0267
  0
SEQEND
  0
POLYLINE
  8
LAYER_1
 40
0.1693
 41
0.1693
 66
1
 10
0
 20
0
 30
0
  0
VERTEX
  8
LAYER_1
 10
340.6622
 20
270.8202
  0
VERTEX
  8
LAYER_1
 10
340.6622
 20
271.0954
  0
SEQEND
  0
POLYLINE
  8
LAYER_1
 40
0.1693
 41
0.1693
 66
1
 10
0
 20
0
 30
0
  0
VERTEX
  8
LAYER_1
 10
334.3757
 20
270.8202
  0
VERTEX
  8
LAYER_1
 10
340.6622
 20
270.8202
  0
SEQEND
  0
POLYLINE
  8
LAYER_1
 40
0.0847
 41
0.0847
 66
1
 10
0
 20
0
 30
0
  0
VERTEX
  8
LAYER_1
 10
335.1588
 20
272.5136
  0
VERTEX
  8
LAYER_1
 10
335.307
 20
272.5136
  0
SEQEND
  0
POLYLINE
  8
LAYER_1
 40
0.0847
 41
0.0847
 66
1
 10
0
 20
0
 30
0
  0
VERTEX
  8
LAYER_1
 10
335.6033
 20
272.5136
  0
VERTEX
  8
LAYER_1
 10
335.7727
 20
272.5136
  0
VERTEX
  8
LAYER_1
 10
335.7727
 20
272.5771
  0
SEQEND
  0
POLYLINE
  8
LAYER_1
 40
0.0847
 41
0.0847
 66
1
 10
0
 20
0
 30
0
  0
VERTEX
  8
LAYER_1
 10
335.7727
 20
272.7252
  0
VERTEX
  8
LAYER_1
 10
335.7727
 20
272.8099
  0
SEQEND
  0
POLYLINE
  8
LAYER_1
 40
0.0847
 41
0.0847
 66
1
 10
0
 20
0
 30
0
  0
VERTEX
  8
LAYER_1
 10
335.1588
 20
272.5136
  0
VERTEX
  8
LAYER_1
 10
335.1588
 20
272.5771
  0
SEQEND
  0
POLYLINE
  8
LAYER_1
 40
0.0847
 41
0.0847
 66
1
 10
0
 20
0
 30
0
  0
VERTEX
  8
LAYER_1
 10
335.1588
 20
272.7252
  0
VERTEX
  8
LAYER_1
 10
335.1588
 20
272.8099
  0
SEQEND
  0
POLYLINE
  8
LAYER_1
 40
0.1693
 41
0.1693
 66
1
 10
0
 20
0
 30
0
  0
VERTEX
  8
LAYER_1
 10
335.4975
 20
270.7779
  0
VERTEX
  8
LAYER_1
 10
335.3917
 20
270.7991
  0
VERTEX
  8
LAYER_1
 10
335.3705
 20
270.7991
  0
SEQEND
  0
POLYLINE
  8
LAYER_1
 40
0.0847
 41
0.0847
 66
1
 10
0
 20
0
 30
0
  0
VERTEX
  8
LAYER_1
 10
334.3757
 20
270.8202
  0
VERTEX
  8
LAYER_1
 10
334.3757
 20
271.5611
  0
SEQEND
  0
POLYLINE
  8
LAYER_1
 40
0.0847
 41
0.0847
 66
1
 10
0
 20
0
 30
0
  0
VERTEX
  8
LAYER_1
 10
334.3757
 20
272.0479
  0
VERTEX
  8
LAYER_1
 10
334.3757
 20
272.8099
  0
SEQEND
  0
POLYLINE
  8
LAYER_1
 40
0.0847
 41
0.0847
 66
1
 10
0
 20
0
 30
0
  0
VERTEX
  8
LAYER_1
 10
337.3179
 20
271.1166
  0
VERTEX
  8
LAYER_1
 10
337.8259
 20
271.1166
  0
SEQEND
  0
POLYLINE
  8
LAYER_1
 40
0.0847
 41
0.0847
 66
1
 10
0
 20
0
 30
0
  0
VERTEX
  8
LAYER_1
 10
337.8259
 20
270.8202
  0
VERTEX
  8
LAYER_1
 10
337.8259
 20
271.1166
  0
SEQEND
  0
POLYLINE
  8
LAYER_1
 40
0.0847
 41
0.0847
 66
1
 10
0
 20
0
 30
0
  0
VERTEX
  8
LAYER_1
 10
337.3179
 20
270.8202
  0
VERTEX
  8
LAYER_1
 10
337.3179
 20
271.1166
  0
SEQEND
  0
POLYLINE
  8
LAYER_1
 40
0.1693
 41
0.1693
 66
1
 10
0
 20
0
 30
0
  0
VERTEX
  8
LAYER_1
 10
337.8682
 20
272.8099
  0
VERTEX
  8
LAYER_1
 10
337.8682
 20
275.0112
  0
SEQEND
  0
POLYLINE
  8
LAYER_1
 40
0.1693
 41
0.1693
 66
1
 10
0
 20
0
 30
0
  0
VERTEX
  8
LAYER_1
 10
334.3757
 20
272.8099
  0
VERTEX
  8
LAYER_1
 10
337.8682
 20
272.8099
  0
SEQEND
  0
POLYLINE
  8
LAYER_1
 40
0.0847
 41
0.0847
 66
1
 10
0
 20
0
 30
0
  0
VERTEX
  8
LAYER_1
 10
340.4717
 20
270.8202
  0
VERTEX
  8
LAYER_1
 10
340.6622
 20
271.0107
  0
SEQEND
  0
POLYLINE
  8
LAYER_1
 40
0.0847
 41
0.0847
 66
1
 10
0
 20
0
 30
0
  0
VERTEX
  8
LAYER_1
 10
340.1965
 20
270.8202
  0
VERTEX
  8
LAYER_1
 10
340.641
 20
271.2647
  0
SEQEND
  0
POLYLINE
  8
LAYER_1
 40
0.0847
 41
0.0847
 66
1
 10
0
 20
0
 30
0
  0
VERTEX
  8
LAYER_1
 10
339.9002
 20
270.8202
  0
VERTEX
  8
LAYER_1
 10
340.5563
 20
271.4764
  0
SEQEND
  0
POLYLINE
  8
LAYER_1
 40
0.0847
 41
0.0847
 66
1
 10
0
 20
0
 30
0
  0
VERTEX
  8
LAYER_1
 10
339.625
 20
270.8202
  0
VERTEX
  8
LAYER_1
 10
340.4505
 20
271.6457
  0
SEQEND
  0
POLYLINE
  8
LAYER_1
 40
0.0847
 41
0.0847
 66
1
 10
0
 20
0
 30
0
  0
VERTEX
  8
LAYER_1
 10
339.3498
 20
270.8202
  0
VERTEX
  8
LAYER_1
 10
340.2811
 20
271.7727
  0
SEQEND
  0
POLYLINE
  8
LAYER_1
 40
0.0847
 41
0.0847
 66
1
 10
0
 20
0
 30
0
  0
VERTEX
  8
LAYER_1
 10
339.0535
 20
270.8202
  0
VERTEX
  8
LAYER_1
 10
340.0906
 20
271.8574
  0
SEQEND
  0
POLYLINE
  8
LAYER_1
 40
0.0847
 41
0.0847
 66
1
 10
0
 20
0
 30
0
  0
VERTEX
  8
LAYER_1
 10
338.7783
 20
270.8202
  0
VERTEX
  8
LAYER_1
 10
339.8578
 20
271.8997
  0
SEQEND
  0
POLYLINE
  8
LAYER_1
 40
0.0847
 41
0.0847
 66
1
 10
0
 20
0
 30
0
  0
VERTEX
  8
LAYER_1
 10
338.5031
 20
270.8202
  0
VERTEX
  8
LAYER_1
 10
339.5826
 20
271.9209
  0
SEQEND
  0
POLYLINE
  8
LAYER_1
 40
0.0847
 41
0.0847
 66
1
 10
0
 20
0
 30
0
  0
VERTEX
  8
LAYER_1
 10
338.2068
 20
270.8202
  0
VERTEX
  8
LAYER_1
 10
339.3286
 20
271.9421
  0
SEQEND
  0
POLYLINE
  8
LAYER_1
 40
0.0847
 41
0.0847
 66
1
 10
0
 20
0
 30
0
  0
VERTEX
  8
LAYER_1
 10
337.9316
 20
270.8202
  0
VERTEX
  8
LAYER_1
 10
339.0746
 20
271.9632
  0
SEQEND
  0
POLYLINE
  8
LAYER_1
 40
0.0847
 41
0.0847
 66
1
 10
0
 20
0
 30
0
  0
VERTEX
  8
LAYER_1
 10
337.6564
 20
270.8202
  0
VERTEX
  8
LAYER_1
 10
338.7994
 20
271.9844
  0
SEQEND
  0
POLYLINE
  8
LAYER_1
 40
0.0847
 41
0.0847
 66
1
 10
0
 20
0
 30
0
  0
VERTEX
  8
LAYER_1
 10
337.3601
 20
270.8202
  0
VERTEX
  8
LAYER_1
 10
338.5454
 20
272.0056
  0
SEQEND
  0
POLYLINE
  8
LAYER_1
 40
0.0847
 41
0.0847
 66
1
 10
0
 20
0
 30
0
  0
VERTEX
  8
LAYER_1
 10
337.0849
 20
270.8202
  0
VERTEX
  8
LAYER_1
 10
338.2914
 20
272.0267
  0
SEQEND
  0
POLYLINE
  8
LAYER_1
 40
0.0847
 41
0.0847
 66
1
 10
0
 20
0
 30
0
  0
VERTEX
  8
LAYER_1
 10
336.7885
 20
270.8202
  0
VERTEX
  8
LAYER_1
 10
338.0797
 20
272.1114
  0
SEQEND
  0
POLYLINE
  8
LAYER_1
 40
0.0847
 41
0.0847
 66
1
 10
0
 20
0
 30
0
  0
VERTEX
  8
LAYER_1
 10
336.5134
 20
270.8202
  0
VERTEX
  8
LAYER_1
 10
337.9315
 20
272.2172
  0
SEQEND
  0
POLYLINE
  8
LAYER_1
 40
0.0847
 41
0.0847
 66
1
 10
0
 20
0
 30
0
  0
VERTEX
  8
LAYER_1
 10
336.2382
 20
270.8202
  0
VERTEX
  8
LAYER_1
 10
337.8045
 20
272.3866
  0
SEQEND
  0
POLYLINE
  8
LAYER_1
 40
0.0847
 41
0.0847
 66
1
 10
0
 20
0
 30
0
  0
VERTEX
  8
LAYER_1
 10
335.9418
 20
270.8202
  0
VERTEX
  8
LAYER_1
 10
337.6987
 20
272.5771
  0
SEQEND
  0
POLYLINE
  8
LAYER_1
 40
0.0847
 41
0.0847
 66
1
 10
0
 20
0
 30
0
  0
VERTEX
  8
LAYER_1
 10
335.6667
 20
270.8202
  0
VERTEX
  8
LAYER_1
 10
337.6775
 20
272.8099
  0
SEQEND
  0
POLYLINE
  8
LAYER_1
 40
0.0847
 41
0.0847
 66
1
 10
0
 20
0
 30
0
  0
VERTEX
  8
LAYER_1
 10
335.3915
 20
270.8202
  0
VERTEX
  8
LAYER_1
 10
337.3812
 20
272.8099
  0
SEQEND
  0
POLYLINE
  8
LAYER_1
 40
0.0847
 41
0.0847
 66
1
 10
0
 20
0
 30
0
  0
VERTEX
  8
LAYER_1
 10
335.0952
 20
270.8202
  0
VERTEX
  8
LAYER_1
 10
337.106
 20
272.8099
  0
SEQEND
  0
POLYLINE
  8
LAYER_1
 40
0.0847
 41
0.0847
 66
1
 10
0
 20
0
 30
0
  0
VERTEX
  8
LAYER_1
 10
334.82
 20
270.8202
  0
VERTEX
  8
LAYER_1
 10
336.8096
 20
272.8099
  0
SEQEND
  0
POLYLINE
  8
LAYER_1
 40
0.0847
 41
0.0847
 66
1
 10
0
 20
0
 30
0
  0
VERTEX
  8
LAYER_1
 10
334.5448
 20
270.8202
  0
VERTEX
  8
LAYER_1
 10
336.5345
 20
272.8099
  0
SEQEND
  0
POLYLINE
  8
LAYER_1
 40
0.0847
 41
0.0847
 66
1
 10
0
 20
0
 30
0
  0
VERTEX
  8
LAYER_1
 10
334.3755
 20
270.9261
  0
VERTEX
  8
LAYER_1
 10
336.2593
 20
272.8099
  0
SEQEND
  0
POLYLINE
  8
LAYER_1
 40
0.0847
 41
0.0847
 66
1
 10
0
 20
0
 30
0
  0
VERTEX
  8
LAYER_1
 10
334.3755
 20
271.2224
  0
VERTEX
  8
LAYER_1
 10
335.963
 20
272.8099
  0
SEQEND
  0
POLYLINE
  8
LAYER_1
 40
0.0847
 41
0.0847
 66
1
 10
0
 20
0
 30
0
  0
VERTEX
  8
LAYER_1
 10
334.3755
 20
271.4976
  0
VERTEX
  8
LAYER_1
 10
335.6878
 20
272.8099
  0
SEQEND
  0
POLYLINE
  8
LAYER_1
 40
0.0847
 41
0.0847
 66
1
 10
0
 20
0
 30
0
  0
VERTEX
  8
LAYER_1
 10
334.3755
 20
271.7727
  0
VERTEX
  8
LAYER_1
 10
335.4126
 20
272.8099
  0
SEQEND
  0
POLYLINE
  8
LAYER_1
 40
0.0847
 41
0.0847
 66
1
 10
0
 20
0
 30
0
  0
VERTEX
  8
LAYER_1
 10
334.3755
 20
272.0691
  0
VERTEX
  8
LAYER_1
 10
335.1163
 20
272.8099
  0
SEQEND
  0
POLYLINE
  8
LAYER_1
 40
0.0847
 41
0.0847
 66
1
 10
0
 20
0
 30
0
  0
VERTEX
  8
LAYER_1
 10
334.3755
 20
272.3442
  0
VERTEX
  8
LAYER_1
 10
334.8411
 20
272.8099
  0
SEQEND
  0
POLYLINE
  8
LAYER_1
 40
0.0847
 41
0.0847
 66
1
 10
0
 20
0
 30
0
  0
VERTEX
  8
LAYER_1
 10
334.3755
 20
272.6406
  0
VERTEX
  8
LAYER_1
 10
334.566
 20
272.8099
  0
SEQEND
  0
POLYLINE
  8
LAYER_1
 40
0.0847
 41
0.0847
 66
1
 10
0
 20
0
 30
0
  0
VERTEX
  8
LAYER_1
 10
334.8411
 20
274.9054
  0
VERTEX
  8
LAYER_1
 10
374.5921
 20
276.5987
  0
SEQEND
  0
TEXT
  8
LAYER_1
 10
349.7475
 20
139.3691
 11
349.7475
 21
139.3691
 40
3.3848
 41
0.5
 62
39
  1
ü£TEL 0120-65-1232ü£FAX 06-6532-1580
  0
TEXT
  8
LAYER_1
 10
349.7475
 20
135.8544
 11
349.7475
 21
135.8544
 40
3.3848
 41
0.5
 62
39
  1
hits@hiratatile.co.jp
  0
INSERT
  8
LAYER_1
  2
AIGNBL01010004
 10
0
 20
0
 30
0
  0
TEXT
  8
LAYER_1
 10
50.3859
 20
131.5829
 11
50.3859
 21
131.5829
 40
4.6883
 41
0.5
 62
39
  1
SC-WBM-0174590S-100
  0
ENDSEC
  0
EOF
