  0
SECTION
  2
HEADER
  9
$ACADVER
  1
AC1009
  9
$LUNITS
 70
2
  9
$LUPREC
 70
4
  9
$LTSCALE
 40
1.0
  9
$EXTMIN
 10
-30.3177
 20
33.3285
 30
0
  9
$EXTMAX
 10
251.6749
 20
230.337
 30
0
  0
ENDSEC
  0
SECTION
  2
TABLES
  0
TABLE
  2
LTYPE
 70
256
  0
LTYPE
  2
AIGENLINE001
 70
64
  3
generate AI->DXF Converter
 72
65
 73
2
 40
2.0821
 49
1.041
 49
-1.041
  0
LTYPE
  2
AIGENLINE002
 70
64
  3
generate AI->DXF Converter
 72
65
 73
2
 40
1.8155
 49
0.9077
 49
-0.9077
  0
LTYPE
  2
AIGENLINE003
 70
64
  3
generate AI->DXF Converter
 72
65
 73
2
 40
1.4111
 49
0.7056
 49
-0.7056
  0
ENDTAB
  0
TABLE
  2
LAYER
 70
6
  0
LAYER
  2
LAYER_1
 70
64
 62
7
  6
CONTINUOUS
  0
LAYER
  2
LAYER_2
 70
64
 62
7
  6
CONTINUOUS
  0
LAYER
  2
LAYER_3
 70
64
 62
7
  6
CONTINUOUS
  0
LAYER
  2
LAYER_4
 70
64
 62
7
  6
CONTINUOUS
  0
LAYER
  2
LAYER_5
 70
64
 62
7
  6
CONTINUOUS
  0
LAYER
  2
LAYER_6
 70
64
 62
7
  6
CONTINUOUS
  0
ENDTAB
  0
TABLE
  2
STYLE
 70
6
  0
STYLE
  2
STANDARD
 70
0
 40
0
 50
0
 71
0
 41
0
 42
0
  3
TXT
  4
BIGFONT
  0
ENDTAB
  0
ENDSEC
  0
SECTION
  2
BLOCKS
  0
BLOCK
  8
LAYER_6
  2
AIGNBL06040006
 70
64
 10
0
 20
0
 30
0
  3
AIGNBL06040006
  0
POLYLINE
  8
LAYER_6
 40
0.05
 41
0.05
 66
1
 10
0
 20
0
 30
0
 70
1
  0
VERTEX
  8
LAYER_6
 10
146.7545
 20
39.1418
  0
VERTEX
  8
LAYER_6
 10
146.2656
 20
37.9567
  0
VERTEX
  8
LAYER_6
 10
145.6376
 20
37.9567
  0
VERTEX
  8
LAYER_6
 10
147.2372
 20
41.7225
  0
VERTEX
  8
LAYER_6
 10
147.9703
 20
41.7225
  0
VERTEX
  8
LAYER_6
 10
149.5768
 20
37.9567
  0
VERTEX
  8
LAYER_6
 10
148.9267
 20
37.9567
  0
VERTEX
  8
LAYER_6
 10
148.424
 20
39.1418
  0
SEQEND
  0
POLYLINE
  8
LAYER_6
 40
0.05
 41
0.05
 66
1
 10
0
 20
0
 30
0
 70
1
  0
VERTEX
  8
LAYER_6
 10
148.2983
 20
39.5207
  0
VERTEX
  8
LAYER_6
 10
147.8373
 20
40.6056
 42
-0.02317247198
  0
VERTEX
  8
LAYER_6
 10
147.5927
 20
41.2926
  0
VERTEX
  8
LAYER_6
 10
147.5789
 20
41.2926
 42
-0.02064481114
  0
VERTEX
  8
LAYER_6
 10
147.3412
 20
40.6101
  0
VERTEX
  8
LAYER_6
 10
146.8806
 20
39.5207
  0
SEQEND
  0
ENDBLK
  0
BLOCK
  8
LAYER_6
  2
AIGNBL06040007
 70
64
 10
0
 20
0
 30
0
  3
AIGNBL06040007
  0
POLYLINE
  8
LAYER_6
 40
0.05
 41
0.05
 66
1
 10
0
 20
0
 30
0
 70
1
  0
VERTEX
  8
LAYER_6
 10
153.942
 20
37.4034
 42
-0.01520763512
  0
VERTEX
  8
LAYER_6
 10
152.1399
 20
37.8395
 42
0.09160443264
  0
VERTEX
  8
LAYER_6
 10
151.8533
 20
37.895
 42
-0.09256808484
  0
VERTEX
  8
LAYER_6
 10
150.8994
 20
38.0977
 42
-0.09799469934
  0
VERTEX
  8
LAYER_6
 10
150.2621
 20
38.5324
 42
-0.1630918382
  0
VERTEX
  8
LAYER_6
 10
149.7964
 20
39.5259
 42
-0.0316951694
  0
VERTEX
  8
LAYER_6
 10
149.7793
 20
39.7998
 42
-0.1055313794
  0
VERTEX
  8
LAYER_6
 10
149.9533
 20
40.6417
 42
-0.1619874109
  0
VERTEX
  8
LAYER_6
 10
150.7418
 20
41.4867
 42
-0.09224146328
  0
VERTEX
  8
LAYER_6
 10
151.5409
 20
41.7524
 42
-0.03717154931
  0
VERTEX
  8
LAYER_6
 10
151.9725
 20
41.7838
 42
-0.09530639066
  0
VERTEX
  8
LAYER_6
 10
152.9361
 20
41.6062
 42
-0.1001950085
  0
VERTEX
  8
LAYER_6
 10
153.5732
 20
41.1834
 42
-0.1611155306
  0
VERTEX
  8
LAYER_6
 10
154.0599
 20
40.1825
 42
-0.03590167283
  0
VERTEX
  8
LAYER_6
 10
154.0815
 20
39.8784
 42
-0.1066761192
  0
VERTEX
  8
LAYER_6
 10
153.9051
 20
39.0236
 42
-0.2183970027
  0
VERTEX
  8
LAYER_6
 10
152.7953
 20
38.0897
 42
-0.006706711403
  0
VERTEX
  8
LAYER_6
 10
152.7407
 20
38.0738
  0
VERTEX
  8
LAYER_6
 10
152.7407
 20
38.0514
 42
0.01533555045
  0
VERTEX
  8
LAYER_6
 10
154.117
 20
37.8113
  0
SEQEND
  0
POLYLINE
  8
LAYER_6
 40
0.05
 41
0.05
 66
1
 10
0
 20
0
 30
0
 70
1
  0
VERTEX
  8
LAYER_6
 10
153.4394
 20
39.857
 42
0.1175610784
  0
VERTEX
  8
LAYER_6
 10
153.257
 20
40.6254
 42
0.1170135141
  0
VERTEX
  8
LAYER_6
 10
152.8315
 20
41.1234
 42
0.1200044572
  0
VERTEX
  8
LAYER_6
 10
152.2186
 20
41.3675
 42
0.03774262044
  0
VERTEX
  8
LAYER_6
 10
151.9511
 20
41.3873
 42
0.1153139376
  0
VERTEX
  8
LAYER_6
 10
151.2089
 20
41.2226
 42
0.1853550912
  0
VERTEX
  8
LAYER_6
 10
150.5507
 20
40.4882
 42
0.09859892291
  0
VERTEX
  8
LAYER_6
 10
150.4287
 20
39.8122
 42
0.1178359247
  0
VERTEX
  8
LAYER_6
 10
150.5964
 20
39.0734
 42
0.2866694251
  0
VERTEX
  8
LAYER_6
 10
151.9232
 20
38.2912
 42
0.1188197759
  0
VERTEX
  8
LAYER_6
 10
152.6722
 20
38.4633
 42
0.1796740134
  0
VERTEX
  8
LAYER_6
 10
153.3126
 20
39.18
 42
0.09850052237
  0
SEQEND
  0
ENDBLK
  0
BLOCK
  8
LAYER_6
  2
AIGNBL06040008
 70
64
 10
0
 20
0
 30
0
  3
AIGNBL06040008
  0
POLYLINE
  8
LAYER_6
 40
0.05
 41
0.05
 66
1
 10
0
 20
0
 30
0
 70
1
  0
VERTEX
  8
LAYER_6
 10
155.4089
 20
41.7225
  0
VERTEX
  8
LAYER_6
 10
155.4089
 20
39.4932
 42
0.1220213404
  0
VERTEX
  8
LAYER_6
 10
155.569
 20
38.7775
 42
0.2218709818
  0
VERTEX
  8
LAYER_6
 10
156.2104
 20
38.3206
 42
0.05223876895
  0
VERTEX
  8
LAYER_6
 10
156.5055
 20
38.2912
 42
0.1302821267
  0
VERTEX
  8
LAYER_6
 10
157.1748
 20
38.452
 42
0.1509367336
  0
VERTEX
  8
LAYER_6
 10
157.526
 20
38.8454
 42
0.1174732039
  0
VERTEX
  8
LAYER_6
 10
157.651
 20
39.4932
  0
VERTEX
  8
LAYER_6
 10
157.651
 20
41.7225
  0
VERTEX
  8
LAYER_6
 10
158.2656
 20
41.7225
  0
VERTEX
  8
LAYER_6
 10
158.2656
 20
39.5266
 42
-0.1106199636
  0
VERTEX
  8
LAYER_6
 10
158.0961
 20
38.708
 42
-0.1822316276
  0
VERTEX
  8
LAYER_6
 10
157.4057
 20
38.0637
 42
-0.09768689614
  0
VERTEX
  8
LAYER_6
 10
156.6028
 20
37.8972
 42
-0.01000776787
  0
VERTEX
  8
LAYER_6
 10
156.4845
 20
37.895
 42
-0.09899539667
  0
VERTEX
  8
LAYER_6
 10
155.612
 20
38.0554
 42
-0.120955925
  0
VERTEX
  8
LAYER_6
 10
155.1093
 20
38.4366
 42
-0.1193006487
  0
VERTEX
  8
LAYER_6
 10
154.8407
 20
39.0316
 42
-0.05319923583
  0
VERTEX
  8
LAYER_6
 10
154.7943
 20
39.5045
  0
VERTEX
  8
LAYER_6
 10
154.7943
 20
41.7225
  0
SEQEND
  0
ENDBLK
  0
BLOCK
  8
LAYER_6
  2
AIGNBL06040009
 70
64
 10
0
 20
0
 30
0
  3
AIGNBL06040009
  0
POLYLINE
  8
LAYER_6
 40
0.05
 41
0.05
 66
1
 10
0
 20
0
 30
0
 70
1
  0
VERTEX
  8
LAYER_6
 10
160.0119
 20
39.1418
  0
VERTEX
  8
LAYER_6
 10
159.5227
 20
37.9567
  0
VERTEX
  8
LAYER_6
 10
158.8947
 20
37.9567
  0
VERTEX
  8
LAYER_6
 10
160.4939
 20
41.7225
  0
VERTEX
  8
LAYER_6
 10
161.227
 20
41.7225
  0
VERTEX
  8
LAYER_6
 10
162.8335
 20
37.9567
  0
VERTEX
  8
LAYER_6
 10
162.1841
 20
37.9567
  0
VERTEX
  8
LAYER_6
 10
161.6814
 20
39.1418
  0
SEQEND
  0
POLYLINE
  8
LAYER_6
 40
0.05
 41
0.05
 66
1
 10
0
 20
0
 30
0
 70
1
  0
VERTEX
  8
LAYER_6
 10
161.5553
 20
39.5207
  0
VERTEX
  8
LAYER_6
 10
161.094
 20
40.6056
 42
-0.02227599701
  0
VERTEX
  8
LAYER_6
 10
160.8494
 20
41.2926
  0
VERTEX
  8
LAYER_6
 10
160.8357
 20
41.2926
 42
-0.0208222547
  0
VERTEX
  8
LAYER_6
 10
160.5983
 20
40.6101
  0
VERTEX
  8
LAYER_6
 10
160.1373
 20
39.5207
  0
SEQEND
  0
ENDBLK
  0
BLOCK
  8
LAYER_6
  2
AIGNBL0604000A
 70
64
 10
0
 20
0
 30
0
  3
AIGNBL0604000A
  0
POLYLINE
  8
LAYER_6
 40
0.05
 41
0.05
 66
1
 10
0
 20
0
 30
0
 70
1
  0
VERTEX
  8
LAYER_6
 10
163.8742
 20
41.6777
 42
-0.03334485223
  0
VERTEX
  8
LAYER_6
 10
165.0411
 20
41.7508
 42
-0.08844478427
  0
VERTEX
  8
LAYER_6
 10
166.0871
 20
41.5858
 42
-0.06037505309
  0
VERTEX
  8
LAYER_6
 10
166.3609
 20
41.4379
 42
-0.2472514979
  0
VERTEX
  8
LAYER_6
 10
166.7726
 20
40.6497
 42
-0.1483298328
  0
VERTEX
  8
LAYER_6
 10
166.6029
 20
40.0554
 42
-0.07223194904
  0
VERTEX
  8
LAYER_6
 10
166.4095
 20
39.8456
 42
-0.1209372404
  0
VERTEX
  8
LAYER_6
 10
165.7228
 20
39.517
 42
-0.06224269186
  0
VERTEX
  8
LAYER_6
 10
164.9708
 20
39.4319
 42
-0.05738783264
  0
VERTEX
  8
LAYER_6
 10
164.4823
 20
39.4653
  0
VERTEX
  8
LAYER_6
 10
164.4823
 20
37.9567
  0
VERTEX
  8
LAYER_6
 10
163.8742
 20
37.9567
  0
SEQEND
  0
POLYLINE
  8
LAYER_6
 40
0.05
 41
0.05
 66
1
 10
0
 20
0
 30
0
 70
1
  0
VERTEX
  8
LAYER_6
 10
164.4823
 20
39.8622
 42
0.05012782438
  0
VERTEX
  8
LAYER_6
 10
164.9846
 20
39.8229
 42
0.1135299982
  0
VERTEX
  8
LAYER_6
 10
165.7697
 20
39.9822
 42
0.1653556145
  0
VERTEX
  8
LAYER_6
 10
166.1074
 20
40.3302
 42
0.1044590446
  0
VERTEX
  8
LAYER_6
 10
166.1656
 20
40.6273
 42
0.2826437488
  0
VERTEX
  8
LAYER_6
 10
165.8147
 20
41.2103
 42
0.0629694601
  0
VERTEX
  8
LAYER_6
 10
165.549
 20
41.3107
 42
0.06259589917
  0
VERTEX
  8
LAYER_6
 10
165.0552
 20
41.3649
 42
0.05192366909
  0
VERTEX
  8
LAYER_6
 10
164.4823
 20
41.3257
  0
SEQEND
  0
ENDBLK
  0
BLOCK
  8
LAYER_6
  2
AIGNBL0604000B
 70
64
 10
0
 20
0
 30
0
  3
AIGNBL0604000B
  0
POLYLINE
  8
LAYER_6
 40
0.05
 41
0.05
 66
1
 10
0
 20
0
 30
0
 70
1
  0
VERTEX
  8
LAYER_6
 10
168.3246
 20
41.4207
 42
-0.3048675751
  0
VERTEX
  8
LAYER_6
 10
168.1582
 20
41.1661
 42
-0.1151020929
  0
VERTEX
  8
LAYER_6
 10
167.9329
 20
41.1189
 42
-0.2442513348
  0
VERTEX
  8
LAYER_6
 10
167.6028
 20
41.2794
 42
-0.1394546152
  0
VERTEX
  8
LAYER_6
 10
167.5626
 20
41.4207
 42
-0.287439772
  0
VERTEX
  8
LAYER_6
 10
167.7346
 20
41.6803
 42
-0.1179404017
  0
VERTEX
  8
LAYER_6
 10
167.9467
 20
41.7277
 42
-0.2416274379
  0
VERTEX
  8
LAYER_6
 10
168.2814
 20
41.5719
 42
-0.1426378456
  0
SEQEND
  0
POLYLINE
  8
LAYER_6
 40
0.05
 41
0.05
 66
1
 10
0
 20
0
 30
0
 70
1
  0
VERTEX
  8
LAYER_6
 10
167.639
 20
37.9567
  0
VERTEX
  8
LAYER_6
 10
167.639
 20
40.6607
  0
VERTEX
  8
LAYER_6
 10
168.2537
 20
40.6607
  0
VERTEX
  8
LAYER_6
 10
168.2537
 20
37.9567
  0
SEQEND
  0
ENDBLK
  0
BLOCK
  8
LAYER_6
  2
AIGNBL0604000C
 70
64
 10
0
 20
0
 30
0
  3
AIGNBL0604000C
  0
POLYLINE
  8
LAYER_6
 40
0.05
 41
0.05
 66
1
 10
0
 20
0
 30
0
 70
1
  0
VERTEX
  8
LAYER_6
 10
170.1254
 20
39.1418
  0
VERTEX
  8
LAYER_6
 10
169.6372
 20
37.9567
  0
VERTEX
  8
LAYER_6
 10
169.0081
 20
37.9567
  0
VERTEX
  8
LAYER_6
 10
170.6077
 20
41.7225
  0
VERTEX
  8
LAYER_6
 10
171.3415
 20
41.7225
  0
VERTEX
  8
LAYER_6
 10
172.9479
 20
37.9567
  0
VERTEX
  8
LAYER_6
 10
172.2982
 20
37.9567
  0
VERTEX
  8
LAYER_6
 10
171.7955
 20
39.1418
  0
SEQEND
  0
POLYLINE
  8
LAYER_6
 40
0.05
 41
0.05
 66
1
 10
0
 20
0
 30
0
 70
1
  0
VERTEX
  8
LAYER_6
 10
171.6695
 20
39.5207
  0
VERTEX
  8
LAYER_6
 10
171.2085
 20
40.6056
 42
-0.02430767271
  0
VERTEX
  8
LAYER_6
 10
170.9646
 20
41.2926
  0
VERTEX
  8
LAYER_6
 10
170.9498
 20
41.2926
 42
-0.02034719794
  0
VERTEX
  8
LAYER_6
 10
170.7128
 20
40.6101
  0
VERTEX
  8
LAYER_6
 10
170.2518
 20
39.5207
  0
SEQEND
  0
ENDBLK
  0
BLOCK
  8
LAYER_6
  2
AIGNBL06030005
 70
64
 10
0
 20
0
 30
0
  3
AIGNBL06030005
  0
INSERT
  8
LAYER_6
  2
AIGNBL06040006
 10
0
 20
0
 30
0
  0
INSERT
  8
LAYER_6
  2
AIGNBL06040007
 10
0
 20
0
 30
0
  0
INSERT
  8
LAYER_6
  2
AIGNBL06040008
 10
0
 20
0
 30
0
  0
INSERT
  8
LAYER_6
  2
AIGNBL06040009
 10
0
 20
0
 30
0
  0
INSERT
  8
LAYER_6
  2
AIGNBL0604000A
 10
0
 20
0
 30
0
  0
INSERT
  8
LAYER_6
  2
AIGNBL0604000B
 10
0
 20
0
 30
0
  0
INSERT
  8
LAYER_6
  2
AIGNBL0604000C
 10
0
 20
0
 30
0
  0
ENDBLK
  0
BLOCK
  8
LAYER_6
  2
AIGNBL0603000E
 70
64
 10
0
 20
0
 30
0
  3
AIGNBL0603000E
  0
POLYLINE
  8
LAYER_6
 40
0.05
 41
0.05
 66
1
 10
0
 20
0
 30
0
 70
1
  0
VERTEX
  8
LAYER_6
 10
145.7475
 20
36.0574
  0
VERTEX
  8
LAYER_6
 10
146.3008
 20
36.0574
  0
VERTEX
  8
LAYER_6
 10
146.3008
 20
35.9637
  0
VERTEX
  8
LAYER_6
 10
145.6424
 20
35.9637
  0
VERTEX
  8
LAYER_6
 10
145.6424
 20
36.9969
  0
VERTEX
  8
LAYER_6
 10
146.2832
 20
36.9969
  0
VERTEX
  8
LAYER_6
 10
146.2832
 20
36.9035
  0
VERTEX
  8
LAYER_6
 10
145.7475
 20
36.9035
  0
VERTEX
  8
LAYER_6
 10
145.7475
 20
36.549
  0
VERTEX
  8
LAYER_6
 10
146.2481
 20
36.549
  0
VERTEX
  8
LAYER_6
 10
146.2481
 20
36.4557
  0
VERTEX
  8
LAYER_6
 10
145.7475
 20
36.4557
  0
SEQEND
  0
ENDBLK
  0
BLOCK
  8
LAYER_6
  2
AIGNBL0603000F
 70
64
 10
0
 20
0
 30
0
  3
AIGNBL0603000F
  0
POLYLINE
  8
LAYER_6
 40
0.05
 41
0.05
 66
1
 10
0
 20
0
 30
0
 70
1
  0
VERTEX
  8
LAYER_6
 10
147.4404
 20
36.117
  0
VERTEX
  8
LAYER_6
 10
147.4432
 20
36.117
  0
VERTEX
  8
LAYER_6
 10
147.4432
 20
36.9969
  0
VERTEX
  8
LAYER_6
 10
147.5483
 20
36.9969
  0
VERTEX
  8
LAYER_6
 10
147.5483
 20
35.9637
  0
VERTEX
  8
LAYER_6
 10
147.4174
 20
35.9637
  0
VERTEX
  8
LAYER_6
 10
146.8162
 20
36.8525
  0
VERTEX
  8
LAYER_6
 10
146.8127
 20
36.8525
  0
VERTEX
  8
LAYER_6
 10
146.8127
 20
35.9637
  0
VERTEX
  8
LAYER_6
 10
146.708
 20
35.9637
  0
VERTEX
  8
LAYER_6
 10
146.708
 20
36.9969
  0
VERTEX
  8
LAYER_6
 10
146.8393
 20
36.9969
  0
SEQEND
  0
ENDBLK
  0
BLOCK
  8
LAYER_6
  2
AIGNBL06030010
 70
64
 10
0
 20
0
 30
0
  3
AIGNBL06030010
  0
POLYLINE
  8
LAYER_6
 40
0.05
 41
0.05
 66
1
 10
0
 20
0
 30
0
 70
1
  0
VERTEX
  8
LAYER_6
 10
148.0213
 20
36.1756
 42
0.1557655154
  0
VERTEX
  8
LAYER_6
 10
148.0757
 20
36.0725
 42
0.1918235184
  0
VERTEX
  8
LAYER_6
 10
148.1891
 20
36.0309
  0
VERTEX
  8
LAYER_6
 10
148.2783
 20
36.0505
  0
VERTEX
  8
LAYER_6
 10
148.3344
 20
36.1039
  0
VERTEX
  8
LAYER_6
 10
148.3634
 20
36.1804
  0
VERTEX
  8
LAYER_6
 10
148.3717
 20
36.27
  0
VERTEX
  8
LAYER_6
 10
148.3717
 20
36.9969
  0
VERTEX
  8
LAYER_6
 10
148.4767
 20
36.9969
  0
VERTEX
  8
LAYER_6
 10
148.4767
 20
36.2614
  0
VERTEX
  8
LAYER_6
 10
148.4654
 20
36.1535
 42
-0.0973308998
  0
VERTEX
  8
LAYER_6
 10
148.424
 20
36.0485
 42
-0.1149355521
  0
VERTEX
  8
LAYER_6
 10
148.3393
 20
35.9689
 42
-0.1249341208
  0
VERTEX
  8
LAYER_6
 10
148.2004
 20
35.9375
 42
-0.1793665557
  0
VERTEX
  8
LAYER_6
 10
148.0158
 20
35.9974
 42
-0.1772363953
  0
VERTEX
  8
LAYER_6
 10
147.9234
 20
36.149
  0
SEQEND
  0
ENDBLK
  0
BLOCK
  8
LAYER_6
  2
AIGNBL06030011
 70
64
 10
0
 20
0
 30
0
  3
AIGNBL06030011
  0
POLYLINE
  8
LAYER_6
 40
0.05
 41
0.05
 66
1
 10
0
 20
0
 30
0
 70
1
  0
VERTEX
  8
LAYER_6
 10
149.965
 20
36.4805
 42
-0.1019307791
  0
VERTEX
  8
LAYER_6
 10
149.924
 20
36.2631
 42
-0.1000112985
  0
VERTEX
  8
LAYER_6
 10
149.8113
 20
36.0915
 42
-0.09646612644
  0
VERTEX
  8
LAYER_6
 10
149.6405
 20
35.9785
 42
-0.09758594962
  0
VERTEX
  8
LAYER_6
 10
149.4265
 20
35.9375
 42
-0.1000844711
  0
VERTEX
  8
LAYER_6
 10
149.2129
 20
35.9785
 42
-0.09954994557
  0
VERTEX
  8
LAYER_6
 10
149.042
 20
36.0915
 42
-0.09699237735
  0
VERTEX
  8
LAYER_6
 10
148.9287
 20
36.2631
 42
-0.09653980076
  0
VERTEX
  8
LAYER_6
 10
148.8881
 20
36.4805
 42
-0.1004051845
  0
VERTEX
  8
LAYER_6
 10
148.9287
 20
36.6978
 42
-0.0998654539
  0
VERTEX
  8
LAYER_6
 10
149.042
 20
36.8694
 42
-0.09851519288
  0
VERTEX
  8
LAYER_6
 10
149.2129
 20
36.9824
 42
-0.09768823248
  0
VERTEX
  8
LAYER_6
 10
149.4265
 20
37.0234
 42
-0.1000514256
  0
VERTEX
  8
LAYER_6
 10
149.6405
 20
36.9824
 42
-0.09863053528
  0
VERTEX
  8
LAYER_6
 10
149.8113
 20
36.8694
 42
-0.09807107579
  0
VERTEX
  8
LAYER_6
 10
149.924
 20
36.6978
 42
-0.0978256893
  0
SEQEND
  0
POLYLINE
  8
LAYER_6
 40
0.05
 41
0.05
 66
1
 10
0
 20
0
 30
0
 70
1
  0
VERTEX
  8
LAYER_6
 10
149.8541
 20
36.4798
 42
0.08634913196
  0
VERTEX
  8
LAYER_6
 10
149.8251
 20
36.6517
 42
0.09649608129
  0
VERTEX
  8
LAYER_6
 10
149.7404
 20
36.795
 42
0.1032857511
  0
VERTEX
  8
LAYER_6
 10
149.6053
 20
36.8932
 42
0.1061320656
  0
VERTEX
  8
LAYER_6
 10
149.4265
 20
36.93
 42
0.1115874499
  0
VERTEX
  8
LAYER_6
 10
149.2478
 20
36.8932
 42
0.1058584166
  0
VERTEX
  8
LAYER_6
 10
149.113
 20
36.795
 42
0.09787799956
  0
VERTEX
  8
LAYER_6
 10
149.0283
 20
36.6517
 42
0.08491464556
  0
VERTEX
  8
LAYER_6
 10
148.999
 20
36.4798
 42
0.08693146424
  0
VERTEX
  8
LAYER_6
 10
149.0283
 20
36.3079
 42
0.1009797617
  0
VERTEX
  8
LAYER_6
 10
149.113
 20
36.1649
 42
0.09998489394
  0
VERTEX
  8
LAYER_6
 10
149.2478
 20
36.0674
 42
0.1061678446
  0
VERTEX
  8
LAYER_6
 10
149.4265
 20
36.0309
 42
0.1126980581
  0
VERTEX
  8
LAYER_6
 10
149.6053
 20
36.0674
 42
0.1036982708
  0
VERTEX
  8
LAYER_6
 10
149.7404
 20
36.1649
 42
0.09370250368
  0
VERTEX
  8
LAYER_6
 10
149.8251
 20
36.3079
 42
0.08466662837
  0
SEQEND
  0
ENDBLK
  0
BLOCK
  8
LAYER_6
  2
AIGNBL06030012
 70
64
 10
0
 20
0
 30
0
  3
AIGNBL06030012
  0
POLYLINE
  8
LAYER_6
 40
0.05
 41
0.05
 66
1
 10
0
 20
0
 30
0
 70
1
  0
VERTEX
  8
LAYER_6
 10
150.7398
 20
35.9637
  0
VERTEX
  8
LAYER_6
 10
150.6351
 20
35.9637
  0
VERTEX
  8
LAYER_6
 10
150.6351
 20
36.4091
  0
VERTEX
  8
LAYER_6
 10
150.2482
 20
36.9969
  0
VERTEX
  8
LAYER_6
 10
150.3795
 20
36.9969
  0
VERTEX
  8
LAYER_6
 10
150.6905
 20
36.4967
  0
VERTEX
  8
LAYER_6
 10
151.0041
 20
36.9969
  0
VERTEX
  8
LAYER_6
 10
151.1263
 20
36.9969
  0
VERTEX
  8
LAYER_6
 10
150.7398
 20
36.4091
  0
SEQEND
  0
ENDBLK
  0
BLOCK
  8
LAYER_6
  2
AIGNBL06030013
 70
64
 10
0
 20
0
 30
0
  3
AIGNBL06030013
  0
POLYLINE
  8
LAYER_6
 40
0.05
 41
0.05
 66
1
 10
0
 20
0
 30
0
 70
1
  0
VERTEX
  8
LAYER_6
 10
152.0314
 20
36.9969
  0
VERTEX
  8
LAYER_6
 10
152.339
 20
36.9969
  0
VERTEX
  8
LAYER_6
 10
152.4575
 20
36.9845
  0
VERTEX
  8
LAYER_6
 10
152.5643
 20
36.9421
 42
-0.1168262011
  0
VERTEX
  8
LAYER_6
 10
152.6422
 20
36.8611
 42
-0.1230288266
  0
VERTEX
  8
LAYER_6
 10
152.6718
 20
36.733
 42
-0.1795449175
  0
VERTEX
  8
LAYER_6
 10
152.6219
 20
36.5907
 42
-0.170141964
  0
VERTEX
  8
LAYER_6
 10
152.4885
 20
36.5111
  0
VERTEX
  8
LAYER_6
 10
152.4885
 20
36.5084
 42
-0.1719890535
  0
VERTEX
  8
LAYER_6
 10
152.6553
 20
36.4302
 42
-0.2018462152
  0
VERTEX
  8
LAYER_6
 10
152.7214
 20
36.2496
 42
-0.1247085485
  0
VERTEX
  8
LAYER_6
 10
152.6942
 20
36.1325
 42
-0.1153486961
  0
VERTEX
  8
LAYER_6
 10
152.6181
 20
36.0419
 42
-0.08656795839
  0
VERTEX
  8
LAYER_6
 10
152.4972
 20
35.9844
 42
-0.06557363107
  0
VERTEX
  8
LAYER_6
 10
152.3373
 20
35.9637
  0
VERTEX
  8
LAYER_6
 10
152.0314
 20
35.9637
  0
SEQEND
  0
POLYLINE
  8
LAYER_6
 40
0.05
 41
0.05
 66
1
 10
0
 20
0
 30
0
 70
1
  0
VERTEX
  8
LAYER_6
 10
152.1364
 20
36.5445
  0
VERTEX
  8
LAYER_6
 10
152.348
 20
36.5445
  0
VERTEX
  8
LAYER_6
 10
152.4248
 20
36.5535
  0
VERTEX
  8
LAYER_6
 10
152.4951
 20
36.5831
  0
VERTEX
  8
LAYER_6
 10
152.5471
 20
36.6396
 42
0.1162126025
  0
VERTEX
  8
LAYER_6
 10
152.5668
 20
36.7258
  0
VERTEX
  8
LAYER_6
 10
152.5471
 20
36.8095
  0
VERTEX
  8
LAYER_6
 10
152.494
 20
36.8656
  0
VERTEX
  8
LAYER_6
 10
152.4152
 20
36.897
  0
VERTEX
  8
LAYER_6
 10
152.3187
 20
36.9066
  0
VERTEX
  8
LAYER_6
 10
152.1364
 20
36.9066
  0
SEQEND
  0
POLYLINE
  8
LAYER_6
 40
0.05
 41
0.05
 66
1
 10
0
 20
0
 30
0
 70
1
  0
VERTEX
  8
LAYER_6
 10
152.1364
 20
36.0543
  0
VERTEX
  8
LAYER_6
 10
152.3321
 20
36.0543
  0
VERTEX
  8
LAYER_6
 10
152.4406
 20
36.0653
  0
VERTEX
  8
LAYER_6
 10
152.5313
 20
36.1001
 42
0.1172546835
  0
VERTEX
  8
LAYER_6
 10
152.5929
 20
36.1632
 42
0.1286243504
  0
VERTEX
  8
LAYER_6
 10
152.6164
 20
36.2559
 42
0.2498669706
  0
VERTEX
  8
LAYER_6
 10
152.5471
 20
36.4081
 42
0.1538083763
  0
VERTEX
  8
LAYER_6
 10
152.3511
 20
36.4584
  0
VERTEX
  8
LAYER_6
 10
152.1364
 20
36.4584
  0
SEQEND
  0
ENDBLK
  0
BLOCK
  8
LAYER_6
  2
AIGNBL06030014
 70
64
 10
0
 20
0
 30
0
  3
AIGNBL06030014
  0
POLYLINE
  8
LAYER_6
 40
0.05
 41
0.05
 66
1
 10
0
 20
0
 30
0
 70
1
  0
VERTEX
  8
LAYER_6
 10
153.1534
 20
35.9637
  0
VERTEX
  8
LAYER_6
 10
153.038
 20
35.9637
  0
VERTEX
  8
LAYER_6
 10
153.4849
 20
36.9969
  0
VERTEX
  8
LAYER_6
 10
153.5872
 20
36.9969
  0
VERTEX
  8
LAYER_6
 10
154.0306
 20
35.9637
  0
VERTEX
  8
LAYER_6
 10
153.9138
 20
35.9637
  0
VERTEX
  8
LAYER_6
 10
153.7997
 20
36.2352
  0
VERTEX
  8
LAYER_6
 10
153.2657
 20
36.2352
  0
SEQEND
  0
POLYLINE
  8
LAYER_6
 40
0.05
 41
0.05
 66
1
 10
0
 20
0
 30
0
 70
1
  0
VERTEX
  8
LAYER_6
 10
153.305
 20
36.3316
  0
VERTEX
  8
LAYER_6
 10
153.7604
 20
36.3316
  0
VERTEX
  8
LAYER_6
 10
153.5327
 20
36.8804
  0
SEQEND
  0
ENDBLK
  0
BLOCK
  8
LAYER_6
  2
AIGNBL06030015
 70
64
 10
0
 20
0
 30
0
  3
AIGNBL06030015
  0
POLYLINE
  8
LAYER_6
 40
0.05
 41
0.05
 66
1
 10
0
 20
0
 30
0
 70
1
  0
VERTEX
  8
LAYER_6
 10
154.7151
 20
35.9637
  0
VERTEX
  8
LAYER_6
 10
154.61
 20
35.9637
  0
VERTEX
  8
LAYER_6
 10
154.61
 20
36.9035
  0
VERTEX
  8
LAYER_6
 10
154.2638
 20
36.9035
  0
VERTEX
  8
LAYER_6
 10
154.2638
 20
36.9969
  0
VERTEX
  8
LAYER_6
 10
155.0606
 20
36.9969
  0
VERTEX
  8
LAYER_6
 10
155.0606
 20
36.9035
  0
VERTEX
  8
LAYER_6
 10
154.7151
 20
36.9035
  0
SEQEND
  0
ENDBLK
  0
BLOCK
  8
LAYER_6
  2
AIGNBL06030016
 70
64
 10
0
 20
0
 30
0
  3
AIGNBL06030016
  0
POLYLINE
  8
LAYER_6
 40
0.05
 41
0.05
 66
1
 10
0
 20
0
 30
0
 70
1
  0
VERTEX
  8
LAYER_6
 10
155.4169
 20
36.9969
  0
VERTEX
  8
LAYER_6
 10
155.5216
 20
36.9969
  0
VERTEX
  8
LAYER_6
 10
155.5216
 20
36.549
  0
VERTEX
  8
LAYER_6
 10
156.0852
 20
36.549
  0
VERTEX
  8
LAYER_6
 10
156.0852
 20
36.9969
  0
VERTEX
  8
LAYER_6
 10
156.1903
 20
36.9969
  0
VERTEX
  8
LAYER_6
 10
156.1903
 20
35.9637
  0
VERTEX
  8
LAYER_6
 10
156.0852
 20
35.9637
  0
VERTEX
  8
LAYER_6
 10
156.0852
 20
36.4529
  0
VERTEX
  8
LAYER_6
 10
155.5216
 20
36.4529
  0
VERTEX
  8
LAYER_6
 10
155.5216
 20
35.9637
  0
VERTEX
  8
LAYER_6
 10
155.4169
 20
35.9637
  0
SEQEND
  0
ENDBLK
  0
BLOCK
  8
LAYER_6
  2
AIGNBL06030017
 70
64
 10
0
 20
0
 30
0
  3
AIGNBL06030017
  0
POLYLINE
  8
LAYER_6
 40
0.05
 41
0.05
 66
1
 10
0
 20
0
 30
0
 70
1
  0
VERTEX
  8
LAYER_6
 10
156.7708
 20
35.9637
  0
VERTEX
  8
LAYER_6
 10
156.6657
 20
35.9637
  0
VERTEX
  8
LAYER_6
 10
156.6657
 20
36.9969
  0
VERTEX
  8
LAYER_6
 10
156.9696
 20
36.9969
  0
VERTEX
  8
LAYER_6
 10
157.1101
 20
36.9824
 42
-0.1032885834
  0
VERTEX
  8
LAYER_6
 10
157.2228
 20
36.9349
 42
-0.1280591957
  0
VERTEX
  8
LAYER_6
 10
157.2962
 20
36.8494
 42
-0.1078860225
  0
VERTEX
  8
LAYER_6
 10
157.3223
 20
36.7213
  0
VERTEX
  8
LAYER_6
 10
157.3024
 20
36.6176
  0
VERTEX
  8
LAYER_6
 10
157.2469
 20
36.5366
  0
VERTEX
  8
LAYER_6
 10
157.1635
 20
36.4818
  0
VERTEX
  8
LAYER_6
 10
157.0585
 20
36.4557
  0
VERTEX
  8
LAYER_6
 10
157.3606
 20
35.9637
  0
VERTEX
  8
LAYER_6
 10
157.2321
 20
35.9637
  0
VERTEX
  8
LAYER_6
 10
156.9461
 20
36.4467
  0
VERTEX
  8
LAYER_6
 10
156.7708
 20
36.4467
  0
SEQEND
  0
POLYLINE
  8
LAYER_6
 40
0.05
 41
0.05
 66
1
 10
0
 20
0
 30
0
 70
1
  0
VERTEX
  8
LAYER_6
 10
156.7708
 20
36.5373
  0
VERTEX
  8
LAYER_6
 10
156.9534
 20
36.5373
 42
0.153451873
  0
VERTEX
  8
LAYER_6
 10
157.1491
 20
36.5831
 42
0.2580279849
  0
VERTEX
  8
LAYER_6
 10
157.2176
 20
36.7213
  0
VERTEX
  8
LAYER_6
 10
157.1983
 20
36.8071
  0
VERTEX
  8
LAYER_6
 10
157.146
 20
36.8643
  0
VERTEX
  8
LAYER_6
 10
157.0643
 20
36.8963
  0
VERTEX
  8
LAYER_6
 10
156.9578
 20
36.9066
  0
VERTEX
  8
LAYER_6
 10
156.7708
 20
36.9066
  0
SEQEND
  0
ENDBLK
  0
BLOCK
  8
LAYER_6
  2
AIGNBL06030018
 70
64
 10
0
 20
0
 30
0
  3
AIGNBL06030018
  0
POLYLINE
  8
LAYER_6
 40
0.05
 41
0.05
 66
1
 10
0
 20
0
 30
0
 70
1
  0
VERTEX
  8
LAYER_6
 10
158.7627
 20
36.4805
 42
-0.09904480664
  0
VERTEX
  8
LAYER_6
 10
158.7221
 20
36.2631
 42
-0.09984043552
  0
VERTEX
  8
LAYER_6
 10
158.6087
 20
36.0915
 42
-0.09841590082
  0
VERTEX
  8
LAYER_6
 10
158.4382
 20
35.9785
 42
-0.09758412454
  0
VERTEX
  8
LAYER_6
 10
158.2243
 20
35.9375
 42
-0.09999517154
  0
VERTEX
  8
LAYER_6
 10
158.0103
 20
35.9785
 42
-0.09953435427
  0
VERTEX
  8
LAYER_6
 10
157.8398
 20
36.0915
 42
-0.09853706159
  0
VERTEX
  8
LAYER_6
 10
157.7268
 20
36.2631
 42
-0.09653980076
  0
VERTEX
  8
LAYER_6
 10
157.6862
 20
36.4805
 42
-0.1004051845
  0
VERTEX
  8
LAYER_6
 10
157.7268
 20
36.6978
 42
-0.1008040346
  0
VERTEX
  8
LAYER_6
 10
157.8398
 20
36.8694
 42
-0.09763764092
  0
VERTEX
  8
LAYER_6
 10
158.0103
 20
36.9824
 42
-0.09752919603
  0
VERTEX
  8
LAYER_6
 10
158.2243
 20
37.0234
 42
-0.1000174927
  0
VERTEX
  8
LAYER_6
 10
158.4382
 20
36.9824
 42
-0.1009762109
  0
VERTEX
  8
LAYER_6
 10
158.6087
 20
36.8694
 42
-0.09735230618
  0
VERTEX
  8
LAYER_6
 10
158.7221
 20
36.6978
 42
-0.09580191209
  0
SEQEND
  0
POLYLINE
  8
LAYER_6
 40
0.05
 41
0.05
 66
1
 10
0
 20
0
 30
0
 70
1
  0
VERTEX
  8
LAYER_6
 10
158.6518
 20
36.4798
 42
0.08852014676
  0
VERTEX
  8
LAYER_6
 10
158.6225
 20
36.6517
 42
0.09973444611
  0
VERTEX
  8
LAYER_6
 10
158.5378
 20
36.795
 42
0.1024799068
  0
VERTEX
  8
LAYER_6
 10
158.4031
 20
36.8932
 42
0.1060321998
  0
VERTEX
  8
LAYER_6
 10
158.2243
 20
36.93
 42
0.1116325688
  0
VERTEX
  8
LAYER_6
 10
158.0455
 20
36.8932
 42
0.1060506217
  0
VERTEX
  8
LAYER_6
 10
157.9104
 20
36.795
 42
0.09526104957
  0
VERTEX
  8
LAYER_6
 10
157.8257
 20
36.6517
 42
0.08422602157
  0
VERTEX
  8
LAYER_6
 10
157.7968
 20
36.4798
 42
0.0876992245
  0
VERTEX
  8
LAYER_6
 10
157.8257
 20
36.3079
 42
0.09826867926
  0
VERTEX
  8
LAYER_6
 10
157.9104
 20
36.1649
 42
0.09965756504
  0
VERTEX
  8
LAYER_6
 10
158.0455
 20
36.0674
 42
0.1061654103
  0
VERTEX
  8
LAYER_6
 10
158.2243
 20
36.0309
 42
0.1124388132
  0
VERTEX
  8
LAYER_6
 10
158.4031
 20
36.0674
 42
0.1029122982
  0
VERTEX
  8
LAYER_6
 10
158.5378
 20
36.1649
 42
0.09882210045
  0
VERTEX
  8
LAYER_6
 10
158.6225
 20
36.3079
 42
0.08589740831
  0
SEQEND
  0
ENDBLK
  0
BLOCK
  8
LAYER_6
  2
AIGNBL06030019
 70
64
 10
0
 20
0
 30
0
  3
AIGNBL06030019
  0
POLYLINE
  8
LAYER_6
 40
0.05
 41
0.05
 66
1
 10
0
 20
0
 30
0
 70
1
  0
VERTEX
  8
LAYER_6
 10
160.2045
 20
36.4805
 42
-0.1019307791
  0
VERTEX
  8
LAYER_6
 10
160.1635
 20
36.2631
 42
-0.09929652324
  0
VERTEX
  8
LAYER_6
 10
160.0509
 20
36.0915
 42
-0.09710469009
  0
VERTEX
  8
LAYER_6
 10
159.88
 20
35.9785
 42
-0.09758412454
  0
VERTEX
  8
LAYER_6
 10
159.6661
 20
35.9375
 42
-0.1005051182
  0
VERTEX
  8
LAYER_6
 10
159.4524
 20
35.9785
 42
-0.1009789173
  0
VERTEX
  8
LAYER_6
 10
159.2816
 20
36.0915
 42
-0.09724598852
  0
VERTEX
  8
LAYER_6
 10
159.1682
 20
36.2631
 42
-0.09653980076
  0
VERTEX
  8
LAYER_6
 10
159.1276
 20
36.4805
 42
-0.1004051845
  0
VERTEX
  8
LAYER_6
 10
159.1682
 20
36.6978
 42
-0.1001669327
  0
VERTEX
  8
LAYER_6
 10
159.2816
 20
36.8694
 42
-0.09846843416
  0
VERTEX
  8
LAYER_6
 10
159.4524
 20
36.9824
 42
-0.09783444074
  0
VERTEX
  8
LAYER_6
 10
159.6661
 20
37.0234
 42
-0.1000174927
  0
VERTEX
  8
LAYER_6
 10
159.88
 20
36.9824
 42
-0.098457988
  0
VERTEX
  8
LAYER_6
 10
160.0509
 20
36.8694
 42
-0.09762598086
  0
VERTEX
  8
LAYER_6
 10
160.1635
 20
36.6978
 42
-0.0978256893
  0
SEQEND
  0
POLYLINE
  8
LAYER_6
 40
0.05
 41
0.05
 66
1
 10
0
 20
0
 30
0
 70
1
  0
VERTEX
  8
LAYER_6
 10
160.0936
 20
36.4798
 42
0.08653869446
  0
VERTEX
  8
LAYER_6
 10
160.0647
 20
36.6517
 42
0.09689814906
  0
VERTEX
  8
LAYER_6
 10
159.9799
 20
36.795
 42
0.1032857511
  0
VERTEX
  8
LAYER_6
 10
159.8448
 20
36.8932
 42
0.1061350344
  0
VERTEX
  8
LAYER_6
 10
159.6661
 20
36.93
 42
0.1114208933
  0
VERTEX
  8
LAYER_6
 10
159.4872
 20
36.8932
 42
0.1056595975
  0
VERTEX
  8
LAYER_6
 10
159.3525
 20
36.795
 42
0.09787799956
  0
VERTEX
  8
LAYER_6
 10
159.2678
 20
36.6517
 42
0.08491464556
  0
VERTEX
  8
LAYER_6
 10
159.2385
 20
36.4798
 42
0.08693146424
  0
VERTEX
  8
LAYER_6
 10
159.2678
 20
36.3079
 42
0.1009797617
  0
VERTEX
  8
LAYER_6
 10
159.3525
 20
36.1649
 42
0.09978391674
  0
VERTEX
  8
LAYER_6
 10
159.4872
 20
36.0674
 42
0.1060616244
  0
VERTEX
  8
LAYER_6
 10
159.6661
 20
36.0309
 42
0.1126531325
  0
VERTEX
  8
LAYER_6
 10
159.8448
 20
36.0674
 42
0.1036982708
  0
VERTEX
  8
LAYER_6
 10
159.9799
 20
36.1649
 42
0.09401062747
  0
VERTEX
  8
LAYER_6
 10
160.0647
 20
36.3079
 42
0.0844927763
  0
SEQEND
  0
ENDBLK
  0
BLOCK
  8
LAYER_6
  2
AIGNBL0603001A
 70
64
 10
0
 20
0
 30
0
  3
AIGNBL0603001A
  0
POLYLINE
  8
LAYER_6
 40
0.05
 41
0.05
 66
1
 10
0
 20
0
 30
0
 70
1
  0
VERTEX
  8
LAYER_6
 10
161.1354
 20
36.1418
  0
VERTEX
  8
LAYER_6
 10
161.1371
 20
36.1418
  0
VERTEX
  8
LAYER_6
 10
161.4826
 20
36.9969
  0
VERTEX
  8
LAYER_6
 10
161.6435
 20
36.9969
  0
VERTEX
  8
LAYER_6
 10
161.6435
 20
35.9637
  0
VERTEX
  8
LAYER_6
 10
161.5381
 20
35.9637
  0
VERTEX
  8
LAYER_6
 10
161.5381
 20
36.8611
  0
VERTEX
  8
LAYER_6
 10
161.5354
 20
36.8611
  0
VERTEX
  8
LAYER_6
 10
161.1619
 20
35.9637
  0
VERTEX
  8
LAYER_6
 10
161.1064
 20
35.9637
  0
VERTEX
  8
LAYER_6
 10
160.7326
 20
36.8611
  0
VERTEX
  8
LAYER_6
 10
160.7299
 20
36.8611
  0
VERTEX
  8
LAYER_6
 10
160.7299
 20
35.9637
  0
VERTEX
  8
LAYER_6
 10
160.6248
 20
35.9637
  0
VERTEX
  8
LAYER_6
 10
160.6248
 20
36.9969
  0
VERTEX
  8
LAYER_6
 10
160.7853
 20
36.9969
  0
SEQEND
  0
ENDBLK
  0
BLOCK
  8
LAYER_6
  2
AIGNBL0603001B
 70
64
 10
0
 20
0
 30
0
  3
AIGNBL0603001B
  0
POLYLINE
  8
LAYER_6
 40
0.05
 41
0.05
 66
1
 10
0
 20
0
 30
0
 70
1
  0
VERTEX
  8
LAYER_6
 10
162.79
 20
36.0574
  0
VERTEX
  8
LAYER_6
 10
163.3433
 20
36.0574
  0
VERTEX
  8
LAYER_6
 10
163.3433
 20
35.9637
  0
VERTEX
  8
LAYER_6
 10
162.685
 20
35.9637
  0
VERTEX
  8
LAYER_6
 10
162.685
 20
36.9969
  0
VERTEX
  8
LAYER_6
 10
163.3258
 20
36.9969
  0
VERTEX
  8
LAYER_6
 10
163.3258
 20
36.9035
  0
VERTEX
  8
LAYER_6
 10
162.79
 20
36.9035
  0
VERTEX
  8
LAYER_6
 10
162.79
 20
36.549
  0
VERTEX
  8
LAYER_6
 10
163.2906
 20
36.549
  0
VERTEX
  8
LAYER_6
 10
163.2906
 20
36.4557
  0
VERTEX
  8
LAYER_6
 10
162.79
 20
36.4557
  0
SEQEND
  0
ENDBLK
  0
BLOCK
  8
LAYER_6
  2
AIGNBL0603001C
 70
64
 10
0
 20
0
 30
0
  3
AIGNBL0603001C
  0
POLYLINE
  8
LAYER_6
 40
0.05
 41
0.05
 66
1
 10
0
 20
0
 30
0
 70
1
  0
VERTEX
  8
LAYER_6
 10
164.0885
 20
36.5797
  0
VERTEX
  8
LAYER_6
 10
164.3707
 20
36.9969
  0
VERTEX
  8
LAYER_6
 10
164.4957
 20
36.9969
  0
VERTEX
  8
LAYER_6
 10
164.1533
 20
36.5053
  0
VERTEX
  8
LAYER_6
 10
164.5326
 20
35.9637
  0
VERTEX
  8
LAYER_6
 10
164.4013
 20
35.9637
  0
VERTEX
  8
LAYER_6
 10
164.0858
 20
36.4295
  0
VERTEX
  8
LAYER_6
 10
163.7722
 20
35.9637
  0
VERTEX
  8
LAYER_6
 10
163.6407
 20
35.9637
  0
VERTEX
  8
LAYER_6
 10
164.0203
 20
36.5066
  0
VERTEX
  8
LAYER_6
 10
163.6744
 20
36.9969
  0
VERTEX
  8
LAYER_6
 10
163.806
 20
36.9969
  0
SEQEND
  0
ENDBLK
  0
BLOCK
  8
LAYER_6
  2
AIGNBL0603001D
 70
64
 10
0
 20
0
 30
0
  3
AIGNBL0603001D
  0
POLYLINE
  8
LAYER_6
 40
0.05
 41
0.05
 66
1
 10
0
 20
0
 30
0
 70
1
  0
VERTEX
  8
LAYER_6
 10
164.8988
 20
36.9969
  0
VERTEX
  8
LAYER_6
 10
165.1909
 20
36.9969
  0
VERTEX
  8
LAYER_6
 10
165.3339
 20
36.9804
 42
-0.104160294
  0
VERTEX
  8
LAYER_6
 10
165.4438
 20
36.929
 42
-0.1209616443
  0
VERTEX
  8
LAYER_6
 10
165.5148
 20
36.8429
 42
-0.1032545831
  0
VERTEX
  8
LAYER_6
 10
165.5392
 20
36.7213
 42
-0.1239274235
  0
VERTEX
  8
LAYER_6
 10
165.5141
 20
36.5993
 42
-0.1163667494
  0
VERTEX
  8
LAYER_6
 10
165.4424
 20
36.5132
 42
-0.08715194998
  0
VERTEX
  8
LAYER_6
 10
165.3315
 20
36.4615
 42
-0.06075348808
  0
VERTEX
  8
LAYER_6
 10
165.1878
 20
36.444
  0
VERTEX
  8
LAYER_6
 10
165.0039
 20
36.444
  0
VERTEX
  8
LAYER_6
 10
165.0039
 20
35.9637
  0
VERTEX
  8
LAYER_6
 10
164.8988
 20
35.9637
  0
SEQEND
  0
POLYLINE
  8
LAYER_6
 40
0.05
 41
0.05
 66
1
 10
0
 20
0
 30
0
 70
1
  0
VERTEX
  8
LAYER_6
 10
165.0039
 20
36.5328
  0
VERTEX
  8
LAYER_6
 10
165.1816
 20
36.5328
 42
0.1694225951
  0
VERTEX
  8
LAYER_6
 10
165.3701
 20
36.581
 42
0.2442570363
  0
VERTEX
  8
LAYER_6
 10
165.4345
 20
36.7213
 42
0.2590967024
  0
VERTEX
  8
LAYER_6
 10
165.368
 20
36.8622
 42
0.143072224
  0
VERTEX
  8
LAYER_6
 10
165.1816
 20
36.9066
  0
VERTEX
  8
LAYER_6
 10
165.0039
 20
36.9066
  0
SEQEND
  0
ENDBLK
  0
BLOCK
  8
LAYER_6
  2
AIGNBL0603001E
 70
64
 10
0
 20
0
 30
0
  3
AIGNBL0603001E
  0
POLYLINE
  8
LAYER_6
 40
0.05
 41
0.05
 66
1
 10
0
 20
0
 30
0
 70
1
  0
VERTEX
  8
LAYER_6
 10
166.0515
 20
36.0574
  0
VERTEX
  8
LAYER_6
 10
166.6048
 20
36.0574
  0
VERTEX
  8
LAYER_6
 10
166.6048
 20
35.9637
  0
VERTEX
  8
LAYER_6
 10
165.9465
 20
35.9637
  0
VERTEX
  8
LAYER_6
 10
165.9465
 20
36.9969
  0
VERTEX
  8
LAYER_6
 10
166.5872
 20
36.9969
  0
VERTEX
  8
LAYER_6
 10
166.5872
 20
36.9035
  0
VERTEX
  8
LAYER_6
 10
166.0515
 20
36.9035
  0
VERTEX
  8
LAYER_6
 10
166.0515
 20
36.549
  0
VERTEX
  8
LAYER_6
 10
166.5521
 20
36.549
  0
VERTEX
  8
LAYER_6
 10
166.5521
 20
36.4557
  0
VERTEX
  8
LAYER_6
 10
166.0515
 20
36.4557
  0
SEQEND
  0
ENDBLK
  0
BLOCK
  8
LAYER_6
  2
AIGNBL0603001F
 70
64
 10
0
 20
0
 30
0
  3
AIGNBL0603001F
  0
POLYLINE
  8
LAYER_6
 40
0.05
 41
0.05
 66
1
 10
0
 20
0
 30
0
 70
1
  0
VERTEX
  8
LAYER_6
 10
167.1168
 20
35.9637
  0
VERTEX
  8
LAYER_6
 10
167.0117
 20
35.9637
  0
VERTEX
  8
LAYER_6
 10
167.0117
 20
36.9969
  0
VERTEX
  8
LAYER_6
 10
167.3155
 20
36.9969
  0
VERTEX
  8
LAYER_6
 10
167.4561
 20
36.9824
 42
-0.1039428931
  0
VERTEX
  8
LAYER_6
 10
167.5687
 20
36.9349
 42
-0.1259973384
  0
VERTEX
  8
LAYER_6
 10
167.6425
 20
36.8494
 42
-0.1064650891
  0
VERTEX
  8
LAYER_6
 10
167.6683
 20
36.7213
  0
VERTEX
  8
LAYER_6
 10
167.6483
 20
36.6176
  0
VERTEX
  8
LAYER_6
 10
167.5929
 20
36.5366
  0
VERTEX
  8
LAYER_6
 10
167.5095
 20
36.4818
  0
VERTEX
  8
LAYER_6
 10
167.4044
 20
36.4557
  0
VERTEX
  8
LAYER_6
 10
167.7066
 20
35.9637
  0
VERTEX
  8
LAYER_6
 10
167.578
 20
35.9637
  0
VERTEX
  8
LAYER_6
 10
167.2921
 20
36.4467
  0
VERTEX
  8
LAYER_6
 10
167.1168
 20
36.4467
  0
SEQEND
  0
POLYLINE
  8
LAYER_6
 40
0.05
 41
0.05
 66
1
 10
0
 20
0
 30
0
 70
1
  0
VERTEX
  8
LAYER_6
 10
167.1168
 20
36.5373
  0
VERTEX
  8
LAYER_6
 10
167.2994
 20
36.5373
 42
0.1542400453
  0
VERTEX
  8
LAYER_6
 10
167.495
 20
36.5831
 42
0.2583775622
  0
VERTEX
  8
LAYER_6
 10
167.5636
 20
36.7213
  0
VERTEX
  8
LAYER_6
 10
167.5446
 20
36.8071
  0
VERTEX
  8
LAYER_6
 10
167.4919
 20
36.8643
  0
VERTEX
  8
LAYER_6
 10
167.4103
 20
36.8963
  0
VERTEX
  8
LAYER_6
 10
167.3038
 20
36.9066
  0
VERTEX
  8
LAYER_6
 10
167.1168
 20
36.9066
  0
SEQEND
  0
ENDBLK
  0
BLOCK
  8
LAYER_6
  2
AIGNBL06030020
 70
64
 10
0
 20
0
 30
0
  3
AIGNBL06030020
  0
POLYLINE
  8
LAYER_6
 40
0.05
 41
0.05
 66
1
 10
0
 20
0
 30
0
 70
1
  0
VERTEX
  8
LAYER_6
 10
168.1923
 20
35.9637
  0
VERTEX
  8
LAYER_6
 10
168.0876
 20
35.9637
  0
VERTEX
  8
LAYER_6
 10
168.0876
 20
36.9969
  0
VERTEX
  8
LAYER_6
 10
168.1923
 20
36.9969
  0
SEQEND
  0
ENDBLK
  0
BLOCK
  8
LAYER_6
  2
AIGNBL06030021
 70
64
 10
0
 20
0
 30
0
  3
AIGNBL06030021
  0
POLYLINE
  8
LAYER_6
 40
0.05
 41
0.05
 66
1
 10
0
 20
0
 30
0
 70
1
  0
VERTEX
  8
LAYER_6
 10
168.7732
 20
36.0574
  0
VERTEX
  8
LAYER_6
 10
169.3261
 20
36.0574
  0
VERTEX
  8
LAYER_6
 10
169.3261
 20
35.9637
  0
VERTEX
  8
LAYER_6
 10
168.6681
 20
35.9637
  0
VERTEX
  8
LAYER_6
 10
168.6681
 20
36.9969
  0
VERTEX
  8
LAYER_6
 10
169.3089
 20
36.9969
  0
VERTEX
  8
LAYER_6
 10
169.3089
 20
36.9035
  0
VERTEX
  8
LAYER_6
 10
168.7732
 20
36.9035
  0
VERTEX
  8
LAYER_6
 10
168.7732
 20
36.549
  0
VERTEX
  8
LAYER_6
 10
169.2737
 20
36.549
  0
VERTEX
  8
LAYER_6
 10
169.2737
 20
36.4557
  0
VERTEX
  8
LAYER_6
 10
168.7732
 20
36.4557
  0
SEQEND
  0
ENDBLK
  0
BLOCK
  8
LAYER_6
  2
AIGNBL06030022
 70
64
 10
0
 20
0
 30
0
  3
AIGNBL06030022
  0
POLYLINE
  8
LAYER_6
 40
0.05
 41
0.05
 66
1
 10
0
 20
0
 30
0
 70
1
  0
VERTEX
  8
LAYER_6
 10
170.4661
 20
36.117
  0
VERTEX
  8
LAYER_6
 10
170.4689
 20
36.117
  0
VERTEX
  8
LAYER_6
 10
170.4689
 20
36.9969
  0
VERTEX
  8
LAYER_6
 10
170.5739
 20
36.9969
  0
VERTEX
  8
LAYER_6
 10
170.5739
 20
35.9637
  0
VERTEX
  8
LAYER_6
 10
170.4426
 20
35.9637
  0
VERTEX
  8
LAYER_6
 10
169.8415
 20
36.8525
  0
VERTEX
  8
LAYER_6
 10
169.8384
 20
36.8525
  0
VERTEX
  8
LAYER_6
 10
169.8384
 20
35.9637
  0
VERTEX
  8
LAYER_6
 10
169.7333
 20
35.9637
  0
VERTEX
  8
LAYER_6
 10
169.7333
 20
36.9969
  0
VERTEX
  8
LAYER_6
 10
169.8649
 20
36.9969
  0
SEQEND
  0
ENDBLK
  0
BLOCK
  8
LAYER_6
  2
AIGNBL06030023
 70
64
 10
0
 20
0
 30
0
  3
AIGNBL06030023
  0
POLYLINE
  8
LAYER_6
 40
0.05
 41
0.05
 66
1
 10
0
 20
0
 30
0
 70
1
  0
VERTEX
  8
LAYER_6
 10
171.9196
 20
36.1315
  0
VERTEX
  8
LAYER_6
 10
171.8558
 20
36.0571
  0
VERTEX
  8
LAYER_6
 10
171.7697
 20
35.9954
  0
VERTEX
  8
LAYER_6
 10
171.6615
 20
35.953
  0
VERTEX
  8
LAYER_6
 10
171.5327
 20
35.9375
 42
-0.0997799169
  0
VERTEX
  8
LAYER_6
 10
171.3167
 20
35.9785
 42
-0.102530266
  0
VERTEX
  8
LAYER_6
 10
171.1461
 20
36.0915
 42
-0.09968794278
  0
VERTEX
  8
LAYER_6
 10
171.0345
 20
36.2631
 42
-0.09630702324
  0
VERTEX
  8
LAYER_6
 10
170.9942
 20
36.4805
 42
-0.1018981748
  0
VERTEX
  8
LAYER_6
 10
171.0352
 20
36.6978
 42
-0.09989904409
  0
VERTEX
  8
LAYER_6
 10
171.1479
 20
36.8694
 42
-0.09694965588
  0
VERTEX
  8
LAYER_6
 10
171.3187
 20
36.9824
 42
-0.09744116728
  0
VERTEX
  8
LAYER_6
 10
171.5327
 20
37.0234
  0
VERTEX
  8
LAYER_6
 10
171.6443
 20
37.0114
  0
VERTEX
  8
LAYER_6
 10
171.7473
 20
36.9779
  0
VERTEX
  8
LAYER_6
 10
171.8348
 20
36.9263
  0
VERTEX
  8
LAYER_6
 10
171.9006
 20
36.8584
  0
VERTEX
  8
LAYER_6
 10
171.8131
 20
36.794
  0
VERTEX
  8
LAYER_6
 10
171.7697
 20
36.8439
  0
VERTEX
  8
LAYER_6
 10
171.7063
 20
36.8877
  0
VERTEX
  8
LAYER_6
 10
171.6267
 20
36.9183
  0
VERTEX
  8
LAYER_6
 10
171.5341
 20
36.93
 42
0.1106055686
  0
VERTEX
  8
LAYER_6
 10
171.3539
 20
36.8935
 42
0.1037389517
  0
VERTEX
  8
LAYER_6
 10
171.2188
 20
36.7954
 42
0.09534605581
  0
VERTEX
  8
LAYER_6
 10
171.1341
 20
36.652
 42
0.08447361069
  0
VERTEX
  8
LAYER_6
 10
171.1052
 20
36.4805
 42
0.09038739564
  0
VERTEX
  8
LAYER_6
 10
171.1351
 20
36.3089
 42
0.09795352863
  0
VERTEX
  8
LAYER_6
 10
171.2205
 20
36.1656
 42
0.1034747097
  0
VERTEX
  8
LAYER_6
 10
171.3556
 20
36.0674
 42
0.1064777274
  0
VERTEX
  8
LAYER_6
 10
171.5341
 20
36.0309
 42
0.1092499226
  0
VERTEX
  8
LAYER_6
 10
171.7032
 20
36.0674
 42
0.1370031249
  0
VERTEX
  8
LAYER_6
 10
171.8376
 20
36.1842
  0
SEQEND
  0
ENDBLK
  0
BLOCK
  8
LAYER_6
  2
AIGNBL06030024
 70
64
 10
0
 20
0
 30
0
  3
AIGNBL06030024
  0
POLYLINE
  8
LAYER_6
 40
0.05
 41
0.05
 66
1
 10
0
 20
0
 30
0
 70
1
  0
VERTEX
  8
LAYER_6
 10
172.4067
 20
36.0574
  0
VERTEX
  8
LAYER_6
 10
172.96
 20
36.0574
  0
VERTEX
  8
LAYER_6
 10
172.96
 20
35.9637
  0
VERTEX
  8
LAYER_6
 10
172.3016
 20
35.9637
  0
VERTEX
  8
LAYER_6
 10
172.3016
 20
36.9969
  0
VERTEX
  8
LAYER_6
 10
172.9424
 20
36.9969
  0
VERTEX
  8
LAYER_6
 10
172.9424
 20
36.9035
  0
VERTEX
  8
LAYER_6
 10
172.4067
 20
36.9035
  0
VERTEX
  8
LAYER_6
 10
172.4067
 20
36.549
  0
VERTEX
  8
LAYER_6
 10
172.9073
 20
36.549
  0
VERTEX
  8
LAYER_6
 10
172.9073
 20
36.4557
  0
VERTEX
  8
LAYER_6
 10
172.4067
 20
36.4557
  0
SEQEND
  0
ENDBLK
  0
BLOCK
  8
LAYER_6
  2
AIGNBL06020004
 70
64
 10
0
 20
0
 30
0
  3
AIGNBL06020004
  0
INSERT
  8
LAYER_6
  2
AIGNBL06030005
 10
0
 20
0
 30
0
  0
ENDBLK
  0
BLOCK
  8
LAYER_6
  2
AIGNBL0602000D
 70
64
 10
0
 20
0
 30
0
  3
AIGNBL0602000D
  0
INSERT
  8
LAYER_6
  2
AIGNBL0603000E
 10
0
 20
0
 30
0
  0
INSERT
  8
LAYER_6
  2
AIGNBL0603000F
 10
0
 20
0
 30
0
  0
INSERT
  8
LAYER_6
  2
AIGNBL06030010
 10
0
 20
0
 30
0
  0
INSERT
  8
LAYER_6
  2
AIGNBL06030011
 10
0
 20
0
 30
0
  0
INSERT
  8
LAYER_6
  2
AIGNBL06030012
 10
0
 20
0
 30
0
  0
INSERT
  8
LAYER_6
  2
AIGNBL06030013
 10
0
 20
0
 30
0
  0
INSERT
  8
LAYER_6
  2
AIGNBL06030014
 10
0
 20
0
 30
0
  0
INSERT
  8
LAYER_6
  2
AIGNBL06030015
 10
0
 20
0
 30
0
  0
INSERT
  8
LAYER_6
  2
AIGNBL06030016
 10
0
 20
0
 30
0
  0
INSERT
  8
LAYER_6
  2
AIGNBL06030017
 10
0
 20
0
 30
0
  0
INSERT
  8
LAYER_6
  2
AIGNBL06030018
 10
0
 20
0
 30
0
  0
INSERT
  8
LAYER_6
  2
AIGNBL06030019
 10
0
 20
0
 30
0
  0
INSERT
  8
LAYER_6
  2
AIGNBL0603001A
 10
0
 20
0
 30
0
  0
INSERT
  8
LAYER_6
  2
AIGNBL0603001B
 10
0
 20
0
 30
0
  0
INSERT
  8
LAYER_6
  2
AIGNBL0603001C
 10
0
 20
0
 30
0
  0
INSERT
  8
LAYER_6
  2
AIGNBL0603001D
 10
0
 20
0
 30
0
  0
INSERT
  8
LAYER_6
  2
AIGNBL0603001E
 10
0
 20
0
 30
0
  0
INSERT
  8
LAYER_6
  2
AIGNBL0603001F
 10
0
 20
0
 30
0
  0
INSERT
  8
LAYER_6
  2
AIGNBL06030020
 10
0
 20
0
 30
0
  0
INSERT
  8
LAYER_6
  2
AIGNBL06030021
 10
0
 20
0
 30
0
  0
INSERT
  8
LAYER_6
  2
AIGNBL06030022
 10
0
 20
0
 30
0
  0
INSERT
  8
LAYER_6
  2
AIGNBL06030023
 10
0
 20
0
 30
0
  0
INSERT
  8
LAYER_6
  2
AIGNBL06030024
 10
0
 20
0
 30
0
  0
ENDBLK
  0
BLOCK
  8
LAYER_6
  2
AIGNBL06020026
 70
64
 10
0
 20
0
 30
0
  3
AIGNBL06020026
  0
POLYLINE
  8
LAYER_6
 40
0.05
 41
0.05
 66
1
 10
0
 20
0
 30
0
  0
VERTEX
  8
LAYER_6
 10
-7.0151
 20
219.4629
 42
0.1036295037
  0
VERTEX
  8
LAYER_6
 10
-7.1824
 20
220.2981
 42
0.2712377295
  0
VERTEX
  8
LAYER_6
 10
-8.5808
 20
221.2683
 42
0.0303823279
  0
VERTEX
  8
LAYER_6
 10
-8.8902
 20
221.2869
 42
0.07624666781
  0
VERTEX
  8
LAYER_6
 10
-10.0755
 20
221.1157
 42
0.09017583051
  0
VERTEX
  8
LAYER_6
 10
-10.8588
 20
220.699
 42
0.02803056833
  0
VERTEX
  8
LAYER_6
 10
-11.0228
 20
220.5491
  0
VERTEX
  8
LAYER_6
 10
-11.077
 20
220.4928
  0
VERTEX
  8
LAYER_6
 10
-10.5515
 20
219.8736
  0
VERTEX
  8
LAYER_6
 10
-10.486
 20
219.9328
 42
-0.1028805994
  0
VERTEX
  8
LAYER_6
 10
-9.7273
 20
220.3798
 42
-0.08113187333
  0
VERTEX
  8
LAYER_6
 10
-9.0479
 20
220.4863
 42
-0.1265582199
  0
VERTEX
  8
LAYER_6
 10
-8.3271
 20
220.3251
 42
-0.1601174183
  0
VERTEX
  8
LAYER_6
 10
-7.989
 20
219.9367
 42
-0.1111761681
  0
VERTEX
  8
LAYER_6
 10
-7.8786
 20
219.3074
  0
VERTEX
  8
LAYER_6
 10
-7.8786
 20
219.2664
  0
VERTEX
  8
LAYER_6
 10
-8.1378
 20
219.2664
 42
0.06077576534
  0
VERTEX
  8
LAYER_6
 10
-9.7982
 20
219.1093
 42
0.08580258361
  0
VERTEX
  8
LAYER_6
 10
-10.637
 20
218.7454
 42
0.1116389774
  0
VERTEX
  8
LAYER_6
 10
-11.084
 20
218.2559
 42
0.1204112073
  0
VERTEX
  8
LAYER_6
 10
-11.2651
 20
217.5692
 42
0.01082752958
  0
VERTEX
  8
LAYER_6
 10
-11.2668
 20
217.4871
 42
0.1262361208
  0
VERTEX
  8
LAYER_6
 10
-11.0913
 20
216.7743
 42
0.1210090978
  0
VERTEX
  8
LAYER_6
 10
-10.6379
 20
216.2914
 42
0.1012970948
  0
VERTEX
  8
LAYER_6
 10
-9.9371
 20
216.0111
 42
0.04827473988
  0
VERTEX
  8
LAYER_6
 10
-9.4954
 20
215.9685
 42
0.09684375777
  0
VERTEX
  8
LAYER_6
 10
-8.5823
 20
216.1314
 42
0.1382606358
  0
VERTEX
  8
LAYER_6
 10
-7.831
 20
216.7347
 42
-0.01012269081
  0
VERTEX
  8
LAYER_6
 10
-7.831
 20
216.0938
  0
VERTEX
  8
LAYER_6
 10
-7.0151
 20
216.0938
  0
SEQEND
  0
POLYLINE
  8
LAYER_6
 40
0.05
 41
0.05
 66
1
 10
0
 20
0
 30
0
 70
1
  0
VERTEX
  8
LAYER_6
 10
-7.8786
 20
218.2604
 42
-0.1095386536
  0
VERTEX
  8
LAYER_6
 10
-8.0512
 20
217.4437
 42
-0.1199361921
  0
VERTEX
  8
LAYER_6
 10
-8.4534
 20
216.9519
 42
-0.1209196473
  0
VERTEX
  8
LAYER_6
 10
-9.0539
 20
216.7055
 42
-0.04108384777
  0
VERTEX
  8
LAYER_6
 10
-9.3645
 20
216.6807
 42
-0.1210384521
  0
VERTEX
  8
LAYER_6
 10
-10.0836
 20
216.8493
 42
-0.1552969123
  0
VERTEX
  8
LAYER_6
 10
-10.4405
 20
217.2222
 42
-0.1101808209
  0
VERTEX
  8
LAYER_6
 10
-10.5141
 20
217.581
 42
-0.2541083385
  0
VERTEX
  8
LAYER_6
 10
-10.1607
 20
218.2336
 42
-0.05632516065
  0
VERTEX
  8
LAYER_6
 10
-9.8761
 20
218.386
 42
-0.04424231247
  0
VERTEX
  8
LAYER_6
 10
-9.4522
 20
218.5131
 42
-0.03214641787
  0
VERTEX
  8
LAYER_6
 10
-8.8857
 20
218.5932
 42
-0.02048965766
  0
VERTEX
  8
LAYER_6
 10
-8.2341
 20
218.6168
  0
VERTEX
  8
LAYER_6
 10
-7.8786
 20
218.6168
  0
SEQEND
  0
ENDBLK
  0
BLOCK
  8
LAYER_6
  2
AIGNBL06020027
 70
64
 10
0
 20
0
 30
0
  3
AIGNBL06020027
  0
POLYLINE
  8
LAYER_6
 40
0.05
 41
0.05
 66
1
 10
0
 20
0
 30
0
  0
VERTEX
  8
LAYER_6
 10
-2.3816
 20
222.5694
 42
-0.3911816587
  0
VERTEX
  8
LAYER_6
 10
-1.7162
 20
221.9134
 42
-0.3962775652
  0
VERTEX
  8
LAYER_6
 10
-2.3816
 20
221.249
 42
-0.3917541856
  0
VERTEX
  8
LAYER_6
 10
-3.0465
 20
221.9058
 42
-0.3962384604
  0
VERTEX
  8
LAYER_6
 10
-2.3816
 20
222.5694
  0
SEQEND
  0
POLYLINE
  8
LAYER_6
 40
0.05
 41
0.05
 66
1
 10
0
 20
0
 30
0
  0
VERTEX
  8
LAYER_6
 10
-2.3816
 20
221.3453
 42
0.4000887886
  0
VERTEX
  8
LAYER_6
 10
-1.8235
 20
221.9134
 42
0.3965824436
  0
VERTEX
  8
LAYER_6
 10
-2.3816
 20
222.4732
 42
0.3991350597
  0
VERTEX
  8
LAYER_6
 10
-2.9423
 20
221.9058
 42
0.3960577263
  0
VERTEX
  8
LAYER_6
 10
-2.3816
 20
221.3453
  0
SEQEND
  0
POLYLINE
  8
LAYER_6
 40
0.05
 41
0.05
 66
1
 10
0
 20
0
 30
0
 70
1
  0
VERTEX
  8
LAYER_6
 10
-2.6271
 20
222.2877
  0
VERTEX
  8
LAYER_6
 10
-2.3465
 20
222.2877
 42
-0.1689544217
  0
VERTEX
  8
LAYER_6
 10
-2.1506
 20
222.2398
 42
-0.2573750898
  0
VERTEX
  8
LAYER_6
 10
-2.0783
 20
222.067
 42
-0.4159594774
  0
VERTEX
  8
LAYER_6
 10
-2.2813
 20
221.8598
  0
VERTEX
  8
LAYER_6
 10
-2.06
 20
221.5215
  0
VERTEX
  8
LAYER_6
 10
-2.1757
 20
221.5215
  0
VERTEX
  8
LAYER_6
 10
-2.3844
 20
221.8504
  0
VERTEX
  8
LAYER_6
 10
-2.5215
 20
221.8504
  0
VERTEX
  8
LAYER_6
 10
-2.5215
 20
221.5215
  0
VERTEX
  8
LAYER_6
 10
-2.6271
 20
221.5215
  0
SEQEND
  0
POLYLINE
  8
LAYER_6
 40
0.05
 41
0.05
 66
1
 10
0
 20
0
 30
0
 70
1
  0
VERTEX
  8
LAYER_6
 10
-2.5215
 20
221.9473
  0
VERTEX
  8
LAYER_6
 10
-2.3906
 20
221.9473
 42
0.2474961449
  0
VERTEX
  8
LAYER_6
 10
-2.2112
 20
221.9902
 42
0.1843421729
  0
VERTEX
  8
LAYER_6
 10
-2.1847
 20
222.0724
 42
0.2728673912
  0
VERTEX
  8
LAYER_6
 10
-2.23
 20
222.1656
 42
0.14179533
  0
VERTEX
  8
LAYER_6
 10
-2.3563
 20
222.1913
  0
VERTEX
  8
LAYER_6
 10
-2.5215
 20
222.1913
  0
SEQEND
  0
ENDBLK
  0
BLOCK
  8
LAYER_6
  2
AIGNBL06020028
 70
64
 10
0
 20
0
 30
0
  3
AIGNBL06020028
  0
POLYLINE
  8
LAYER_6
 40
0.05
 41
0.05
 66
1
 10
0
 20
0
 30
0
  0
VERTEX
  8
LAYER_6
 10
-23.704
 20
214.1029
  0
VERTEX
  8
LAYER_6
 10
-23.4337
 20
214.1029
  0
VERTEX
  8
LAYER_6
 10
-22.6792
 20
212.3512
  0
VERTEX
  8
LAYER_6
 10
-23.0351
 20
212.3512
  0
VERTEX
  8
LAYER_6
 10
-23.1989
 20
212.7513
  0
VERTEX
  8
LAYER_6
 10
-23.9579
 20
212.7513
  0
VERTEX
  8
LAYER_6
 10
-24.116
 20
212.3512
  0
VERTEX
  8
LAYER_6
 10
-24.4648
 20
212.3512
  0
SEQEND
  0
POLYLINE
  8
LAYER_6
 40
0.05
 41
0.05
 66
1
 10
0
 20
0
 30
0
 70
1
  0
VERTEX
  8
LAYER_6
 10
-23.3081
 20
213.0189
  0
VERTEX
  8
LAYER_6
 10
-23.5767
 20
213.7308
  0
VERTEX
  8
LAYER_6
 10
-23.8523
 20
213.0189
  0
SEQEND
  0
ENDBLK
  0
BLOCK
  8
LAYER_6
  2
AIGNBL06020029
 70
64
 10
0
 20
0
 30
0
  3
AIGNBL06020029
  0
POLYLINE
  8
LAYER_6
 40
0.05
 41
0.05
 66
1
 10
0
 20
0
 30
0
  0
VERTEX
  8
LAYER_6
 10
-18.1673
 20
212.3512
  0
VERTEX
  8
LAYER_6
 10
-19.1856
 20
212.3512
 42
-0.1498985077
  0
VERTEX
  8
LAYER_6
 10
-19.7815
 20
212.5257
 42
-0.2523688634
  0
VERTEX
  8
LAYER_6
 10
-20.1395
 20
213.2635
 42
-0.4051360019
  0
VERTEX
  8
LAYER_6
 10
-19.2198
 20
214.1463
 42
-0.224501409
  0
VERTEX
  8
LAYER_6
 10
-18.4791
 20
213.7949
 42
-0.1669496671
  0
VERTEX
  8
LAYER_6
 10
-18.3009
 20
213.2635
 42
-0.175299756
  0
VERTEX
  8
LAYER_6
 10
-18.4675
 20
212.7739
 42
-0.08694350938
  0
VERTEX
  8
LAYER_6
 10
-18.6688
 20
212.6077
  0
VERTEX
  8
LAYER_6
 10
-18.6688
 20
212.603
  0
VERTEX
  8
LAYER_6
 10
-18.1673
 20
212.603
  0
SEQEND
  0
POLYLINE
  8
LAYER_6
 40
0.05
 41
0.05
 66
1
 10
0
 20
0
 30
0
  0
VERTEX
  8
LAYER_6
 10
-19.8145
 20
213.2559
 42
0.1875932054
  0
VERTEX
  8
LAYER_6
 10
-19.6465
 20
212.8098
 42
0.2073404857
  0
VERTEX
  8
LAYER_6
 10
-19.2224
 20
212.633
 42
0.4105620229
  0
VERTEX
  8
LAYER_6
 10
-18.6274
 20
213.2559
 42
0.1910634766
  0
VERTEX
  8
LAYER_6
 10
-18.7946
 20
213.6914
 42
0.2063538266
  0
VERTEX
  8
LAYER_6
 10
-19.2274
 20
213.8648
 42
0.4079661945
  0
VERTEX
  8
LAYER_6
 10
-19.8145
 20
213.2559
  0
SEQEND
  0
ENDBLK
  0
BLOCK
  8
LAYER_6
  2
AIGNBL0602002A
 70
64
 10
0
 20
0
 30
0
  3
AIGNBL0602002A
  0
POLYLINE
  8
LAYER_6
 40
0.05
 41
0.05
 66
1
 10
0
 20
0
 30
0
  0
VERTEX
  8
LAYER_6
 10
-14.8442
 20
214.1029
  0
VERTEX
  8
LAYER_6
 10
-14.5738
 20
214.1029
  0
VERTEX
  8
LAYER_6
 10
-13.8207
 20
212.3512
  0
VERTEX
  8
LAYER_6
 10
-14.1752
 20
212.3512
  0
VERTEX
  8
LAYER_6
 10
-14.3392
 20
212.7513
  0
VERTEX
  8
LAYER_6
 10
-15.0981
 20
212.7513
  0
VERTEX
  8
LAYER_6
 10
-15.2575
 20
212.3512
  0
VERTEX
  8
LAYER_6
 10
-15.6063
 20
212.3512
  0
SEQEND
  0
POLYLINE
  8
LAYER_6
 40
0.05
 41
0.05
 66
1
 10
0
 20
0
 30
0
 70
1
  0
VERTEX
  8
LAYER_6
 10
-14.4479
 20
213.0189
  0
VERTEX
  8
LAYER_6
 10
-14.7168
 20
213.7308
  0
VERTEX
  8
LAYER_6
 10
-14.9917
 20
213.0189
  0
SEQEND
  0
ENDBLK
  0
BLOCK
  8
LAYER_6
  2
AIGNBL0602002B
 70
64
 10
0
 20
0
 30
0
  3
AIGNBL0602002B
  0
POLYLINE
  8
LAYER_6
 40
0.05
 41
0.05
 66
1
 10
0
 20
0
 30
0
  0
VERTEX
  8
LAYER_6
 10
-10.3596
 20
214.1029
  0
VERTEX
  8
LAYER_6
 10
-9.7694
 20
214.1029
 42
-0.08664900819
  0
VERTEX
  8
LAYER_6
 10
-9.4428
 20
214.0546
 42
-0.2128687583
  0
VERTEX
  8
LAYER_6
 10
-9.1601
 20
213.8001
 42
-0.09485863917
  0
VERTEX
  8
LAYER_6
 10
-9.1245
 20
213.5956
 42
-0.2245415231
  0
VERTEX
  8
LAYER_6
 10
-9.2838
 20
213.2053
 42
-0.09365248342
  0
VERTEX
  8
LAYER_6
 10
-9.4539
 20
213.1196
 42
-0.07750467464
  0
VERTEX
  8
LAYER_6
 10
-9.8242
 20
213.076
  0
VERTEX
  8
LAYER_6
 10
-10.0473
 20
213.076
  0
VERTEX
  8
LAYER_6
 10
-10.0473
 20
212.3512
  0
VERTEX
  8
LAYER_6
 10
-10.3596
 20
212.3512
  0
SEQEND
  0
POLYLINE
  8
LAYER_6
 40
0.05
 41
0.05
 66
1
 10
0
 20
0
 30
0
 70
1
  0
VERTEX
  8
LAYER_6
 10
-9.8588
 20
213.3431
 42
0.1309894322
  0
VERTEX
  8
LAYER_6
 10
-9.5664
 20
213.3874
 42
0.3030880954
  0
VERTEX
  8
LAYER_6
 10
-9.4514
 20
213.5902
 42
0.3460368744
  0
VERTEX
  8
LAYER_6
 10
-9.6132
 20
213.8091
 42
0.07918236105
  0
VERTEX
  8
LAYER_6
 10
-9.8242
 20
213.8357
  0
VERTEX
  8
LAYER_6
 10
-10.0473
 20
213.8357
  0
VERTEX
  8
LAYER_6
 10
-10.0473
 20
213.3431
  0
SEQEND
  0
ENDBLK
  0
BLOCK
  8
LAYER_6
  2
AIGNBL0602002C
 70
64
 10
0
 20
0
 30
0
  3
AIGNBL0602002C
  0
POLYLINE
  8
LAYER_6
 40
0.05
 41
0.05
 66
1
 10
0
 20
0
 30
0
  0
VERTEX
  8
LAYER_6
 10
-8.092
 20
214.1029
  0
VERTEX
  8
LAYER_6
 10
-7.823
 20
214.1029
  0
VERTEX
  8
LAYER_6
 10
-7.0685
 20
212.3512
  0
VERTEX
  8
LAYER_6
 10
-7.4235
 20
212.3512
  0
VERTEX
  8
LAYER_6
 10
-7.5873
 20
212.7513
  0
VERTEX
  8
LAYER_6
 10
-8.3463
 20
212.7513
  0
VERTEX
  8
LAYER_6
 10
-8.5054
 20
212.3512
  0
VERTEX
  8
LAYER_6
 10
-8.8537
 20
212.3512
  0
SEQEND
  0
POLYLINE
  8
LAYER_6
 40
0.05
 41
0.05
 66
1
 10
0
 20
0
 30
0
 70
1
  0
VERTEX
  8
LAYER_6
 10
-7.6957
 20
213.0189
  0
VERTEX
  8
LAYER_6
 10
-7.9656
 20
213.7308
  0
VERTEX
  8
LAYER_6
 10
-8.2403
 20
213.0189
  0
SEQEND
  0
ENDBLK
  0
BLOCK
  8
LAYER_1
  2
AIGNBL01010002
 70
64
 10
0
 20
0
 30
0
  3
AIGNBL01010002
  0
TEXT
  8
LAYER_1
 10
91.1404
 20
121.0963
 11
91.1404
 21
121.0963
 40
4.7388
 41
0.5
  1
8
  0
TEXT
  8
LAYER_1
 10
32.097
 20
121.0963
 11
32.097
 21
121.0963
 40
4.7388
 41
0.5
  1
8
  0
ENDBLK
  0
BLOCK
  8
LAYER_6
  2
AIGNBL06010002
 70
64
 10
0
 20
0
 30
0
  3
AIGNBL06010002
  0
POLYLINE
  8
LAYER_6
 40
0.7056
 41
0.7056
 66
1
 10
0
 20
0
 30
0
 70
1
  0
VERTEX
  8
LAYER_6
 10
251.6749
 20
230.337
  0
VERTEX
  8
LAYER_6
 10
251.6749
 20
33.3285
  0
VERTEX
  8
LAYER_6
 10
-30.3177
 20
33.3285
  0
VERTEX
  8
LAYER_6
 10
-30.3177
 20
230.337
  0
SEQEND
  0
ENDBLK
  0
BLOCK
  8
LAYER_6
  2
AIGNBL06010003
 70
64
 10
0
 20
0
 30
0
  3
AIGNBL06010003
  0
INSERT
  8
LAYER_6
  2
AIGNBL06020004
 10
0
 20
0
 30
0
  0
INSERT
  8
LAYER_6
  2
AIGNBL0602000D
 10
0
 20
0
 30
0
  0
ENDBLK
  0
BLOCK
  8
LAYER_6
  2
AIGNBL06010025
 70
64
 10
0
 20
0
 30
0
  3
AIGNBL06010025
  0
POLYLINE
  8
LAYER_6
 40
0.05
 41
0.05
 66
1
 10
0
 20
0
 30
0
  0
VERTEX
  8
LAYER_6
 10
-24.7289
 20
219.7266
 42
0.1341998603
  0
VERTEX
  8
LAYER_6
 10
-24.5592
 20
219.0834
 42
0.1261801142
  0
VERTEX
  8
LAYER_6
 10
-24.0913
 20
218.6274
 42
0.07945580654
  0
VERTEX
  8
LAYER_6
 10
-23.4074
 20
218.3548
  0
VERTEX
  8
LAYER_6
 10
-22.7374
 20
218.1977
 42
-0.06331165485
  0
VERTEX
  8
LAYER_6
 10
-22.2151
 20
218.0208
 42
-0.1808600581
  0
VERTEX
  8
LAYER_6
 10
-21.906
 20
217.7022
 42
-0.08676304228
  0
VERTEX
  8
LAYER_6
 10
-21.8731
 20
217.4973
 42
-0.2941221031
  0
VERTEX
  8
LAYER_6
 10
-22.2545
 20
216.9168
 42
-0.1199318645
  0
VERTEX
  8
LAYER_6
 10
-22.9007
 20
216.7681
 42
-0.005101656443
  0
VERTEX
  8
LAYER_6
 10
-22.938
 20
216.7677
 42
-0.1318116097
  0
VERTEX
  8
LAYER_6
 10
-23.6289
 20
216.9475
 42
-0.1172183099
  0
VERTEX
  8
LAYER_6
 10
-24.1316
 20
217.4313
 42
-0.004867741498
  0
VERTEX
  8
LAYER_6
 10
-24.1512
 20
217.4611
  0
VERTEX
  8
LAYER_6
 10
-24.2002
 20
217.5355
  0
VERTEX
  8
LAYER_6
 10
-24.9396
 20
217.0282
  0
VERTEX
  8
LAYER_6
 10
-24.8924
 20
216.9575
 42
0.1006692345
  0
VERTEX
  8
LAYER_6
 10
-24.2656
 20
216.3278
 42
0.09822650202
  0
VERTEX
  8
LAYER_6
 10
-23.491
 20
216.02
 42
0.04873469498
  0
VERTEX
  8
LAYER_6
 10
-22.938
 20
215.9689
 42
0.09078870715
  0
VERTEX
  8
LAYER_6
 10
-21.9452
 20
216.1461
 42
0.1030174332
  0
VERTEX
  8
LAYER_6
 10
-21.3352
 20
216.5404
 42
0.1803448142
  0
VERTEX
  8
LAYER_6
 10
-20.9524
 20
217.4258
 42
0.01943778951
  0
VERTEX
  8
LAYER_6
 10
-20.9476
 20
217.56
 42
0.2531765608
  0
VERTEX
  8
LAYER_6
 10
-21.5885
 20
218.7222
 42
0.09194545039
  0
VERTEX
  8
LAYER_6
 10
-22.2057
 20
218.9827
  0
VERTEX
  8
LAYER_6
 10
-22.9068
 20
219.1511
 42
-0.0578189963
  0
VERTEX
  8
LAYER_6
 10
-23.4528
 20
219.3232
 42
-0.1855772451
  0
VERTEX
  8
LAYER_6
 10
-23.7676
 20
219.6264
 42
-0.08926070578
  0
VERTEX
  8
LAYER_6
 10
-23.8011
 20
219.8403
 42
-0.313498231
  0
VERTEX
  8
LAYER_6
 10
-23.4222
 20
220.3762
 42
-0.106300738
  0
VERTEX
  8
LAYER_6
 10
-22.8751
 20
220.4863
 42
-0.1482953379
  0
VERTEX
  8
LAYER_6
 10
-22.2709
 20
220.3127
 42
-0.1294644155
  0
VERTEX
  8
LAYER_6
 10
-21.8948
 20
219.8732
  0
VERTEX
  8
LAYER_6
 10
-21.8504
 20
219.7888
  0
VERTEX
  8
LAYER_6
 10
-21.0886
 20
220.2925
  0
VERTEX
  8
LAYER_6
 10
-21.1229
 20
220.3597
 42
0.2370693896
  0
VERTEX
  8
LAYER_6
 10
-22.2986
 20
221.2338
 42
0.05316238654
  0
VERTEX
  8
LAYER_6
 10
-22.8329
 20
221.2874
 42
0.09532594653
  0
VERTEX
  8
LAYER_6
 10
-23.7699
 20
221.1115
 42
0.1053422287
  0
VERTEX
  8
LAYER_6
 10
-24.364
 20
220.7089
 42
0.1944052329
  0
VERTEX
  8
LAYER_6
 10
-24.7289
 20
219.7266
  0
SEQEND
  0
POLYLINE
  8
LAYER_6
 40
0.05
 41
0.05
 66
1
 10
0
 20
0
 30
0
  0
VERTEX
  8
LAYER_6
 10
-20.6499
 20
222.9567
 42
0.3936231745
  0
VERTEX
  8
LAYER_6
 10
-20.0589
 20
222.3685
 42
0.386081733
  0
VERTEX
  8
LAYER_6
 10
-19.4719
 20
222.9567
 42
0.3921277689
  0
VERTEX
  8
LAYER_6
 10
-20.0589
 20
223.5464
 42
0.3856970876
  0
VERTEX
  8
LAYER_6
 10
-20.6499
 20
222.9567
  0
SEQEND
  0
POLYLINE
  8
LAYER_6
 40
0.05
 41
0.05
 66
1
 10
0
 20
0
 30
0
  0
VERTEX
  8
LAYER_6
 10
-19.7159
 20
221.162
  0
VERTEX
  8
LAYER_6
 10
-20.4918
 20
221.162
  0
VERTEX
  8
LAYER_6
 10
-20.4918
 20
216.0938
  0
VERTEX
  8
LAYER_6
 10
-19.6286
 20
216.0938
  0
VERTEX
  8
LAYER_6
 10
-19.6286
 20
221.162
  0
SEQEND
  0
POLYLINE
  8
LAYER_6
 40
0.05
 41
0.05
 66
1
 10
0
 20
0
 30
0
  0
VERTEX
  8
LAYER_6
 10
-15.1212
 20
220.3724
 42
0.1207793697
  0
VERTEX
  8
LAYER_6
 10
-15.6145
 20
220.9712
 42
0.1123792155
  0
VERTEX
  8
LAYER_6
 10
-16.2716
 20
221.2487
 42
0.04782249271
  0
VERTEX
  8
LAYER_6
 10
-16.6841
 20
221.2869
 42
0.1072902452
  0
VERTEX
  8
LAYER_6
 10
-17.5023
 20
221.1052
 42
0.09984805864
  0
VERTEX
  8
LAYER_6
 10
-18.1382
 20
220.6458
 42
0.01292207714
  0
VERTEX
  8
LAYER_6
 10
-18.198
 20
220.5762
  0
VERTEX
  8
LAYER_6
 10
-18.198
 20
221.1615
  0
VERTEX
  8
LAYER_6
 10
-19.0617
 20
221.1615
  0
VERTEX
  8
LAYER_6
 10
-19.0617
 20
216.0936
  0
VERTEX
  8
LAYER_6
 10
-18.198
 20
216.0936
  0
VERTEX
  8
LAYER_6
 10
-18.198
 20
218.6907
 42
-0.09654084086
  0
VERTEX
  8
LAYER_6
 10
-18.0246
 20
219.6722
 42
-0.1188565985
  0
VERTEX
  8
LAYER_6
 10
-17.6298
 20
220.2091
 42
-0.15802177
  0
VERTEX
  8
LAYER_6
 10
-16.9046
 20
220.4863
 42
-0.1299839892
  0
VERTEX
  8
LAYER_6
 10
-16.2243
 20
220.3327
 42
-0.1576712877
  0
VERTEX
  8
LAYER_6
 10
-15.902
 20
219.953
 42
-0.05721861023
  0
VERTEX
  8
LAYER_6
 10
-15.8045
 20
219.631
 42
-0.04865875875
  0
VERTEX
  8
LAYER_6
 10
-15.7563
 20
219.0344
  0
VERTEX
  8
LAYER_6
 10
-15.7563
 20
216.0936
  0
VERTEX
  8
LAYER_6
 10
-14.8928
 20
216.0936
  0
VERTEX
  8
LAYER_6
 10
-14.8928
 20
218.7842
 42
-0.09089878682
  0
VERTEX
  8
LAYER_6
 10
-14.73
 20
219.7237
 42
-0.1191956233
  0
VERTEX
  8
LAYER_6
 10
-14.373
 20
220.2329
 42
-0.1344089617
  0
VERTEX
  8
LAYER_6
 10
-13.8547
 20
220.4654
 42
-0.0420961071
  0
VERTEX
  8
LAYER_6
 10
-13.5999
 20
220.4863
 42
-0.1298626135
  0
VERTEX
  8
LAYER_6
 10
-12.9187
 20
220.3327
 42
-0.1577606685
  0
VERTEX
  8
LAYER_6
 10
-12.5963
 20
219.953
 42
-0.05724335824
  0
VERTEX
  8
LAYER_6
 10
-12.4988
 20
219.631
 42
-0.04863743227
  0
VERTEX
  8
LAYER_6
 10
-12.4506
 20
219.0344
  0
VERTEX
  8
LAYER_6
 10
-12.4506
 20
216.0936
  0
VERTEX
  8
LAYER_6
 10
-11.5888
 20
216.0936
  0
VERTEX
  8
LAYER_6
 10
-11.5888
 20
219.2863
 42
0.09153279999
  0
VERTEX
  8
LAYER_6
 10
-11.7541
 20
220.2648
 42
0.1137257525
  0
VERTEX
  8
LAYER_6
 10
-12.1584
 20
220.8532
 42
0.1162530232
  0
VERTEX
  8
LAYER_6
 10
-12.7979
 20
221.1952
 42
0.0722532527
  0
VERTEX
  8
LAYER_6
 10
-13.5156
 20
221.2869
 42
0.2580675194
  0
VERTEX
  8
LAYER_6
 10
-15.1212
 20
220.3724
  0
SEQEND
  0
POLYLINE
  8
LAYER_6
 40
0.05
 41
0.05
 66
1
 10
0
 20
0
 30
0
  0
VERTEX
  8
LAYER_6
 10
-6.5398
 20
219.7266
 42
0.134478161
  0
VERTEX
  8
LAYER_6
 10
-6.3695
 20
219.0834
 42
0.1258963062
  0
VERTEX
  8
LAYER_6
 10
-5.9013
 20
218.6274
 42
0.07937172531
  0
VERTEX
  8
LAYER_6
 10
-5.2179
 20
218.3548
  0
VERTEX
  8
LAYER_6
 10
-4.5484
 20
218.1975
 42
-0.0631755932
  0
VERTEX
  8
LAYER_6
 10
-4.0263
 20
218.0207
 42
-0.1806469744
  0
VERTEX
  8
LAYER_6
 10
-3.7165
 20
217.702
 42
-0.08701309377
  0
VERTEX
  8
LAYER_6
 10
-3.6835
 20
217.4971
 42
-0.2942528815
  0
VERTEX
  8
LAYER_6
 10
-4.0651
 20
216.9167
 42
-0.1198372064
  0
VERTEX
  8
LAYER_6
 10
-4.7111
 20
216.7681
 42
-0.005099843066
  0
VERTEX
  8
LAYER_6
 10
-4.7484
 20
216.7677
 42
-0.1318208153
  0
VERTEX
  8
LAYER_6
 10
-5.4397
 20
216.9475
 42
-0.1159302133
  0
VERTEX
  8
LAYER_6
 10
-5.937
 20
217.4238
 42
-0.006094096148
  0
VERTEX
  8
LAYER_6
 10
-5.9617
 20
217.4611
  0
VERTEX
  8
LAYER_6
 10
-6.0112
 20
217.5355
  0
VERTEX
  8
LAYER_6
 10
-6.75
 20
217.0282
  0
VERTEX
  8
LAYER_6
 10
-6.7036
 20
216.9575
 42
0.1006943621
  0
VERTEX
  8
LAYER_6
 10
-6.0762
 20
216.3276
 42
0.09809760808
  0
VERTEX
  8
LAYER_6
 10
-5.3011
 20
216.0196
 42
0.04877336623
  0
VERTEX
  8
LAYER_6
 10
-4.7484
 20
215.9685
 42
0.09080061549
  0
VERTEX
  8
LAYER_6
 10
-3.7557
 20
216.1458
 42
0.1029663831
  0
VERTEX
  8
LAYER_6
 10
-3.1454
 20
216.5402
 42
0.180354229
  0
VERTEX
  8
LAYER_6
 10
-2.7623
 20
217.4258
 42
0.01945068344
  0
VERTEX
  8
LAYER_6
 10
-2.7575
 20
217.56
 42
0.2535980107
  0
VERTEX
  8
LAYER_6
 10
-3.3999
 20
218.7221
 42
0.09173199894
  0
VERTEX
  8
LAYER_6
 10
-4.018
 20
218.9827
  0
VERTEX
  8
LAYER_6
 10
-4.7177
 20
219.1511
 42
-0.05991192419
  0
VERTEX
  8
LAYER_6
 10
-5.2728
 20
219.3275
 42
-0.1874515711
  0
VERTEX
  8
LAYER_6
 10
-5.5828
 20
219.6332
 42
-0.08582021468
  0
VERTEX
  8
LAYER_6
 10
-5.6143
 20
219.8403
 42
-0.314077401
  0
VERTEX
  8
LAYER_6
 10
-5.2343
 20
220.3762
 42
-0.1060544966
  0
VERTEX
  8
LAYER_6
 10
-4.6848
 20
220.4863
 42
-0.1486063154
  0
VERTEX
  8
LAYER_6
 10
-4.0809
 20
220.3127
 42
-0.1292830572
  0
VERTEX
  8
LAYER_6
 10
-3.7057
 20
219.8732
  0
VERTEX
  8
LAYER_6
 10
-3.6608
 20
219.7888
  0
VERTEX
  8
LAYER_6
 10
-2.8992
 20
220.2925
  0
VERTEX
  8
LAYER_6
 10
-2.933
 20
220.3595
 42
0.237196535
  0
VERTEX
  8
LAYER_6
 10
-4.1097
 20
221.2337
 42
0.05314185225
  0
VERTEX
  8
LAYER_6
 10
-4.6438
 20
221.2873
 42
0.09533727001
  0
VERTEX
  8
LAYER_6
 10
-5.5811
 20
221.1115
 42
0.1053851178
  0
VERTEX
  8
LAYER_6
 10
-6.1751
 20
220.7089
 42
0.1943913526
  0
VERTEX
  8
LAYER_6
 10
-6.5398
 20
219.7266
  0
SEQEND
  0
INSERT
  8
LAYER_6
  2
AIGNBL06020026
 10
0
 20
0
 30
0
  0
INSERT
  8
LAYER_6
  2
AIGNBL06020027
 10
0
 20
0
 30
0
  0
INSERT
  8
LAYER_6
  2
AIGNBL06020028
 10
0
 20
0
 30
0
  0
POLYLINE
  8
LAYER_6
 40
0.05
 41
0.05
 66
1
 10
0
 20
0
 30
0
  0
VERTEX
  8
LAYER_6
 10
-20.9091
 20
213.692
 42
0.2126578199
  0
VERTEX
  8
LAYER_6
 10
-21.2785
 20
213.8653
 42
0.4107545191
  0
VERTEX
  8
LAYER_6
 10
-21.8793
 20
213.2387
 42
0.1832232544
  0
VERTEX
  8
LAYER_6
 10
-21.7095
 20
212.7686
 42
0.2124026091
  0
VERTEX
  8
LAYER_6
 10
-21.2785
 20
212.5886
 42
0.2429399681
  0
VERTEX
  8
LAYER_6
 10
-20.8847
 20
212.8017
  0
VERTEX
  8
LAYER_6
 10
-20.6282
 20
212.6175
 42
-0.2483368577
  0
VERTEX
  8
LAYER_6
 10
-21.2802
 20
212.3057
 42
-0.1519221822
  0
VERTEX
  8
LAYER_6
 10
-21.8463
 20
212.4749
 42
-0.2337791857
  0
VERTEX
  8
LAYER_6
 10
-22.2039
 20
213.1558
 42
-0.01462202831
  0
VERTEX
  8
LAYER_6
 10
-22.2057
 20
213.219
 42
-0.1526640936
  0
VERTEX
  8
LAYER_6
 10
-22.0367
 20
213.7867
 42
-0.2349220238
  0
VERTEX
  8
LAYER_6
 10
-21.3427
 20
214.1454
 42
-0.01403410383
  0
VERTEX
  8
LAYER_6
 10
-21.2802
 20
214.1471
 42
-0.1771442668
  0
VERTEX
  8
LAYER_6
 10
-20.7724
 20
213.9741
 42
-0.0394909762
  0
VERTEX
  8
LAYER_6
 10
-20.6673
 20
213.8707
  0
SEQEND
  0
INSERT
  8
LAYER_6
  2
AIGNBL06020029
 10
0
 20
0
 30
0
  0
POLYLINE
  8
LAYER_6
 40
0.05
 41
0.05
 66
1
 10
0
 20
0
 30
0
  0
VERTEX
  8
LAYER_6
 10
-16.1647
 20
212.9941
 42
-0.182226301
  0
VERTEX
  8
LAYER_6
 10
-16.3329
 20
212.5261
 42
-0.1768067702
  0
VERTEX
  8
LAYER_6
 10
-16.7424
 20
212.3151
 42
-0.03937171115
  0
VERTEX
  8
LAYER_6
 10
-16.8703
 20
212.3057
 42
-0.1767902592
  0
VERTEX
  8
LAYER_6
 10
-17.3545
 20
212.4748
 42
-0.2234110022
  0
VERTEX
  8
LAYER_6
 10
-17.5745
 20
212.9941
  0
VERTEX
  8
LAYER_6
 10
-17.5745
 20
214.1029
  0
VERTEX
  8
LAYER_6
 10
-17.2613
 20
214.1029
  0
VERTEX
  8
LAYER_6
 10
-17.2613
 20
213.0037
 42
0.2349518793
  0
VERTEX
  8
LAYER_6
 10
-17.1016
 20
212.6665
 42
0.1547549989
  0
VERTEX
  8
LAYER_6
 10
-16.8703
 20
212.6029
 42
0.2547042701
  0
VERTEX
  8
LAYER_6
 10
-16.5428
 20
212.765
 42
0.1423144498
  0
VERTEX
  8
LAYER_6
 10
-16.477
 20
213.0037
  0
VERTEX
  8
LAYER_6
 10
-16.477
 20
214.1029
  0
VERTEX
  8
LAYER_6
 10
-16.1647
 20
214.1029
  0
SEQEND
  0
INSERT
  8
LAYER_6
  2
AIGNBL0602002A
 10
0
 20
0
 30
0
  0
POLYLINE
  8
LAYER_6
 40
0.05
 41
0.05
 66
1
 10
0
 20
0
 30
0
  0
VERTEX
  8
LAYER_6
 10
-11.0637
 20
213.9659
 42
0.1865846686
  0
VERTEX
  8
LAYER_6
 10
-11.5272
 20
214.146
 42
0.01070457993
  0
VERTEX
  8
LAYER_6
 10
-11.566
 20
214.1468
 42
0.1725298242
  0
VERTEX
  8
LAYER_6
 10
-12.0539
 20
213.9827
 42
0.2187144791
  0
VERTEX
  8
LAYER_6
 10
-12.212
 20
213.6169
 42
0.3561528276
  0
VERTEX
  8
LAYER_6
 10
-11.8351
 20
213.1453
 42
-0.4171847534
  0
VERTEX
  8
LAYER_6
 10
-11.3804
 20
212.8287
 42
-0.3335028506
  0
VERTEX
  8
LAYER_6
 10
-11.5558
 20
212.6101
 42
-0.08319549326
  0
VERTEX
  8
LAYER_6
 10
-11.6868
 20
212.588
 42
-0.2454746759
  0
VERTEX
  8
LAYER_6
 10
-12.0342
 20
212.7715
  0
VERTEX
  8
LAYER_6
 10
-12.269
 20
212.5433
 42
0.1909646496
  0
VERTEX
  8
LAYER_6
 10
-11.8308
 20
212.3153
 42
0.03754446626
  0
VERTEX
  8
LAYER_6
 10
-11.6944
 20
212.3061
 42
0.1762916439
  0
VERTEX
  8
LAYER_6
 10
-11.2183
 20
212.4674
 42
0.2195743063
  0
VERTEX
  8
LAYER_6
 10
-11.0534
 20
212.8657
 42
0.3531185733
  0
VERTEX
  8
LAYER_6
 10
-11.4303
 20
213.3408
 42
-0.05600345769
  0
VERTEX
  8
LAYER_6
 10
-11.796
 20
213.4825
 42
-0.2536946722
  0
VERTEX
  8
LAYER_6
 10
-11.885
 20
213.6399
 42
-0.3489083621
  0
VERTEX
  8
LAYER_6
 10
-11.7191
 20
213.848
 42
-0.07098211707
  0
VERTEX
  8
LAYER_6
 10
-11.5983
 20
213.8648
 42
-0.2306121412
  0
VERTEX
  8
LAYER_6
 10
-11.2913
 20
213.7261
  0
SEQEND
  0
INSERT
  8
LAYER_6
  2
AIGNBL0602002B
 10
0
 20
0
 30
0
  0
INSERT
  8
LAYER_6
  2
AIGNBL0602002C
 10
0
 20
0
 30
0
  0
POLYLINE
  8
LAYER_6
 40
0.05
 41
0.05
 66
1
 10
0
 20
0
 30
0
  0
VERTEX
  8
LAYER_6
 10
-5.2994
 20
213.692
 42
0.2129687332
  0
VERTEX
  8
LAYER_6
 10
-5.6677
 20
213.8653
 42
0.4105330837
  0
VERTEX
  8
LAYER_6
 10
-6.269
 20
213.2387
 42
0.1833694889
  0
VERTEX
  8
LAYER_6
 10
-6.099
 20
212.7686
 42
0.2122774884
  0
VERTEX
  8
LAYER_6
 10
-5.6677
 20
212.5886
 42
0.2420713992
  0
VERTEX
  8
LAYER_6
 10
-5.2745
 20
212.8017
  0
VERTEX
  8
LAYER_6
 10
-5.0183
 20
212.6175
 42
-0.2483961933
  0
VERTEX
  8
LAYER_6
 10
-5.6704
 20
212.3057
 42
-0.1519079839
  0
VERTEX
  8
LAYER_6
 10
-6.2365
 20
212.4749
 42
-0.2337913088
  0
VERTEX
  8
LAYER_6
 10
-6.5942
 20
213.1558
 42
-0.0146222367
  0
VERTEX
  8
LAYER_6
 10
-6.596
 20
213.219
 42
-0.1526708466
  0
VERTEX
  8
LAYER_6
 10
-6.427
 20
213.7867
 42
-0.2349281849
  0
VERTEX
  8
LAYER_6
 10
-5.7329
 20
214.1454
 42
-0.01403209072
  0
VERTEX
  8
LAYER_6
 10
-5.6704
 20
214.1471
 42
-0.177045353
  0
VERTEX
  8
LAYER_6
 10
-5.1623
 20
213.9741
 42
-0.03940754375
  0
VERTEX
  8
LAYER_6
 10
-5.0571
 20
213.8707
  0
SEQEND
  0
POLYLINE
  8
LAYER_6
 40
0.05
 41
0.05
 66
1
 10
0
 20
0
 30
0
  0
VERTEX
  8
LAYER_6
 10
-4.4354
 20
214.1029
  0
VERTEX
  8
LAYER_6
 10
-3.2751
 20
214.1029
  0
VERTEX
  8
LAYER_6
 10
-3.2751
 20
213.8202
  0
VERTEX
  8
LAYER_6
 10
-4.1231
 20
213.8202
  0
VERTEX
  8
LAYER_6
 10
-4.1231
 20
213.3901
  0
VERTEX
  8
LAYER_6
 10
-3.3195
 20
213.3901
  0
VERTEX
  8
LAYER_6
 10
-3.3195
 20
213.1079
  0
VERTEX
  8
LAYER_6
 10
-4.1231
 20
213.1079
  0
VERTEX
  8
LAYER_6
 10
-4.1231
 20
212.633
  0
VERTEX
  8
LAYER_6
 10
-3.2318
 20
212.633
  0
VERTEX
  8
LAYER_6
 10
-3.2318
 20
212.3512
  0
VERTEX
  8
LAYER_6
 10
-4.4354
 20
212.3512
  0
SEQEND
  0
ENDBLK
  0
ENDSEC
  0
SECTION
  2
ENTITIES
  0
POLYLINE
  8
LAYER_1
 40
0.1058
 41
0.1058
 66
1
 10
0
 20
0
 30
0
  0
VERTEX
  8
LAYER_1
 10
34.1127
 20
133.0421
  0
VERTEX
  8
LAYER_1
 10
34.1127
 20
127.994
  0
VERTEX
  8
LAYER_1
 10
59.3048
 20
127.994
  0
SEQEND
  0
POLYLINE
  8
LAYER_1
 40
0.1058
 41
0.1058
 66
1
 10
0
 20
0
 30
0
  0
VERTEX
  8
LAYER_1
 10
72.8144
 20
127.994
  0
VERTEX
  8
LAYER_1
 10
91.9313
 20
127.994
  0
VERTEX
  8
LAYER_1
 10
91.9313
 20
133.0421
  0
SEQEND
  0
TEXT
  8
LAYER_1
 10
59.429
 20
126.2805
 11
59.429
 21
126.2805
 40
4.7388
 41
0.5
  1
584
  0
INSERT
  8
LAYER_1
  2
AIGNBL01010002
 10
0
 20
0
 30
0
  0
POLYLINE
  8
LAYER_1
 40
0.1058
 41
0.1058
 66
1
 10
0
 20
0
 30
0
  0
VERTEX
  8
LAYER_1
 10
91.226
 20
127.994
  0
VERTEX
  8
LAYER_1
 10
93.1243
 20
127.994
  0
VERTEX
  8
LAYER_1
 10
93.1243
 20
133.0421
  0
SEQEND
  0
POLYLINE
  8
LAYER_1
 40
0.1058
 41
0.1058
 66
1
 10
0
 20
0
 30
0
  0
VERTEX
  8
LAYER_1
 10
34.9721
 20
127.994
  0
VERTEX
  8
LAYER_1
 10
33.0738
 20
127.994
  0
VERTEX
  8
LAYER_1
 10
33.0738
 20
133.0421
  0
SEQEND
  0
POLYLINE
  8
LAYER_1
 40
0.1058
 41
0.1058
 66
1
 10
0
 20
0
 30
0
  0
VERTEX
  8
LAYER_1
 10
30.1805
 20
135.4557
  0
VERTEX
  8
LAYER_1
 10
15.0934
 20
135.4557
  0
VERTEX
  8
LAYER_1
 10
15.0934
 20
154.9493
  0
SEQEND
  0
POLYLINE
  8
LAYER_1
 40
0.1058
 41
0.1058
 66
1
 10
0
 20
0
 30
0
  0
VERTEX
  8
LAYER_1
 10
15.0934
 20
164.1226
  0
VERTEX
  8
LAYER_1
 10
15.0934
 20
173.5527
  0
VERTEX
  8
LAYER_1
 10
30.1805
 20
173.5527
  0
SEQEND
  0
TEXT
  8
LAYER_1
 10
8.4684
 20
157.5475
 11
8.4684
 21
157.5475
 40
4.7388
 41
0.5
  1
380
  0
POLYLINE
  8
LAYER_1
 40
0.1058
 41
0.1058
 66
1
 10
0
 20
0
 30
0
  0
VERTEX
  8
LAYER_1
 10
93.0671
 20
175.3611
  0
VERTEX
  8
LAYER_1
 10
93.0671
 20
187.0567
  0
VERTEX
  8
LAYER_1
 10
75.4923
 20
187.0567
  0
SEQEND
  0
POLYLINE
  8
LAYER_1
 40
0.1058
 41
0.1058
 66
1
 10
0
 20
0
 30
0
  0
VERTEX
  8
LAYER_1
 10
57.8108
 20
187.0567
  0
VERTEX
  8
LAYER_1
 10
33.0668
 20
187.0567
  0
VERTEX
  8
LAYER_1
 10
33.0668
 20
175.3616
  0
SEQEND
  0
TEXT
  8
LAYER_1
 10
59.9464
 20
185.379
 11
59.9464
 21
185.379
 40
4.7388
 41
0.5
  1
600
  0
TEXT
  8
LAYER_1
 10
58.7551
 20
178.2725
 11
58.7551
 21
178.2725
 40
4.7388
 41
0.5
  1
430
  0
POLYLINE
  8
LAYER_1
 40
0.1058
 41
0.1058
 66
1
 10
0
 20
0
 30
0
  0
VERTEX
  8
LAYER_1
 10
83.7327
 20
175.3611
  0
VERTEX
  8
LAYER_1
 10
83.7327
 20
179.9459
  0
VERTEX
  8
LAYER_1
 10
73.5447
 20
179.9459
  0
SEQEND
  0
POLYLINE
  8
LAYER_1
 40
0.1058
 41
0.1058
 66
1
 10
0
 20
0
 30
0
  0
VERTEX
  8
LAYER_1
 10
57.8026
 20
179.9453
  0
VERTEX
  8
LAYER_1
 10
42.5496
 20
179.9453
  0
VERTEX
  8
LAYER_1
 10
42.5496
 20
175.3611
  0
SEQEND
  0
POLYLINE
  8
LAYER_1
 40
0.1058
 41
0.1058
 66
1
 10
0
 20
0
 30
0
 70
1
  0
VERTEX
  8
LAYER_1
 10
26.2179
 20
160.0617
  0
VERTEX
  8
LAYER_1
 10
26.2179
 20
164.0478
  0
SEQEND
  0
POLYLINE
  8
LAYER_1
 40
0.1058
 41
0.1058
 66
1
 10
0
 20
0
 30
0
  0
VERTEX
  8
LAYER_1
 10
30.1805
 20
164.0478
  0
VERTEX
  8
LAYER_1
 10
26.2179
 20
164.0478
  0
SEQEND
  0
POLYLINE
  8
LAYER_1
 40
0.1058
 41
0.1058
 66
1
 10
0
 20
0
 30
0
  0
VERTEX
  8
LAYER_1
 10
26.2179
 20
149.5934
  0
VERTEX
  8
LAYER_1
 10
26.2179
 20
145.1284
  0
VERTEX
  8
LAYER_1
 10
30.1805
 20
145.1284
  0
SEQEND
  0
TEXT
  8
LAYER_1
 10
21.8526
 20
152.4728
 11
21.8526
 21
152.4728
 40
4.7388
 41
0.5
  1
210
  0
TEXT
  8
LAYER_1
 10
115.1369
 20
98.4785
 11
115.1369
 21
98.4785
 40
4.7388
 41
0.5
  1
110
  0
POLYLINE
  8
LAYER_1
 40
0.1058
 41
0.1058
 66
1
 10
0
 20
0
 30
0
  0
VERTEX
  8
LAYER_1
 10
119.502
 20
97.9401
  0
VERTEX
  8
LAYER_1
 10
119.502
 20
94.7155
  0
SEQEND
  0
POLYLINE
  8
LAYER_1
 40
0.1058
 41
0.1058
 66
1
 10
0
 20
0
 30
0
  0
VERTEX
  8
LAYER_1
 10
119.5148
 20
106.3361
  0
VERTEX
  8
LAYER_1
 10
119.5148
 20
102.7504
  0
SEQEND
  0
TEXT
  8
LAYER_1
 10
104.6197
 20
111.091
 11
104.6197
 21
111.091
 40
4.7388
 41
0.5
  1
190
  0
POLYLINE
  8
LAYER_1
 40
0.1058
 41
0.1058
 66
1
 10
0
 20
0
 30
0
  0
VERTEX
  8
LAYER_1
 10
116.3467
 20
112.9103
  0
VERTEX
  8
LAYER_1
 10
119.5148
 20
112.9103
  0
VERTEX
  8
LAYER_1
 10
119.5148
 20
108.2198
  0
SEQEND
  0
POLYLINE
  8
LAYER_1
 40
0.1058
 41
0.1058
 66
1
 10
0
 20
0
 30
0
  0
VERTEX
  8
LAYER_1
 10
100.3927
 20
108.2192
  0
VERTEX
  8
LAYER_1
 10
100.3927
 20
112.9103
  0
VERTEX
  8
LAYER_1
 10
104.4178
 20
112.9103
  0
SEQEND
  0
POLYLINE
  8
LAYER_1
 40
0.1058
 41
0.1058
 66
1
 10
0
 20
0
 30
0
  0
VERTEX
  8
LAYER_1
 10
147.6916
 20
96.3473
  0
VERTEX
  8
LAYER_1
 10
147.6916
 20
92.3199
  0
SEQEND
  0
POLYLINE
  8
LAYER_1
 40
0.1058
 41
0.1058
 66
1
 10
0
 20
0
 30
0
  0
VERTEX
  8
LAYER_1
 10
147.6916
 20
102.0972
  0
VERTEX
  8
LAYER_1
 10
147.6916
 20
106.2514
  0
VERTEX
  8
LAYER_1
 10
141.9266
 20
106.2514
  0
SEQEND
  0
POLYLINE
  8
LAYER_1
 40
0.1058
 41
0.1058
 66
1
 10
0
 20
0
 30
0
  0
VERTEX
  8
LAYER_1
 10
147.6916
 20
92.2691
  0
VERTEX
  8
LAYER_1
 10
141.9266
 20
92.2691
  0
SEQEND
  0
TEXT
  8
LAYER_1
 10
143.326
 20
96.7202
 11
143.326
 21
96.7202
 40
4.7388
 41
0.5
  1
140
  0
POLYLINE
  8
LAYER_1
  6
AIGENLINE001
 40
0.1058
 41
0.1058
 66
1
 10
0
 20
0
 30
0
 70
129
  0
VERTEX
  8
LAYER_1
 10
63.14
 20
144.8777
 42
0.02488122086
  0
VERTEX
  8
LAYER_1
 10
76.6776
 20
145.5514
 42
0.007614665242
  0
VERTEX
  8
LAYER_1
 10
78.958
 20
145.7534
 42
0.04891687075
  0
VERTEX
  8
LAYER_1
 10
80.3777
 20
146.0876
 42
0.01289991397
  0
VERTEX
  8
LAYER_1
 10
80.6536
 20
146.1947
 42
0.06614007904
  0
VERTEX
  8
LAYER_1
 10
81.8826
 20
146.9002
 42
0.06873866156
  0
VERTEX
  8
LAYER_1
 10
82.7017
 20
147.7507
 42
0.04439065832
  0
VERTEX
  8
LAYER_1
 10
83.2092
 20
148.5949
 42
0.07152416626
  0
VERTEX
  8
LAYER_1
 10
83.6156
 20
149.8399
 42
0.02683249399
  0
VERTEX
  8
LAYER_1
 10
83.7023
 20
150.5415
 42
0.01951473386
  0
VERTEX
  8
LAYER_1
 10
83.7327
 20
151.7079
  0
VERTEX
  8
LAYER_1
 10
83.7327
 20
154.4645
  0
VERTEX
  8
LAYER_1
 10
83.7327
 20
157.2223
 42
0.02712737249
  0
VERTEX
  8
LAYER_1
 10
83.6879
 20
158.5587
 42
0.06079121703
  0
VERTEX
  8
LAYER_1
 10
83.4117
 20
159.8565
 42
0.02921508894
  0
VERTEX
  8
LAYER_1
 10
83.208
 20
160.3347
 42
0.06583248873
  0
VERTEX
  8
LAYER_1
 10
82.4258
 20
161.5176
 42
0.06875814857
  0
VERTEX
  8
LAYER_1
 10
81.5256
 20
162.2818
 42
0.04457194581
  0
VERTEX
  8
LAYER_1
 10
80.6512
 20
162.7349
 42
0.06116383477
  0
VERTEX
  8
LAYER_1
 10
79.1733
 20
163.1431
 42
0.01932536245
  0
VERTEX
  8
LAYER_1
 10
78.2103
 20
163.2566
 42
-0.004157471181
  0
VERTEX
  8
LAYER_1
 10
76.677
 20
163.377
 42
0.02487071786
  0
VERTEX
  8
LAYER_1
 10
63.1347
 20
164.0507
 42
0.02488033855
  0
VERTEX
  8
LAYER_1
 10
49.5988
 20
163.3764
 42
0.007170964394
  0
VERTEX
  8
LAYER_1
 10
47.3515
 20
163.1795
 42
0.04860465717
  0
VERTEX
  8
LAYER_1
 10
45.9331
 20
162.8518
 42
0.01430842546
  0
VERTEX
  8
LAYER_1
 10
45.6269
 20
162.7337
 42
0.06613255251
  0
VERTEX
  8
LAYER_1
 10
44.398
 20
162.0283
 42
0.06873225286
  0
VERTEX
  8
LAYER_1
 10
43.5788
 20
161.1778
 42
0.04430860209
  0
VERTEX
  8
LAYER_1
 10
43.0707
 20
160.333
 42
0.07138624834
  0
VERTEX
  8
LAYER_1
 10
42.6659
 20
159.088
 42
0.0267373839
  0
VERTEX
  8
LAYER_1
 10
42.5797
 20
158.3867
 42
0.01939611659
  0
VERTEX
  8
LAYER_1
 10
42.5496
 20
157.2211
  0
VERTEX
  8
LAYER_1
 10
42.5496
 20
154.4639
  0
VERTEX
  8
LAYER_1
 10
42.5496
 20
151.7079
 42
0.02770739509
  0
VERTEX
  8
LAYER_1
 10
42.5963
 20
150.3467
 42
0.06119041997
  0
VERTEX
  8
LAYER_1
 10
42.8772
 20
149.0494
 42
0.02767939368
  0
VERTEX
  8
LAYER_1
 10
43.0713
 20
148.5949
 42
0.06578585274
  0
VERTEX
  8
LAYER_1
 10
43.8536
 20
147.4118
 42
0.06870267175
  0
VERTEX
  8
LAYER_1
 10
44.7537
 20
146.647
 42
0.04455821595
  0
VERTEX
  8
LAYER_1
 10
45.6281
 20
146.1935
 42
0.06033022282
  0
VERTEX
  8
LAYER_1
 10
47.0752
 20
145.7905
 42
0.01936663716
  0
VERTEX
  8
LAYER_1
 10
48.0071
 20
145.6774
 42
-0.002674844333
  0
VERTEX
  8
LAYER_1
 10
49.6041
 20
145.5514
 42
0.02494487623
  0
SEQEND
  0
POLYLINE
  8
LAYER_1
 40
0.1058
 41
0.1058
 66
1
 10
0
 20
0
 30
0
 70
1
  0
VERTEX
  8
LAYER_1
 10
63.1271
 20
158.3867
 42
-0.04855972986
  0
VERTEX
  8
LAYER_1
 10
63.8843
 20
158.3119
 42
-0.04966078654
  0
VERTEX
  8
LAYER_1
 10
64.6135
 20
158.0899
 42
-0.04884633057
  0
VERTEX
  8
LAYER_1
 10
65.2854
 20
157.7312
 42
-0.04896462033
  0
VERTEX
  8
LAYER_1
 10
65.8732
 20
157.2486
 42
-0.04899933382
  0
VERTEX
  8
LAYER_1
 10
66.3558
 20
156.659
 42
-0.04898134805
  0
VERTEX
  8
LAYER_1
 10
66.7151
 20
155.9889
 42
-0.04753419298
  0
VERTEX
  8
LAYER_1
 10
66.9354
 20
155.2614
 42
-0.04856486782
  0
VERTEX
  8
LAYER_1
 10
67.0096
 20
154.5031
 42
-0.03788983423
  0
VERTEX
  8
LAYER_1
 10
66.967
 20
153.934
 42
-0.04009092663
  0
VERTEX
  8
LAYER_1
 10
66.8413
 20
153.3777
 42
-0.03927461129
  0
VERTEX
  8
LAYER_1
 10
66.6368
 20
152.8437
 42
-0.03629660889
  0
VERTEX
  8
LAYER_1
 10
66.3546
 20
152.3453
 42
-0.03674679028
  0
VERTEX
  8
LAYER_1
 10
66.0041
 20
151.896
 42
-0.03701418687
  0
VERTEX
  8
LAYER_1
 10
65.5904
 20
151.5022
 42
-0.03501722531
  0
VERTEX
  8
LAYER_1
 10
65.123
 20
151.1721
 42
-0.03650108859
  0
VERTEX
  8
LAYER_1
 10
64.6123
 20
150.9168
 42
-0.0391788171
  0
VERTEX
  8
LAYER_1
 10
64.0695
 20
150.7368
 42
-0.03720014562
  0
VERTEX
  8
LAYER_1
 10
63.5063
 20
150.6393
 42
-0.03828363683
  0
VERTEX
  8
LAYER_1
 10
62.9372
 20
150.6258
 42
-0.03697649601
  0
VERTEX
  8
LAYER_1
 10
62.3699
 20
150.6948
 42
-0.03539077423
  0
VERTEX
  8
LAYER_1
 10
61.8189
 20
150.8473
 42
-0.03572738258
  0
VERTEX
  8
LAYER_1
 10
61.2942
 20
151.0798
 42
-0.03638807638
  0
VERTEX
  8
LAYER_1
 10
60.811
 20
151.3865
 42
-0.03640663435
  0
VERTEX
  8
LAYER_1
 10
60.381
 20
151.7581
 42
-0.03600964386
  0
VERTEX
  8
LAYER_1
 10
60.0065
 20
152.1911
 42
-0.03668065075
  0
VERTEX
  8
LAYER_1
 10
59.7015
 20
152.6743
 42
-0.03477143582
  0
VERTEX
  8
LAYER_1
 10
59.4707
 20
153.1943
 42
-0.03685065046
  0
VERTEX
  8
LAYER_1
 10
59.3182
 20
153.7458
 42
-0.03725125271
  0
VERTEX
  8
LAYER_1
 10
59.2481
 20
154.3138
 42
-0.03491065573
  0
VERTEX
  8
LAYER_1
 10
59.2615
 20
154.884
 42
-0.03565640862
  0
VERTEX
  8
LAYER_1
 10
59.3597
 20
155.4484
 42
-0.03785881532
  0
VERTEX
  8
LAYER_1
 10
59.5397
 20
155.9906
 42
-0.03945285972
  0
VERTEX
  8
LAYER_1
 10
59.7968
 20
156.5007
 42
-0.03833128997
  0
VERTEX
  8
LAYER_1
 10
60.1251
 20
156.9669
 42
-0.03616608068
  0
VERTEX
  8
LAYER_1
 10
60.5201
 20
157.3818
 42
-0.03750054994
  0
VERTEX
  8
LAYER_1
 10
60.9694
 20
157.7323
 42
-0.03767384147
  0
VERTEX
  8
LAYER_1
 10
61.4678
 20
158.0145
 42
-0.0358929394
  0
VERTEX
  8
LAYER_1
 10
61.9995
 20
158.2196
 42
-0.0360724627
  0
VERTEX
  8
LAYER_1
 10
62.5557
 20
158.3452
 42
-0.03615543869
  0
SEQEND
  0
POLYLINE
  8
LAYER_1
 40
0.1058
 41
0.1058
 66
1
 10
0
 20
0
 30
0
 70
1
  0
VERTEX
  8
LAYER_1
 10
65.3994
 20
154.5031
 42
0.04755048288
  0
VERTEX
  8
LAYER_1
 10
65.3579
 20
154.9465
 42
0.04739505346
  0
VERTEX
  8
LAYER_1
 10
65.2299
 20
155.3736
 42
0.04918658782
  0
VERTEX
  8
LAYER_1
 10
65.0219
 20
155.7674
 42
0.04914550466
  0
VERTEX
  8
LAYER_1
 10
64.7403
 20
156.1133
 42
0.09873883105
  0
VERTEX
  8
LAYER_1
 10
64.0047
 20
156.6082
 42
0.09853390062
  0
VERTEX
  8
LAYER_1
 10
63.1347
 20
156.7852
 42
0.09899047077
  0
VERTEX
  8
LAYER_1
 10
62.2647
 20
156.6158
 42
0.09875310177
  0
VERTEX
  8
LAYER_1
 10
61.525
 20
156.1268
 42
0.09857402222
  0
VERTEX
  8
LAYER_1
 10
61.0301
 20
155.3912
 42
0.09947004806
  0
VERTEX
  8
LAYER_1
 10
60.8531
 20
154.5212
 42
0.09866092854
  0
VERTEX
  8
LAYER_1
 10
61.0226
 20
153.65
 42
0.09831860798
  0
VERTEX
  8
LAYER_1
 10
61.5128
 20
152.9103
 42
0.09858694562
  0
VERTEX
  8
LAYER_1
 10
62.2478
 20
152.416
 42
0.09882857397
  0
VERTEX
  8
LAYER_1
 10
63.1166
 20
152.239
 42
0.09902479138
  0
VERTEX
  8
LAYER_1
 10
63.9872
 20
152.4084
 42
0.09823177902
  0
VERTEX
  8
LAYER_1
 10
64.7269
 20
152.8981
 42
0.04932278602
  0
VERTEX
  8
LAYER_1
 10
65.0114
 20
153.2416
 42
0.05020549517
  0
VERTEX
  8
LAYER_1
 10
65.2235
 20
153.6331
  0
VERTEX
  8
LAYER_1
 10
65.2994
 20
153.8428
  0
VERTEX
  8
LAYER_1
 10
65.355
 20
154.0596
 42
0.04555427838
  0
SEQEND
  0
POLYLINE
  8
LAYER_1
 40
0.1058
 41
0.1058
 66
1
 10
0
 20
0
 30
0
 70
1
  0
VERTEX
  8
LAYER_1
 10
63.1289
 20
173.5276
 42
0.02879668527
  0
VERTEX
  8
LAYER_1
 10
46.3415
 20
172.5583
 42
0.006957162025
  0
VERTEX
  8
LAYER_1
 10
42.1709
 20
172.0143
  0
VERTEX
  8
LAYER_1
 10
41.1309
 20
171.8601
  0
VERTEX
  8
LAYER_1
 10
40.8715
 20
171.8198
  0
VERTEX
  8
LAYER_1
 10
40.7728
 20
171.8046
  0
VERTEX
  8
LAYER_1
 10
40.7371
 20
171.7982
  0
VERTEX
  8
LAYER_1
 10
40.5952
 20
171.7748
  0
VERTEX
  8
LAYER_1
 10
40.0319
 20
171.6568
 42
0.03193112651
  0
VERTEX
  8
LAYER_1
 10
38.9346
 20
171.3161
 42
0.03203808611
  0
VERTEX
  8
LAYER_1
 10
37.8882
 20
170.8394
 42
0.04825720893
  0
VERTEX
  8
LAYER_1
 10
36.4486
 20
169.8864
 42
0.04492084299
  0
VERTEX
  8
LAYER_1
 10
35.2631
 20
168.7342
 42
0.04558192527
  0
VERTEX
  8
LAYER_1
 10
34.3049
 20
167.3846
 42
0.04714768301
  0
VERTEX
  8
LAYER_1
 10
33.5839
 20
165.8158
 42
0.04231652262
  0
VERTEX
  8
LAYER_1
 10
33.2023
 20
164.3335
 42
0.04193118967
  0
VERTEX
  8
LAYER_1
 10
33.0744
 20
162.8073
  0
VERTEX
  8
LAYER_1
 10
33.0744
 20
146.1772
 42
0.0420275573
  0
VERTEX
  8
LAYER_1
 10
33.2023
 20
144.651
 42
0.04227069652
  0
VERTEX
  8
LAYER_1
 10
33.5839
 20
143.1676
 42
0.04668734424
  0
VERTEX
  8
LAYER_1
 10
34.3049
 20
141.5988
 42
0.04544503346
  0
VERTEX
  8
LAYER_1
 10
35.2631
 20
140.2497
 42
0.04553483129
  0
VERTEX
  8
LAYER_1
 10
36.4486
 20
139.0981
 42
0.04756464943
  0
VERTEX
  8
LAYER_1
 10
37.8882
 20
138.1428
 42
0.04556663731
  0
VERTEX
  8
LAYER_1
 10
39.4243
 20
137.4966
 42
0.0200469962
  0
VERTEX
  8
LAYER_1
 10
40.1558
 20
137.2974
 42
0.0195473114
  0
VERTEX
  8
LAYER_1
 10
40.7839
 20
137.1782
 42
0.009615108018
  0
VERTEX
  8
LAYER_1
 10
46.3415
 20
136.425
 42
0.009568027421
  0
VERTEX
  8
LAYER_1
 10
51.9237
 20
135.8875
 42
0.009546679931
  0
VERTEX
  8
LAYER_1
 10
57.521
 20
135.565
 42
0.009767120236
  0
VERTEX
  8
LAYER_1
 10
63.1289
 20
135.4563
 42
0.004791158326
  0
VERTEX
  8
LAYER_1
 10
65.9328
 20
135.4838
 42
0.005146506172
  0
VERTEX
  8
LAYER_1
 10
68.735
 20
135.565
 42
0.005014057902
  0
VERTEX
  8
LAYER_1
 10
71.5354
 20
135.7005
 42
0.005147266233
  0
VERTEX
  8
LAYER_1
 10
74.3335
 20
135.8875
 42
0.004728860255
  0
VERTEX
  8
LAYER_1
 10
77.1263
 20
136.1294
 42
0.00522247468
  0
VERTEX
  8
LAYER_1
 10
79.9145
 20
136.4262
  0
VERTEX
  8
LAYER_1
 10
81.3068
 20
136.5951
  0
VERTEX
  8
LAYER_1
 10
82.6968
 20
136.775
  0
VERTEX
  8
LAYER_1
 10
83.3915
 20
136.872
  0
VERTEX
  8
LAYER_1
 10
84.085
 20
136.969
  0
VERTEX
  8
LAYER_1
 10
84.7791
 20
137.0724
  0
VERTEX
  8
LAYER_1
 10
85.1256
 20
137.1238
  0
VERTEX
  8
LAYER_1
 10
85.4715
 20
137.1788
  0
VERTEX
  8
LAYER_1
 10
85.5188
 20
137.1852
  0
VERTEX
  8
LAYER_1
 10
85.5656
 20
137.1934
  0
VERTEX
  8
LAYER_1
 10
85.6135
 20
137.2015
  0
VERTEX
  8
LAYER_1
 10
85.6608
 20
137.2091
  0
VERTEX
  8
LAYER_1
 10
85.7555
 20
137.2267
  0
VERTEX
  8
LAYER_1
 10
85.8489
 20
137.2448
  0
VERTEX
  8
LAYER_1
 10
85.9436
 20
137.2635
  0
VERTEX
  8
LAYER_1
 10
86.0377
 20
137.2839
  0
VERTEX
  8
LAYER_1
 10
86.1311
 20
137.3044
  0
VERTEX
  8
LAYER_1
 10
86.2235
 20
137.3272
  0
VERTEX
  8
LAYER_1
 10
86.4093
 20
137.3745
  0
VERTEX
  8
LAYER_1
 10
86.5951
 20
137.4253
  0
VERTEX
  8
LAYER_1
 10
86.7785
 20
137.4796
  0
VERTEX
  8
LAYER_1
 10
86.9614
 20
137.5381
  0
VERTEX
  8
LAYER_1
 10
87.1419
 20
137.6012
  0
VERTEX
  8
LAYER_1
 10
87.3225
 20
137.6672
  0
VERTEX
  8
LAYER_1
 10
87.5007
 20
137.7373
  0
VERTEX
  8
LAYER_1
 10
87.6771
 20
137.8121
  0
VERTEX
  8
LAYER_1
 10
88.0265
 20
137.9699
  0
VERTEX
  8
LAYER_1
 10
88.3689
 20
138.1434
 42
0.04732470155
  0
VERTEX
  8
LAYER_1
 10
89.8074
 20
139.0987
 42
0.04580061292
  0
VERTEX
  8
LAYER_1
 10
90.9941
 20
140.2503
 42
0.04507424934
  0
VERTEX
  8
LAYER_1
 10
91.9511
 20
141.5994
 42
0.04728240861
  0
VERTEX
  8
LAYER_1
 10
92.6721
 20
143.1676
 42
0.04239035144
  0
VERTEX
  8
LAYER_1
 10
93.0536
 20
144.651
 42
0.04258856816
  0
VERTEX
  8
LAYER_1
 10
93.1833
 20
146.1772
  0
VERTEX
  8
LAYER_1
 10
93.1833
 20
162.8068
 42
0.03796647587
  0
VERTEX
  8
LAYER_1
 10
93.0764
 20
164.1979
 42
0.04618378409
  0
VERTEX
  8
LAYER_1
 10
92.6721
 20
165.8158
 42
0.04740802758
  0
VERTEX
  8
LAYER_1
 10
91.9511
 20
167.3846
 42
0.04520509055
  0
VERTEX
  8
LAYER_1
 10
90.9941
 20
168.7336
 42
0.04519389568
  0
VERTEX
  8
LAYER_1
 10
89.8074
 20
169.8864
 42
0.04757494785
  0
VERTEX
  8
LAYER_1
 10
88.3689
 20
170.8394
 42
0.04581891483
  0
VERTEX
  8
LAYER_1
 10
86.8317
 20
171.4862
 42
0.02143052927
  0
VERTEX
  8
LAYER_1
 10
86.1002
 20
171.686
 42
0.01606513978
  0
VERTEX
  8
LAYER_1
 10
85.4715
 20
171.8063
 42
0.03846031163
  0
SEQEND
  0
POLYLINE
  8
LAYER_1
 40
0.1058
 41
0.1058
 66
1
 10
0
 20
0
 30
0
 70
1
  0
VERTEX
  8
LAYER_1
 10
63.1289
 20
172.57
 42
0.03634759741
  0
VERTEX
  8
LAYER_1
 10
42.1154
 20
171.0398
 42
0.03663703364
  0
VERTEX
  8
LAYER_1
 10
39.6319
 20
170.5156
 42
0.04728594741
  0
VERTEX
  8
LAYER_1
 10
38.126
 20
169.8951
 42
0.07919376133
  0
VERTEX
  8
LAYER_1
 10
36.3249
 20
168.5226
 42
0.02568998075
  0
VERTEX
  8
LAYER_1
 10
35.7445
 20
167.8526
 42
0.05936050409
  0
VERTEX
  8
LAYER_1
 10
34.7606
 20
166.2318
 42
0.07457500547
  0
VERTEX
  8
LAYER_1
 10
34.1015
 20
163.9368
 42
0.02096003869
  0
VERTEX
  8
LAYER_1
 10
34.0507
 20
163.0692
 42
0.008982959312
  0
VERTEX
  8
LAYER_1
 10
34.032
 20
159.2444
  0
VERTEX
  8
LAYER_1
 10
34.032
 20
148.2011
 42
0.02960331545
  0
VERTEX
  8
LAYER_1
 10
34.0718
 20
145.5019
 42
0.04900440235
  0
VERTEX
  8
LAYER_1
 10
34.3688
 20
143.8025
 42
0.01704056621
  0
VERTEX
  8
LAYER_1
 10
34.517
 20
143.3475
 42
0.03865526559
  0
VERTEX
  8
LAYER_1
 10
35.0358
 20
142.2023
 42
0.07770820649
  0
VERTEX
  8
LAYER_1
 10
36.5736
 20
140.2234
 42
0.07813452993
  0
VERTEX
  8
LAYER_1
 10
38.6454
 20
138.8135
 42
0.055185114
  0
VERTEX
  8
LAYER_1
 10
40.2449
 20
138.2712
 42
0.02446549989
  0
VERTEX
  8
LAYER_1
 10
42.1154
 20
137.9453
 42
0.03643247769
  0
VERTEX
  8
LAYER_1
 10
63.1289
 20
136.4151
 42
0.03643828351
  0
VERTEX
  8
LAYER_1
 10
84.1399
 20
137.9453
 42
0.03680118707
  0
VERTEX
  8
LAYER_1
 10
86.6239
 20
138.4681
 42
0.0473399805
  0
VERTEX
  8
LAYER_1
 10
88.13
 20
139.0885
 42
0.07917704519
  0
VERTEX
  8
LAYER_1
 10
89.9314
 20
140.4609
 42
0.02566936677
  0
VERTEX
  8
LAYER_1
 10
90.512
 20
141.1308
 42
0.05859019473
  0
VERTEX
  8
LAYER_1
 10
91.496
 20
142.7533
 42
0.07463875722
  0
VERTEX
  8
LAYER_1
 10
92.1562
 20
145.0466
 42
0.02053227826
  0
VERTEX
  8
LAYER_1
 10
92.2075
 20
145.9525
 42
0.008446841189
  0
VERTEX
  8
LAYER_1
 10
92.2245
 20
149.7383
  0
VERTEX
  8
LAYER_1
 10
92.2245
 20
162.3195
 42
0.02727213596
  0
VERTEX
  8
LAYER_1
 10
92.1983
 20
163.54
 42
0.04838445841
  0
VERTEX
  8
LAYER_1
 10
91.9201
 20
165.0784
 42
0.09761340773
  0
VERTEX
  8
LAYER_1
 10
90.5109
 20
167.8526
 42
0.09742278226
  0
VERTEX
  8
LAYER_1
 10
88.1562
 20
169.8858
 42
0.05647213955
  0
VERTEX
  8
LAYER_1
 10
86.6318
 20
170.536
 42
0.02134198172
  0
VERTEX
  8
LAYER_1
 10
85.7536
 20
170.7626
 42
0.01832903685
  0
VERTEX
  8
LAYER_1
 10
84.1399
 20
171.0398
 42
0.03635632033
  0
SEQEND
  0
POLYLINE
  8
LAYER_1
 40
0.1058
 41
0.1058
 66
1
 10
0
 20
0
 30
0
  0
VERTEX
  8
LAYER_1
 10
63.1289
 20
164.7156
  0
VERTEX
  8
LAYER_1
 10
60.8993
 20
164.6969
  0
VERTEX
  8
LAYER_1
 10
58.6703
 20
164.6414
 42
0.007865637721
  0
VERTEX
  8
LAYER_1
 10
54.3239
 20
164.4252
 42
0.008386783607
  0
VERTEX
  8
LAYER_1
 10
49.7724
 20
164.0472
 42
0.004210953071
  0
VERTEX
  8
LAYER_1
 10
47.326
 20
163.7825
  0
VERTEX
  8
LAYER_1
 10
46.8714
 20
163.7282
  0
VERTEX
  8
LAYER_1
 10
46.5764
 20
163.6902
  0
VERTEX
  8
LAYER_1
 10
46.3871
 20
163.6645
  0
VERTEX
  8
LAYER_1
 10
45.9804
 20
163.6061
  0
VERTEX
  8
LAYER_1
 10
45.8992
 20
163.5955
  0
VERTEX
  8
LAYER_1
 10
45.7765
 20
163.5786
  0
VERTEX
  8
LAYER_1
 10
45.7251
 20
163.5722
 42
0.04513063447
  0
VERTEX
  8
LAYER_1
 10
44.9533
 20
163.394
 42
0.04449748051
  0
VERTEX
  8
LAYER_1
 10
44.2405
 20
163.0878
 42
0.046861778
  0
VERTEX
  8
LAYER_1
 10
43.5744
 20
162.6455
 42
0.04474534689
  0
VERTEX
  8
LAYER_1
 10
43.0217
 20
162.1173
 42
0.0432180401
  0
VERTEX
  8
LAYER_1
 10
42.5688
 20
161.5009
 42
0.04509251008
  0
VERTEX
  8
LAYER_1
 10
42.2177
 20
160.7822
 42
0.0446329896
  0
VERTEX
  8
LAYER_1
 10
42.0114
 20
160.056
 42
0.04825569089
  0
VERTEX
  8
LAYER_1
 10
41.9337
 20
159.2409
  0
VERTEX
  8
LAYER_1
 10
41.9337
 20
149.7436
 42
0.2715209213
  0
VERTEX
  8
LAYER_1
 10
44.2649
 20
145.8818
 42
0.08869831742
  0
VERTEX
  8
LAYER_1
 10
45.7251
 20
145.4123
  0
VERTEX
  8
LAYER_1
 10
45.8723
 20
145.3919
  0
VERTEX
  8
LAYER_1
 10
46.3579
 20
145.3235
  0
VERTEX
  8
LAYER_1
 10
46.5734
 20
145.2937
  0
VERTEX
  8
LAYER_1
 10
46.8954
 20
145.2528
  0
VERTEX
  8
LAYER_1
 10
47.2705
 20
145.2084
  0
VERTEX
  8
LAYER_1
 10
47.6853
 20
145.1594
  0
VERTEX
  8
LAYER_1
 10
48.1545
 20
145.1068
  0
VERTEX
  8
LAYER_1
 10
48.6243
 20
145.0548
  0
VERTEX
  8
LAYER_1
 10
49.7385
 20
144.9391
  0
VERTEX
  8
LAYER_1
 10
50.8807
 20
144.8286
  0
VERTEX
  8
LAYER_1
 10
52.0253
 20
144.7293
  0
VERTEX
  8
LAYER_1
 10
54.3139
 20
144.5599
 42
0.008245860076
  0
VERTEX
  8
LAYER_1
 10
58.7176
 20
144.3414
 42
0.008299303982
  0
VERTEX
  8
LAYER_1
 10
63.1002
 20
144.2683
 42
0.008200132945
  0
VERTEX
  8
LAYER_1
 10
67.484
 20
144.3396
 42
0.008360661755
  0
VERTEX
  8
LAYER_1
 10
71.8871
 20
144.5564
 42
0.00837143242
  0
VERTEX
  8
LAYER_1
 10
76.4375
 20
144.9309
  0
VERTEX
  8
LAYER_1
 10
78.7039
 20
145.1751
  0
VERTEX
  8
LAYER_1
 10
79.3068
 20
145.2476
  0
VERTEX
  8
LAYER_1
 10
79.7363
 20
145.3013
  0
VERTEX
  8
LAYER_1
 10
80.0582
 20
145.3446
  0
VERTEX
  8
LAYER_1
 10
80.2206
 20
145.3673
  0
VERTEX
  8
LAYER_1
 10
80.3825
 20
145.3913
  0
VERTEX
  8
LAYER_1
 10
80.4275
 20
145.3983
  0
VERTEX
  8
LAYER_1
 10
80.4579
 20
145.403
  0
VERTEX
  8
LAYER_1
 10
80.532
 20
145.4123
 42
0.04483578854
  0
VERTEX
  8
LAYER_1
 10
81.2822
 20
145.583
 42
0.02179745714
  0
VERTEX
  8
LAYER_1
 10
81.6615
 20
145.7249
  0
VERTEX
  8
LAYER_1
 10
82.0144
 20
145.8944
 42
0.08858875694
  0
VERTEX
  8
LAYER_1
 10
83.2349
 20
146.866
 42
0.04359892518
  0
VERTEX
  8
LAYER_1
 10
83.6871
 20
147.483
 42
0.04511542312
  0
VERTEX
  8
LAYER_1
 10
84.04
 20
148.2017
 42
0.04092358123
  0
VERTEX
  8
LAYER_1
 10
84.2451
 20
148.9273
 42
0.0477822252
  0
VERTEX
  8
LAYER_1
 10
84.3234
 20
149.7441
  0
VERTEX
  8
LAYER_1
 10
84.3222
 20
159.2409
 42
0.0477845538
  0
VERTEX
  8
LAYER_1
 10
84.2439
 20
160.056
 42
0.04199982593
  0
VERTEX
  8
LAYER_1
 10
84.0383
 20
160.7822
 42
0.04491149088
  0
VERTEX
  8
LAYER_1
 10
83.686
 20
161.5009
 42
0.04371929074
  0
VERTEX
  8
LAYER_1
 10
83.2343
 20
162.1173
 42
0.04433373522
  0
VERTEX
  8
LAYER_1
 10
82.6816
 20
162.6455
 42
0.04586110078
  0
VERTEX
  8
LAYER_1
 10
82.0149
 20
163.0878
 42
0.04473463885
  0
VERTEX
  8
LAYER_1
 10
81.301
 20
163.394
 42
0.04548013563
  0
VERTEX
  8
LAYER_1
 10
80.5303
 20
163.5722
  0
VERTEX
  8
LAYER_1
 10
80.4783
 20
163.5786
  0
VERTEX
  8
LAYER_1
 10
80.3556
 20
163.5955
  0
VERTEX
  8
LAYER_1
 10
80.2738
 20
163.6061
  0
VERTEX
  8
LAYER_1
 10
79.8689
 20
163.6645
  0
VERTEX
  8
LAYER_1
 10
79.6796
 20
163.6902
  0
VERTEX
  8
LAYER_1
 10
79.3839
 20
163.7282
  0
VERTEX
  8
LAYER_1
 10
78.9276
 20
163.7825
 42
0.004694998186
  0
VERTEX
  8
LAYER_1
 10
76.4842
 20
164.0472
 42
0.008358715051
  0
VERTEX
  8
LAYER_1
 10
71.9315
 20
164.4252
 42
0.007878319406
  0
VERTEX
  8
LAYER_1
 10
67.5845
 20
164.6414
  0
VERTEX
  8
LAYER_1
 10
65.3561
 20
164.6969
  0
VERTEX
  8
LAYER_1
 10
63.1277
 20
164.7156
  0
SEQEND
  0
POLYLINE
  8
LAYER_1
 40
0.1058
 41
0.1058
 66
1
 10
0
 20
0
 30
0
  0
VERTEX
  8
LAYER_1
 10
128.9748
 20
92.3971
  0
VERTEX
  8
LAYER_1
 10
110.9347
 20
92.3971
  0
SEQEND
  0
POLYLINE
  8
LAYER_1
 40
0.1058
 41
0.1058
 66
1
 10
0
 20
0
 30
0
  0
VERTEX
  8
LAYER_1
 10
121.8817
 20
93.2741
  0
VERTEX
  8
LAYER_1
 10
117.1467
 20
93.2741
  0
SEQEND
  0
POLYLINE
  8
LAYER_1
 40
0.1058
 41
0.1058
 66
1
 10
0
 20
0
 30
0
  0
VERTEX
  8
LAYER_1
 10
115.4874
 20
94.7149
  0
VERTEX
  8
LAYER_1
 10
123.5305
 20
94.7149
  0
SEQEND
  0
POLYLINE
  8
LAYER_1
 40
0.1058
 41
0.1058
 66
1
 10
0
 20
0
 30
0
  0
VERTEX
  8
LAYER_1
 10
138.0182
 20
106.2514
  0
VERTEX
  8
LAYER_1
 10
101.0044
 20
106.2514
  0
SEQEND
  0
POLYLINE
  8
LAYER_1
 40
0.1058
 41
0.1058
 66
1
 10
0
 20
0
 30
0
  0
VERTEX
  8
LAYER_1
 10
137.5467
 20
99.4107
  0
VERTEX
  8
LAYER_1
 10
134.0229
 20
99.4107
  0
SEQEND
  0
POLYLINE
  8
LAYER_1
 40
0.1058
 41
0.1058
 66
1
 10
0
 20
0
 30
0
  0
VERTEX
  8
LAYER_1
 10
101.4777
 20
99.4107
  0
VERTEX
  8
LAYER_1
 10
105.0008
 20
99.4107
  0
SEQEND
  0
POLYLINE
  8
LAYER_1
 40
0.05
 41
0.05
 66
1
 10
0
 20
0
 30
0
  0
VERTEX
  8
LAYER_1
 10
100.4757
 20
105.8103
 42
-0.09824777068
  0
VERTEX
  8
LAYER_1
 10
100.5166
 20
106.0124
 42
-0.09984725769
  0
VERTEX
  8
LAYER_1
 10
100.6293
 20
106.1824
 42
-0.09853071707
  0
VERTEX
  8
LAYER_1
 10
100.8011
 20
106.2964
 42
-0.1009001418
  0
VERTEX
  8
LAYER_1
 10
101.0015
 20
106.3361
  0
VERTEX
  8
LAYER_1
 10
101.0038
 20
106.3361
 42
-0.1189460049
  0
VERTEX
  8
LAYER_1
 10
101.2469
 20
106.2783
 42
-0.1147545666
  0
VERTEX
  8
LAYER_1
 10
101.4345
 20
106.1141
  0
VERTEX
  8
LAYER_1
 10
108.5883
 20
95.9787
 42
0.1056928484
  0
VERTEX
  8
LAYER_1
 10
108.8939
 20
95.6965
 42
0.1059699959
  0
VERTEX
  8
LAYER_1
 10
109.2883
 20
95.5627
  0
VERTEX
  8
LAYER_1
 10
111.1048
 20
95.3471
  0
VERTEX
  8
LAYER_1
 10
113.3636
 20
95.0789
  0
VERTEX
  8
LAYER_1
 10
115.4874
 20
94.8276
 42
-0.1634592714
  0
VERTEX
  8
LAYER_1
 10
115.7223
 20
94.7149
  0
VERTEX
  8
LAYER_1
 10
117.1468
 20
93.312
  0
VERTEX
  8
LAYER_1
 10
117.2379
 20
92.3106
  0
VERTEX
  8
LAYER_1
 10
116.2318
 20
92.3094
  0
VERTEX
  8
LAYER_1
 10
116.1821
 20
92.8551
  0
VERTEX
  8
LAYER_1
 10
115.1579
 20
93.8654
  0
VERTEX
  8
LAYER_1
 10
114.2546
 20
93.9711
  0
VERTEX
  8
LAYER_1
 10
113.9613
 20
92.3094
  0
VERTEX
  8
LAYER_1
 10
112.9581
 20
92.3094
  0
VERTEX
  8
LAYER_1
 10
112.8699
 20
92.8107
  0
VERTEX
  8
LAYER_1
 10
111.0428
 20
92.8107
  0
VERTEX
  8
LAYER_1
 10
110.9546
 20
92.3094
  0
VERTEX
  8
LAYER_1
 10
109.9538
 20
92.3094
  0
VERTEX
  8
LAYER_1
 10
104.648
 20
99.8244
  0
VERTEX
  8
LAYER_1
 10
101.5653
 20
99.8244
  0
VERTEX
  8
LAYER_1
 10
101.4777
 20
99.3231
  0
VERTEX
  8
LAYER_1
 10
100.4757
 20
99.3231
  0
SEQEND
  0
POLYLINE
  8
LAYER_1
 40
0.05
 41
0.05
 66
1
 10
0
 20
0
 30
0
  0
VERTEX
  8
LAYER_1
 10
123.5364
 20
94.8277
  0
VERTEX
  8
LAYER_1
 10
125.6596
 20
95.0789
  0
VERTEX
  8
LAYER_1
 10
127.9196
 20
95.3471
  0
VERTEX
  8
LAYER_1
 10
129.7361
 20
95.5627
 42
0.1062076245
  0
VERTEX
  8
LAYER_1
 10
130.1305
 20
95.6959
 42
0.1074390885
  0
VERTEX
  8
LAYER_1
 10
130.4361
 20
95.9793
  0
VERTEX
  8
LAYER_1
 10
137.5893
 20
106.1135
 42
-0.1122093614
  0
VERTEX
  8
LAYER_1
 10
137.7769
 20
106.2783
 42
-0.1185990563
  0
VERTEX
  8
LAYER_1
 10
138.0182
 20
106.3361
  0
VERTEX
  8
LAYER_1
 10
138.0211
 20
106.3361
 42
-0.1030961628
  0
VERTEX
  8
LAYER_1
 10
138.2233
 20
106.2964
 42
-0.09226592781
  0
VERTEX
  8
LAYER_1
 10
138.3933
 20
106.1819
 42
-0.09378585803
  0
VERTEX
  8
LAYER_1
 10
138.5084
 20
106.0118
 42
-0.09382233321
  0
VERTEX
  8
LAYER_1
 10
138.5487
 20
105.8103
  0
VERTEX
  8
LAYER_1
 10
138.5487
 20
99.3225
  0
VERTEX
  8
LAYER_1
 10
137.5467
 20
99.3225
  0
VERTEX
  8
LAYER_1
 10
137.4584
 20
99.8249
  0
VERTEX
  8
LAYER_1
 10
134.377
 20
99.8249
  0
VERTEX
  8
LAYER_1
 10
129.0706
 20
92.3094
  0
VERTEX
  8
LAYER_1
 10
128.0686
 20
92.3094
  0
VERTEX
  8
LAYER_1
 10
127.9804
 20
92.8113
  0
VERTEX
  8
LAYER_1
 10
126.1528
 20
92.8113
  0
VERTEX
  8
LAYER_1
 10
126.0645
 20
92.3094
  0
VERTEX
  8
LAYER_1
 10
125.0631
 20
92.3094
  0
VERTEX
  8
LAYER_1
 10
124.7698
 20
93.9711
  0
VERTEX
  8
LAYER_1
 10
123.8706
 20
93.8654
  0
VERTEX
  8
LAYER_1
 10
122.8452
 20
92.8557
  0
VERTEX
  8
LAYER_1
 10
122.7955
 20
92.3094
  0
VERTEX
  8
LAYER_1
 10
121.7906
 20
92.31
  0
VERTEX
  8
LAYER_1
 10
121.8817
 20
93.3115
  0
VERTEX
  8
LAYER_1
 10
123.3056
 20
94.7155
 42
-0.1606537747
  0
VERTEX
  8
LAYER_1
 10
123.5405
 20
94.8277
  0
SEQEND
  0
POLYLINE
  8
LAYER_1
 40
0.05
 41
0.05
 62
255
 66
1
 10
0
 20
0
 30
0
  0
VERTEX
  8
LAYER_1
 10
103.9404
 20
100.8258
  0
VERTEX
  8
LAYER_1
 10
101.4777
 20
100.8258
  0
VERTEX
  8
LAYER_1
 10
101.4777
 20
104.3145
  0
SEQEND
  0
POLYLINE
  8
LAYER_1
 40
0.1058
 41
0.1058
 66
1
 10
0
 20
0
 30
0
 70
1
  0
VERTEX
  8
LAYER_1
 10
103.9404
 20
100.8258
  0
VERTEX
  8
LAYER_1
 10
101.4777
 20
100.8258
  0
VERTEX
  8
LAYER_1
 10
101.4777
 20
104.3145
  0
SEQEND
  0
POLYLINE
  8
LAYER_1
 40
0.05
 41
0.05
 62
255
 66
1
 10
0
 20
0
 30
0
  0
VERTEX
  8
LAYER_1
 10
128.9059
 20
93.8128
  0
VERTEX
  8
LAYER_1
 10
129.4013
 20
94.5127
  0
VERTEX
  8
LAYER_1
 10
125.7771
 20
94.0856
  0
VERTEX
  8
LAYER_1
 10
125.7689
 20
94.0833
  0
VERTEX
  8
LAYER_1
 10
125.8162
 20
93.8128
  0
SEQEND
  0
POLYLINE
  8
LAYER_1
 40
0.1058
 41
0.1058
 66
1
 10
0
 20
0
 30
0
 70
1
  0
VERTEX
  8
LAYER_1
 10
128.9059
 20
93.8128
  0
VERTEX
  8
LAYER_1
 10
129.4013
 20
94.5127
  0
VERTEX
  8
LAYER_1
 10
125.7771
 20
94.0856
  0
VERTEX
  8
LAYER_1
 10
125.7689
 20
94.0833
  0
VERTEX
  8
LAYER_1
 10
125.8162
 20
93.8128
  0
SEQEND
  0
POLYLINE
  8
LAYER_1
 40
0.05
 41
0.05
 62
255
 66
1
 10
0
 20
0
 30
0
  0
VERTEX
  8
LAYER_1
 10
137.5467
 20
100.8258
  0
VERTEX
  8
LAYER_1
 10
135.084
 20
100.8258
  0
VERTEX
  8
LAYER_1
 10
137.5467
 20
104.3145
  0
SEQEND
  0
POLYLINE
  8
LAYER_1
 40
0.1058
 41
0.1058
 66
1
 10
0
 20
0
 30
0
 70
1
  0
VERTEX
  8
LAYER_1
 10
137.5467
 20
100.8258
  0
VERTEX
  8
LAYER_1
 10
135.084
 20
100.8258
  0
VERTEX
  8
LAYER_1
 10
137.5467
 20
104.3145
  0
SEQEND
  0
POLYLINE
  8
LAYER_1
 40
0.05
 41
0.05
 62
255
 66
1
 10
0
 20
0
 30
0
  0
VERTEX
  8
LAYER_1
 10
113.2187
 20
93.8128
  0
VERTEX
  8
LAYER_1
 10
110.1179
 20
93.8128
  0
VERTEX
  8
LAYER_1
 10
109.6236
 20
94.5127
  0
VERTEX
  8
LAYER_1
 10
110.9868
 20
94.3521
  0
VERTEX
  8
LAYER_1
 10
113.2473
 20
94.0856
  0
VERTEX
  8
LAYER_1
 10
113.2561
 20
94.0833
  0
VERTEX
  8
LAYER_1
 10
113.2082
 20
93.8128
  0
SEQEND
  0
POLYLINE
  8
LAYER_1
 40
0.1058
 41
0.1058
 66
1
 10
0
 20
0
 30
0
  0
VERTEX
  8
LAYER_1
 10
113.2187
 20
93.8128
  0
VERTEX
  8
LAYER_1
 10
110.1179
 20
93.8128
  0
VERTEX
  8
LAYER_1
 10
109.6236
 20
94.5127
  0
VERTEX
  8
LAYER_1
 10
110.9868
 20
94.3521
  0
VERTEX
  8
LAYER_1
 10
113.2473
 20
94.0856
  0
VERTEX
  8
LAYER_1
 10
113.2561
 20
94.0833
  0
VERTEX
  8
LAYER_1
 10
113.2082
 20
93.8128
  0
SEQEND
  0
POLYLINE
  8
LAYER_1
 40
0.1058
 41
0.1058
 66
1
 10
0
 20
0
 30
0
  0
VERTEX
  8
LAYER_1
 10
93.1769
 20
106.3361
  0
VERTEX
  8
LAYER_1
 10
93.1769
 20
100.0481
 42
-0.4739140124
  0
VERTEX
  8
LAYER_1
 10
92.9753
 20
99.8489
  0
VERTEX
  8
LAYER_1
 10
33.2666
 20
99.8489
 42
-0.4737870575
  0
VERTEX
  8
LAYER_1
 10
33.0662
 20
100.0481
  0
VERTEX
  8
LAYER_1
 10
33.0662
 20
106.3361
  0
SEQEND
  0
POLYLINE
  8
LAYER_1
 40
0.1058
 41
0.1058
 66
1
 10
0
 20
0
 30
0
  0
VERTEX
  8
LAYER_1
 10
33.5921
 20
106.8619
 42
0.3932357458
  0
VERTEX
  8
LAYER_1
 10
33.0662
 20
106.3367
  0
SEQEND
  0
POLYLINE
  8
LAYER_1
 40
0.1058
 41
0.1058
 66
1
 10
0
 20
0
 30
0
  0
VERTEX
  8
LAYER_1
 10
92.6499
 20
106.8619
 42
-0.3928714921
  0
VERTEX
  8
LAYER_1
 10
93.1769
 20
106.3367
  0
SEQEND
  0
POLYLINE
  8
LAYER_1
 40
0.1058
 41
0.1058
 66
1
 10
0
 20
0
 30
0
  0
VERTEX
  8
LAYER_1
 10
33.5921
 20
106.8619
  0
VERTEX
  8
LAYER_1
 10
40.7792
 20
106.8619
  0
SEQEND
  0
POLYLINE
  8
LAYER_1
 40
0.1058
 41
0.1058
 66
1
 10
0
 20
0
 30
0
  0
VERTEX
  8
LAYER_1
 10
40.7786
 20
106.8619
  0
VERTEX
  8
LAYER_1
 10
92.6505
 20
106.8619
  0
SEQEND
  0
POLYLINE
  8
LAYER_1
 40
0.1058
 41
0.1058
 66
1
 10
0
 20
0
 30
0
  0
VERTEX
  8
LAYER_1
 10
37.7679
 20
99.8489
  0
VERTEX
  8
LAYER_1
 10
42.7196
 20
92.8353
  0
VERTEX
  8
LAYER_1
 10
83.8753
 20
92.8353
  0
VERTEX
  8
LAYER_1
 10
88.8282
 20
99.8489
  0
SEQEND
  0
TEXT
  8
LAYER_1
 10
106.3829
 20
133.1803
 11
106.3829
 21
133.1803
 40
4.7388
 41
0.5
 50
180
  1
8
  0
TEXT
  8
LAYER_1
 10
106.5923
 20
171.2017
 11
106.5923
 21
171.2017
 40
4.7388
 41
0.5
 50
180
  1
8
  0
POLYLINE
  8
LAYER_1
 40
0.1058
 41
0.1058
 66
1
 10
0
 20
0
 30
0
  0
VERTEX
  8
LAYER_1
 10
95.8786
 20
136.3876
  0
VERTEX
  8
LAYER_1
 10
100.6667
 20
136.3876
  0
VERTEX
  8
LAYER_1
 10
100.6667
 20
151.8715
  0
SEQEND
  0
POLYLINE
  8
LAYER_1
 40
0.1058
 41
0.1058
 66
1
 10
0
 20
0
 30
0
  0
VERTEX
  8
LAYER_1
 10
100.6667
 20
157.127
  0
VERTEX
  8
LAYER_1
 10
100.6673
 20
172.5425
  0
VERTEX
  8
LAYER_1
 10
95.8418
 20
172.5425
  0
SEQEND
  0
TEXT
  8
LAYER_1
 10
96.2329
 20
152.6189
 11
96.2329
 21
152.6189
 40
4.7388
 41
0.5
  1
364
  0
POLYLINE
  8
LAYER_1
 40
0.1058
 41
0.1058
 66
1
 10
0
 20
0
 30
0
  0
VERTEX
  8
LAYER_1
 10
100.6673
 20
172.5431
  0
VERTEX
  8
LAYER_1
 10
100.6673
 20
173.5276
  0
SEQEND
  0
POLYLINE
  8
LAYER_1
 40
0.1058
 41
0.1058
 66
1
 10
0
 20
0
 30
0
  0
VERTEX
  8
LAYER_1
 10
100.6667
 20
136.3882
  0
VERTEX
  8
LAYER_1
 10
100.6673
 20
135.43
  0
SEQEND
  0
POLYLINE
  8
LAYER_1
 40
0.1058
 41
0.1058
 66
1
 10
0
 20
0
 30
0
  0
VERTEX
  8
LAYER_1
 10
100.7479
 20
135.43
  0
VERTEX
  8
LAYER_1
 10
95.8786
 20
135.43
  0
SEQEND
  0
POLYLINE
  8
LAYER_1
 40
0.1058
 41
0.1058
 66
1
 10
0
 20
0
 30
0
  0
VERTEX
  8
LAYER_1
 10
100.7479
 20
173.5276
  0
VERTEX
  8
LAYER_1
 10
95.8786
 20
173.5276
  0
SEQEND
  0
POLYLINE
  8
LAYER_1
  6
AIGENLINE002
 40
0.1058
 41
0.1058
 62
253
 66
1
 10
0
 20
0
 30
0
 70
128
  0
VERTEX
  8
LAYER_1
 10
118.757
 20
92.1639
  0
VERTEX
  8
LAYER_1
 10
121.0111
 20
92.1639
  0
SEQEND
  0
POLYLINE
  8
LAYER_1
 40
0.1058
 41
0.1058
 66
1
 10
0
 20
0
 30
0
  0
VERTEX
  8
LAYER_1
 10
28.8676
 20
92.5811
  0
VERTEX
  8
LAYER_1
 10
19.2411
 20
92.5811
  0
VERTEX
  8
LAYER_1
 10
19.2411
 20
97.1449
  0
SEQEND
  0
POLYLINE
  8
LAYER_1
 40
0.1058
 41
0.1058
 66
1
 10
0
 20
0
 30
0
  0
VERTEX
  8
LAYER_1
 10
19.2154
 20
102.1761
  0
VERTEX
  8
LAYER_1
 10
19.2154
 20
107.0653
  0
VERTEX
  8
LAYER_1
 10
28.867
 20
107.0653
  0
SEQEND
  0
TEXT
  8
LAYER_1
 10
7.3729
 20
97.7675
 11
7.3729
 21
97.7675
 40
4.9692
 41
0.5
  1
140
  0
TEXT
  8
LAYER_1
 10
15.6763
 20
108.687
 11
15.6763
 21
108.687
 40
4.9692
 41
0.5
  1
70
  0
POLYLINE
  8
LAYER_1
 40
0.1058
 41
0.1058
 66
1
 10
0
 20
0
 30
0
  0
VERTEX
  8
LAYER_1
 10
25.3742
 20
112.0561
  0
VERTEX
  8
LAYER_1
 10
25.3742
 20
99.6123
  0
VERTEX
  8
LAYER_1
 10
28.867
 20
99.6123
  0
SEQEND
  0
POLYLINE
  8
LAYER_1
  6
AIGENLINE003
 40
0.3528
 41
0.3528
 66
1
 10
0
 20
0
 30
0
 70
129
  0
VERTEX
  8
LAYER_1
 10
206.378
 20
139.2844
  0
VERTEX
  8
LAYER_1
 10
155.378
 20
139.2844
  0
VERTEX
  8
LAYER_1
 10
155.378
 20
169.2844
  0
VERTEX
  8
LAYER_1
 10
206.378
 20
169.2844
  0
SEQEND
  0
TEXT
  8
LAYER_1
 10
159.2203
 20
132.4091
 11
159.2203
 21
132.4091
 40
4.1569
 41
0.5
  1
カウンター開口寸法
  0
TEXT
  8
LAYER_1
 10
159.2203
 20
127.4892
 11
159.2203
 21
127.4892
 40
4.7388
 41
0.5
  1
510×300mm
  0
TEXT
  8
LAYER_6
 10
-26.2556
 20
43.1712
 11
-26.2556
 21
43.1712
 40
3.2995
 41
0.5
  1
仕様
  0
POLYLINE
  8
LAYER_6
 40
0.3528
 41
0.3528
 66
1
 10
0
 20
0
 30
0
  0
VERTEX
  8
LAYER_6
 10
250.6748
 20
51.9507
  0
VERTEX
  8
LAYER_6
 10
-29.3178
 20
51.9507
  0
SEQEND
  0
INSERT
  8
LAYER_6
  2
AIGNBL06010002
 10
0
 20
0
 30
0
  0
POLYLINE
  8
LAYER_6
 40
0.3528
 41
0.3528
 66
1
 10
0
 20
0
 30
0
  0
VERTEX
  8
LAYER_6
 10
-29.3178
 20
229.3369
  0
VERTEX
  8
LAYER_6
 10
-29.3178
 20
34.3283
  0
VERTEX
  8
LAYER_6
 10
250.6748
 20
34.3283
  0
VERTEX
  8
LAYER_6
 10
250.6748
 20
229.3369
  0
VERTEX
  8
LAYER_6
 10
-29.3178
 20
229.3369
  0
SEQEND
  0
POLYLINE
  8
LAYER_6
 40
0.3528
 41
0.3528
 66
1
 10
0
 20
0
 30
0
  0
VERTEX
  8
LAYER_6
 10
250.6748
 20
60.4597
  0
VERTEX
  8
LAYER_6
 10
-29.3178
 20
60.4597
  0
SEQEND
  0
POLYLINE
  8
LAYER_6
 40
0.3528
 41
0.3528
 66
1
 10
0
 20
0
 30
0
  0
VERTEX
  8
LAYER_6
 10
250.6748
 20
43.4416
  0
VERTEX
  8
LAYER_6
 10
143.5341
 20
43.4416
  0
SEQEND
  0
TEXT
  8
LAYER_6
 10
188.1725
 20
45.7175
 11
188.1725
 21
45.7175
 40
3.7615
 41
0.5
  1
-
  0
TEXT
  8
LAYER_6
 10
182.8808
 20
49.4743
 11
182.8808
 21
49.4743
 40
2.1997
 41
0.5
  1
縮尺
  0
POLYLINE
  8
LAYER_6
 40
0.3528
 41
0.3528
 66
1
 10
0
 20
0
 30
0
  0
VERTEX
  8
LAYER_6
 10
181.3526
 20
43.4416
  0
VERTEX
  8
LAYER_6
 10
181.3526
 20
51.9507
  0
SEQEND
  0
TEXT
  8
LAYER_6
 10
144.2327
 20
57.9834
 11
144.2327
 21
57.9834
 40
2.1997
 41
0.5
  1
品番
  0
TEXT
  8
LAYER_6
 10
-28.1609
 20
57.9834
 11
-28.1609
 21
57.9834
 40
2.1997
 41
0.5
  1
品名
  0
TEXT
  8
LAYER_6
 10
144.2327
 20
49.4743
 11
144.2327
 21
49.4743
 40
2.1997
 41
0.5
  1
重量
  0
TEXT
  8
LAYER_6
 10
150.2547
 20
54.1514
 11
150.2547
 21
54.1514
 40
5.9385
 41
0.5
  1
SIM-BB10/
  0
POLYLINE
  8
LAYER_6
 40
0.3528
 41
0.3528
 66
1
 10
0
 20
0
 30
0
  0
VERTEX
  8
LAYER_6
 10
143.5341
 20
34.9539
  0
VERTEX
  8
LAYER_6
 10
143.5341
 20
60.4597
  0
SEQEND
  0
TEXT
  8
LAYER_6
 10
-15.2683
 20
54.891
 11
-15.2683
 21
54.891
 40
4.1465
 41
0.5
  1
バーデン・バーデン 半埋め込み型 洗傭器600ｍｍ
  0
TEXT
  8
LAYER_6
 10
-15.6835
 20
45.3736
 11
-15.6835
 21
45.3736
 40
3.5541
 41
0.5
  1
●サイズ：W600×D380×H140（70）mm
  0
TEXT
  8
LAYER_6
 10
-15.6835
 20
40.6235
 11
-15.6835
 21
40.6235
 40
3.1177
 41
0.5
  1
●設置方法：半埋め込み●水栓取付穴：なし●オーバーフローなし
  0
TEXT
  8
LAYER_6
 10
-15.6835
 20
35.8738
 11
-15.6835
 21
35.8738
 40
3.1177
 41
0.5
  1
●排水金具別途
  0
TEXT
  8
LAYER_6
 10
237.263
 20
63.2582
 11
237.263
 21
63.2582
 40
2.9618
 41
0.5
  1
単位：mm
  0
TEXT
  8
LAYER_6
 10
6.5217
 20
219.7385
 11
6.5217
 21
219.7385
 40
2.5981
 41
0.5
  1
※陶器製品は寸法公差が発生します。施工の際は必ず現物を合わせてご確認ください。
  0
TEXT
  8
LAYER_6
 10
6.5217
 20
214.9886
 11
6.5217
 21
214.9886
 40
2.5981
 41
0.5
  1
※製品と接する部分には必ずコーキング処理を行ってください。
  0
TEXT
  8
LAYER_6
 10
176.0254
 20
39.5359
 11
176.0254
 21
39.5359
 40
3.3853
 41
0.5
  1
●TEL 0120-65-1232●FAX 06-6532-1580
  0
TEXT
  8
LAYER_6
 10
176.0254
 20
36.0212
 11
176.0254
 21
36.0212
 40
3.3853
 41
0.5
  1
hits@hiratatile.co.jp
  0
TEXT
  8
LAYER_6
 10
240.3591
 20
225.8432
 11
240.3591
 21
225.8432
 40
2.0732
 41
0.5
  1
180612RT
  0
INSERT
  8
LAYER_6
  2
AIGNBL06010003
 10
0
 20
0
 30
0
  0
INSERT
  8
LAYER_6
  2
AIGNBL06010025
 10
0
 20
0
 30
0
  0
TEXT
  8
LAYER_6
 10
157.2803
 20
46.4933
 11
157.2803
 21
46.4933
 40
3.7615
 41
0.5
  1
13kg
  0
ENDSEC
  0
EOF
