  0
SECTION
  2
HEADER
  9
$ACADVER
  1
AC1009
  9
$LUNITS
 70
2
  9
$LUPREC
 70
4
  9
$LTSCALE
 40
1.0
  9
$EXTMIN
 10
-30.3177
 20
33.3285
 30
0
  9
$EXTMAX
 10
251.6749
 20
230.337
 30
0
  0
ENDSEC
  0
SECTION
  2
TABLES
  0
TABLE
  2
LTYPE
 70
256
  0
LTYPE
  2
AIGENLINE001
 70
64
  3
generate AI->DXF Converter
 72
65
 73
2
 40
0.6998
 49
0.3499
 49
-0.3499
  0
LTYPE
  2
AIGENLINE002
 70
64
  3
generate AI->DXF Converter
 72
65
 73
2
 40
0.6968
 49
0.3484
 49
-0.3484
  0
ENDTAB
  0
TABLE
  2
LAYER
 70
5
  0
LAYER
  2
LAYER_1
 70
64
 62
7
  6
CONTINUOUS
  0
LAYER
  2
LAYER_2
 70
64
 62
7
  6
CONTINUOUS
  0
LAYER
  2
LAYER_3
 70
64
 62
7
  6
CONTINUOUS
  0
LAYER
  2
LAYER_4
 70
64
 62
7
  6
CONTINUOUS
  0
LAYER
  2
LAYER_5
 70
64
 62
7
  6
CONTINUOUS
  0
ENDTAB
  0
TABLE
  2
STYLE
 70
6
  0
STYLE
  2
STANDARD
 70
0
 40
0
 50
0
 71
0
 41
0
 42
0
  3
TXT
  4
BIGFONT
  0
ENDTAB
  0
ENDSEC
  0
SECTION
  2
BLOCKS
  0
BLOCK
  8
LAYER_5
  2
AIGNBL05040006
 70
64
 10
0
 20
0
 30
0
  3
AIGNBL05040006
  0
POLYLINE
  8
LAYER_5
 40
0.05
 41
0.05
 66
1
 10
0
 20
0
 30
0
 70
1
  0
VERTEX
  8
LAYER_5
 10
146.7545
 20
39.1418
  0
VERTEX
  8
LAYER_5
 10
146.2656
 20
37.9567
  0
VERTEX
  8
LAYER_5
 10
145.6376
 20
37.9567
  0
VERTEX
  8
LAYER_5
 10
147.2372
 20
41.7225
  0
VERTEX
  8
LAYER_5
 10
147.9703
 20
41.7225
  0
VERTEX
  8
LAYER_5
 10
149.5768
 20
37.9567
  0
VERTEX
  8
LAYER_5
 10
148.9267
 20
37.9567
  0
VERTEX
  8
LAYER_5
 10
148.424
 20
39.1418
  0
SEQEND
  0
POLYLINE
  8
LAYER_5
 40
0.05
 41
0.05
 66
1
 10
0
 20
0
 30
0
 70
1
  0
VERTEX
  8
LAYER_5
 10
148.2983
 20
39.5207
  0
VERTEX
  8
LAYER_5
 10
147.8373
 20
40.6056
 42
-0.02317247198
  0
VERTEX
  8
LAYER_5
 10
147.5927
 20
41.2926
  0
VERTEX
  8
LAYER_5
 10
147.5789
 20
41.2926
 42
-0.02064481114
  0
VERTEX
  8
LAYER_5
 10
147.3412
 20
40.6101
  0
VERTEX
  8
LAYER_5
 10
146.8806
 20
39.5207
  0
SEQEND
  0
ENDBLK
  0
BLOCK
  8
LAYER_5
  2
AIGNBL05040007
 70
64
 10
0
 20
0
 30
0
  3
AIGNBL05040007
  0
POLYLINE
  8
LAYER_5
 40
0.05
 41
0.05
 66
1
 10
0
 20
0
 30
0
 70
1
  0
VERTEX
  8
LAYER_5
 10
153.942
 20
37.4034
 42
-0.01520763512
  0
VERTEX
  8
LAYER_5
 10
152.1399
 20
37.8395
 42
0.09160443264
  0
VERTEX
  8
LAYER_5
 10
151.8533
 20
37.895
 42
-0.09256808484
  0
VERTEX
  8
LAYER_5
 10
150.8994
 20
38.0977
 42
-0.09799469934
  0
VERTEX
  8
LAYER_5
 10
150.2621
 20
38.5324
 42
-0.1630918382
  0
VERTEX
  8
LAYER_5
 10
149.7964
 20
39.5259
 42
-0.0316951694
  0
VERTEX
  8
LAYER_5
 10
149.7793
 20
39.7998
 42
-0.1055313794
  0
VERTEX
  8
LAYER_5
 10
149.9533
 20
40.6417
 42
-0.1619874109
  0
VERTEX
  8
LAYER_5
 10
150.7418
 20
41.4867
 42
-0.09224146328
  0
VERTEX
  8
LAYER_5
 10
151.5409
 20
41.7524
 42
-0.03717154931
  0
VERTEX
  8
LAYER_5
 10
151.9725
 20
41.7838
 42
-0.09530639066
  0
VERTEX
  8
LAYER_5
 10
152.9361
 20
41.6062
 42
-0.1001950085
  0
VERTEX
  8
LAYER_5
 10
153.5732
 20
41.1834
 42
-0.1611155306
  0
VERTEX
  8
LAYER_5
 10
154.0599
 20
40.1825
 42
-0.03590167283
  0
VERTEX
  8
LAYER_5
 10
154.0815
 20
39.8784
 42
-0.1066761192
  0
VERTEX
  8
LAYER_5
 10
153.9051
 20
39.0236
 42
-0.2183970027
  0
VERTEX
  8
LAYER_5
 10
152.7953
 20
38.0897
 42
-0.006706711403
  0
VERTEX
  8
LAYER_5
 10
152.7407
 20
38.0738
  0
VERTEX
  8
LAYER_5
 10
152.7407
 20
38.0514
 42
0.01533555045
  0
VERTEX
  8
LAYER_5
 10
154.117
 20
37.8113
  0
SEQEND
  0
POLYLINE
  8
LAYER_5
 40
0.05
 41
0.05
 66
1
 10
0
 20
0
 30
0
 70
1
  0
VERTEX
  8
LAYER_5
 10
153.4394
 20
39.857
 42
0.1175610784
  0
VERTEX
  8
LAYER_5
 10
153.257
 20
40.6254
 42
0.1170135141
  0
VERTEX
  8
LAYER_5
 10
152.8315
 20
41.1234
 42
0.1200044572
  0
VERTEX
  8
LAYER_5
 10
152.2186
 20
41.3675
 42
0.03774262044
  0
VERTEX
  8
LAYER_5
 10
151.9511
 20
41.3873
 42
0.1153139376
  0
VERTEX
  8
LAYER_5
 10
151.2089
 20
41.2226
 42
0.1853550912
  0
VERTEX
  8
LAYER_5
 10
150.5507
 20
40.4882
 42
0.09859892291
  0
VERTEX
  8
LAYER_5
 10
150.4287
 20
39.8122
 42
0.1178359247
  0
VERTEX
  8
LAYER_5
 10
150.5964
 20
39.0734
 42
0.2866694251
  0
VERTEX
  8
LAYER_5
 10
151.9232
 20
38.2912
 42
0.1188197759
  0
VERTEX
  8
LAYER_5
 10
152.6722
 20
38.4633
 42
0.1796740134
  0
VERTEX
  8
LAYER_5
 10
153.3126
 20
39.18
 42
0.09850052237
  0
SEQEND
  0
ENDBLK
  0
BLOCK
  8
LAYER_5
  2
AIGNBL05040008
 70
64
 10
0
 20
0
 30
0
  3
AIGNBL05040008
  0
POLYLINE
  8
LAYER_5
 40
0.05
 41
0.05
 66
1
 10
0
 20
0
 30
0
 70
1
  0
VERTEX
  8
LAYER_5
 10
155.4089
 20
41.7225
  0
VERTEX
  8
LAYER_5
 10
155.4089
 20
39.4932
 42
0.1220213404
  0
VERTEX
  8
LAYER_5
 10
155.569
 20
38.7775
 42
0.2218709818
  0
VERTEX
  8
LAYER_5
 10
156.2104
 20
38.3206
 42
0.05223876895
  0
VERTEX
  8
LAYER_5
 10
156.5055
 20
38.2912
 42
0.1302821267
  0
VERTEX
  8
LAYER_5
 10
157.1748
 20
38.452
 42
0.1509367336
  0
VERTEX
  8
LAYER_5
 10
157.526
 20
38.8454
 42
0.1174732039
  0
VERTEX
  8
LAYER_5
 10
157.651
 20
39.4932
  0
VERTEX
  8
LAYER_5
 10
157.651
 20
41.7225
  0
VERTEX
  8
LAYER_5
 10
158.2656
 20
41.7225
  0
VERTEX
  8
LAYER_5
 10
158.2656
 20
39.5266
 42
-0.1106199636
  0
VERTEX
  8
LAYER_5
 10
158.0961
 20
38.708
 42
-0.1822316276
  0
VERTEX
  8
LAYER_5
 10
157.4057
 20
38.0637
 42
-0.09768689614
  0
VERTEX
  8
LAYER_5
 10
156.6028
 20
37.8972
 42
-0.01000776787
  0
VERTEX
  8
LAYER_5
 10
156.4845
 20
37.895
 42
-0.09899539667
  0
VERTEX
  8
LAYER_5
 10
155.612
 20
38.0554
 42
-0.120955925
  0
VERTEX
  8
LAYER_5
 10
155.1093
 20
38.4366
 42
-0.1193006487
  0
VERTEX
  8
LAYER_5
 10
154.8407
 20
39.0316
 42
-0.05319923583
  0
VERTEX
  8
LAYER_5
 10
154.7943
 20
39.5045
  0
VERTEX
  8
LAYER_5
 10
154.7943
 20
41.7225
  0
SEQEND
  0
ENDBLK
  0
BLOCK
  8
LAYER_5
  2
AIGNBL05040009
 70
64
 10
0
 20
0
 30
0
  3
AIGNBL05040009
  0
POLYLINE
  8
LAYER_5
 40
0.05
 41
0.05
 66
1
 10
0
 20
0
 30
0
 70
1
  0
VERTEX
  8
LAYER_5
 10
160.0119
 20
39.1418
  0
VERTEX
  8
LAYER_5
 10
159.5227
 20
37.9567
  0
VERTEX
  8
LAYER_5
 10
158.8947
 20
37.9567
  0
VERTEX
  8
LAYER_5
 10
160.4939
 20
41.7225
  0
VERTEX
  8
LAYER_5
 10
161.227
 20
41.7225
  0
VERTEX
  8
LAYER_5
 10
162.8335
 20
37.9567
  0
VERTEX
  8
LAYER_5
 10
162.1841
 20
37.9567
  0
VERTEX
  8
LAYER_5
 10
161.6814
 20
39.1418
  0
SEQEND
  0
POLYLINE
  8
LAYER_5
 40
0.05
 41
0.05
 66
1
 10
0
 20
0
 30
0
 70
1
  0
VERTEX
  8
LAYER_5
 10
161.5553
 20
39.5207
  0
VERTEX
  8
LAYER_5
 10
161.094
 20
40.6056
 42
-0.02227599701
  0
VERTEX
  8
LAYER_5
 10
160.8494
 20
41.2926
  0
VERTEX
  8
LAYER_5
 10
160.8357
 20
41.2926
 42
-0.0208222547
  0
VERTEX
  8
LAYER_5
 10
160.5983
 20
40.6101
  0
VERTEX
  8
LAYER_5
 10
160.1373
 20
39.5207
  0
SEQEND
  0
ENDBLK
  0
BLOCK
  8
LAYER_5
  2
AIGNBL0504000A
 70
64
 10
0
 20
0
 30
0
  3
AIGNBL0504000A
  0
POLYLINE
  8
LAYER_5
 40
0.05
 41
0.05
 66
1
 10
0
 20
0
 30
0
 70
1
  0
VERTEX
  8
LAYER_5
 10
163.8742
 20
41.6777
 42
-0.03334485223
  0
VERTEX
  8
LAYER_5
 10
165.0411
 20
41.7508
 42
-0.08844478427
  0
VERTEX
  8
LAYER_5
 10
166.0871
 20
41.5858
 42
-0.06037505309
  0
VERTEX
  8
LAYER_5
 10
166.3609
 20
41.4379
 42
-0.2472514979
  0
VERTEX
  8
LAYER_5
 10
166.7726
 20
40.6497
 42
-0.1483298328
  0
VERTEX
  8
LAYER_5
 10
166.6029
 20
40.0554
 42
-0.07223194904
  0
VERTEX
  8
LAYER_5
 10
166.4095
 20
39.8456
 42
-0.1209372404
  0
VERTEX
  8
LAYER_5
 10
165.7228
 20
39.517
 42
-0.06224269186
  0
VERTEX
  8
LAYER_5
 10
164.9708
 20
39.4319
 42
-0.05738783264
  0
VERTEX
  8
LAYER_5
 10
164.4823
 20
39.4653
  0
VERTEX
  8
LAYER_5
 10
164.4823
 20
37.9567
  0
VERTEX
  8
LAYER_5
 10
163.8742
 20
37.9567
  0
SEQEND
  0
POLYLINE
  8
LAYER_5
 40
0.05
 41
0.05
 66
1
 10
0
 20
0
 30
0
 70
1
  0
VERTEX
  8
LAYER_5
 10
164.4823
 20
39.8622
 42
0.05012782438
  0
VERTEX
  8
LAYER_5
 10
164.9846
 20
39.8229
 42
0.1135299982
  0
VERTEX
  8
LAYER_5
 10
165.7697
 20
39.9822
 42
0.1653556145
  0
VERTEX
  8
LAYER_5
 10
166.1074
 20
40.3302
 42
0.1044590446
  0
VERTEX
  8
LAYER_5
 10
166.1656
 20
40.6273
 42
0.2826437488
  0
VERTEX
  8
LAYER_5
 10
165.8147
 20
41.2103
 42
0.0629694601
  0
VERTEX
  8
LAYER_5
 10
165.549
 20
41.3107
 42
0.06259589917
  0
VERTEX
  8
LAYER_5
 10
165.0552
 20
41.3649
 42
0.05192366909
  0
VERTEX
  8
LAYER_5
 10
164.4823
 20
41.3257
  0
SEQEND
  0
ENDBLK
  0
BLOCK
  8
LAYER_5
  2
AIGNBL0504000B
 70
64
 10
0
 20
0
 30
0
  3
AIGNBL0504000B
  0
POLYLINE
  8
LAYER_5
 40
0.05
 41
0.05
 66
1
 10
0
 20
0
 30
0
 70
1
  0
VERTEX
  8
LAYER_5
 10
168.3246
 20
41.4207
 42
-0.3048675751
  0
VERTEX
  8
LAYER_5
 10
168.1582
 20
41.1661
 42
-0.1151020929
  0
VERTEX
  8
LAYER_5
 10
167.9329
 20
41.1189
 42
-0.2442513348
  0
VERTEX
  8
LAYER_5
 10
167.6028
 20
41.2794
 42
-0.1394546152
  0
VERTEX
  8
LAYER_5
 10
167.5626
 20
41.4207
 42
-0.287439772
  0
VERTEX
  8
LAYER_5
 10
167.7346
 20
41.6803
 42
-0.1179404017
  0
VERTEX
  8
LAYER_5
 10
167.9467
 20
41.7277
 42
-0.2416274379
  0
VERTEX
  8
LAYER_5
 10
168.2814
 20
41.5719
 42
-0.1426378456
  0
SEQEND
  0
POLYLINE
  8
LAYER_5
 40
0.05
 41
0.05
 66
1
 10
0
 20
0
 30
0
 70
1
  0
VERTEX
  8
LAYER_5
 10
167.639
 20
37.9567
  0
VERTEX
  8
LAYER_5
 10
167.639
 20
40.6607
  0
VERTEX
  8
LAYER_5
 10
168.2537
 20
40.6607
  0
VERTEX
  8
LAYER_5
 10
168.2537
 20
37.9567
  0
SEQEND
  0
ENDBLK
  0
BLOCK
  8
LAYER_5
  2
AIGNBL0504000C
 70
64
 10
0
 20
0
 30
0
  3
AIGNBL0504000C
  0
POLYLINE
  8
LAYER_5
 40
0.05
 41
0.05
 66
1
 10
0
 20
0
 30
0
 70
1
  0
VERTEX
  8
LAYER_5
 10
170.1254
 20
39.1418
  0
VERTEX
  8
LAYER_5
 10
169.6372
 20
37.9567
  0
VERTEX
  8
LAYER_5
 10
169.0081
 20
37.9567
  0
VERTEX
  8
LAYER_5
 10
170.6077
 20
41.7225
  0
VERTEX
  8
LAYER_5
 10
171.3415
 20
41.7225
  0
VERTEX
  8
LAYER_5
 10
172.9479
 20
37.9567
  0
VERTEX
  8
LAYER_5
 10
172.2982
 20
37.9567
  0
VERTEX
  8
LAYER_5
 10
171.7955
 20
39.1418
  0
SEQEND
  0
POLYLINE
  8
LAYER_5
 40
0.05
 41
0.05
 66
1
 10
0
 20
0
 30
0
 70
1
  0
VERTEX
  8
LAYER_5
 10
171.6695
 20
39.5207
  0
VERTEX
  8
LAYER_5
 10
171.2085
 20
40.6056
 42
-0.02430767271
  0
VERTEX
  8
LAYER_5
 10
170.9646
 20
41.2926
  0
VERTEX
  8
LAYER_5
 10
170.9498
 20
41.2926
 42
-0.02034719794
  0
VERTEX
  8
LAYER_5
 10
170.7128
 20
40.6101
  0
VERTEX
  8
LAYER_5
 10
170.2518
 20
39.5207
  0
SEQEND
  0
ENDBLK
  0
BLOCK
  8
LAYER_5
  2
AIGNBL05030005
 70
64
 10
0
 20
0
 30
0
  3
AIGNBL05030005
  0
INSERT
  8
LAYER_5
  2
AIGNBL05040006
 10
0
 20
0
 30
0
  0
INSERT
  8
LAYER_5
  2
AIGNBL05040007
 10
0
 20
0
 30
0
  0
INSERT
  8
LAYER_5
  2
AIGNBL05040008
 10
0
 20
0
 30
0
  0
INSERT
  8
LAYER_5
  2
AIGNBL05040009
 10
0
 20
0
 30
0
  0
INSERT
  8
LAYER_5
  2
AIGNBL0504000A
 10
0
 20
0
 30
0
  0
INSERT
  8
LAYER_5
  2
AIGNBL0504000B
 10
0
 20
0
 30
0
  0
INSERT
  8
LAYER_5
  2
AIGNBL0504000C
 10
0
 20
0
 30
0
  0
ENDBLK
  0
BLOCK
  8
LAYER_5
  2
AIGNBL0503000E
 70
64
 10
0
 20
0
 30
0
  3
AIGNBL0503000E
  0
POLYLINE
  8
LAYER_5
 40
0.05
 41
0.05
 66
1
 10
0
 20
0
 30
0
 70
1
  0
VERTEX
  8
LAYER_5
 10
145.7475
 20
36.0574
  0
VERTEX
  8
LAYER_5
 10
146.3008
 20
36.0574
  0
VERTEX
  8
LAYER_5
 10
146.3008
 20
35.9637
  0
VERTEX
  8
LAYER_5
 10
145.6424
 20
35.9637
  0
VERTEX
  8
LAYER_5
 10
145.6424
 20
36.9969
  0
VERTEX
  8
LAYER_5
 10
146.2832
 20
36.9969
  0
VERTEX
  8
LAYER_5
 10
146.2832
 20
36.9035
  0
VERTEX
  8
LAYER_5
 10
145.7475
 20
36.9035
  0
VERTEX
  8
LAYER_5
 10
145.7475
 20
36.549
  0
VERTEX
  8
LAYER_5
 10
146.2481
 20
36.549
  0
VERTEX
  8
LAYER_5
 10
146.2481
 20
36.4557
  0
VERTEX
  8
LAYER_5
 10
145.7475
 20
36.4557
  0
SEQEND
  0
ENDBLK
  0
BLOCK
  8
LAYER_5
  2
AIGNBL0503000F
 70
64
 10
0
 20
0
 30
0
  3
AIGNBL0503000F
  0
POLYLINE
  8
LAYER_5
 40
0.05
 41
0.05
 66
1
 10
0
 20
0
 30
0
 70
1
  0
VERTEX
  8
LAYER_5
 10
147.4404
 20
36.117
  0
VERTEX
  8
LAYER_5
 10
147.4432
 20
36.117
  0
VERTEX
  8
LAYER_5
 10
147.4432
 20
36.9969
  0
VERTEX
  8
LAYER_5
 10
147.5483
 20
36.9969
  0
VERTEX
  8
LAYER_5
 10
147.5483
 20
35.9637
  0
VERTEX
  8
LAYER_5
 10
147.4174
 20
35.9637
  0
VERTEX
  8
LAYER_5
 10
146.8162
 20
36.8525
  0
VERTEX
  8
LAYER_5
 10
146.8127
 20
36.8525
  0
VERTEX
  8
LAYER_5
 10
146.8127
 20
35.9637
  0
VERTEX
  8
LAYER_5
 10
146.708
 20
35.9637
  0
VERTEX
  8
LAYER_5
 10
146.708
 20
36.9969
  0
VERTEX
  8
LAYER_5
 10
146.8393
 20
36.9969
  0
SEQEND
  0
ENDBLK
  0
BLOCK
  8
LAYER_5
  2
AIGNBL05030010
 70
64
 10
0
 20
0
 30
0
  3
AIGNBL05030010
  0
POLYLINE
  8
LAYER_5
 40
0.05
 41
0.05
 66
1
 10
0
 20
0
 30
0
 70
1
  0
VERTEX
  8
LAYER_5
 10
148.0213
 20
36.1756
 42
0.1557655154
  0
VERTEX
  8
LAYER_5
 10
148.0757
 20
36.0725
 42
0.1918235184
  0
VERTEX
  8
LAYER_5
 10
148.1891
 20
36.0309
  0
VERTEX
  8
LAYER_5
 10
148.2783
 20
36.0505
  0
VERTEX
  8
LAYER_5
 10
148.3344
 20
36.1039
  0
VERTEX
  8
LAYER_5
 10
148.3634
 20
36.1804
  0
VERTEX
  8
LAYER_5
 10
148.3717
 20
36.27
  0
VERTEX
  8
LAYER_5
 10
148.3717
 20
36.9969
  0
VERTEX
  8
LAYER_5
 10
148.4767
 20
36.9969
  0
VERTEX
  8
LAYER_5
 10
148.4767
 20
36.2614
  0
VERTEX
  8
LAYER_5
 10
148.4654
 20
36.1535
 42
-0.0973308998
  0
VERTEX
  8
LAYER_5
 10
148.424
 20
36.0485
 42
-0.1149355521
  0
VERTEX
  8
LAYER_5
 10
148.3393
 20
35.9689
 42
-0.1249341208
  0
VERTEX
  8
LAYER_5
 10
148.2004
 20
35.9375
 42
-0.1793665557
  0
VERTEX
  8
LAYER_5
 10
148.0158
 20
35.9974
 42
-0.1772363953
  0
VERTEX
  8
LAYER_5
 10
147.9234
 20
36.149
  0
SEQEND
  0
ENDBLK
  0
BLOCK
  8
LAYER_5
  2
AIGNBL05030011
 70
64
 10
0
 20
0
 30
0
  3
AIGNBL05030011
  0
POLYLINE
  8
LAYER_5
 40
0.05
 41
0.05
 66
1
 10
0
 20
0
 30
0
 70
1
  0
VERTEX
  8
LAYER_5
 10
149.965
 20
36.4805
 42
-0.1019307791
  0
VERTEX
  8
LAYER_5
 10
149.924
 20
36.2631
 42
-0.1000112985
  0
VERTEX
  8
LAYER_5
 10
149.8113
 20
36.0915
 42
-0.09646612644
  0
VERTEX
  8
LAYER_5
 10
149.6405
 20
35.9785
 42
-0.09758594962
  0
VERTEX
  8
LAYER_5
 10
149.4265
 20
35.9375
 42
-0.1000844711
  0
VERTEX
  8
LAYER_5
 10
149.2129
 20
35.9785
 42
-0.09954994557
  0
VERTEX
  8
LAYER_5
 10
149.042
 20
36.0915
 42
-0.09699237735
  0
VERTEX
  8
LAYER_5
 10
148.9287
 20
36.2631
 42
-0.09653980076
  0
VERTEX
  8
LAYER_5
 10
148.8881
 20
36.4805
 42
-0.1004051845
  0
VERTEX
  8
LAYER_5
 10
148.9287
 20
36.6978
 42
-0.0998654539
  0
VERTEX
  8
LAYER_5
 10
149.042
 20
36.8694
 42
-0.09851519288
  0
VERTEX
  8
LAYER_5
 10
149.2129
 20
36.9824
 42
-0.09768823248
  0
VERTEX
  8
LAYER_5
 10
149.4265
 20
37.0234
 42
-0.1000514256
  0
VERTEX
  8
LAYER_5
 10
149.6405
 20
36.9824
 42
-0.09863053528
  0
VERTEX
  8
LAYER_5
 10
149.8113
 20
36.8694
 42
-0.09807107579
  0
VERTEX
  8
LAYER_5
 10
149.924
 20
36.6978
 42
-0.0978256893
  0
SEQEND
  0
POLYLINE
  8
LAYER_5
 40
0.05
 41
0.05
 66
1
 10
0
 20
0
 30
0
 70
1
  0
VERTEX
  8
LAYER_5
 10
149.8541
 20
36.4798
 42
0.08634913196
  0
VERTEX
  8
LAYER_5
 10
149.8251
 20
36.6517
 42
0.09649608129
  0
VERTEX
  8
LAYER_5
 10
149.7404
 20
36.795
 42
0.1032857511
  0
VERTEX
  8
LAYER_5
 10
149.6053
 20
36.8932
 42
0.1061320656
  0
VERTEX
  8
LAYER_5
 10
149.4265
 20
36.93
 42
0.1115874499
  0
VERTEX
  8
LAYER_5
 10
149.2478
 20
36.8932
 42
0.1058584166
  0
VERTEX
  8
LAYER_5
 10
149.113
 20
36.795
 42
0.09787799956
  0
VERTEX
  8
LAYER_5
 10
149.0283
 20
36.6517
 42
0.08491464556
  0
VERTEX
  8
LAYER_5
 10
148.999
 20
36.4798
 42
0.08693146424
  0
VERTEX
  8
LAYER_5
 10
149.0283
 20
36.3079
 42
0.1009797617
  0
VERTEX
  8
LAYER_5
 10
149.113
 20
36.1649
 42
0.09998489394
  0
VERTEX
  8
LAYER_5
 10
149.2478
 20
36.0674
 42
0.1061678446
  0
VERTEX
  8
LAYER_5
 10
149.4265
 20
36.0309
 42
0.1126980581
  0
VERTEX
  8
LAYER_5
 10
149.6053
 20
36.0674
 42
0.1036982708
  0
VERTEX
  8
LAYER_5
 10
149.7404
 20
36.1649
 42
0.09370250368
  0
VERTEX
  8
LAYER_5
 10
149.8251
 20
36.3079
 42
0.08466662837
  0
SEQEND
  0
ENDBLK
  0
BLOCK
  8
LAYER_5
  2
AIGNBL05030012
 70
64
 10
0
 20
0
 30
0
  3
AIGNBL05030012
  0
POLYLINE
  8
LAYER_5
 40
0.05
 41
0.05
 66
1
 10
0
 20
0
 30
0
 70
1
  0
VERTEX
  8
LAYER_5
 10
150.7398
 20
35.9637
  0
VERTEX
  8
LAYER_5
 10
150.6351
 20
35.9637
  0
VERTEX
  8
LAYER_5
 10
150.6351
 20
36.4091
  0
VERTEX
  8
LAYER_5
 10
150.2482
 20
36.9969
  0
VERTEX
  8
LAYER_5
 10
150.3795
 20
36.9969
  0
VERTEX
  8
LAYER_5
 10
150.6905
 20
36.4967
  0
VERTEX
  8
LAYER_5
 10
151.0041
 20
36.9969
  0
VERTEX
  8
LAYER_5
 10
151.1263
 20
36.9969
  0
VERTEX
  8
LAYER_5
 10
150.7398
 20
36.4091
  0
SEQEND
  0
ENDBLK
  0
BLOCK
  8
LAYER_5
  2
AIGNBL05030013
 70
64
 10
0
 20
0
 30
0
  3
AIGNBL05030013
  0
POLYLINE
  8
LAYER_5
 40
0.05
 41
0.05
 66
1
 10
0
 20
0
 30
0
 70
1
  0
VERTEX
  8
LAYER_5
 10
152.0314
 20
36.9969
  0
VERTEX
  8
LAYER_5
 10
152.339
 20
36.9969
  0
VERTEX
  8
LAYER_5
 10
152.4575
 20
36.9845
  0
VERTEX
  8
LAYER_5
 10
152.5643
 20
36.9421
 42
-0.1168262011
  0
VERTEX
  8
LAYER_5
 10
152.6422
 20
36.8611
 42
-0.1230288266
  0
VERTEX
  8
LAYER_5
 10
152.6718
 20
36.733
 42
-0.1795449175
  0
VERTEX
  8
LAYER_5
 10
152.6219
 20
36.5907
 42
-0.170141964
  0
VERTEX
  8
LAYER_5
 10
152.4885
 20
36.5111
  0
VERTEX
  8
LAYER_5
 10
152.4885
 20
36.5084
 42
-0.1719890535
  0
VERTEX
  8
LAYER_5
 10
152.6553
 20
36.4302
 42
-0.2018462152
  0
VERTEX
  8
LAYER_5
 10
152.7214
 20
36.2496
 42
-0.1247085485
  0
VERTEX
  8
LAYER_5
 10
152.6942
 20
36.1325
 42
-0.1153486961
  0
VERTEX
  8
LAYER_5
 10
152.6181
 20
36.0419
 42
-0.08656795839
  0
VERTEX
  8
LAYER_5
 10
152.4972
 20
35.9844
 42
-0.06557363107
  0
VERTEX
  8
LAYER_5
 10
152.3373
 20
35.9637
  0
VERTEX
  8
LAYER_5
 10
152.0314
 20
35.9637
  0
SEQEND
  0
POLYLINE
  8
LAYER_5
 40
0.05
 41
0.05
 66
1
 10
0
 20
0
 30
0
 70
1
  0
VERTEX
  8
LAYER_5
 10
152.1364
 20
36.5445
  0
VERTEX
  8
LAYER_5
 10
152.348
 20
36.5445
  0
VERTEX
  8
LAYER_5
 10
152.4248
 20
36.5535
  0
VERTEX
  8
LAYER_5
 10
152.4951
 20
36.5831
  0
VERTEX
  8
LAYER_5
 10
152.5471
 20
36.6396
 42
0.1162126025
  0
VERTEX
  8
LAYER_5
 10
152.5668
 20
36.7258
  0
VERTEX
  8
LAYER_5
 10
152.5471
 20
36.8095
  0
VERTEX
  8
LAYER_5
 10
152.494
 20
36.8656
  0
VERTEX
  8
LAYER_5
 10
152.4152
 20
36.897
  0
VERTEX
  8
LAYER_5
 10
152.3187
 20
36.9066
  0
VERTEX
  8
LAYER_5
 10
152.1364
 20
36.9066
  0
SEQEND
  0
POLYLINE
  8
LAYER_5
 40
0.05
 41
0.05
 66
1
 10
0
 20
0
 30
0
 70
1
  0
VERTEX
  8
LAYER_5
 10
152.1364
 20
36.0543
  0
VERTEX
  8
LAYER_5
 10
152.3321
 20
36.0543
  0
VERTEX
  8
LAYER_5
 10
152.4406
 20
36.0653
  0
VERTEX
  8
LAYER_5
 10
152.5313
 20
36.1001
 42
0.1172546835
  0
VERTEX
  8
LAYER_5
 10
152.5929
 20
36.1632
 42
0.1286243504
  0
VERTEX
  8
LAYER_5
 10
152.6164
 20
36.2559
 42
0.2498669706
  0
VERTEX
  8
LAYER_5
 10
152.5471
 20
36.4081
 42
0.1538083763
  0
VERTEX
  8
LAYER_5
 10
152.3511
 20
36.4584
  0
VERTEX
  8
LAYER_5
 10
152.1364
 20
36.4584
  0
SEQEND
  0
ENDBLK
  0
BLOCK
  8
LAYER_5
  2
AIGNBL05030014
 70
64
 10
0
 20
0
 30
0
  3
AIGNBL05030014
  0
POLYLINE
  8
LAYER_5
 40
0.05
 41
0.05
 66
1
 10
0
 20
0
 30
0
 70
1
  0
VERTEX
  8
LAYER_5
 10
153.1534
 20
35.9637
  0
VERTEX
  8
LAYER_5
 10
153.038
 20
35.9637
  0
VERTEX
  8
LAYER_5
 10
153.4849
 20
36.9969
  0
VERTEX
  8
LAYER_5
 10
153.5872
 20
36.9969
  0
VERTEX
  8
LAYER_5
 10
154.0306
 20
35.9637
  0
VERTEX
  8
LAYER_5
 10
153.9138
 20
35.9637
  0
VERTEX
  8
LAYER_5
 10
153.7997
 20
36.2352
  0
VERTEX
  8
LAYER_5
 10
153.2657
 20
36.2352
  0
SEQEND
  0
POLYLINE
  8
LAYER_5
 40
0.05
 41
0.05
 66
1
 10
0
 20
0
 30
0
 70
1
  0
VERTEX
  8
LAYER_5
 10
153.305
 20
36.3316
  0
VERTEX
  8
LAYER_5
 10
153.7604
 20
36.3316
  0
VERTEX
  8
LAYER_5
 10
153.5327
 20
36.8804
  0
SEQEND
  0
ENDBLK
  0
BLOCK
  8
LAYER_5
  2
AIGNBL05030015
 70
64
 10
0
 20
0
 30
0
  3
AIGNBL05030015
  0
POLYLINE
  8
LAYER_5
 40
0.05
 41
0.05
 66
1
 10
0
 20
0
 30
0
 70
1
  0
VERTEX
  8
LAYER_5
 10
154.7151
 20
35.9637
  0
VERTEX
  8
LAYER_5
 10
154.61
 20
35.9637
  0
VERTEX
  8
LAYER_5
 10
154.61
 20
36.9035
  0
VERTEX
  8
LAYER_5
 10
154.2638
 20
36.9035
  0
VERTEX
  8
LAYER_5
 10
154.2638
 20
36.9969
  0
VERTEX
  8
LAYER_5
 10
155.0606
 20
36.9969
  0
VERTEX
  8
LAYER_5
 10
155.0606
 20
36.9035
  0
VERTEX
  8
LAYER_5
 10
154.7151
 20
36.9035
  0
SEQEND
  0
ENDBLK
  0
BLOCK
  8
LAYER_5
  2
AIGNBL05030016
 70
64
 10
0
 20
0
 30
0
  3
AIGNBL05030016
  0
POLYLINE
  8
LAYER_5
 40
0.05
 41
0.05
 66
1
 10
0
 20
0
 30
0
 70
1
  0
VERTEX
  8
LAYER_5
 10
155.4169
 20
36.9969
  0
VERTEX
  8
LAYER_5
 10
155.5216
 20
36.9969
  0
VERTEX
  8
LAYER_5
 10
155.5216
 20
36.549
  0
VERTEX
  8
LAYER_5
 10
156.0852
 20
36.549
  0
VERTEX
  8
LAYER_5
 10
156.0852
 20
36.9969
  0
VERTEX
  8
LAYER_5
 10
156.1903
 20
36.9969
  0
VERTEX
  8
LAYER_5
 10
156.1903
 20
35.9637
  0
VERTEX
  8
LAYER_5
 10
156.0852
 20
35.9637
  0
VERTEX
  8
LAYER_5
 10
156.0852
 20
36.4529
  0
VERTEX
  8
LAYER_5
 10
155.5216
 20
36.4529
  0
VERTEX
  8
LAYER_5
 10
155.5216
 20
35.9637
  0
VERTEX
  8
LAYER_5
 10
155.4169
 20
35.9637
  0
SEQEND
  0
ENDBLK
  0
BLOCK
  8
LAYER_5
  2
AIGNBL05030017
 70
64
 10
0
 20
0
 30
0
  3
AIGNBL05030017
  0
POLYLINE
  8
LAYER_5
 40
0.05
 41
0.05
 66
1
 10
0
 20
0
 30
0
 70
1
  0
VERTEX
  8
LAYER_5
 10
156.7708
 20
35.9637
  0
VERTEX
  8
LAYER_5
 10
156.6657
 20
35.9637
  0
VERTEX
  8
LAYER_5
 10
156.6657
 20
36.9969
  0
VERTEX
  8
LAYER_5
 10
156.9696
 20
36.9969
  0
VERTEX
  8
LAYER_5
 10
157.1101
 20
36.9824
 42
-0.1032885834
  0
VERTEX
  8
LAYER_5
 10
157.2228
 20
36.9349
 42
-0.1280591957
  0
VERTEX
  8
LAYER_5
 10
157.2962
 20
36.8494
 42
-0.1078860225
  0
VERTEX
  8
LAYER_5
 10
157.3223
 20
36.7213
  0
VERTEX
  8
LAYER_5
 10
157.3024
 20
36.6176
  0
VERTEX
  8
LAYER_5
 10
157.2469
 20
36.5366
  0
VERTEX
  8
LAYER_5
 10
157.1635
 20
36.4818
  0
VERTEX
  8
LAYER_5
 10
157.0585
 20
36.4557
  0
VERTEX
  8
LAYER_5
 10
157.3606
 20
35.9637
  0
VERTEX
  8
LAYER_5
 10
157.2321
 20
35.9637
  0
VERTEX
  8
LAYER_5
 10
156.9461
 20
36.4467
  0
VERTEX
  8
LAYER_5
 10
156.7708
 20
36.4467
  0
SEQEND
  0
POLYLINE
  8
LAYER_5
 40
0.05
 41
0.05
 66
1
 10
0
 20
0
 30
0
 70
1
  0
VERTEX
  8
LAYER_5
 10
156.7708
 20
36.5373
  0
VERTEX
  8
LAYER_5
 10
156.9534
 20
36.5373
 42
0.153451873
  0
VERTEX
  8
LAYER_5
 10
157.1491
 20
36.5831
 42
0.2580279849
  0
VERTEX
  8
LAYER_5
 10
157.2176
 20
36.7213
  0
VERTEX
  8
LAYER_5
 10
157.1983
 20
36.8071
  0
VERTEX
  8
LAYER_5
 10
157.146
 20
36.8643
  0
VERTEX
  8
LAYER_5
 10
157.0643
 20
36.8963
  0
VERTEX
  8
LAYER_5
 10
156.9578
 20
36.9066
  0
VERTEX
  8
LAYER_5
 10
156.7708
 20
36.9066
  0
SEQEND
  0
ENDBLK
  0
BLOCK
  8
LAYER_5
  2
AIGNBL05030018
 70
64
 10
0
 20
0
 30
0
  3
AIGNBL05030018
  0
POLYLINE
  8
LAYER_5
 40
0.05
 41
0.05
 66
1
 10
0
 20
0
 30
0
 70
1
  0
VERTEX
  8
LAYER_5
 10
158.7627
 20
36.4805
 42
-0.09904480664
  0
VERTEX
  8
LAYER_5
 10
158.7221
 20
36.2631
 42
-0.09984043552
  0
VERTEX
  8
LAYER_5
 10
158.6087
 20
36.0915
 42
-0.09841590082
  0
VERTEX
  8
LAYER_5
 10
158.4382
 20
35.9785
 42
-0.09758412454
  0
VERTEX
  8
LAYER_5
 10
158.2243
 20
35.9375
 42
-0.09999517154
  0
VERTEX
  8
LAYER_5
 10
158.0103
 20
35.9785
 42
-0.09953435427
  0
VERTEX
  8
LAYER_5
 10
157.8398
 20
36.0915
 42
-0.09853706159
  0
VERTEX
  8
LAYER_5
 10
157.7268
 20
36.2631
 42
-0.09653980076
  0
VERTEX
  8
LAYER_5
 10
157.6862
 20
36.4805
 42
-0.1004051845
  0
VERTEX
  8
LAYER_5
 10
157.7268
 20
36.6978
 42
-0.1008040346
  0
VERTEX
  8
LAYER_5
 10
157.8398
 20
36.8694
 42
-0.09763764092
  0
VERTEX
  8
LAYER_5
 10
158.0103
 20
36.9824
 42
-0.09752919603
  0
VERTEX
  8
LAYER_5
 10
158.2243
 20
37.0234
 42
-0.1000174927
  0
VERTEX
  8
LAYER_5
 10
158.4382
 20
36.9824
 42
-0.1009762109
  0
VERTEX
  8
LAYER_5
 10
158.6087
 20
36.8694
 42
-0.09735230618
  0
VERTEX
  8
LAYER_5
 10
158.7221
 20
36.6978
 42
-0.09580191209
  0
SEQEND
  0
POLYLINE
  8
LAYER_5
 40
0.05
 41
0.05
 66
1
 10
0
 20
0
 30
0
 70
1
  0
VERTEX
  8
LAYER_5
 10
158.6518
 20
36.4798
 42
0.08852014676
  0
VERTEX
  8
LAYER_5
 10
158.6225
 20
36.6517
 42
0.09973444611
  0
VERTEX
  8
LAYER_5
 10
158.5378
 20
36.795
 42
0.1024799068
  0
VERTEX
  8
LAYER_5
 10
158.4031
 20
36.8932
 42
0.1060321998
  0
VERTEX
  8
LAYER_5
 10
158.2243
 20
36.93
 42
0.1116325688
  0
VERTEX
  8
LAYER_5
 10
158.0455
 20
36.8932
 42
0.1060506217
  0
VERTEX
  8
LAYER_5
 10
157.9104
 20
36.795
 42
0.09526104957
  0
VERTEX
  8
LAYER_5
 10
157.8257
 20
36.6517
 42
0.08422602157
  0
VERTEX
  8
LAYER_5
 10
157.7968
 20
36.4798
 42
0.0876992245
  0
VERTEX
  8
LAYER_5
 10
157.8257
 20
36.3079
 42
0.09826867926
  0
VERTEX
  8
LAYER_5
 10
157.9104
 20
36.1649
 42
0.09965756504
  0
VERTEX
  8
LAYER_5
 10
158.0455
 20
36.0674
 42
0.1061654103
  0
VERTEX
  8
LAYER_5
 10
158.2243
 20
36.0309
 42
0.1124388132
  0
VERTEX
  8
LAYER_5
 10
158.4031
 20
36.0674
 42
0.1029122982
  0
VERTEX
  8
LAYER_5
 10
158.5378
 20
36.1649
 42
0.09882210045
  0
VERTEX
  8
LAYER_5
 10
158.6225
 20
36.3079
 42
0.08589740831
  0
SEQEND
  0
ENDBLK
  0
BLOCK
  8
LAYER_5
  2
AIGNBL05030019
 70
64
 10
0
 20
0
 30
0
  3
AIGNBL05030019
  0
POLYLINE
  8
LAYER_5
 40
0.05
 41
0.05
 66
1
 10
0
 20
0
 30
0
 70
1
  0
VERTEX
  8
LAYER_5
 10
160.2045
 20
36.4805
 42
-0.1019307791
  0
VERTEX
  8
LAYER_5
 10
160.1635
 20
36.2631
 42
-0.09929652324
  0
VERTEX
  8
LAYER_5
 10
160.0509
 20
36.0915
 42
-0.09710469009
  0
VERTEX
  8
LAYER_5
 10
159.88
 20
35.9785
 42
-0.09758412454
  0
VERTEX
  8
LAYER_5
 10
159.6661
 20
35.9375
 42
-0.1005051182
  0
VERTEX
  8
LAYER_5
 10
159.4524
 20
35.9785
 42
-0.1009789173
  0
VERTEX
  8
LAYER_5
 10
159.2816
 20
36.0915
 42
-0.09724598852
  0
VERTEX
  8
LAYER_5
 10
159.1682
 20
36.2631
 42
-0.09653980076
  0
VERTEX
  8
LAYER_5
 10
159.1276
 20
36.4805
 42
-0.1004051845
  0
VERTEX
  8
LAYER_5
 10
159.1682
 20
36.6978
 42
-0.1001669327
  0
VERTEX
  8
LAYER_5
 10
159.2816
 20
36.8694
 42
-0.09846843416
  0
VERTEX
  8
LAYER_5
 10
159.4524
 20
36.9824
 42
-0.09783444074
  0
VERTEX
  8
LAYER_5
 10
159.6661
 20
37.0234
 42
-0.1000174927
  0
VERTEX
  8
LAYER_5
 10
159.88
 20
36.9824
 42
-0.098457988
  0
VERTEX
  8
LAYER_5
 10
160.0509
 20
36.8694
 42
-0.09762598086
  0
VERTEX
  8
LAYER_5
 10
160.1635
 20
36.6978
 42
-0.0978256893
  0
SEQEND
  0
POLYLINE
  8
LAYER_5
 40
0.05
 41
0.05
 66
1
 10
0
 20
0
 30
0
 70
1
  0
VERTEX
  8
LAYER_5
 10
160.0936
 20
36.4798
 42
0.08653869446
  0
VERTEX
  8
LAYER_5
 10
160.0647
 20
36.6517
 42
0.09689814906
  0
VERTEX
  8
LAYER_5
 10
159.9799
 20
36.795
 42
0.1032857511
  0
VERTEX
  8
LAYER_5
 10
159.8448
 20
36.8932
 42
0.1061350344
  0
VERTEX
  8
LAYER_5
 10
159.6661
 20
36.93
 42
0.1114208933
  0
VERTEX
  8
LAYER_5
 10
159.4872
 20
36.8932
 42
0.1056595975
  0
VERTEX
  8
LAYER_5
 10
159.3525
 20
36.795
 42
0.09787799956
  0
VERTEX
  8
LAYER_5
 10
159.2678
 20
36.6517
 42
0.08491464556
  0
VERTEX
  8
LAYER_5
 10
159.2385
 20
36.4798
 42
0.08693146424
  0
VERTEX
  8
LAYER_5
 10
159.2678
 20
36.3079
 42
0.1009797617
  0
VERTEX
  8
LAYER_5
 10
159.3525
 20
36.1649
 42
0.09978391674
  0
VERTEX
  8
LAYER_5
 10
159.4872
 20
36.0674
 42
0.1060616244
  0
VERTEX
  8
LAYER_5
 10
159.6661
 20
36.0309
 42
0.1126531325
  0
VERTEX
  8
LAYER_5
 10
159.8448
 20
36.0674
 42
0.1036982708
  0
VERTEX
  8
LAYER_5
 10
159.9799
 20
36.1649
 42
0.09401062747
  0
VERTEX
  8
LAYER_5
 10
160.0647
 20
36.3079
 42
0.0844927763
  0
SEQEND
  0
ENDBLK
  0
BLOCK
  8
LAYER_5
  2
AIGNBL0503001A
 70
64
 10
0
 20
0
 30
0
  3
AIGNBL0503001A
  0
POLYLINE
  8
LAYER_5
 40
0.05
 41
0.05
 66
1
 10
0
 20
0
 30
0
 70
1
  0
VERTEX
  8
LAYER_5
 10
161.1354
 20
36.1418
  0
VERTEX
  8
LAYER_5
 10
161.1371
 20
36.1418
  0
VERTEX
  8
LAYER_5
 10
161.4826
 20
36.9969
  0
VERTEX
  8
LAYER_5
 10
161.6435
 20
36.9969
  0
VERTEX
  8
LAYER_5
 10
161.6435
 20
35.9637
  0
VERTEX
  8
LAYER_5
 10
161.5381
 20
35.9637
  0
VERTEX
  8
LAYER_5
 10
161.5381
 20
36.8611
  0
VERTEX
  8
LAYER_5
 10
161.5354
 20
36.8611
  0
VERTEX
  8
LAYER_5
 10
161.1619
 20
35.9637
  0
VERTEX
  8
LAYER_5
 10
161.1064
 20
35.9637
  0
VERTEX
  8
LAYER_5
 10
160.7326
 20
36.8611
  0
VERTEX
  8
LAYER_5
 10
160.7299
 20
36.8611
  0
VERTEX
  8
LAYER_5
 10
160.7299
 20
35.9637
  0
VERTEX
  8
LAYER_5
 10
160.6248
 20
35.9637
  0
VERTEX
  8
LAYER_5
 10
160.6248
 20
36.9969
  0
VERTEX
  8
LAYER_5
 10
160.7853
 20
36.9969
  0
SEQEND
  0
ENDBLK
  0
BLOCK
  8
LAYER_5
  2
AIGNBL0503001B
 70
64
 10
0
 20
0
 30
0
  3
AIGNBL0503001B
  0
POLYLINE
  8
LAYER_5
 40
0.05
 41
0.05
 66
1
 10
0
 20
0
 30
0
 70
1
  0
VERTEX
  8
LAYER_5
 10
162.79
 20
36.0574
  0
VERTEX
  8
LAYER_5
 10
163.3433
 20
36.0574
  0
VERTEX
  8
LAYER_5
 10
163.3433
 20
35.9637
  0
VERTEX
  8
LAYER_5
 10
162.685
 20
35.9637
  0
VERTEX
  8
LAYER_5
 10
162.685
 20
36.9969
  0
VERTEX
  8
LAYER_5
 10
163.3258
 20
36.9969
  0
VERTEX
  8
LAYER_5
 10
163.3258
 20
36.9035
  0
VERTEX
  8
LAYER_5
 10
162.79
 20
36.9035
  0
VERTEX
  8
LAYER_5
 10
162.79
 20
36.549
  0
VERTEX
  8
LAYER_5
 10
163.2906
 20
36.549
  0
VERTEX
  8
LAYER_5
 10
163.2906
 20
36.4557
  0
VERTEX
  8
LAYER_5
 10
162.79
 20
36.4557
  0
SEQEND
  0
ENDBLK
  0
BLOCK
  8
LAYER_5
  2
AIGNBL0503001C
 70
64
 10
0
 20
0
 30
0
  3
AIGNBL0503001C
  0
POLYLINE
  8
LAYER_5
 40
0.05
 41
0.05
 66
1
 10
0
 20
0
 30
0
 70
1
  0
VERTEX
  8
LAYER_5
 10
164.0885
 20
36.5797
  0
VERTEX
  8
LAYER_5
 10
164.3707
 20
36.9969
  0
VERTEX
  8
LAYER_5
 10
164.4957
 20
36.9969
  0
VERTEX
  8
LAYER_5
 10
164.1533
 20
36.5053
  0
VERTEX
  8
LAYER_5
 10
164.5326
 20
35.9637
  0
VERTEX
  8
LAYER_5
 10
164.4013
 20
35.9637
  0
VERTEX
  8
LAYER_5
 10
164.0858
 20
36.4295
  0
VERTEX
  8
LAYER_5
 10
163.7722
 20
35.9637
  0
VERTEX
  8
LAYER_5
 10
163.6407
 20
35.9637
  0
VERTEX
  8
LAYER_5
 10
164.0203
 20
36.5066
  0
VERTEX
  8
LAYER_5
 10
163.6744
 20
36.9969
  0
VERTEX
  8
LAYER_5
 10
163.806
 20
36.9969
  0
SEQEND
  0
ENDBLK
  0
BLOCK
  8
LAYER_5
  2
AIGNBL0503001D
 70
64
 10
0
 20
0
 30
0
  3
AIGNBL0503001D
  0
POLYLINE
  8
LAYER_5
 40
0.05
 41
0.05
 66
1
 10
0
 20
0
 30
0
 70
1
  0
VERTEX
  8
LAYER_5
 10
164.8988
 20
36.9969
  0
VERTEX
  8
LAYER_5
 10
165.1909
 20
36.9969
  0
VERTEX
  8
LAYER_5
 10
165.3339
 20
36.9804
 42
-0.104160294
  0
VERTEX
  8
LAYER_5
 10
165.4438
 20
36.929
 42
-0.1209616443
  0
VERTEX
  8
LAYER_5
 10
165.5148
 20
36.8429
 42
-0.1032545831
  0
VERTEX
  8
LAYER_5
 10
165.5392
 20
36.7213
 42
-0.1239274235
  0
VERTEX
  8
LAYER_5
 10
165.5141
 20
36.5993
 42
-0.1163667494
  0
VERTEX
  8
LAYER_5
 10
165.4424
 20
36.5132
 42
-0.08715194998
  0
VERTEX
  8
LAYER_5
 10
165.3315
 20
36.4615
 42
-0.06075348808
  0
VERTEX
  8
LAYER_5
 10
165.1878
 20
36.444
  0
VERTEX
  8
LAYER_5
 10
165.0039
 20
36.444
  0
VERTEX
  8
LAYER_5
 10
165.0039
 20
35.9637
  0
VERTEX
  8
LAYER_5
 10
164.8988
 20
35.9637
  0
SEQEND
  0
POLYLINE
  8
LAYER_5
 40
0.05
 41
0.05
 66
1
 10
0
 20
0
 30
0
 70
1
  0
VERTEX
  8
LAYER_5
 10
165.0039
 20
36.5328
  0
VERTEX
  8
LAYER_5
 10
165.1816
 20
36.5328
 42
0.1694225951
  0
VERTEX
  8
LAYER_5
 10
165.3701
 20
36.581
 42
0.2442570363
  0
VERTEX
  8
LAYER_5
 10
165.4345
 20
36.7213
 42
0.2590967024
  0
VERTEX
  8
LAYER_5
 10
165.368
 20
36.8622
 42
0.143072224
  0
VERTEX
  8
LAYER_5
 10
165.1816
 20
36.9066
  0
VERTEX
  8
LAYER_5
 10
165.0039
 20
36.9066
  0
SEQEND
  0
ENDBLK
  0
BLOCK
  8
LAYER_5
  2
AIGNBL0503001E
 70
64
 10
0
 20
0
 30
0
  3
AIGNBL0503001E
  0
POLYLINE
  8
LAYER_5
 40
0.05
 41
0.05
 66
1
 10
0
 20
0
 30
0
 70
1
  0
VERTEX
  8
LAYER_5
 10
166.0515
 20
36.0574
  0
VERTEX
  8
LAYER_5
 10
166.6048
 20
36.0574
  0
VERTEX
  8
LAYER_5
 10
166.6048
 20
35.9637
  0
VERTEX
  8
LAYER_5
 10
165.9465
 20
35.9637
  0
VERTEX
  8
LAYER_5
 10
165.9465
 20
36.9969
  0
VERTEX
  8
LAYER_5
 10
166.5872
 20
36.9969
  0
VERTEX
  8
LAYER_5
 10
166.5872
 20
36.9035
  0
VERTEX
  8
LAYER_5
 10
166.0515
 20
36.9035
  0
VERTEX
  8
LAYER_5
 10
166.0515
 20
36.549
  0
VERTEX
  8
LAYER_5
 10
166.5521
 20
36.549
  0
VERTEX
  8
LAYER_5
 10
166.5521
 20
36.4557
  0
VERTEX
  8
LAYER_5
 10
166.0515
 20
36.4557
  0
SEQEND
  0
ENDBLK
  0
BLOCK
  8
LAYER_5
  2
AIGNBL0503001F
 70
64
 10
0
 20
0
 30
0
  3
AIGNBL0503001F
  0
POLYLINE
  8
LAYER_5
 40
0.05
 41
0.05
 66
1
 10
0
 20
0
 30
0
 70
1
  0
VERTEX
  8
LAYER_5
 10
167.1168
 20
35.9637
  0
VERTEX
  8
LAYER_5
 10
167.0117
 20
35.9637
  0
VERTEX
  8
LAYER_5
 10
167.0117
 20
36.9969
  0
VERTEX
  8
LAYER_5
 10
167.3155
 20
36.9969
  0
VERTEX
  8
LAYER_5
 10
167.4561
 20
36.9824
 42
-0.1039428931
  0
VERTEX
  8
LAYER_5
 10
167.5687
 20
36.9349
 42
-0.1259973384
  0
VERTEX
  8
LAYER_5
 10
167.6425
 20
36.8494
 42
-0.1064650891
  0
VERTEX
  8
LAYER_5
 10
167.6683
 20
36.7213
  0
VERTEX
  8
LAYER_5
 10
167.6483
 20
36.6176
  0
VERTEX
  8
LAYER_5
 10
167.5929
 20
36.5366
  0
VERTEX
  8
LAYER_5
 10
167.5095
 20
36.4818
  0
VERTEX
  8
LAYER_5
 10
167.4044
 20
36.4557
  0
VERTEX
  8
LAYER_5
 10
167.7066
 20
35.9637
  0
VERTEX
  8
LAYER_5
 10
167.578
 20
35.9637
  0
VERTEX
  8
LAYER_5
 10
167.2921
 20
36.4467
  0
VERTEX
  8
LAYER_5
 10
167.1168
 20
36.4467
  0
SEQEND
  0
POLYLINE
  8
LAYER_5
 40
0.05
 41
0.05
 66
1
 10
0
 20
0
 30
0
 70
1
  0
VERTEX
  8
LAYER_5
 10
167.1168
 20
36.5373
  0
VERTEX
  8
LAYER_5
 10
167.2994
 20
36.5373
 42
0.1542400453
  0
VERTEX
  8
LAYER_5
 10
167.495
 20
36.5831
 42
0.2583775622
  0
VERTEX
  8
LAYER_5
 10
167.5636
 20
36.7213
  0
VERTEX
  8
LAYER_5
 10
167.5446
 20
36.8071
  0
VERTEX
  8
LAYER_5
 10
167.4919
 20
36.8643
  0
VERTEX
  8
LAYER_5
 10
167.4103
 20
36.8963
  0
VERTEX
  8
LAYER_5
 10
167.3038
 20
36.9066
  0
VERTEX
  8
LAYER_5
 10
167.1168
 20
36.9066
  0
SEQEND
  0
ENDBLK
  0
BLOCK
  8
LAYER_5
  2
AIGNBL05030020
 70
64
 10
0
 20
0
 30
0
  3
AIGNBL05030020
  0
POLYLINE
  8
LAYER_5
 40
0.05
 41
0.05
 66
1
 10
0
 20
0
 30
0
 70
1
  0
VERTEX
  8
LAYER_5
 10
168.1923
 20
35.9637
  0
VERTEX
  8
LAYER_5
 10
168.0876
 20
35.9637
  0
VERTEX
  8
LAYER_5
 10
168.0876
 20
36.9969
  0
VERTEX
  8
LAYER_5
 10
168.1923
 20
36.9969
  0
SEQEND
  0
ENDBLK
  0
BLOCK
  8
LAYER_5
  2
AIGNBL05030021
 70
64
 10
0
 20
0
 30
0
  3
AIGNBL05030021
  0
POLYLINE
  8
LAYER_5
 40
0.05
 41
0.05
 66
1
 10
0
 20
0
 30
0
 70
1
  0
VERTEX
  8
LAYER_5
 10
168.7732
 20
36.0574
  0
VERTEX
  8
LAYER_5
 10
169.3261
 20
36.0574
  0
VERTEX
  8
LAYER_5
 10
169.3261
 20
35.9637
  0
VERTEX
  8
LAYER_5
 10
168.6681
 20
35.9637
  0
VERTEX
  8
LAYER_5
 10
168.6681
 20
36.9969
  0
VERTEX
  8
LAYER_5
 10
169.3089
 20
36.9969
  0
VERTEX
  8
LAYER_5
 10
169.3089
 20
36.9035
  0
VERTEX
  8
LAYER_5
 10
168.7732
 20
36.9035
  0
VERTEX
  8
LAYER_5
 10
168.7732
 20
36.549
  0
VERTEX
  8
LAYER_5
 10
169.2737
 20
36.549
  0
VERTEX
  8
LAYER_5
 10
169.2737
 20
36.4557
  0
VERTEX
  8
LAYER_5
 10
168.7732
 20
36.4557
  0
SEQEND
  0
ENDBLK
  0
BLOCK
  8
LAYER_5
  2
AIGNBL05030022
 70
64
 10
0
 20
0
 30
0
  3
AIGNBL05030022
  0
POLYLINE
  8
LAYER_5
 40
0.05
 41
0.05
 66
1
 10
0
 20
0
 30
0
 70
1
  0
VERTEX
  8
LAYER_5
 10
170.4661
 20
36.117
  0
VERTEX
  8
LAYER_5
 10
170.4689
 20
36.117
  0
VERTEX
  8
LAYER_5
 10
170.4689
 20
36.9969
  0
VERTEX
  8
LAYER_5
 10
170.5739
 20
36.9969
  0
VERTEX
  8
LAYER_5
 10
170.5739
 20
35.9637
  0
VERTEX
  8
LAYER_5
 10
170.4426
 20
35.9637
  0
VERTEX
  8
LAYER_5
 10
169.8415
 20
36.8525
  0
VERTEX
  8
LAYER_5
 10
169.8384
 20
36.8525
  0
VERTEX
  8
LAYER_5
 10
169.8384
 20
35.9637
  0
VERTEX
  8
LAYER_5
 10
169.7333
 20
35.9637
  0
VERTEX
  8
LAYER_5
 10
169.7333
 20
36.9969
  0
VERTEX
  8
LAYER_5
 10
169.8649
 20
36.9969
  0
SEQEND
  0
ENDBLK
  0
BLOCK
  8
LAYER_5
  2
AIGNBL05030023
 70
64
 10
0
 20
0
 30
0
  3
AIGNBL05030023
  0
POLYLINE
  8
LAYER_5
 40
0.05
 41
0.05
 66
1
 10
0
 20
0
 30
0
 70
1
  0
VERTEX
  8
LAYER_5
 10
171.9196
 20
36.1315
  0
VERTEX
  8
LAYER_5
 10
171.8558
 20
36.0571
  0
VERTEX
  8
LAYER_5
 10
171.7697
 20
35.9954
  0
VERTEX
  8
LAYER_5
 10
171.6615
 20
35.953
  0
VERTEX
  8
LAYER_5
 10
171.5327
 20
35.9375
 42
-0.0997799169
  0
VERTEX
  8
LAYER_5
 10
171.3167
 20
35.9785
 42
-0.102530266
  0
VERTEX
  8
LAYER_5
 10
171.1461
 20
36.0915
 42
-0.09968794278
  0
VERTEX
  8
LAYER_5
 10
171.0345
 20
36.2631
 42
-0.09630702324
  0
VERTEX
  8
LAYER_5
 10
170.9942
 20
36.4805
 42
-0.1018981748
  0
VERTEX
  8
LAYER_5
 10
171.0352
 20
36.6978
 42
-0.09989904409
  0
VERTEX
  8
LAYER_5
 10
171.1479
 20
36.8694
 42
-0.09694965588
  0
VERTEX
  8
LAYER_5
 10
171.3187
 20
36.9824
 42
-0.09744116728
  0
VERTEX
  8
LAYER_5
 10
171.5327
 20
37.0234
  0
VERTEX
  8
LAYER_5
 10
171.6443
 20
37.0114
  0
VERTEX
  8
LAYER_5
 10
171.7473
 20
36.9779
  0
VERTEX
  8
LAYER_5
 10
171.8348
 20
36.9263
  0
VERTEX
  8
LAYER_5
 10
171.9006
 20
36.8584
  0
VERTEX
  8
LAYER_5
 10
171.8131
 20
36.794
  0
VERTEX
  8
LAYER_5
 10
171.7697
 20
36.8439
  0
VERTEX
  8
LAYER_5
 10
171.7063
 20
36.8877
  0
VERTEX
  8
LAYER_5
 10
171.6267
 20
36.9183
  0
VERTEX
  8
LAYER_5
 10
171.5341
 20
36.93
 42
0.1106055686
  0
VERTEX
  8
LAYER_5
 10
171.3539
 20
36.8935
 42
0.1037389517
  0
VERTEX
  8
LAYER_5
 10
171.2188
 20
36.7954
 42
0.09534605581
  0
VERTEX
  8
LAYER_5
 10
171.1341
 20
36.652
 42
0.08447361069
  0
VERTEX
  8
LAYER_5
 10
171.1052
 20
36.4805
 42
0.09038739564
  0
VERTEX
  8
LAYER_5
 10
171.1351
 20
36.3089
 42
0.09795352863
  0
VERTEX
  8
LAYER_5
 10
171.2205
 20
36.1656
 42
0.1034747097
  0
VERTEX
  8
LAYER_5
 10
171.3556
 20
36.0674
 42
0.1064777274
  0
VERTEX
  8
LAYER_5
 10
171.5341
 20
36.0309
 42
0.1092499226
  0
VERTEX
  8
LAYER_5
 10
171.7032
 20
36.0674
 42
0.1370031249
  0
VERTEX
  8
LAYER_5
 10
171.8376
 20
36.1842
  0
SEQEND
  0
ENDBLK
  0
BLOCK
  8
LAYER_5
  2
AIGNBL05030024
 70
64
 10
0
 20
0
 30
0
  3
AIGNBL05030024
  0
POLYLINE
  8
LAYER_5
 40
0.05
 41
0.05
 66
1
 10
0
 20
0
 30
0
 70
1
  0
VERTEX
  8
LAYER_5
 10
172.4067
 20
36.0574
  0
VERTEX
  8
LAYER_5
 10
172.96
 20
36.0574
  0
VERTEX
  8
LAYER_5
 10
172.96
 20
35.9637
  0
VERTEX
  8
LAYER_5
 10
172.3016
 20
35.9637
  0
VERTEX
  8
LAYER_5
 10
172.3016
 20
36.9969
  0
VERTEX
  8
LAYER_5
 10
172.9424
 20
36.9969
  0
VERTEX
  8
LAYER_5
 10
172.9424
 20
36.9035
  0
VERTEX
  8
LAYER_5
 10
172.4067
 20
36.9035
  0
VERTEX
  8
LAYER_5
 10
172.4067
 20
36.549
  0
VERTEX
  8
LAYER_5
 10
172.9073
 20
36.549
  0
VERTEX
  8
LAYER_5
 10
172.9073
 20
36.4557
  0
VERTEX
  8
LAYER_5
 10
172.4067
 20
36.4557
  0
SEQEND
  0
ENDBLK
  0
BLOCK
  8
LAYER_3
  2
AIGNBL03020009
 70
64
 10
0
 20
0
 30
0
  3
AIGNBL03020009
  0
POLYLINE
  8
LAYER_3
 40
0.0882
 41
0.0882
 62
1
 66
1
 10
0
 20
0
 30
0
  0
VERTEX
  8
LAYER_3
 10
46.7131
 20
154.9811
  0
VERTEX
  8
LAYER_3
 10
46.7131
 20
154.8047
  0
VERTEX
  8
LAYER_3
 10
46.5367
 20
154.8047
  0
SEQEND
  0
POLYLINE
  8
LAYER_3
  6
AIGENLINE001
 40
0.0882
 41
0.0882
 62
1
 66
1
 10
0
 20
0
 30
0
 70
128
  0
VERTEX
  8
LAYER_3
 10
46.1868
 20
154.8047
  0
VERTEX
  8
LAYER_3
 10
33.0647
 20
154.8047
  0
SEQEND
  0
POLYLINE
  8
LAYER_3
 40
0.0882
 41
0.0882
 62
1
 66
1
 10
0
 20
0
 30
0
  0
VERTEX
  8
LAYER_3
 10
32.8896
 20
154.8047
  0
VERTEX
  8
LAYER_3
 10
32.7133
 20
154.8047
  0
VERTEX
  8
LAYER_3
 10
32.7133
 20
154.9811
  0
SEQEND
  0
POLYLINE
  8
LAYER_3
  6
AIGENLINE002
 40
0.0882
 41
0.0882
 62
1
 66
1
 10
0
 20
0
 30
0
 70
128
  0
VERTEX
  8
LAYER_3
 10
32.7133
 20
155.3295
  0
VERTEX
  8
LAYER_3
 10
32.7133
 20
177.4543
  0
SEQEND
  0
POLYLINE
  8
LAYER_3
 40
0.0882
 41
0.0882
 62
1
 66
1
 10
0
 20
0
 30
0
  0
VERTEX
  8
LAYER_3
 10
32.7133
 20
177.6284
  0
VERTEX
  8
LAYER_3
 10
32.7133
 20
177.8048
  0
VERTEX
  8
LAYER_3
 10
32.8896
 20
177.8048
  0
SEQEND
  0
POLYLINE
  8
LAYER_3
  6
AIGENLINE001
 40
0.0882
 41
0.0882
 62
1
 66
1
 10
0
 20
0
 30
0
 70
128
  0
VERTEX
  8
LAYER_3
 10
33.2395
 20
177.8048
  0
VERTEX
  8
LAYER_3
 10
46.3617
 20
177.8048
  0
SEQEND
  0
POLYLINE
  8
LAYER_3
 40
0.0882
 41
0.0882
 62
1
 66
1
 10
0
 20
0
 30
0
  0
VERTEX
  8
LAYER_3
 10
46.5367
 20
177.8048
  0
VERTEX
  8
LAYER_3
 10
46.7131
 20
177.8048
  0
VERTEX
  8
LAYER_3
 10
46.7131
 20
177.6284
  0
SEQEND
  0
POLYLINE
  8
LAYER_3
  6
AIGENLINE002
 40
0.0882
 41
0.0882
 62
1
 66
1
 10
0
 20
0
 30
0
 70
128
  0
VERTEX
  8
LAYER_3
 10
46.7131
 20
177.28
  0
VERTEX
  8
LAYER_3
 10
46.7131
 20
155.1552
  0
SEQEND
  0
ENDBLK
  0
BLOCK
  8
LAYER_5
  2
AIGNBL05020004
 70
64
 10
0
 20
0
 30
0
  3
AIGNBL05020004
  0
INSERT
  8
LAYER_5
  2
AIGNBL05030005
 10
0
 20
0
 30
0
  0
ENDBLK
  0
BLOCK
  8
LAYER_5
  2
AIGNBL0502000D
 70
64
 10
0
 20
0
 30
0
  3
AIGNBL0502000D
  0
INSERT
  8
LAYER_5
  2
AIGNBL0503000E
 10
0
 20
0
 30
0
  0
INSERT
  8
LAYER_5
  2
AIGNBL0503000F
 10
0
 20
0
 30
0
  0
INSERT
  8
LAYER_5
  2
AIGNBL05030010
 10
0
 20
0
 30
0
  0
INSERT
  8
LAYER_5
  2
AIGNBL05030011
 10
0
 20
0
 30
0
  0
INSERT
  8
LAYER_5
  2
AIGNBL05030012
 10
0
 20
0
 30
0
  0
INSERT
  8
LAYER_5
  2
AIGNBL05030013
 10
0
 20
0
 30
0
  0
INSERT
  8
LAYER_5
  2
AIGNBL05030014
 10
0
 20
0
 30
0
  0
INSERT
  8
LAYER_5
  2
AIGNBL05030015
 10
0
 20
0
 30
0
  0
INSERT
  8
LAYER_5
  2
AIGNBL05030016
 10
0
 20
0
 30
0
  0
INSERT
  8
LAYER_5
  2
AIGNBL05030017
 10
0
 20
0
 30
0
  0
INSERT
  8
LAYER_5
  2
AIGNBL05030018
 10
0
 20
0
 30
0
  0
INSERT
  8
LAYER_5
  2
AIGNBL05030019
 10
0
 20
0
 30
0
  0
INSERT
  8
LAYER_5
  2
AIGNBL0503001A
 10
0
 20
0
 30
0
  0
INSERT
  8
LAYER_5
  2
AIGNBL0503001B
 10
0
 20
0
 30
0
  0
INSERT
  8
LAYER_5
  2
AIGNBL0503001C
 10
0
 20
0
 30
0
  0
INSERT
  8
LAYER_5
  2
AIGNBL0503001D
 10
0
 20
0
 30
0
  0
INSERT
  8
LAYER_5
  2
AIGNBL0503001E
 10
0
 20
0
 30
0
  0
INSERT
  8
LAYER_5
  2
AIGNBL0503001F
 10
0
 20
0
 30
0
  0
INSERT
  8
LAYER_5
  2
AIGNBL05030020
 10
0
 20
0
 30
0
  0
INSERT
  8
LAYER_5
  2
AIGNBL05030021
 10
0
 20
0
 30
0
  0
INSERT
  8
LAYER_5
  2
AIGNBL05030022
 10
0
 20
0
 30
0
  0
INSERT
  8
LAYER_5
  2
AIGNBL05030023
 10
0
 20
0
 30
0
  0
INSERT
  8
LAYER_5
  2
AIGNBL05030024
 10
0
 20
0
 30
0
  0
ENDBLK
  0
BLOCK
  8
LAYER_5
  2
AIGNBL05020026
 70
64
 10
0
 20
0
 30
0
  3
AIGNBL05020026
  0
POLYLINE
  8
LAYER_5
 40
0.05
 41
0.05
 66
1
 10
0
 20
0
 30
0
  0
VERTEX
  8
LAYER_5
 10
-7.0151
 20
219.4629
 42
0.1036295037
  0
VERTEX
  8
LAYER_5
 10
-7.1824
 20
220.2981
 42
0.2712377295
  0
VERTEX
  8
LAYER_5
 10
-8.5808
 20
221.2683
 42
0.0303823279
  0
VERTEX
  8
LAYER_5
 10
-8.8902
 20
221.2869
 42
0.07624666781
  0
VERTEX
  8
LAYER_5
 10
-10.0755
 20
221.1157
 42
0.09017583051
  0
VERTEX
  8
LAYER_5
 10
-10.8588
 20
220.699
 42
0.02803056833
  0
VERTEX
  8
LAYER_5
 10
-11.0228
 20
220.5491
  0
VERTEX
  8
LAYER_5
 10
-11.077
 20
220.4928
  0
VERTEX
  8
LAYER_5
 10
-10.5515
 20
219.8736
  0
VERTEX
  8
LAYER_5
 10
-10.486
 20
219.9328
 42
-0.1028805994
  0
VERTEX
  8
LAYER_5
 10
-9.7273
 20
220.3798
 42
-0.08113187333
  0
VERTEX
  8
LAYER_5
 10
-9.0479
 20
220.4863
 42
-0.1265582199
  0
VERTEX
  8
LAYER_5
 10
-8.3271
 20
220.3251
 42
-0.1601174183
  0
VERTEX
  8
LAYER_5
 10
-7.989
 20
219.9367
 42
-0.1111761681
  0
VERTEX
  8
LAYER_5
 10
-7.8786
 20
219.3074
  0
VERTEX
  8
LAYER_5
 10
-7.8786
 20
219.2664
  0
VERTEX
  8
LAYER_5
 10
-8.1378
 20
219.2664
 42
0.06077576534
  0
VERTEX
  8
LAYER_5
 10
-9.7982
 20
219.1093
 42
0.08580258361
  0
VERTEX
  8
LAYER_5
 10
-10.637
 20
218.7454
 42
0.1116389774
  0
VERTEX
  8
LAYER_5
 10
-11.084
 20
218.2559
 42
0.1204112073
  0
VERTEX
  8
LAYER_5
 10
-11.2651
 20
217.5692
 42
0.01082752958
  0
VERTEX
  8
LAYER_5
 10
-11.2668
 20
217.4871
 42
0.1262361208
  0
VERTEX
  8
LAYER_5
 10
-11.0913
 20
216.7743
 42
0.1210090978
  0
VERTEX
  8
LAYER_5
 10
-10.6379
 20
216.2914
 42
0.1012970948
  0
VERTEX
  8
LAYER_5
 10
-9.9371
 20
216.0111
 42
0.04827473988
  0
VERTEX
  8
LAYER_5
 10
-9.4954
 20
215.9685
 42
0.09684375777
  0
VERTEX
  8
LAYER_5
 10
-8.5823
 20
216.1314
 42
0.1382606358
  0
VERTEX
  8
LAYER_5
 10
-7.831
 20
216.7347
 42
-0.01012269081
  0
VERTEX
  8
LAYER_5
 10
-7.831
 20
216.0938
  0
VERTEX
  8
LAYER_5
 10
-7.0151
 20
216.0938
  0
SEQEND
  0
POLYLINE
  8
LAYER_5
 40
0.05
 41
0.05
 66
1
 10
0
 20
0
 30
0
 70
1
  0
VERTEX
  8
LAYER_5
 10
-7.8786
 20
218.2604
 42
-0.1095386536
  0
VERTEX
  8
LAYER_5
 10
-8.0512
 20
217.4437
 42
-0.1199361921
  0
VERTEX
  8
LAYER_5
 10
-8.4534
 20
216.9519
 42
-0.1209196473
  0
VERTEX
  8
LAYER_5
 10
-9.0539
 20
216.7055
 42
-0.04108384777
  0
VERTEX
  8
LAYER_5
 10
-9.3645
 20
216.6807
 42
-0.1210384521
  0
VERTEX
  8
LAYER_5
 10
-10.0836
 20
216.8493
 42
-0.1552969123
  0
VERTEX
  8
LAYER_5
 10
-10.4405
 20
217.2222
 42
-0.1101808209
  0
VERTEX
  8
LAYER_5
 10
-10.5141
 20
217.581
 42
-0.2541083385
  0
VERTEX
  8
LAYER_5
 10
-10.1607
 20
218.2336
 42
-0.05632516065
  0
VERTEX
  8
LAYER_5
 10
-9.8761
 20
218.386
 42
-0.04424231247
  0
VERTEX
  8
LAYER_5
 10
-9.4522
 20
218.5131
 42
-0.03214641787
  0
VERTEX
  8
LAYER_5
 10
-8.8857
 20
218.5932
 42
-0.02048965766
  0
VERTEX
  8
LAYER_5
 10
-8.2341
 20
218.6168
  0
VERTEX
  8
LAYER_5
 10
-7.8786
 20
218.6168
  0
SEQEND
  0
ENDBLK
  0
BLOCK
  8
LAYER_5
  2
AIGNBL05020027
 70
64
 10
0
 20
0
 30
0
  3
AIGNBL05020027
  0
POLYLINE
  8
LAYER_5
 40
0.05
 41
0.05
 66
1
 10
0
 20
0
 30
0
  0
VERTEX
  8
LAYER_5
 10
-2.3816
 20
222.5694
 42
-0.3911816587
  0
VERTEX
  8
LAYER_5
 10
-1.7162
 20
221.9134
 42
-0.3962775652
  0
VERTEX
  8
LAYER_5
 10
-2.3816
 20
221.249
 42
-0.3917541856
  0
VERTEX
  8
LAYER_5
 10
-3.0465
 20
221.9058
 42
-0.3962384604
  0
VERTEX
  8
LAYER_5
 10
-2.3816
 20
222.5694
  0
SEQEND
  0
POLYLINE
  8
LAYER_5
 40
0.05
 41
0.05
 66
1
 10
0
 20
0
 30
0
  0
VERTEX
  8
LAYER_5
 10
-2.3816
 20
221.3453
 42
0.4000887886
  0
VERTEX
  8
LAYER_5
 10
-1.8235
 20
221.9134
 42
0.3965824436
  0
VERTEX
  8
LAYER_5
 10
-2.3816
 20
222.4732
 42
0.3991350597
  0
VERTEX
  8
LAYER_5
 10
-2.9423
 20
221.9058
 42
0.3960577263
  0
VERTEX
  8
LAYER_5
 10
-2.3816
 20
221.3453
  0
SEQEND
  0
POLYLINE
  8
LAYER_5
 40
0.05
 41
0.05
 66
1
 10
0
 20
0
 30
0
 70
1
  0
VERTEX
  8
LAYER_5
 10
-2.6271
 20
222.2877
  0
VERTEX
  8
LAYER_5
 10
-2.3465
 20
222.2877
 42
-0.1689544217
  0
VERTEX
  8
LAYER_5
 10
-2.1506
 20
222.2398
 42
-0.2573750898
  0
VERTEX
  8
LAYER_5
 10
-2.0783
 20
222.067
 42
-0.4159594774
  0
VERTEX
  8
LAYER_5
 10
-2.2813
 20
221.8598
  0
VERTEX
  8
LAYER_5
 10
-2.06
 20
221.5215
  0
VERTEX
  8
LAYER_5
 10
-2.1757
 20
221.5215
  0
VERTEX
  8
LAYER_5
 10
-2.3844
 20
221.8504
  0
VERTEX
  8
LAYER_5
 10
-2.5215
 20
221.8504
  0
VERTEX
  8
LAYER_5
 10
-2.5215
 20
221.5215
  0
VERTEX
  8
LAYER_5
 10
-2.6271
 20
221.5215
  0
SEQEND
  0
POLYLINE
  8
LAYER_5
 40
0.05
 41
0.05
 66
1
 10
0
 20
0
 30
0
 70
1
  0
VERTEX
  8
LAYER_5
 10
-2.5215
 20
221.9473
  0
VERTEX
  8
LAYER_5
 10
-2.3906
 20
221.9473
 42
0.2474961449
  0
VERTEX
  8
LAYER_5
 10
-2.2112
 20
221.9902
 42
0.1843421729
  0
VERTEX
  8
LAYER_5
 10
-2.1847
 20
222.0724
 42
0.2728673912
  0
VERTEX
  8
LAYER_5
 10
-2.23
 20
222.1656
 42
0.14179533
  0
VERTEX
  8
LAYER_5
 10
-2.3563
 20
222.1913
  0
VERTEX
  8
LAYER_5
 10
-2.5215
 20
222.1913
  0
SEQEND
  0
ENDBLK
  0
BLOCK
  8
LAYER_5
  2
AIGNBL05020028
 70
64
 10
0
 20
0
 30
0
  3
AIGNBL05020028
  0
POLYLINE
  8
LAYER_5
 40
0.05
 41
0.05
 66
1
 10
0
 20
0
 30
0
  0
VERTEX
  8
LAYER_5
 10
-23.704
 20
214.1029
  0
VERTEX
  8
LAYER_5
 10
-23.4337
 20
214.1029
  0
VERTEX
  8
LAYER_5
 10
-22.6792
 20
212.3512
  0
VERTEX
  8
LAYER_5
 10
-23.0351
 20
212.3512
  0
VERTEX
  8
LAYER_5
 10
-23.1989
 20
212.7513
  0
VERTEX
  8
LAYER_5
 10
-23.9579
 20
212.7513
  0
VERTEX
  8
LAYER_5
 10
-24.116
 20
212.3512
  0
VERTEX
  8
LAYER_5
 10
-24.4648
 20
212.3512
  0
SEQEND
  0
POLYLINE
  8
LAYER_5
 40
0.05
 41
0.05
 66
1
 10
0
 20
0
 30
0
 70
1
  0
VERTEX
  8
LAYER_5
 10
-23.3081
 20
213.0189
  0
VERTEX
  8
LAYER_5
 10
-23.5767
 20
213.7308
  0
VERTEX
  8
LAYER_5
 10
-23.8523
 20
213.0189
  0
SEQEND
  0
ENDBLK
  0
BLOCK
  8
LAYER_5
  2
AIGNBL05020029
 70
64
 10
0
 20
0
 30
0
  3
AIGNBL05020029
  0
POLYLINE
  8
LAYER_5
 40
0.05
 41
0.05
 66
1
 10
0
 20
0
 30
0
  0
VERTEX
  8
LAYER_5
 10
-18.1673
 20
212.3512
  0
VERTEX
  8
LAYER_5
 10
-19.1856
 20
212.3512
 42
-0.1498985077
  0
VERTEX
  8
LAYER_5
 10
-19.7815
 20
212.5257
 42
-0.2523688634
  0
VERTEX
  8
LAYER_5
 10
-20.1395
 20
213.2635
 42
-0.4051360019
  0
VERTEX
  8
LAYER_5
 10
-19.2198
 20
214.1463
 42
-0.224501409
  0
VERTEX
  8
LAYER_5
 10
-18.4791
 20
213.7949
 42
-0.1669496671
  0
VERTEX
  8
LAYER_5
 10
-18.3009
 20
213.2635
 42
-0.175299756
  0
VERTEX
  8
LAYER_5
 10
-18.4675
 20
212.7739
 42
-0.08694350938
  0
VERTEX
  8
LAYER_5
 10
-18.6688
 20
212.6077
  0
VERTEX
  8
LAYER_5
 10
-18.6688
 20
212.603
  0
VERTEX
  8
LAYER_5
 10
-18.1673
 20
212.603
  0
SEQEND
  0
POLYLINE
  8
LAYER_5
 40
0.05
 41
0.05
 66
1
 10
0
 20
0
 30
0
  0
VERTEX
  8
LAYER_5
 10
-19.8145
 20
213.2559
 42
0.1875932054
  0
VERTEX
  8
LAYER_5
 10
-19.6465
 20
212.8098
 42
0.2073404857
  0
VERTEX
  8
LAYER_5
 10
-19.2224
 20
212.633
 42
0.4105620229
  0
VERTEX
  8
LAYER_5
 10
-18.6274
 20
213.2559
 42
0.1910634766
  0
VERTEX
  8
LAYER_5
 10
-18.7946
 20
213.6914
 42
0.2063538266
  0
VERTEX
  8
LAYER_5
 10
-19.2274
 20
213.8648
 42
0.4079661945
  0
VERTEX
  8
LAYER_5
 10
-19.8145
 20
213.2559
  0
SEQEND
  0
ENDBLK
  0
BLOCK
  8
LAYER_5
  2
AIGNBL0502002A
 70
64
 10
0
 20
0
 30
0
  3
AIGNBL0502002A
  0
POLYLINE
  8
LAYER_5
 40
0.05
 41
0.05
 66
1
 10
0
 20
0
 30
0
  0
VERTEX
  8
LAYER_5
 10
-14.8442
 20
214.1029
  0
VERTEX
  8
LAYER_5
 10
-14.5738
 20
214.1029
  0
VERTEX
  8
LAYER_5
 10
-13.8207
 20
212.3512
  0
VERTEX
  8
LAYER_5
 10
-14.1752
 20
212.3512
  0
VERTEX
  8
LAYER_5
 10
-14.3392
 20
212.7513
  0
VERTEX
  8
LAYER_5
 10
-15.0981
 20
212.7513
  0
VERTEX
  8
LAYER_5
 10
-15.2575
 20
212.3512
  0
VERTEX
  8
LAYER_5
 10
-15.6063
 20
212.3512
  0
SEQEND
  0
POLYLINE
  8
LAYER_5
 40
0.05
 41
0.05
 66
1
 10
0
 20
0
 30
0
 70
1
  0
VERTEX
  8
LAYER_5
 10
-14.4479
 20
213.0189
  0
VERTEX
  8
LAYER_5
 10
-14.7168
 20
213.7308
  0
VERTEX
  8
LAYER_5
 10
-14.9917
 20
213.0189
  0
SEQEND
  0
ENDBLK
  0
BLOCK
  8
LAYER_5
  2
AIGNBL0502002B
 70
64
 10
0
 20
0
 30
0
  3
AIGNBL0502002B
  0
POLYLINE
  8
LAYER_5
 40
0.05
 41
0.05
 66
1
 10
0
 20
0
 30
0
  0
VERTEX
  8
LAYER_5
 10
-10.3596
 20
214.1029
  0
VERTEX
  8
LAYER_5
 10
-9.7694
 20
214.1029
 42
-0.08664900819
  0
VERTEX
  8
LAYER_5
 10
-9.4428
 20
214.0546
 42
-0.2128687583
  0
VERTEX
  8
LAYER_5
 10
-9.1601
 20
213.8001
 42
-0.09485863917
  0
VERTEX
  8
LAYER_5
 10
-9.1245
 20
213.5956
 42
-0.2245415231
  0
VERTEX
  8
LAYER_5
 10
-9.2838
 20
213.2053
 42
-0.09365248342
  0
VERTEX
  8
LAYER_5
 10
-9.4539
 20
213.1196
 42
-0.07750467464
  0
VERTEX
  8
LAYER_5
 10
-9.8242
 20
213.076
  0
VERTEX
  8
LAYER_5
 10
-10.0473
 20
213.076
  0
VERTEX
  8
LAYER_5
 10
-10.0473
 20
212.3512
  0
VERTEX
  8
LAYER_5
 10
-10.3596
 20
212.3512
  0
SEQEND
  0
POLYLINE
  8
LAYER_5
 40
0.05
 41
0.05
 66
1
 10
0
 20
0
 30
0
 70
1
  0
VERTEX
  8
LAYER_5
 10
-9.8588
 20
213.3431
 42
0.1309894322
  0
VERTEX
  8
LAYER_5
 10
-9.5664
 20
213.3874
 42
0.3030880954
  0
VERTEX
  8
LAYER_5
 10
-9.4514
 20
213.5902
 42
0.3460368744
  0
VERTEX
  8
LAYER_5
 10
-9.6132
 20
213.8091
 42
0.07918236105
  0
VERTEX
  8
LAYER_5
 10
-9.8242
 20
213.8357
  0
VERTEX
  8
LAYER_5
 10
-10.0473
 20
213.8357
  0
VERTEX
  8
LAYER_5
 10
-10.0473
 20
213.3431
  0
SEQEND
  0
ENDBLK
  0
BLOCK
  8
LAYER_5
  2
AIGNBL0502002C
 70
64
 10
0
 20
0
 30
0
  3
AIGNBL0502002C
  0
POLYLINE
  8
LAYER_5
 40
0.05
 41
0.05
 66
1
 10
0
 20
0
 30
0
  0
VERTEX
  8
LAYER_5
 10
-8.092
 20
214.1029
  0
VERTEX
  8
LAYER_5
 10
-7.823
 20
214.1029
  0
VERTEX
  8
LAYER_5
 10
-7.0685
 20
212.3512
  0
VERTEX
  8
LAYER_5
 10
-7.4235
 20
212.3512
  0
VERTEX
  8
LAYER_5
 10
-7.5873
 20
212.7513
  0
VERTEX
  8
LAYER_5
 10
-8.3463
 20
212.7513
  0
VERTEX
  8
LAYER_5
 10
-8.5054
 20
212.3512
  0
VERTEX
  8
LAYER_5
 10
-8.8537
 20
212.3512
  0
SEQEND
  0
POLYLINE
  8
LAYER_5
 40
0.05
 41
0.05
 66
1
 10
0
 20
0
 30
0
 70
1
  0
VERTEX
  8
LAYER_5
 10
-7.6957
 20
213.0189
  0
VERTEX
  8
LAYER_5
 10
-7.9656
 20
213.7308
  0
VERTEX
  8
LAYER_5
 10
-8.2403
 20
213.0189
  0
SEQEND
  0
ENDBLK
  0
BLOCK
  8
LAYER_3
  2
AIGNBL03010002
 70
64
 10
0
 20
0
 30
0
  3
AIGNBL03010002
  0
POLYLINE
  8
LAYER_3
 40
0.1058
 41
0.1058
 66
1
 10
0
 20
0
 30
0
  0
VERTEX
  8
LAYER_3
 10
21.0082
 20
125.1217
  0
VERTEX
  8
LAYER_3
 10
58.3117
 20
125.1217
  0
SEQEND
  0
POLYLINE
  8
LAYER_3
 40
0.1058
 41
0.1058
 66
1
 10
0
 20
0
 30
0
  0
VERTEX
  8
LAYER_3
 10
21.0082
 20
123.7967
  0
VERTEX
  8
LAYER_3
 10
21.0082
 20
126.4481
  0
SEQEND
  0
POLYLINE
  8
LAYER_3
 40
0.1058
 41
0.1058
 66
1
 10
0
 20
0
 30
0
  0
VERTEX
  8
LAYER_3
 10
58.3117
 20
126.4481
  0
VERTEX
  8
LAYER_3
 10
58.3117
 20
123.7967
  0
SEQEND
  0
ENDBLK
  0
BLOCK
  8
LAYER_3
  2
AIGNBL03010003
 70
64
 10
0
 20
0
 30
0
  3
AIGNBL03010003
  0
POLYLINE
  8
LAYER_3
 40
0.1058
 41
0.1058
 66
1
 10
0
 20
0
 30
0
  0
VERTEX
  8
LAYER_3
 10
64.7974
 20
106.6216
  0
VERTEX
  8
LAYER_3
 10
64.7974
 20
122.6192
  0
SEQEND
  0
POLYLINE
  8
LAYER_3
 40
0.1058
 41
0.1058
 66
1
 10
0
 20
0
 30
0
  0
VERTEX
  8
LAYER_3
 10
66.1245
 20
106.6216
  0
VERTEX
  8
LAYER_3
 10
63.4745
 20
106.6216
  0
SEQEND
  0
POLYLINE
  8
LAYER_3
 40
0.1058
 41
0.1058
 66
1
 10
0
 20
0
 30
0
  0
VERTEX
  8
LAYER_3
 10
63.4745
 20
122.6192
  0
VERTEX
  8
LAYER_3
 10
66.1245
 20
122.6192
  0
SEQEND
  0
ENDBLK
  0
BLOCK
  8
LAYER_3
  2
AIGNBL03010004
 70
64
 10
0
 20
0
 30
0
  3
AIGNBL03010004
  0
POLYLINE
  8
LAYER_3
 40
0.1058
 41
0.1058
 66
1
 10
0
 20
0
 30
0
  0
VERTEX
  8
LAYER_3
 10
121.7228
 20
128.4835
  0
VERTEX
  8
LAYER_3
 10
97.2626
 20
128.4835
  0
SEQEND
  0
POLYLINE
  8
LAYER_3
 40
0.1058
 41
0.1058
 66
1
 10
0
 20
0
 30
0
  0
VERTEX
  8
LAYER_3
 10
121.7228
 20
129.8064
  0
VERTEX
  8
LAYER_3
 10
121.7228
 20
127.1564
  0
SEQEND
  0
POLYLINE
  8
LAYER_3
 40
0.1058
 41
0.1058
 66
1
 10
0
 20
0
 30
0
  0
VERTEX
  8
LAYER_3
 10
97.2626
 20
127.1564
  0
VERTEX
  8
LAYER_3
 10
97.2626
 20
129.8064
  0
SEQEND
  0
ENDBLK
  0
BLOCK
  8
LAYER_3
  2
AIGNBL03010005
 70
64
 10
0
 20
0
 30
0
  3
AIGNBL03010005
  0
POLYLINE
  8
LAYER_3
 40
0.1058
 41
0.1058
 66
1
 10
0
 20
0
 30
0
  0
VERTEX
  8
LAYER_3
 10
128.3174
 20
106.3549
  0
VERTEX
  8
LAYER_3
 10
128.3174
 20
122.3532
  0
SEQEND
  0
POLYLINE
  8
LAYER_3
 40
0.1058
 41
0.1058
 66
1
 10
0
 20
0
 30
0
  0
VERTEX
  8
LAYER_3
 10
129.6424
 20
106.3549
  0
VERTEX
  8
LAYER_3
 10
126.991
 20
106.3549
  0
SEQEND
  0
POLYLINE
  8
LAYER_3
 40
0.1058
 41
0.1058
 66
1
 10
0
 20
0
 30
0
  0
VERTEX
  8
LAYER_3
 10
126.991
 20
122.3532
  0
VERTEX
  8
LAYER_3
 10
129.6424
 20
122.3532
  0
SEQEND
  0
ENDBLK
  0
BLOCK
  8
LAYER_3
  2
AIGNBL03010006
 70
64
 10
0
 20
0
 30
0
  3
AIGNBL03010006
  0
POLYLINE
  8
LAYER_3
 40
0.1058
 41
0.1058
 66
1
 10
0
 20
0
 30
0
  0
VERTEX
  8
LAYER_3
 10
103.4004
 20
110.9507
  0
VERTEX
  8
LAYER_3
 10
103.4004
 20
122.3532
  0
SEQEND
  0
POLYLINE
  8
LAYER_3
 40
0.1058
 41
0.1058
 66
1
 10
0
 20
0
 30
0
  0
VERTEX
  8
LAYER_3
 10
104.7247
 20
110.9507
  0
VERTEX
  8
LAYER_3
 10
102.0741
 20
110.9507
  0
SEQEND
  0
POLYLINE
  8
LAYER_3
 40
0.1058
 41
0.1058
 66
1
 10
0
 20
0
 30
0
  0
VERTEX
  8
LAYER_3
 10
102.0741
 20
122.3532
  0
VERTEX
  8
LAYER_3
 10
104.7247
 20
122.3532
  0
SEQEND
  0
ENDBLK
  0
BLOCK
  8
LAYER_3
  2
AIGNBL03010007
 70
64
 10
0
 20
0
 30
0
  3
AIGNBL03010007
  0
POLYLINE
  8
LAYER_3
 40
0.1058
 41
0.1058
 66
1
 10
0
 20
0
 30
0
  0
VERTEX
  8
LAYER_3
 10
91.1558
 20
125.6385
  0
VERTEX
  8
LAYER_3
 10
84.9912
 20
125.6385
  0
SEQEND
  0
POLYLINE
  8
LAYER_3
 40
0.1058
 41
0.1058
 66
1
 10
0
 20
0
 30
0
  0
VERTEX
  8
LAYER_3
 10
91.1558
 20
126.9621
  0
VERTEX
  8
LAYER_3
 10
91.1558
 20
124.3135
  0
SEQEND
  0
POLYLINE
  8
LAYER_3
 40
0.1058
 41
0.1058
 66
1
 10
0
 20
0
 30
0
  0
VERTEX
  8
LAYER_3
 10
84.9912
 20
124.3135
  0
VERTEX
  8
LAYER_3
 10
84.9912
 20
126.9621
  0
SEQEND
  0
ENDBLK
  0
BLOCK
  8
LAYER_3
  2
AIGNBL03010008
 70
64
 10
0
 20
0
 30
0
  3
AIGNBL03010008
  0
INSERT
  8
LAYER_3
  2
AIGNBL03020009
 10
0
 20
0
 30
0
  0
ENDBLK
  0
BLOCK
  8
LAYER_5
  2
AIGNBL05010002
 70
64
 10
0
 20
0
 30
0
  3
AIGNBL05010002
  0
POLYLINE
  8
LAYER_5
 40
0.7056
 41
0.7056
 66
1
 10
0
 20
0
 30
0
 70
1
  0
VERTEX
  8
LAYER_5
 10
251.6749
 20
230.337
  0
VERTEX
  8
LAYER_5
 10
251.6749
 20
33.3285
  0
VERTEX
  8
LAYER_5
 10
-30.3177
 20
33.3285
  0
VERTEX
  8
LAYER_5
 10
-30.3177
 20
230.337
  0
SEQEND
  0
ENDBLK
  0
BLOCK
  8
LAYER_5
  2
AIGNBL05010003
 70
64
 10
0
 20
0
 30
0
  3
AIGNBL05010003
  0
INSERT
  8
LAYER_5
  2
AIGNBL05020004
 10
0
 20
0
 30
0
  0
INSERT
  8
LAYER_5
  2
AIGNBL0502000D
 10
0
 20
0
 30
0
  0
ENDBLK
  0
BLOCK
  8
LAYER_5
  2
AIGNBL05010025
 70
64
 10
0
 20
0
 30
0
  3
AIGNBL05010025
  0
POLYLINE
  8
LAYER_5
 40
0.05
 41
0.05
 66
1
 10
0
 20
0
 30
0
  0
VERTEX
  8
LAYER_5
 10
-24.7289
 20
219.7266
 42
0.1341998603
  0
VERTEX
  8
LAYER_5
 10
-24.5592
 20
219.0834
 42
0.1261801142
  0
VERTEX
  8
LAYER_5
 10
-24.0913
 20
218.6274
 42
0.07945580654
  0
VERTEX
  8
LAYER_5
 10
-23.4074
 20
218.3548
  0
VERTEX
  8
LAYER_5
 10
-22.7374
 20
218.1977
 42
-0.06331165485
  0
VERTEX
  8
LAYER_5
 10
-22.2151
 20
218.0208
 42
-0.1808600581
  0
VERTEX
  8
LAYER_5
 10
-21.906
 20
217.7022
 42
-0.08676304228
  0
VERTEX
  8
LAYER_5
 10
-21.8731
 20
217.4973
 42
-0.2941221031
  0
VERTEX
  8
LAYER_5
 10
-22.2545
 20
216.9168
 42
-0.1199318645
  0
VERTEX
  8
LAYER_5
 10
-22.9007
 20
216.7681
 42
-0.005101656443
  0
VERTEX
  8
LAYER_5
 10
-22.938
 20
216.7677
 42
-0.1318116097
  0
VERTEX
  8
LAYER_5
 10
-23.6289
 20
216.9475
 42
-0.1172183099
  0
VERTEX
  8
LAYER_5
 10
-24.1316
 20
217.4313
 42
-0.004867741498
  0
VERTEX
  8
LAYER_5
 10
-24.1512
 20
217.4611
  0
VERTEX
  8
LAYER_5
 10
-24.2002
 20
217.5355
  0
VERTEX
  8
LAYER_5
 10
-24.9396
 20
217.0282
  0
VERTEX
  8
LAYER_5
 10
-24.8924
 20
216.9575
 42
0.1006692345
  0
VERTEX
  8
LAYER_5
 10
-24.2656
 20
216.3278
 42
0.09822650202
  0
VERTEX
  8
LAYER_5
 10
-23.491
 20
216.02
 42
0.04873469498
  0
VERTEX
  8
LAYER_5
 10
-22.938
 20
215.9689
 42
0.09078870715
  0
VERTEX
  8
LAYER_5
 10
-21.9452
 20
216.1461
 42
0.1030174332
  0
VERTEX
  8
LAYER_5
 10
-21.3352
 20
216.5404
 42
0.1803448142
  0
VERTEX
  8
LAYER_5
 10
-20.9524
 20
217.4258
 42
0.01943778951
  0
VERTEX
  8
LAYER_5
 10
-20.9476
 20
217.56
 42
0.2531765608
  0
VERTEX
  8
LAYER_5
 10
-21.5885
 20
218.7222
 42
0.09194545039
  0
VERTEX
  8
LAYER_5
 10
-22.2057
 20
218.9827
  0
VERTEX
  8
LAYER_5
 10
-22.9068
 20
219.1511
 42
-0.0578189963
  0
VERTEX
  8
LAYER_5
 10
-23.4528
 20
219.3232
 42
-0.1855772451
  0
VERTEX
  8
LAYER_5
 10
-23.7676
 20
219.6264
 42
-0.08926070578
  0
VERTEX
  8
LAYER_5
 10
-23.8011
 20
219.8403
 42
-0.313498231
  0
VERTEX
  8
LAYER_5
 10
-23.4222
 20
220.3762
 42
-0.106300738
  0
VERTEX
  8
LAYER_5
 10
-22.8751
 20
220.4863
 42
-0.1482953379
  0
VERTEX
  8
LAYER_5
 10
-22.2709
 20
220.3127
 42
-0.1294644155
  0
VERTEX
  8
LAYER_5
 10
-21.8948
 20
219.8732
  0
VERTEX
  8
LAYER_5
 10
-21.8504
 20
219.7888
  0
VERTEX
  8
LAYER_5
 10
-21.0886
 20
220.2925
  0
VERTEX
  8
LAYER_5
 10
-21.1229
 20
220.3597
 42
0.2370693896
  0
VERTEX
  8
LAYER_5
 10
-22.2986
 20
221.2338
 42
0.05316238654
  0
VERTEX
  8
LAYER_5
 10
-22.8329
 20
221.2874
 42
0.09532594653
  0
VERTEX
  8
LAYER_5
 10
-23.7699
 20
221.1115
 42
0.1053422287
  0
VERTEX
  8
LAYER_5
 10
-24.364
 20
220.7089
 42
0.1944052329
  0
VERTEX
  8
LAYER_5
 10
-24.7289
 20
219.7266
  0
SEQEND
  0
POLYLINE
  8
LAYER_5
 40
0.05
 41
0.05
 66
1
 10
0
 20
0
 30
0
  0
VERTEX
  8
LAYER_5
 10
-20.6499
 20
222.9567
 42
0.3936231745
  0
VERTEX
  8
LAYER_5
 10
-20.0589
 20
222.3685
 42
0.386081733
  0
VERTEX
  8
LAYER_5
 10
-19.4719
 20
222.9567
 42
0.3921277689
  0
VERTEX
  8
LAYER_5
 10
-20.0589
 20
223.5464
 42
0.3856970876
  0
VERTEX
  8
LAYER_5
 10
-20.6499
 20
222.9567
  0
SEQEND
  0
POLYLINE
  8
LAYER_5
 40
0.05
 41
0.05
 66
1
 10
0
 20
0
 30
0
  0
VERTEX
  8
LAYER_5
 10
-19.7159
 20
221.162
  0
VERTEX
  8
LAYER_5
 10
-20.4918
 20
221.162
  0
VERTEX
  8
LAYER_5
 10
-20.4918
 20
216.0938
  0
VERTEX
  8
LAYER_5
 10
-19.6286
 20
216.0938
  0
VERTEX
  8
LAYER_5
 10
-19.6286
 20
221.162
  0
SEQEND
  0
POLYLINE
  8
LAYER_5
 40
0.05
 41
0.05
 66
1
 10
0
 20
0
 30
0
  0
VERTEX
  8
LAYER_5
 10
-15.1212
 20
220.3724
 42
0.1207793697
  0
VERTEX
  8
LAYER_5
 10
-15.6145
 20
220.9712
 42
0.1123792155
  0
VERTEX
  8
LAYER_5
 10
-16.2716
 20
221.2487
 42
0.04782249271
  0
VERTEX
  8
LAYER_5
 10
-16.6841
 20
221.2869
 42
0.1072902452
  0
VERTEX
  8
LAYER_5
 10
-17.5023
 20
221.1052
 42
0.09984805864
  0
VERTEX
  8
LAYER_5
 10
-18.1382
 20
220.6458
 42
0.01292207714
  0
VERTEX
  8
LAYER_5
 10
-18.198
 20
220.5762
  0
VERTEX
  8
LAYER_5
 10
-18.198
 20
221.1615
  0
VERTEX
  8
LAYER_5
 10
-19.0617
 20
221.1615
  0
VERTEX
  8
LAYER_5
 10
-19.0617
 20
216.0936
  0
VERTEX
  8
LAYER_5
 10
-18.198
 20
216.0936
  0
VERTEX
  8
LAYER_5
 10
-18.198
 20
218.6907
 42
-0.09654084086
  0
VERTEX
  8
LAYER_5
 10
-18.0246
 20
219.6722
 42
-0.1188565985
  0
VERTEX
  8
LAYER_5
 10
-17.6298
 20
220.2091
 42
-0.15802177
  0
VERTEX
  8
LAYER_5
 10
-16.9046
 20
220.4863
 42
-0.1299839892
  0
VERTEX
  8
LAYER_5
 10
-16.2243
 20
220.3327
 42
-0.1576712877
  0
VERTEX
  8
LAYER_5
 10
-15.902
 20
219.953
 42
-0.05721861023
  0
VERTEX
  8
LAYER_5
 10
-15.8045
 20
219.631
 42
-0.04865875875
  0
VERTEX
  8
LAYER_5
 10
-15.7563
 20
219.0344
  0
VERTEX
  8
LAYER_5
 10
-15.7563
 20
216.0936
  0
VERTEX
  8
LAYER_5
 10
-14.8928
 20
216.0936
  0
VERTEX
  8
LAYER_5
 10
-14.8928
 20
218.7842
 42
-0.09089878682
  0
VERTEX
  8
LAYER_5
 10
-14.73
 20
219.7237
 42
-0.1191956233
  0
VERTEX
  8
LAYER_5
 10
-14.373
 20
220.2329
 42
-0.1344089617
  0
VERTEX
  8
LAYER_5
 10
-13.8547
 20
220.4654
 42
-0.0420961071
  0
VERTEX
  8
LAYER_5
 10
-13.5999
 20
220.4863
 42
-0.1298626135
  0
VERTEX
  8
LAYER_5
 10
-12.9187
 20
220.3327
 42
-0.1577606685
  0
VERTEX
  8
LAYER_5
 10
-12.5963
 20
219.953
 42
-0.05724335824
  0
VERTEX
  8
LAYER_5
 10
-12.4988
 20
219.631
 42
-0.04863743227
  0
VERTEX
  8
LAYER_5
 10
-12.4506
 20
219.0344
  0
VERTEX
  8
LAYER_5
 10
-12.4506
 20
216.0936
  0
VERTEX
  8
LAYER_5
 10
-11.5888
 20
216.0936
  0
VERTEX
  8
LAYER_5
 10
-11.5888
 20
219.2863
 42
0.09153279999
  0
VERTEX
  8
LAYER_5
 10
-11.7541
 20
220.2648
 42
0.1137257525
  0
VERTEX
  8
LAYER_5
 10
-12.1584
 20
220.8532
 42
0.1162530232
  0
VERTEX
  8
LAYER_5
 10
-12.7979
 20
221.1952
 42
0.0722532527
  0
VERTEX
  8
LAYER_5
 10
-13.5156
 20
221.2869
 42
0.2580675194
  0
VERTEX
  8
LAYER_5
 10
-15.1212
 20
220.3724
  0
SEQEND
  0
POLYLINE
  8
LAYER_5
 40
0.05
 41
0.05
 66
1
 10
0
 20
0
 30
0
  0
VERTEX
  8
LAYER_5
 10
-6.5398
 20
219.7266
 42
0.134478161
  0
VERTEX
  8
LAYER_5
 10
-6.3695
 20
219.0834
 42
0.1258963062
  0
VERTEX
  8
LAYER_5
 10
-5.9013
 20
218.6274
 42
0.07937172531
  0
VERTEX
  8
LAYER_5
 10
-5.2179
 20
218.3548
  0
VERTEX
  8
LAYER_5
 10
-4.5484
 20
218.1975
 42
-0.0631755932
  0
VERTEX
  8
LAYER_5
 10
-4.0263
 20
218.0207
 42
-0.1806469744
  0
VERTEX
  8
LAYER_5
 10
-3.7165
 20
217.702
 42
-0.08701309377
  0
VERTEX
  8
LAYER_5
 10
-3.6835
 20
217.4971
 42
-0.2942528815
  0
VERTEX
  8
LAYER_5
 10
-4.0651
 20
216.9167
 42
-0.1198372064
  0
VERTEX
  8
LAYER_5
 10
-4.7111
 20
216.7681
 42
-0.005099843066
  0
VERTEX
  8
LAYER_5
 10
-4.7484
 20
216.7677
 42
-0.1318208153
  0
VERTEX
  8
LAYER_5
 10
-5.4397
 20
216.9475
 42
-0.1159302133
  0
VERTEX
  8
LAYER_5
 10
-5.937
 20
217.4238
 42
-0.006094096148
  0
VERTEX
  8
LAYER_5
 10
-5.9617
 20
217.4611
  0
VERTEX
  8
LAYER_5
 10
-6.0112
 20
217.5355
  0
VERTEX
  8
LAYER_5
 10
-6.75
 20
217.0282
  0
VERTEX
  8
LAYER_5
 10
-6.7036
 20
216.9575
 42
0.1006943621
  0
VERTEX
  8
LAYER_5
 10
-6.0762
 20
216.3276
 42
0.09809760808
  0
VERTEX
  8
LAYER_5
 10
-5.3011
 20
216.0196
 42
0.04877336623
  0
VERTEX
  8
LAYER_5
 10
-4.7484
 20
215.9685
 42
0.09080061549
  0
VERTEX
  8
LAYER_5
 10
-3.7557
 20
216.1458
 42
0.1029663831
  0
VERTEX
  8
LAYER_5
 10
-3.1454
 20
216.5402
 42
0.180354229
  0
VERTEX
  8
LAYER_5
 10
-2.7623
 20
217.4258
 42
0.01945068344
  0
VERTEX
  8
LAYER_5
 10
-2.7575
 20
217.56
 42
0.2535980107
  0
VERTEX
  8
LAYER_5
 10
-3.3999
 20
218.7221
 42
0.09173199894
  0
VERTEX
  8
LAYER_5
 10
-4.018
 20
218.9827
  0
VERTEX
  8
LAYER_5
 10
-4.7177
 20
219.1511
 42
-0.05991192419
  0
VERTEX
  8
LAYER_5
 10
-5.2728
 20
219.3275
 42
-0.1874515711
  0
VERTEX
  8
LAYER_5
 10
-5.5828
 20
219.6332
 42
-0.08582021468
  0
VERTEX
  8
LAYER_5
 10
-5.6143
 20
219.8403
 42
-0.314077401
  0
VERTEX
  8
LAYER_5
 10
-5.2343
 20
220.3762
 42
-0.1060544966
  0
VERTEX
  8
LAYER_5
 10
-4.6848
 20
220.4863
 42
-0.1486063154
  0
VERTEX
  8
LAYER_5
 10
-4.0809
 20
220.3127
 42
-0.1292830572
  0
VERTEX
  8
LAYER_5
 10
-3.7057
 20
219.8732
  0
VERTEX
  8
LAYER_5
 10
-3.6608
 20
219.7888
  0
VERTEX
  8
LAYER_5
 10
-2.8992
 20
220.2925
  0
VERTEX
  8
LAYER_5
 10
-2.933
 20
220.3595
 42
0.237196535
  0
VERTEX
  8
LAYER_5
 10
-4.1097
 20
221.2337
 42
0.05314185225
  0
VERTEX
  8
LAYER_5
 10
-4.6438
 20
221.2873
 42
0.09533727001
  0
VERTEX
  8
LAYER_5
 10
-5.5811
 20
221.1115
 42
0.1053851178
  0
VERTEX
  8
LAYER_5
 10
-6.1751
 20
220.7089
 42
0.1943913526
  0
VERTEX
  8
LAYER_5
 10
-6.5398
 20
219.7266
  0
SEQEND
  0
INSERT
  8
LAYER_5
  2
AIGNBL05020026
 10
0
 20
0
 30
0
  0
INSERT
  8
LAYER_5
  2
AIGNBL05020027
 10
0
 20
0
 30
0
  0
INSERT
  8
LAYER_5
  2
AIGNBL05020028
 10
0
 20
0
 30
0
  0
POLYLINE
  8
LAYER_5
 40
0.05
 41
0.05
 66
1
 10
0
 20
0
 30
0
  0
VERTEX
  8
LAYER_5
 10
-20.9091
 20
213.692
 42
0.2126578199
  0
VERTEX
  8
LAYER_5
 10
-21.2785
 20
213.8653
 42
0.4107545191
  0
VERTEX
  8
LAYER_5
 10
-21.8793
 20
213.2387
 42
0.1832232544
  0
VERTEX
  8
LAYER_5
 10
-21.7095
 20
212.7686
 42
0.2124026091
  0
VERTEX
  8
LAYER_5
 10
-21.2785
 20
212.5886
 42
0.2429399681
  0
VERTEX
  8
LAYER_5
 10
-20.8847
 20
212.8017
  0
VERTEX
  8
LAYER_5
 10
-20.6282
 20
212.6175
 42
-0.2483368577
  0
VERTEX
  8
LAYER_5
 10
-21.2802
 20
212.3057
 42
-0.1519221822
  0
VERTEX
  8
LAYER_5
 10
-21.8463
 20
212.4749
 42
-0.2337791857
  0
VERTEX
  8
LAYER_5
 10
-22.2039
 20
213.1558
 42
-0.01462202831
  0
VERTEX
  8
LAYER_5
 10
-22.2057
 20
213.219
 42
-0.1526640936
  0
VERTEX
  8
LAYER_5
 10
-22.0367
 20
213.7867
 42
-0.2349220238
  0
VERTEX
  8
LAYER_5
 10
-21.3427
 20
214.1454
 42
-0.01403410383
  0
VERTEX
  8
LAYER_5
 10
-21.2802
 20
214.1471
 42
-0.1771442668
  0
VERTEX
  8
LAYER_5
 10
-20.7724
 20
213.9741
 42
-0.0394909762
  0
VERTEX
  8
LAYER_5
 10
-20.6673
 20
213.8707
  0
SEQEND
  0
INSERT
  8
LAYER_5
  2
AIGNBL05020029
 10
0
 20
0
 30
0
  0
POLYLINE
  8
LAYER_5
 40
0.05
 41
0.05
 66
1
 10
0
 20
0
 30
0
  0
VERTEX
  8
LAYER_5
 10
-16.1647
 20
212.9941
 42
-0.182226301
  0
VERTEX
  8
LAYER_5
 10
-16.3329
 20
212.5261
 42
-0.1768067702
  0
VERTEX
  8
LAYER_5
 10
-16.7424
 20
212.3151
 42
-0.03937171115
  0
VERTEX
  8
LAYER_5
 10
-16.8703
 20
212.3057
 42
-0.1767902592
  0
VERTEX
  8
LAYER_5
 10
-17.3545
 20
212.4748
 42
-0.2234110022
  0
VERTEX
  8
LAYER_5
 10
-17.5745
 20
212.9941
  0
VERTEX
  8
LAYER_5
 10
-17.5745
 20
214.1029
  0
VERTEX
  8
LAYER_5
 10
-17.2613
 20
214.1029
  0
VERTEX
  8
LAYER_5
 10
-17.2613
 20
213.0037
 42
0.2349518793
  0
VERTEX
  8
LAYER_5
 10
-17.1016
 20
212.6665
 42
0.1547549989
  0
VERTEX
  8
LAYER_5
 10
-16.8703
 20
212.6029
 42
0.2547042701
  0
VERTEX
  8
LAYER_5
 10
-16.5428
 20
212.765
 42
0.1423144498
  0
VERTEX
  8
LAYER_5
 10
-16.477
 20
213.0037
  0
VERTEX
  8
LAYER_5
 10
-16.477
 20
214.1029
  0
VERTEX
  8
LAYER_5
 10
-16.1647
 20
214.1029
  0
SEQEND
  0
INSERT
  8
LAYER_5
  2
AIGNBL0502002A
 10
0
 20
0
 30
0
  0
POLYLINE
  8
LAYER_5
 40
0.05
 41
0.05
 66
1
 10
0
 20
0
 30
0
  0
VERTEX
  8
LAYER_5
 10
-11.0637
 20
213.9659
 42
0.1865846686
  0
VERTEX
  8
LAYER_5
 10
-11.5272
 20
214.146
 42
0.01070457993
  0
VERTEX
  8
LAYER_5
 10
-11.566
 20
214.1468
 42
0.1725298242
  0
VERTEX
  8
LAYER_5
 10
-12.0539
 20
213.9827
 42
0.2187144791
  0
VERTEX
  8
LAYER_5
 10
-12.212
 20
213.6169
 42
0.3561528276
  0
VERTEX
  8
LAYER_5
 10
-11.8351
 20
213.1453
 42
-0.4171847534
  0
VERTEX
  8
LAYER_5
 10
-11.3804
 20
212.8287
 42
-0.3335028506
  0
VERTEX
  8
LAYER_5
 10
-11.5558
 20
212.6101
 42
-0.08319549326
  0
VERTEX
  8
LAYER_5
 10
-11.6868
 20
212.588
 42
-0.2454746759
  0
VERTEX
  8
LAYER_5
 10
-12.0342
 20
212.7715
  0
VERTEX
  8
LAYER_5
 10
-12.269
 20
212.5433
 42
0.1909646496
  0
VERTEX
  8
LAYER_5
 10
-11.8308
 20
212.3153
 42
0.03754446626
  0
VERTEX
  8
LAYER_5
 10
-11.6944
 20
212.3061
 42
0.1762916439
  0
VERTEX
  8
LAYER_5
 10
-11.2183
 20
212.4674
 42
0.2195743063
  0
VERTEX
  8
LAYER_5
 10
-11.0534
 20
212.8657
 42
0.3531185733
  0
VERTEX
  8
LAYER_5
 10
-11.4303
 20
213.3408
 42
-0.05600345769
  0
VERTEX
  8
LAYER_5
 10
-11.796
 20
213.4825
 42
-0.2536946722
  0
VERTEX
  8
LAYER_5
 10
-11.885
 20
213.6399
 42
-0.3489083621
  0
VERTEX
  8
LAYER_5
 10
-11.7191
 20
213.848
 42
-0.07098211707
  0
VERTEX
  8
LAYER_5
 10
-11.5983
 20
213.8648
 42
-0.2306121412
  0
VERTEX
  8
LAYER_5
 10
-11.2913
 20
213.7261
  0
SEQEND
  0
INSERT
  8
LAYER_5
  2
AIGNBL0502002B
 10
0
 20
0
 30
0
  0
INSERT
  8
LAYER_5
  2
AIGNBL0502002C
 10
0
 20
0
 30
0
  0
POLYLINE
  8
LAYER_5
 40
0.05
 41
0.05
 66
1
 10
0
 20
0
 30
0
  0
VERTEX
  8
LAYER_5
 10
-5.2994
 20
213.692
 42
0.2129687332
  0
VERTEX
  8
LAYER_5
 10
-5.6677
 20
213.8653
 42
0.4105330837
  0
VERTEX
  8
LAYER_5
 10
-6.269
 20
213.2387
 42
0.1833694889
  0
VERTEX
  8
LAYER_5
 10
-6.099
 20
212.7686
 42
0.2122774884
  0
VERTEX
  8
LAYER_5
 10
-5.6677
 20
212.5886
 42
0.2420713992
  0
VERTEX
  8
LAYER_5
 10
-5.2745
 20
212.8017
  0
VERTEX
  8
LAYER_5
 10
-5.0183
 20
212.6175
 42
-0.2483961933
  0
VERTEX
  8
LAYER_5
 10
-5.6704
 20
212.3057
 42
-0.1519079839
  0
VERTEX
  8
LAYER_5
 10
-6.2365
 20
212.4749
 42
-0.2337913088
  0
VERTEX
  8
LAYER_5
 10
-6.5942
 20
213.1558
 42
-0.0146222367
  0
VERTEX
  8
LAYER_5
 10
-6.596
 20
213.219
 42
-0.1526708466
  0
VERTEX
  8
LAYER_5
 10
-6.427
 20
213.7867
 42
-0.2349281849
  0
VERTEX
  8
LAYER_5
 10
-5.7329
 20
214.1454
 42
-0.01403209072
  0
VERTEX
  8
LAYER_5
 10
-5.6704
 20
214.1471
 42
-0.177045353
  0
VERTEX
  8
LAYER_5
 10
-5.1623
 20
213.9741
 42
-0.03940754375
  0
VERTEX
  8
LAYER_5
 10
-5.0571
 20
213.8707
  0
SEQEND
  0
POLYLINE
  8
LAYER_5
 40
0.05
 41
0.05
 66
1
 10
0
 20
0
 30
0
  0
VERTEX
  8
LAYER_5
 10
-4.4354
 20
214.1029
  0
VERTEX
  8
LAYER_5
 10
-3.2751
 20
214.1029
  0
VERTEX
  8
LAYER_5
 10
-3.2751
 20
213.8202
  0
VERTEX
  8
LAYER_5
 10
-4.1231
 20
213.8202
  0
VERTEX
  8
LAYER_5
 10
-4.1231
 20
213.3901
  0
VERTEX
  8
LAYER_5
 10
-3.3195
 20
213.3901
  0
VERTEX
  8
LAYER_5
 10
-3.3195
 20
213.1079
  0
VERTEX
  8
LAYER_5
 10
-4.1231
 20
213.1079
  0
VERTEX
  8
LAYER_5
 10
-4.1231
 20
212.633
  0
VERTEX
  8
LAYER_5
 10
-3.2318
 20
212.633
  0
VERTEX
  8
LAYER_5
 10
-3.2318
 20
212.3512
  0
VERTEX
  8
LAYER_5
 10
-4.4354
 20
212.3512
  0
SEQEND
  0
ENDBLK
  0
ENDSEC
  0
SECTION
  2
ENTITIES
  0
TEXT
  8
LAYER_3
 10
40.8872
 20
168.7771
 11
40.8872
 21
168.7771
 40
3.5541
 41
0.5
 72
1
  1
35
  0
TEXT
  8
LAYER_3
 10
43.3599
 20
189.7135
 11
43.3599
 21
189.7135
 40
3.5541
 41
0.5
 72
1
  1
420
  0
POLYLINE
  8
LAYER_3
 40
0.1058
 41
0.1058
 66
1
 10
0
 20
0
 30
0
  0
VERTEX
  8
LAYER_3
 10
18.6483
 20
187.6137
  0
VERTEX
  8
LAYER_3
 10
60.6495
 20
187.6137
  0
SEQEND
  0
POLYLINE
  8
LAYER_3
 40
0.1058
 41
0.1058
 66
1
 10
0
 20
0
 30
0
  0
VERTEX
  8
LAYER_3
 10
18.6483
 20
186.2873
  0
VERTEX
  8
LAYER_3
 10
18.6483
 20
188.9387
  0
SEQEND
  0
POLYLINE
  8
LAYER_3
 40
0.1058
 41
0.1058
 66
1
 10
0
 20
0
 30
0
  0
VERTEX
  8
LAYER_3
 10
60.6495
 20
188.9387
  0
VERTEX
  8
LAYER_3
 10
60.6495
 20
186.2873
  0
SEQEND
  0
POLYLINE
  8
LAYER_3
 40
0.1058
 41
0.1058
 66
1
 10
0
 20
0
 30
0
  0
VERTEX
  8
LAYER_3
 10
18.6442
 20
92.5484
  0
VERTEX
  8
LAYER_3
 10
60.6461
 20
92.5484
  0
SEQEND
  0
POLYLINE
  8
LAYER_3
 40
0.1058
 41
0.1058
 66
1
 10
0
 20
0
 30
0
  0
VERTEX
  8
LAYER_3
 10
18.6442
 20
91.222
  0
VERTEX
  8
LAYER_3
 10
18.6442
 20
93.8734
  0
SEQEND
  0
POLYLINE
  8
LAYER_3
 40
0.1058
 41
0.1058
 66
1
 10
0
 20
0
 30
0
  0
VERTEX
  8
LAYER_3
 10
60.6461
 20
93.8734
  0
VERTEX
  8
LAYER_3
 10
60.6461
 20
91.222
  0
SEQEND
  0
INSERT
  8
LAYER_3
  2
AIGNBL03010002
 10
0
 20
0
 30
0
  0
INSERT
  8
LAYER_3
  2
AIGNBL03010003
 10
0
 20
0
 30
0
  0
INSERT
  8
LAYER_3
  2
AIGNBL03010004
 10
0
 20
0
 30
0
  0
INSERT
  8
LAYER_3
  2
AIGNBL03010005
 10
0
 20
0
 30
0
  0
INSERT
  8
LAYER_3
  2
AIGNBL03010006
 10
0
 20
0
 30
0
  0
POLYLINE
  8
LAYER_3
 40
0.1058
 41
0.1058
 66
1
 10
0
 20
0
 30
0
  0
VERTEX
  8
LAYER_3
 10
20.5541
 20
101.9555
  0
VERTEX
  8
LAYER_3
 10
58.7527
 20
101.9555
  0
SEQEND
  0
POLYLINE
  8
LAYER_3
 40
0.1058
 41
0.1058
 66
1
 10
0
 20
0
 30
0
  0
VERTEX
  8
LAYER_3
 10
20.5541
 20
100.6306
  0
VERTEX
  8
LAYER_3
 10
20.5541
 20
103.2798
  0
SEQEND
  0
POLYLINE
  8
LAYER_3
 40
0.1058
 41
0.1058
 66
1
 10
0
 20
0
 30
0
  0
VERTEX
  8
LAYER_3
 10
58.7527
 20
100.6306
  0
VERTEX
  8
LAYER_3
 10
58.7527
 20
103.2798
  0
SEQEND
  0
POLYLINE
  8
LAYER_3
 40
0.1058
 41
0.1058
 66
1
 10
0
 20
0
 30
0
  0
VERTEX
  8
LAYER_3
 10
10.7404
 20
143.3373
  0
VERTEX
  8
LAYER_3
 10
10.7404
 20
180.523
  0
SEQEND
  0
POLYLINE
  8
LAYER_3
 40
0.1058
 41
0.1058
 66
1
 10
0
 20
0
 30
0
  0
VERTEX
  8
LAYER_3
 10
12.0668
 20
143.3373
  0
VERTEX
  8
LAYER_3
 10
9.4155
 20
143.3373
  0
SEQEND
  0
POLYLINE
  8
LAYER_3
 40
0.1058
 41
0.1058
 66
1
 10
0
 20
0
 30
0
  0
VERTEX
  8
LAYER_3
 10
12.0668
 20
168.0077
  0
VERTEX
  8
LAYER_3
 10
9.4155
 20
168.0077
  0
SEQEND
  0
POLYLINE
  8
LAYER_3
 40
0.1058
 41
0.1058
 66
1
 10
0
 20
0
 30
0
  0
VERTEX
  8
LAYER_3
 10
12.0668
 20
143.6343
  0
VERTEX
  8
LAYER_3
 10
9.4155
 20
143.6343
  0
SEQEND
  0
POLYLINE
  8
LAYER_3
 40
0.1058
 41
0.1058
 66
1
 10
0
 20
0
 30
0
  0
VERTEX
  8
LAYER_3
 10
9.4155
 20
180.523
  0
VERTEX
  8
LAYER_3
 10
12.0668
 20
180.523
  0
SEQEND
  0
CIRCLE
  8
LAYER_3
 10
39.6469
 20
174.2722
 40
1.9
  0
POLYLINE
  8
LAYER_3
 40
0.3175
 41
0.3175
 66
1
 10
0
 20
0
 30
0
 70
1
  0
VERTEX
  8
LAYER_3
 10
42.0019
 20
161.9298
 42
0.3034807938
  0
VERTEX
  8
LAYER_3
 10
40.5398
 20
164.1161
 42
0.3025261955
  0
VERTEX
  8
LAYER_3
 10
37.9595
 20
163.6034
 42
0.3030366134
  0
VERTEX
  8
LAYER_3
 10
37.4475
 20
161.0224
 42
0.3031627763
  0
VERTEX
  8
LAYER_3
 10
39.6344
 20
159.5623
 42
0.4142150785
  0
SEQEND
  0
CIRCLE
  8
LAYER_3
 10
39.6344
 20
161.9298
 40
3.8458
  0
POLYLINE
  8
LAYER_3
 40
0.1058
 41
0.1058
 66
1
 10
0
 20
0
 30
0
 70
1
  0
VERTEX
  8
LAYER_3
 10
18.6483
 20
161.9298
  0
VERTEX
  8
LAYER_3
 10
18.6483
 20
166.4284
  0
VERTEX
  8
LAYER_3
 10
18.6483
 20
168.6781
 42
-0.03713529967
  0
VERTEX
  8
LAYER_3
 10
18.8213
 20
170.9187
 42
-0.1573237836
  0
VERTEX
  8
LAYER_3
 10
22.8155
 20
178.7653
 42
-0.1584034928
  0
VERTEX
  8
LAYER_3
 10
30.6648
 20
182.7623
 42
-0.037076308
  0
VERTEX
  8
LAYER_3
 10
32.9041
 20
182.9339
  0
VERTEX
  8
LAYER_3
 10
35.1537
 20
182.9339
  0
VERTEX
  8
LAYER_3
 10
39.651
 20
182.9339
  0
VERTEX
  8
LAYER_3
 10
44.1489
 20
182.9339
  0
VERTEX
  8
LAYER_3
 10
46.3992
 20
182.9339
 42
-0.03697611775
  0
VERTEX
  8
LAYER_3
 10
48.6372
 20
182.7623
 42
-0.1585288333
  0
VERTEX
  8
LAYER_3
 10
56.4872
 20
178.7653
 42
-0.1574956013
  0
VERTEX
  8
LAYER_3
 10
60.4814
 20
170.9187
 42
-0.03803232655
  0
VERTEX
  8
LAYER_3
 10
60.653
 20
168.6781
  0
VERTEX
  8
LAYER_3
 10
60.653
 20
166.4284
  0
VERTEX
  8
LAYER_3
 10
60.653
 20
161.9298
  0
VERTEX
  8
LAYER_3
 10
60.653
 20
157.4312
  0
VERTEX
  8
LAYER_3
 10
60.653
 20
155.183
 42
-0.03806881139
  0
VERTEX
  8
LAYER_3
 10
60.4814
 20
152.945
 42
-0.1586063824
  0
VERTEX
  8
LAYER_3
 10
56.4872
 20
145.0943
 42
-0.1588732942
  0
VERTEX
  8
LAYER_3
 10
48.6372
 20
141.1008
 42
-0.03810537791
  0
VERTEX
  8
LAYER_3
 10
46.3992
 20
140.9285
  0
VERTEX
  8
LAYER_3
 10
44.1489
 20
140.9285
  0
VERTEX
  8
LAYER_3
 10
39.651
 20
140.9285
  0
VERTEX
  8
LAYER_3
 10
35.1537
 20
140.9285
  0
VERTEX
  8
LAYER_3
 10
32.9041
 20
140.9285
 42
-0.0382077154
  0
VERTEX
  8
LAYER_3
 10
30.6648
 20
141.1008
 42
-0.1587479455
  0
VERTEX
  8
LAYER_3
 10
22.8155
 20
145.0943
 42
-0.1587425683
  0
VERTEX
  8
LAYER_3
 10
18.8213
 20
152.945
 42
-0.03717178847
  0
VERTEX
  8
LAYER_3
 10
18.6483
 20
155.183
  0
VERTEX
  8
LAYER_3
 10
18.6483
 20
157.4312
  0
SEQEND
  0
POLYLINE
  8
LAYER_3
 40
0.1058
 41
0.1058
 66
1
 10
0
 20
0
 30
0
 70
1
  0
VERTEX
  8
LAYER_3
 10
21.0592
 20
161.9298
  0
VERTEX
  8
LAYER_3
 10
21.0592
 20
165.9316
  0
VERTEX
  8
LAYER_3
 10
21.0592
 20
167.9318
 42
-0.03762654625
  0
VERTEX
  8
LAYER_3
 10
21.1432
 20
169.9411
 42
-0.1683190059
  0
VERTEX
  8
LAYER_3
 10
24.5725
 20
177.0097
 42
-0.1683589009
  0
VERTEX
  8
LAYER_3
 10
31.6411
 20
180.4382
 42
-0.02483503215
  0
VERTEX
  8
LAYER_3
 10
32.745
 20
180.518
 42
-0.004366118885
  0
VERTEX
  8
LAYER_3
 10
33.6489
 20
180.523
  0
VERTEX
  8
LAYER_3
 10
35.6491
 20
180.523
  0
VERTEX
  8
LAYER_3
 10
39.651
 20
180.523
  0
VERTEX
  8
LAYER_3
 10
43.6535
 20
180.523
  0
VERTEX
  8
LAYER_3
 10
45.653
 20
180.523
 42
-0.0367913797
  0
VERTEX
  8
LAYER_3
 10
47.6629
 20
180.4382
 42
-0.1681842069
  0
VERTEX
  8
LAYER_3
 10
54.7288
 20
177.0097
 42
-0.1683842963
  0
VERTEX
  8
LAYER_3
 10
58.158
 20
169.9411
 42
-0.02582405093
  0
VERTEX
  8
LAYER_3
 10
58.2394
 20
168.8518
 42
-0.004547688496
  0
VERTEX
  8
LAYER_3
 10
58.2442
 20
167.9318
  0
VERTEX
  8
LAYER_3
 10
58.2442
 20
165.9316
  0
VERTEX
  8
LAYER_3
 10
58.2442
 20
161.9298
  0
VERTEX
  8
LAYER_3
 10
58.2442
 20
157.928
  0
VERTEX
  8
LAYER_3
 10
58.2442
 20
155.9291
 42
-0.03827293015
  0
VERTEX
  8
LAYER_3
 10
58.158
 20
153.9193
 42
-0.1685634343
  0
VERTEX
  8
LAYER_3
 10
54.7288
 20
146.8534
 42
-0.1682775973
  0
VERTEX
  8
LAYER_3
 10
47.6629
 20
143.4214
 42
-0.02522528122
  0
VERTEX
  8
LAYER_3
 10
46.5728
 20
143.3425
 42
-0.004919737233
  0
VERTEX
  8
LAYER_3
 10
45.653
 20
143.3394
  0
VERTEX
  8
LAYER_3
 10
43.6535
 20
143.3394
  0
VERTEX
  8
LAYER_3
 10
39.651
 20
143.3394
  0
VERTEX
  8
LAYER_3
 10
35.6491
 20
143.3394
  0
VERTEX
  8
LAYER_3
 10
33.6489
 20
143.3394
 42
-0.03776809964
  0
VERTEX
  8
LAYER_3
 10
31.6411
 20
143.4214
 42
-0.1682544768
  0
VERTEX
  8
LAYER_3
 10
24.5725
 20
146.8534
 42
-0.168452857
  0
VERTEX
  8
LAYER_3
 10
21.1432
 20
153.9193
 42
-0.02527796732
  0
VERTEX
  8
LAYER_3
 10
21.0637
 20
155.0097
 42
-0.004267426423
  0
VERTEX
  8
LAYER_3
 10
21.0592
 20
155.9291
  0
VERTEX
  8
LAYER_3
 10
21.0592
 20
157.928
  0
SEQEND
  0
POLYLINE
  8
LAYER_3
 40
0.1587
 41
0.1587
 66
1
 10
0
 20
0
 30
0
 70
1
  0
VERTEX
  8
LAYER_3
 10
23.3391
 20
168.0173
 42
0.393399935
  0
VERTEX
  8
LAYER_3
 10
21.3589
 20
166.0343
  0
VERTEX
  8
LAYER_3
 10
21.3589
 20
161.9298
  0
VERTEX
  8
LAYER_3
 10
21.3589
 20
156.5906
  0
VERTEX
  8
LAYER_3
 10
21.3589
 20
156.3288
  0
VERTEX
  8
LAYER_3
 10
21.3589
 20
156.0704
  0
VERTEX
  8
LAYER_3
 10
21.3589
 20
155.8134
  0
VERTEX
  8
LAYER_3
 10
21.3589
 20
155.6818
  0
VERTEX
  8
LAYER_3
 10
21.3589
 20
155.564
  0
VERTEX
  8
LAYER_3
 10
21.3589
 20
155.4744
  0
VERTEX
  8
LAYER_3
 10
21.3589
 20
155.3855
  0
VERTEX
  8
LAYER_3
 10
21.3589
 20
155.2698
  0
VERTEX
  8
LAYER_3
 10
21.3589
 20
155.1685
  0
VERTEX
  8
LAYER_3
 10
21.3947
 20
154.4154
  0
VERTEX
  8
LAYER_3
 10
21.4781
 20
153.6719
 42
0.02501046103
  0
VERTEX
  8
LAYER_3
 10
21.722
 20
152.4413
 42
0.02651332763
  0
VERTEX
  8
LAYER_3
 10
22.0975
 20
151.25
 42
0.02529446611
  0
VERTEX
  8
LAYER_3
 10
22.5916
 20
150.1077
 42
0.02544339005
  0
VERTEX
  8
LAYER_3
 10
23.2151
 20
149.0148
 42
0.03017135844
  0
VERTEX
  8
LAYER_3
 10
24.086
 20
147.827
 42
0.03074172081
  0
VERTEX
  8
LAYER_3
 10
25.0941
 20
146.7686
 42
0.03095409769
  0
VERTEX
  8
LAYER_3
 10
26.233
 20
145.8357
 42
0.03191793205
  0
VERTEX
  8
LAYER_3
 10
27.4712
 20
145.0599
 42
0.0310452092
  0
VERTEX
  8
LAYER_3
 10
28.8072
 20
144.4384
 42
0.02981776473
  0
VERTEX
  8
LAYER_3
 10
30.2004
 20
143.9926
 42
0.03034952798
  0
VERTEX
  8
LAYER_3
 10
31.6494
 20
143.7232
  0
VERTEX
  8
LAYER_3
 10
32.0201
 20
143.6846
  0
VERTEX
  8
LAYER_3
 10
32.3839
 20
143.6563
  0
VERTEX
  8
LAYER_3
 10
32.747
 20
143.6412
  0
VERTEX
  8
LAYER_3
 10
32.9262
 20
143.6391
  0
VERTEX
  8
LAYER_3
 10
33.1191
 20
143.6391
  0
VERTEX
  8
LAYER_3
 10
33.2872
 20
143.6391
  0
VERTEX
  8
LAYER_3
 10
33.547
 20
143.6391
  0
VERTEX
  8
LAYER_3
 10
33.8054
 20
143.6391
  0
VERTEX
  8
LAYER_3
 10
34.0637
 20
143.6391
  0
VERTEX
  8
LAYER_3
 10
45.252
 20
143.6391
  0
VERTEX
  8
LAYER_3
 10
45.5097
 20
143.6391
  0
VERTEX
  8
LAYER_3
 10
45.7702
 20
143.6391
  0
VERTEX
  8
LAYER_3
 10
46.0147
 20
143.6391
  0
VERTEX
  8
LAYER_3
 10
46.1946
 20
143.6391
  0
VERTEX
  8
LAYER_3
 10
46.3124
 20
143.6391
  0
VERTEX
  8
LAYER_3
 10
46.9436
 20
143.6591
  0
VERTEX
  8
LAYER_3
 10
47.5644
 20
143.7136
 42
0.03120626224
  0
VERTEX
  8
LAYER_3
 10
49.063
 20
143.9816
 42
0.0323594084
  0
VERTEX
  8
LAYER_3
 10
50.5237
 20
144.4494
 42
0.01314360156
  0
VERTEX
  8
LAYER_3
 10
51.2265
 20
144.7533
 42
0.01312065577
  0
VERTEX
  8
LAYER_3
 10
51.9011
 20
145.0964
 42
0.03320854122
  0
VERTEX
  8
LAYER_3
 10
53.1854
 20
145.9218
 42
0.04115767062
  0
VERTEX
  8
LAYER_3
 10
54.6172
 20
147.1662
 42
0.03967347676
  0
VERTEX
  8
LAYER_3
 10
55.823
 20
148.6187
 42
0.04087161326
  0
VERTEX
  8
LAYER_3
 10
56.7765
 20
150.2441
 42
0.0400220648
  0
VERTEX
  8
LAYER_3
 10
57.4587
 20
152.0038
 42
0.03023376732
  0
VERTEX
  8
LAYER_3
 10
57.7777
 20
153.3777
 42
0.02960072788
  0
VERTEX
  8
LAYER_3
 10
57.93
 20
154.7695
  0
VERTEX
  8
LAYER_3
 10
57.941
 20
155.0513
  0
VERTEX
  8
LAYER_3
 10
57.943
 20
155.1933
  0
VERTEX
  8
LAYER_3
 10
57.943
 20
155.3345
  0
VERTEX
  8
LAYER_3
 10
57.943
 20
155.4
  0
VERTEX
  8
LAYER_3
 10
57.943
 20
155.564
  0
VERTEX
  8
LAYER_3
 10
57.943
 20
155.8134
  0
VERTEX
  8
LAYER_3
 10
57.943
 20
156.0704
  0
VERTEX
  8
LAYER_3
 10
57.943
 20
156.3288
  0
VERTEX
  8
LAYER_3
 10
57.943
 20
156.5906
  0
VERTEX
  8
LAYER_3
 10
57.943
 20
161.9298
  0
VERTEX
  8
LAYER_3
 10
57.943
 20
166.0343
 42
0.3927139159
  0
VERTEX
  8
LAYER_3
 10
55.9635
 20
168.0173
  0
VERTEX
  8
LAYER_3
 10
39.651
 20
168.0173
  0
SEQEND
  0
TEXT
  8
LAYER_3
 10
7.4372
 20
171.3353
 11
7.4372
 21
171.3353
 40
3.5541
 41
0.5
 72
1
  1
125
  0
TEXT
  8
LAYER_3
 10
8.3887
 20
155.4162
 11
8.3887
 21
155.4162
 40
3.5541
 41
0.5
 72
1
  1
244
  0
TEXT
  8
LAYER_3
 10
7.1941
 20
141.704
 11
7.1941
 21
141.704
 40
3.5541
 41
0.5
 72
1
  1
3
  0
TEXT
  8
LAYER_3
 10
137.3945
 20
112.6336
 11
137.3945
 21
112.6336
 40
3.5541
 41
0.5
 72
1
  1
160
  0
TEXT
  8
LAYER_3
 10
112.6704
 20
114.3885
 11
112.6704
 21
114.3885
 40
3.5541
 41
0.5
 72
1
  1
115
  0
TEXT
  8
LAYER_3
 10
111.7905
 20
130.5061
 11
111.7905
 21
130.5061
 40
3.5541
 41
0.5
 72
1
  1
244
  0
POLYLINE
  8
LAYER_3
 40
0.5997
 41
0.5997
 62
251
 66
1
 10
0
 20
0
 30
0
  0
VERTEX
  8
LAYER_3
 10
83.5718
 20
105.9856
  0
VERTEX
  8
LAYER_3
 10
124.2625
 20
105.9856
  0
SEQEND
  0
POLYLINE
  8
LAYER_3
 40
0.05
 41
0.05
 66
1
 10
0
 20
0
 30
0
 70
1
  0
VERTEX
  8
LAYER_3
 10
118.627
 20
106.8531
  0
VERTEX
  8
LAYER_3
 10
121.1392
 20
106.8531
 42
-0.3506836035
  0
VERTEX
  8
LAYER_3
 10
121.3397
 20
106.6815
  0
VERTEX
  8
LAYER_3
 10
121.3845
 20
106.3529
  0
VERTEX
  8
LAYER_3
 10
122.3856
 20
106.3529
 42
-0.1118513276
  0
VERTEX
  8
LAYER_3
 10
122.5358
 20
106.8572
 42
-0.1572519772
  0
VERTEX
  8
LAYER_3
 10
122.9368
 20
107.2134
 42
-0.007841622633
  0
VERTEX
  8
LAYER_3
 10
123.1849
 20
107.2975
  0
VERTEX
  8
LAYER_3
 10
123.4302
 20
107.3933
 42
0.06616671901
  0
VERTEX
  8
LAYER_3
 10
123.8829
 20
107.6902
 42
0.2674238604
  0
VERTEX
  8
LAYER_3
 10
124.5202
 20
109.6312
 42
0.05056075348
  0
VERTEX
  8
LAYER_3
 10
124.3432
 20
110.1314
  0
VERTEX
  8
LAYER_3
 10
124.1378
 20
110.622
 42
-0.01214607562
  0
VERTEX
  8
LAYER_3
 10
123.774
 20
111.6411
 42
-0.02220190955
  0
VERTEX
  8
LAYER_3
 10
123.2104
 20
113.7068
 42
-0.02515968815
  0
VERTEX
  8
LAYER_3
 10
122.5777
 20
117.3308
 42
-0.01865698683
  0
VERTEX
  8
LAYER_3
 10
122.2003
 20
121.5589
 42
-0.002308296593
  0
VERTEX
  8
LAYER_3
 10
122.1672
 20
122.2106
 42
0.3807511966
  0
VERTEX
  8
LAYER_3
 10
122.017
 20
122.3546
  0
VERTEX
  8
LAYER_3
 10
122.0053
 20
122.3546
 42
0.4018230986
  0
VERTEX
  8
LAYER_3
 10
121.8544
 20
122.2099
 42
-0.0363201055
  0
VERTEX
  8
LAYER_3
 10
121.5902
 20
119.6898
 42
-0.03934843575
  0
VERTEX
  8
LAYER_3
 10
121.098
 20
117.8486
 42
-0.04548572199
  0
VERTEX
  8
LAYER_3
 10
120.3719
 20
116.2864
 42
-0.04748856322
  0
VERTEX
  8
LAYER_3
 10
119.4449
 20
114.9998
 42
-0.04985941437
  0
VERTEX
  8
LAYER_3
 10
118.2292
 20
113.8667
 42
-0.02648388054
  0
VERTEX
  8
LAYER_3
 10
117.4254
 20
113.3181
 42
-0.04528086929
  0
VERTEX
  8
LAYER_3
 10
115.5622
 20
112.4095
 42
-0.03447277617
  0
VERTEX
  8
LAYER_3
 10
113.3448
 20
111.7261
 42
-0.008051975301
  0
VERTEX
  8
LAYER_3
 10
112.563
 20
111.5508
 42
-0.02566481007
  0
VERTEX
  8
LAYER_3
 10
108.9079
 20
110.9989
 42
-0.004301499354
  0
VERTEX
  8
LAYER_3
 10
107.4126
 20
110.8535
  0
VERTEX
  8
LAYER_3
 10
105.9319
 20
109.3542
  0
VERTEX
  8
LAYER_3
 10
105.8326
 20
106.3529
  0
VERTEX
  8
LAYER_3
 10
106.8338
 20
106.3529
  0
VERTEX
  8
LAYER_3
 10
106.8359
 20
106.3529
  0
VERTEX
  8
LAYER_3
 10
106.9192
 20
108.9298
  0
VERTEX
  8
LAYER_3
 10
107.868
 20
109.8896
 42
0.02160286137
  0
VERTEX
  8
LAYER_3
 10
112.1265
 20
110.4485
 42
0.02879796661
  0
VERTEX
  8
LAYER_3
 10
114.8846
 20
111.1176
 42
0.01871640707
  0
VERTEX
  8
LAYER_3
 10
116.0329
 20
111.5232
 42
-0.4521195538
  0
VERTEX
  8
LAYER_3
 10
116.7116
 20
111.1277
  0
VERTEX
  8
LAYER_3
 10
117.3854
 20
106.3529
  0
VERTEX
  8
LAYER_3
 10
118.3831
 20
106.3529
  0
VERTEX
  8
LAYER_3
 10
118.4286
 20
106.6815
 42
-0.3467757098
  0
SEQEND
  0
POLYLINE
  8
LAYER_3
 40
0.05
 41
0.05
 66
1
 10
0
 20
0
 30
0
  0
VERTEX
  8
LAYER_3
 10
85.1269
 20
122.3546
  0
VERTEX
  8
LAYER_3
 10
85.1152
 20
122.3546
 42
0.3798275578
  0
VERTEX
  8
LAYER_3
 10
84.9657
 20
122.2106
 42
-0.01928324846
  0
VERTEX
  8
LAYER_3
 10
84.5739
 20
117.4658
 42
-0.02180645915
  0
VERTEX
  8
LAYER_3
 10
83.9942
 20
114.0255
 42
-0.002607712263
  0
VERTEX
  8
LAYER_3
 10
83.9225
 20
113.7068
 42
-0.02199207978
  0
VERTEX
  8
LAYER_3
 10
83.3589
 20
111.639
 42
-0.01326494344
  0
VERTEX
  8
LAYER_3
 10
83.0048
 20
110.6503
  0
VERTEX
  8
LAYER_3
 10
82.818
 20
110.1983
 42
0.05849035483
  0
VERTEX
  8
LAYER_3
 10
82.6127
 20
109.6347
 42
0.274856138
  0
VERTEX
  8
LAYER_3
 10
83.2501
 20
107.6902
 42
0.06704662182
  0
VERTEX
  8
LAYER_3
 10
83.7027
 20
107.3933
  0
VERTEX
  8
LAYER_3
 10
83.9494
 20
107.2975
  0
VERTEX
  8
LAYER_3
 10
84.1961
 20
107.2134
 42
-0.1632404266
  0
VERTEX
  8
LAYER_3
 10
84.5984
 20
106.8572
 42
-0.07976333977
  0
VERTEX
  8
LAYER_3
 10
84.7072
 20
106.5716
 42
-0.02825450758
  0
VERTEX
  8
LAYER_3
 10
84.7473
 20
106.3529
  0
VERTEX
  8
LAYER_3
 10
85.7463
 20
106.3529
  0
VERTEX
  8
LAYER_3
 10
87.7955
 20
120.9235
 42
-0.3578026612
  0
VERTEX
  8
LAYER_3
 10
88.2923
 20
121.3535
  0
VERTEX
  8
LAYER_3
 10
89.323
 20
121.3535
  0
VERTEX
  8
LAYER_3
 10
89.323
 20
122.3546
  0
VERTEX
  8
LAYER_3
 10
85.1152
 20
122.3546
 42
0.3798275578
  0
VERTEX
  8
LAYER_3
 10
84.9657
 20
122.2106
  0
SEQEND
  0
POLYLINE
  8
LAYER_3
 40
0.05
 41
0.05
 66
1
 10
0
 20
0
 30
0
 70
1
  0
VERTEX
  8
LAYER_3
 10
100.295
 20
107.7206
  0
VERTEX
  8
LAYER_3
 10
96.4441
 20
107.9438
 42
-0.3687636636
  0
VERTEX
  8
LAYER_3
 10
95.9735
 20
108.4275
  0
VERTEX
  8
LAYER_3
 10
95.5235
 20
121.0414
 42
-0.4059163945
  0
VERTEX
  8
LAYER_3
 10
95.824
 20
121.3535
  0
VERTEX
  8
LAYER_3
 10
96.225
 20
121.3535
 42
-0.3831672344
  0
VERTEX
  8
LAYER_3
 10
96.5247
 20
121.0641
  0
VERTEX
  8
LAYER_3
 10
96.8347
 20
112.8103
 42
0.04760081944
  0
VERTEX
  8
LAYER_3
 10
96.9016
 20
112.277
 42
0.04301256043
  0
VERTEX
  8
LAYER_3
 10
97.0642
 20
111.7589
 42
0.0451190793
  0
VERTEX
  8
LAYER_3
 10
97.326
 20
111.269
 42
0.04834263251
  0
VERTEX
  8
LAYER_3
 10
97.6623
 20
110.848
 42
0.05019607903
  0
VERTEX
  8
LAYER_3
 10
98.0701
 20
110.4918
 42
0.04548155351
  0
VERTEX
  8
LAYER_3
 10
98.5497
 20
110.2079
 42
0.04232809857
  0
VERTEX
  8
LAYER_3
 10
99.0541
 20
110.0253
  0
VERTEX
  8
LAYER_3
 10
99.1037
 20
110.0129
 42
-0.1437345854
  0
VERTEX
  8
LAYER_3
 10
99.1981
 20
109.9599
  0
VERTEX
  8
LAYER_3
 10
100.2123
 20
108.9298
  0
VERTEX
  8
LAYER_3
 10
100.2178
 20
108.7272
  0
VERTEX
  8
LAYER_3
 10
100.3536
 20
108.7217
  0
VERTEX
  8
LAYER_3
 10
100.4183
 20
108.7169
  0
VERTEX
  8
LAYER_3
 10
101.2203
 20
108.67
  0
VERTEX
  8
LAYER_3
 10
101.1976
 20
109.3542
  0
VERTEX
  8
LAYER_3
 10
99.7204
 20
110.8535
  0
VERTEX
  8
LAYER_3
 10
99.6556
 20
110.8583
 42
-0.3769841864
  0
VERTEX
  8
LAYER_3
 10
97.8338
 20
112.7766
  0
VERTEX
  8
LAYER_3
 10
97.4817
 20
122.2099
 42
0.3804235413
  0
VERTEX
  8
LAYER_3
 10
97.3329
 20
122.3546
  0
VERTEX
  8
LAYER_3
 10
93.1257
 20
122.3546
  0
VERTEX
  8
LAYER_3
 10
93.1257
 20
121.3535
  0
VERTEX
  8
LAYER_3
 10
94.0297
 20
121.3535
 42
-0.383145591
  0
VERTEX
  8
LAYER_3
 10
94.53
 20
120.8712
  0
VERTEX
  8
LAYER_3
 10
94.9902
 20
107.9362
 42
0.3706577376
  0
VERTEX
  8
LAYER_3
 10
95.9328
 20
106.9723
  0
VERTEX
  8
LAYER_3
 10
100.2392
 20
106.7229
  0
VERTEX
  8
LAYER_3
 10
100.2433
 20
106.7229
  0
VERTEX
  8
LAYER_3
 10
100.2482
 20
106.7229
  0
VERTEX
  8
LAYER_3
 10
100.2626
 20
106.7215
  0
VERTEX
  8
LAYER_3
 10
100.2847
 20
106.7201
  0
VERTEX
  8
LAYER_3
 10
100.2984
 20
106.3529
  0
VERTEX
  8
LAYER_3
 10
101.3003
 20
106.3529
  0
VERTEX
  8
LAYER_3
 10
101.2569
 20
107.6668
  0
VERTEX
  8
LAYER_3
 10
100.8628
 20
107.6889
  0
VERTEX
  8
LAYER_3
 10
100.552
 20
107.7061
  0
VERTEX
  8
LAYER_3
 10
100.3598
 20
107.7178
  0
SEQEND
  0
POLYLINE
  8
LAYER_3
 40
0.0529
 41
0.0529
 66
1
 10
0
 20
0
 30
0
 70
1
  0
VERTEX
  8
LAYER_3
 10
118.3577
 20
107.8528
 42
-0.3574995613
  0
VERTEX
  8
LAYER_3
 10
118.1585
 20
108.0265
  0
VERTEX
  8
LAYER_3
 10
117.6135
 20
111.9084
 42
-0.2928188258
  0
VERTEX
  8
LAYER_3
 10
117.8512
 20
112.4059
  0
VERTEX
  8
LAYER_3
 10
117.9421
 20
112.461
  0
VERTEX
  8
LAYER_3
 10
118.2887
 20
112.6815
  0
VERTEX
  8
LAYER_3
 10
118.6794
 20
112.9509
  0
VERTEX
  8
LAYER_3
 10
119.0549
 20
113.2437
  0
VERTEX
  8
LAYER_3
 10
119.4187
 20
113.5545
 42
0.02877935854
  0
VERTEX
  8
LAYER_3
 10
120.1002
 20
114.2304
 42
0.0267025751
  0
VERTEX
  8
LAYER_3
 10
120.712
 20
114.9773
  0
VERTEX
  8
LAYER_3
 10
120.9835
 20
115.3714
  0
VERTEX
  8
LAYER_3
 10
121.2336
 20
115.7793
  0
VERTEX
  8
LAYER_3
 10
121.4679
 20
116.1976
  0
VERTEX
  8
LAYER_3
 10
121.5244
 20
116.3092
 42
-0.6355350312
  0
VERTEX
  8
LAYER_3
 10
121.7138
 20
116.2802
  0
VERTEX
  8
LAYER_3
 10
121.831
 20
115.5375
  0
VERTEX
  8
LAYER_3
 10
122.0088
 20
114.5405
  0
VERTEX
  8
LAYER_3
 10
122.2203
 20
113.5428
  0
VERTEX
  8
LAYER_3
 10
122.3374
 20
113.0487
  0
VERTEX
  8
LAYER_3
 10
122.4635
 20
112.5554
  0
VERTEX
  8
LAYER_3
 10
122.7494
 20
111.5673
  0
VERTEX
  8
LAYER_3
 10
122.9107
 20
111.0719
  0
VERTEX
  8
LAYER_3
 10
123.0857
 20
110.5779
  0
VERTEX
  8
LAYER_3
 10
123.2752
 20
110.0901
  0
VERTEX
  8
LAYER_3
 10
123.4812
 20
109.6064
 42
-0.2157552471
  0
VERTEX
  8
LAYER_3
 10
123.4701
 20
108.7672
 42
-0.2180276484
  0
VERTEX
  8
LAYER_3
 10
122.8232
 20
108.2311
 42
0.1108194475
  0
VERTEX
  8
LAYER_3
 10
122.088
 20
107.8528
  0
SEQEND
  0
POLYLINE
  8
LAYER_3
 40
0.0529
 41
0.0529
 66
1
 10
0
 20
0
 30
0
 70
1
  0
VERTEX
  8
LAYER_3
 10
85.911
 20
121.1675
 42
-0.3678714144
  0
VERTEX
  8
LAYER_3
 10
86.1109
 20
121.3535
  0
VERTEX
  8
LAYER_3
 10
86.6159
 20
121.3535
 42
-0.4290055207
  0
VERTEX
  8
LAYER_3
 10
86.813
 20
121.1261
  0
VERTEX
  8
LAYER_3
 10
84.9981
 20
108.2001
 42
-0.4632878088
  0
VERTEX
  8
LAYER_3
 10
84.7197
 20
108.0478
  0
VERTEX
  8
LAYER_3
 10
84.1609
 20
108.2993
 42
-0.3917065654
  0
VERTEX
  8
LAYER_3
 10
83.6586
 20
109.6181
  0
VERTEX
  8
LAYER_3
 10
83.8757
 20
110.1321
  0
VERTEX
  8
LAYER_3
 10
84.0893
 20
110.6889
  0
VERTEX
  8
LAYER_3
 10
84.2911
 20
111.28
  0
VERTEX
  8
LAYER_3
 10
84.4861
 20
111.9029
  0
VERTEX
  8
LAYER_3
 10
84.6708
 20
112.5623
  0
VERTEX
  8
LAYER_3
 10
84.8444
 20
113.2534
  0
VERTEX
  8
LAYER_3
 10
85.0084
 20
113.9782
  0
VERTEX
  8
LAYER_3
 10
85.1607
 20
114.7403
  0
VERTEX
  8
LAYER_3
 10
85.3012
 20
115.5375
  0
VERTEX
  8
LAYER_3
 10
85.4315
 20
116.3712
  0
VERTEX
  8
LAYER_3
 10
85.5527
 20
117.2421
  0
VERTEX
  8
LAYER_3
 10
85.6609
 20
118.1523
 42
0.007555968147
  0
VERTEX
  8
LAYER_3
 10
85.838
 20
120.0809
  0
SEQEND
  0
POLYLINE
  8
LAYER_3
 40
0.1058
 41
0.1058
 66
1
 10
0
 20
0
 30
0
  0
VERTEX
  8
LAYER_3
 10
97.3329
 20
122.2823
  0
VERTEX
  8
LAYER_3
 10
122.0032
 20
122.2823
  0
SEQEND
  0
POLYLINE
  8
LAYER_3
 40
0.1058
 41
0.1058
 66
1
 10
0
 20
0
 30
0
  0
VERTEX
  8
LAYER_3
 10
89.323
 20
121.4369
  0
VERTEX
  8
LAYER_3
 10
93.1257
 20
121.4369
  0
SEQEND
  0
POLYLINE
  8
LAYER_3
 40
0.1058
 41
0.1058
 66
1
 10
0
 20
0
 30
0
  0
VERTEX
  8
LAYER_3
 10
89.323
 20
122.2823
  0
VERTEX
  8
LAYER_3
 10
93.1257
 20
122.2823
  0
SEQEND
  0
POLYLINE
  8
LAYER_3
 40
0.1058
 41
0.1058
 66
1
 10
0
 20
0
 30
0
  0
VERTEX
  8
LAYER_3
 10
101.188
 20
107.6668
  0
VERTEX
  8
LAYER_3
 10
101.1542
 20
108.7272
  0
SEQEND
  0
POLYLINE
  8
LAYER_3
 40
0.1058
 41
0.1058
 66
1
 10
0
 20
0
 30
0
  0
VERTEX
  8
LAYER_3
 10
100.3329
 20
107.6668
  0
VERTEX
  8
LAYER_3
 10
100.2984
 20
108.7272
  0
SEQEND
  0
POLYLINE
  8
LAYER_3
 40
0.1058
 41
0.1058
 66
1
 10
0
 20
0
 30
0
  0
VERTEX
  8
LAYER_3
 10
101.188
 20
109.3129
  0
VERTEX
  8
LAYER_3
 10
105.9229
 20
109.3129
  0
SEQEND
  0
POLYLINE
  8
LAYER_3
 40
0.1058
 41
0.1058
 66
1
 10
0
 20
0
 30
0
  0
VERTEX
  8
LAYER_3
 10
85.7395
 20
106.4197
  0
VERTEX
  8
LAYER_3
 10
122.3188
 20
106.4197
  0
SEQEND
  0
POLYLINE
  8
LAYER_3
 40
0.1058
 41
0.1058
 66
1
 10
0
 20
0
 30
0
  0
VERTEX
  8
LAYER_3
 10
99.6446
 20
110.7846
  0
VERTEX
  8
LAYER_3
 10
107.4952
 20
110.7846
  0
SEQEND
  0
INSERT
  8
LAYER_3
  2
AIGNBL03010007
 10
0
 20
0
 30
0
  0
TEXT
  8
LAYER_3
 10
91.0465
 20
127.9402
 11
91.0465
 21
127.9402
 40
3.5541
 41
0.5
 72
1
  1
62
  0
POLYLINE
  8
LAYER_3
 40
0.1058
 41
0.1058
 66
1
 10
0
 20
0
 30
0
  0
VERTEX
  8
LAYER_3
 10
20.8435
 20
107.4208
  0
VERTEX
  8
LAYER_3
 10
58.4702
 20
107.4208
  0
SEQEND
  0
POLYLINE
  8
LAYER_3
 40
0.1058
 41
0.1058
 66
1
 10
0
 20
0
 30
0
  0
VERTEX
  8
LAYER_3
 10
19.0307
 20
109.6291
  0
VERTEX
  8
LAYER_3
 10
60.283
 20
109.6291
  0
SEQEND
  0
POLYLINE
  8
LAYER_3
 40
0.1058
 41
0.1058
 66
1
 10
0
 20
0
 30
0
  0
VERTEX
  8
LAYER_3
 10
21.0619
 20
122.5138
 42
-0.3828584182
  0
VERTEX
  8
LAYER_3
 10
21.2121
 20
122.6571
  0
VERTEX
  8
LAYER_3
 10
58.1015
 20
122.6571
 42
-0.3770996885
  0
VERTEX
  8
LAYER_3
 10
58.2511
 20
122.5138
 42
0.01913718893
  0
VERTEX
  8
LAYER_3
 10
58.6303
 20
117.8597
 42
0.02129993942
  0
VERTEX
  8
LAYER_3
 10
59.1969
 20
114.4405
 42
0.02806049751
  0
VERTEX
  8
LAYER_3
 10
59.9452
 20
111.69
 42
0.02261748672
  0
VERTEX
  8
LAYER_3
 10
60.4814
 20
110.3182
 42
-0.4344277528
  0
VERTEX
  8
LAYER_3
 10
59.1626
 20
107.5697
 42
0.2905921421
  0
VERTEX
  8
LAYER_3
 10
58.5067
 20
106.8607
  0
VERTEX
  8
LAYER_3
 10
58.4702
 20
106.6567
  0
VERTEX
  8
LAYER_3
 10
20.8435
 20
106.6567
  0
VERTEX
  8
LAYER_3
 10
20.8077
 20
106.8607
 42
0.2810935559
  0
VERTEX
  8
LAYER_3
 10
20.1497
 20
107.5697
 42
-0.4626619924
  0
VERTEX
  8
LAYER_3
 10
18.8336
 20
110.3182
 42
0.03539832359
  0
VERTEX
  8
LAYER_3
 10
19.6569
 20
112.607
 42
0.02686552829
  0
VERTEX
  8
LAYER_3
 10
20.332
 20
115.538
 42
0.02081747422
  0
VERTEX
  8
LAYER_3
 10
20.8257
 20
119.157
 42
0.01349736351
  0
VERTEX
  8
LAYER_3
 10
21.0619
 20
122.5138
  0
SEQEND
  0
TEXT
  8
LAYER_3
 10
43.4433
 20
126.8825
 11
43.4433
 21
126.8825
 40
3.5541
 41
0.5
 72
1
  1
372
  0
TEXT
  8
LAYER_3
 10
74.3823
 20
112.7425
 11
74.3823
 21
112.7425
 40
3.5541
 41
0.5
 72
1
  1
160
  0
POLYLINE
  8
LAYER_3
 40
0.5997
 41
0.5997
 62
251
 66
1
 10
0
 20
0
 30
0
  0
VERTEX
  8
LAYER_3
 10
19.6598
 20
105.9856
  0
VERTEX
  8
LAYER_3
 10
60.6461
 20
105.9856
  0
SEQEND
  0
TEXT
  8
LAYER_3
 10
43.2855
 20
96.2067
 11
43.2855
 21
96.2067
 40
3.5541
 41
0.5
 72
1
  1
376
  0
TEXT
  8
LAYER_3
 10
43.2855
 20
86.6259
 11
43.2855
 21
86.6259
 40
3.5541
 41
0.5
 72
1
  1
420
  0
POLYLINE
  8
LAYER_3
 40
0.1058
 41
0.1058
 66
1
 10
0
 20
0
 30
0
  0
VERTEX
  8
LAYER_3
 10
82.6554
 20
92.5484
  0
VERTEX
  8
LAYER_3
 10
124.6566
 20
92.5484
  0
SEQEND
  0
POLYLINE
  8
LAYER_3
 40
0.1058
 41
0.1058
 66
1
 10
0
 20
0
 30
0
  0
VERTEX
  8
LAYER_3
 10
82.6554
 20
91.222
  0
VERTEX
  8
LAYER_3
 10
82.6554
 20
93.8734
  0
SEQEND
  0
POLYLINE
  8
LAYER_3
 40
0.1058
 41
0.1058
 66
1
 10
0
 20
0
 30
0
  0
VERTEX
  8
LAYER_3
 10
124.6566
 20
93.8734
  0
VERTEX
  8
LAYER_3
 10
124.6566
 20
91.222
  0
SEQEND
  0
POLYLINE
  8
LAYER_3
 40
0.1058
 41
0.1058
 66
1
 10
0
 20
0
 30
0
  0
VERTEX
  8
LAYER_3
 10
84.564
 20
101.9555
  0
VERTEX
  8
LAYER_3
 10
122.7625
 20
101.9555
  0
SEQEND
  0
POLYLINE
  8
LAYER_3
 40
0.1058
 41
0.1058
 66
1
 10
0
 20
0
 30
0
  0
VERTEX
  8
LAYER_3
 10
84.564
 20
100.6306
  0
VERTEX
  8
LAYER_3
 10
84.564
 20
103.2798
  0
SEQEND
  0
POLYLINE
  8
LAYER_3
 40
0.1058
 41
0.1058
 66
1
 10
0
 20
0
 30
0
  0
VERTEX
  8
LAYER_3
 10
122.7625
 20
100.6306
  0
VERTEX
  8
LAYER_3
 10
122.7625
 20
103.2798
  0
SEQEND
  0
TEXT
  8
LAYER_3
 10
107.2947
 20
96.2067
 11
107.2947
 21
96.2067
 40
3.5541
 41
0.5
 72
1
  1
376
  0
TEXT
  8
LAYER_3
 10
107.2947
 20
86.6259
 11
107.2947
 21
86.6259
 40
3.5541
 41
0.5
 72
1
  1
420
  0
INSERT
  8
LAYER_3
  2
AIGNBL03010008
 10
0
 20
0
 30
0
  0
TEXT
  8
LAYER_3
 10
40.8722
 20
151.0318
 11
40.8722
 21
151.0318
 40
2.5981
 41
0.5
 72
1
  1
カウンター開口寸法：
  0
TEXT
  8
LAYER_3
 10
42.4497
 20
147.4568
 11
42.4497
 21
147.4568
 40
2.9618
 41
0.5
 72
1
  1
140×230
  0
TEXT
  8
LAYER_5
 10
-26.2556
 20
43.1712
 11
-26.2556
 21
43.1712
 40
3.2995
 41
0.5
  1
仕様
  0
POLYLINE
  8
LAYER_5
 40
0.3528
 41
0.3528
 66
1
 10
0
 20
0
 30
0
  0
VERTEX
  8
LAYER_5
 10
250.6748
 20
51.9507
  0
VERTEX
  8
LAYER_5
 10
-29.3178
 20
51.9507
  0
SEQEND
  0
INSERT
  8
LAYER_5
  2
AIGNBL05010002
 10
0
 20
0
 30
0
  0
POLYLINE
  8
LAYER_5
 40
0.3528
 41
0.3528
 66
1
 10
0
 20
0
 30
0
  0
VERTEX
  8
LAYER_5
 10
-29.3178
 20
229.3369
  0
VERTEX
  8
LAYER_5
 10
-29.3178
 20
34.3283
  0
VERTEX
  8
LAYER_5
 10
250.6748
 20
34.3283
  0
VERTEX
  8
LAYER_5
 10
250.6748
 20
229.3369
  0
VERTEX
  8
LAYER_5
 10
-29.3178
 20
229.3369
  0
SEQEND
  0
POLYLINE
  8
LAYER_5
 40
0.3528
 41
0.3528
 66
1
 10
0
 20
0
 30
0
  0
VERTEX
  8
LAYER_5
 10
250.6748
 20
60.4597
  0
VERTEX
  8
LAYER_5
 10
-29.3178
 20
60.4597
  0
SEQEND
  0
POLYLINE
  8
LAYER_5
 40
0.3528
 41
0.3528
 66
1
 10
0
 20
0
 30
0
  0
VERTEX
  8
LAYER_5
 10
250.6748
 20
43.4416
  0
VERTEX
  8
LAYER_5
 10
143.5341
 20
43.4416
  0
SEQEND
  0
TEXT
  8
LAYER_5
 10
188.1725
 20
45.7175
 11
188.1725
 21
45.7175
 40
3.7615
 41
0.5
  1
-
  0
TEXT
  8
LAYER_5
 10
182.8808
 20
49.4743
 11
182.8808
 21
49.4743
 40
2.1997
 41
0.5
  1
縮尺
  0
POLYLINE
  8
LAYER_5
 40
0.3528
 41
0.3528
 66
1
 10
0
 20
0
 30
0
  0
VERTEX
  8
LAYER_5
 10
181.3526
 20
43.4416
  0
VERTEX
  8
LAYER_5
 10
181.3526
 20
51.9507
  0
SEQEND
  0
TEXT
  8
LAYER_5
 10
144.2327
 20
57.9834
 11
144.2327
 21
57.9834
 40
2.1997
 41
0.5
  1
品番
  0
TEXT
  8
LAYER_5
 10
-28.1609
 20
57.9834
 11
-28.1609
 21
57.9834
 40
2.1997
 41
0.5
  1
品名
  0
TEXT
  8
LAYER_5
 10
144.2327
 20
49.4743
 11
144.2327
 21
49.4743
 40
2.1997
 41
0.5
  1
重量
  0
TEXT
  8
LAYER_5
 10
150.2547
 20
54.1514
 11
150.2547
 21
54.1514
 40
5.9385
 41
0.5
  1
SIM-SH07/
  0
POLYLINE
  8
LAYER_5
 40
0.3528
 41
0.3528
 66
1
 10
0
 20
0
 30
0
  0
VERTEX
  8
LAYER_5
 10
143.5341
 20
34.9539
  0
VERTEX
  8
LAYER_5
 10
143.5341
 20
60.4597
  0
SEQEND
  0
TEXT
  8
LAYER_5
 10
-15.3472
 20
54.891
 11
-15.3472
 21
54.891
 40
4.1465
 41
0.5
  1
シャープ カウンター置き型洗面器420mm
  0
TEXT
  8
LAYER_5
 10
-15.6835
 20
45.3736
 11
-15.6835
 21
45.3736
 40
3.5541
 41
0.5
  1
●サイズ：W420×D420×H160mm●設置方法：カウンター置き
  0
TEXT
  8
LAYER_5
 10
-15.6835
 20
40.6235
 11
-15.6835
 21
40.6235
 40
3.5541
 41
0.5
  1
●l4栓取付zt：１zt●オーバーフロー付き●排l4帯具別途（P60参照）
  0
TEXT
  8
LAYER_5
 10
237.263
 20
63.2582
 11
237.263
 21
63.2582
 40
2.9618
 41
0.5
  1
単位：mm
  0
TEXT
  8
LAYER_5
 10
6.5217
 20
219.7385
 11
6.5217
 21
219.7385
 40
2.5981
 41
0.5
  1
※陶器製品は寸法公差が発生します。施工の際は必ず現物を合わせてご確認ください。
  0
TEXT
  8
LAYER_5
 10
6.5217
 20
214.9886
 11
6.5217
 21
214.9886
 40
2.5981
 41
0.5
  1
※製品と接する部分には必ずコーキング処理を行ってください。
  0
TEXT
  8
LAYER_5
 10
176.0254
 20
39.5359
 11
176.0254
 21
39.5359
 40
3.3853
 41
0.5
  1
●TEL 0120-65-1232●FAX 06-6532-1580
  0
TEXT
  8
LAYER_5
 10
176.0254
 20
36.0212
 11
176.0254
 21
36.0212
 40
3.3853
 41
0.5
  1
hits@hiratatile.co.jp
  0
TEXT
  8
LAYER_5
 10
240.3591
 20
225.8432
 11
240.3591
 21
225.8432
 40
2.0732
 41
0.5
  1
170616RT
  0
INSERT
  8
LAYER_5
  2
AIGNBL05010003
 10
0
 20
0
 30
0
  0
INSERT
  8
LAYER_5
  2
AIGNBL05010025
 10
0
 20
0
 30
0
  0
TEXT
  8
LAYER_5
 10
157.2803
 20
46.4933
 11
157.2803
 21
46.4933
 40
3.7615
 41
0.5
  1
11kg
  0
ENDSEC
  0
EOF
