  0
SECTION
  2
HEADER
  9
$ACADVER
  1
AC1009
  9
$LUNITS
 70
2
  9
$LUPREC
 70
4
  9
$LTSCALE
 40
1.0
  9
$EXTMIN
 10
-30.3177
 20
33.3285
 30
0
  9
$EXTMAX
 10
251.6749
 20
230.337
 30
0
  0
ENDSEC
  0
SECTION
  2
TABLES
  0
TABLE
  2
LTYPE
 70
256
  0
LTYPE
  2
AIGENLINE001
 70
64
  3
generate AI->DXF Converter
 72
65
 73
2
 40
0.6998
 49
0.3499
 49
-0.3499
  0
LTYPE
  2
AIGENLINE002
 70
64
  3
generate AI->DXF Converter
 72
65
 73
2
 40
0.6976
 49
0.3488
 49
-0.3488
  0
LTYPE
  2
AIGENLINE003
 70
64
  3
generate AI->DXF Converter
 72
65
 73
2
 40
1.1449
 49
0.5724
 49
-0.5724
  0
LTYPE
  2
AIGENLINE004
 70
64
  3
generate AI->DXF Converter
 72
65
 73
2
 40
0.7784
 49
0.3892
 49
-0.3892
  0
LTYPE
  2
AIGENLINE005
 70
64
  3
generate AI->DXF Converter
 72
65
 73
2
 40
0.8335
 49
0.4167
 49
-0.4167
  0
LTYPE
  2
AIGENLINE006
 70
64
  3
generate AI->DXF Converter
 72
65
 73
2
 40
0.7787
 49
0.3893
 49
-0.3893
  0
LTYPE
  2
AIGENLINE007
 70
64
  3
generate AI->DXF Converter
 72
65
 73
2
 40
0.7592
 49
0.3796
 49
-0.3796
  0
LTYPE
  2
AIGENLINE008
 70
64
  3
generate AI->DXF Converter
 72
65
 73
2
 40
0.9176
 49
0.4588
 49
-0.4588
  0
LTYPE
  2
AIGENLINE009
 70
64
  3
generate AI->DXF Converter
 72
65
 73
2
 40
0.9174
 49
0.4587
 49
-0.4587
  0
ENDTAB
  0
TABLE
  2
LAYER
 70
7
  0
LAYER
  2
LAYER_1
 70
64
 62
7
  6
CONTINUOUS
  0
LAYER
  2
LAYER_2
 70
64
 62
7
  6
CONTINUOUS
  0
LAYER
  2
LAYER_3
 70
64
 62
7
  6
CONTINUOUS
  0
LAYER
  2
LAYER_4
 70
64
 62
7
  6
CONTINUOUS
  0
LAYER
  2
LAYER_5
 70
64
 62
7
  6
CONTINUOUS
  0
LAYER
  2
LAYER_6
 70
64
 62
7
  6
CONTINUOUS
  0
LAYER
  2
LAYER_7
 70
64
 62
7
  6
CONTINUOUS
  0
ENDTAB
  0
TABLE
  2
STYLE
 70
6
  0
STYLE
  2
STANDARD
 70
0
 40
0
 50
0
 71
0
 41
0
 42
0
  3
TXT
  4
BIGFONT
  0
ENDTAB
  0
ENDSEC
  0
SECTION
  2
BLOCKS
  0
BLOCK
  8
LAYER_5
  2
AIGNBL05040010
 70
64
 10
0
 20
0
 30
0
  3
AIGNBL05040010
  0
TEXT
  8
LAYER_5
 10
136.9574
 20
105.4185
 11
136.9574
 21
105.4185
 40
3.5541
 41
0.5
  1
235
  0
ENDBLK
  0
BLOCK
  8
LAYER_5
  2
AIGNBL05040014
 70
64
 10
0
 20
0
 30
0
  3
AIGNBL05040014
  0
TEXT
  8
LAYER_5
 10
185.0061
 20
89.8894
 11
185.0061
 21
89.8894
 40
3.5541
 41
0.5
 72
1
  1
160
  0
ENDBLK
  0
BLOCK
  8
LAYER_7
  2
AIGNBL07040006
 70
64
 10
0
 20
0
 30
0
  3
AIGNBL07040006
  0
POLYLINE
  8
LAYER_7
 40
0.05
 41
0.05
 66
1
 10
0
 20
0
 30
0
 70
1
  0
VERTEX
  8
LAYER_7
 10
146.7545
 20
39.1418
  0
VERTEX
  8
LAYER_7
 10
146.2656
 20
37.9567
  0
VERTEX
  8
LAYER_7
 10
145.6376
 20
37.9567
  0
VERTEX
  8
LAYER_7
 10
147.2372
 20
41.7225
  0
VERTEX
  8
LAYER_7
 10
147.9703
 20
41.7225
  0
VERTEX
  8
LAYER_7
 10
149.5768
 20
37.9567
  0
VERTEX
  8
LAYER_7
 10
148.9267
 20
37.9567
  0
VERTEX
  8
LAYER_7
 10
148.424
 20
39.1418
  0
SEQEND
  0
POLYLINE
  8
LAYER_7
 40
0.05
 41
0.05
 66
1
 10
0
 20
0
 30
0
 70
1
  0
VERTEX
  8
LAYER_7
 10
148.2983
 20
39.5207
  0
VERTEX
  8
LAYER_7
 10
147.8373
 20
40.6056
 42
-0.02317247198
  0
VERTEX
  8
LAYER_7
 10
147.5927
 20
41.2926
  0
VERTEX
  8
LAYER_7
 10
147.5789
 20
41.2926
 42
-0.02064481114
  0
VERTEX
  8
LAYER_7
 10
147.3412
 20
40.6101
  0
VERTEX
  8
LAYER_7
 10
146.8806
 20
39.5207
  0
SEQEND
  0
ENDBLK
  0
BLOCK
  8
LAYER_7
  2
AIGNBL07040007
 70
64
 10
0
 20
0
 30
0
  3
AIGNBL07040007
  0
POLYLINE
  8
LAYER_7
 40
0.05
 41
0.05
 66
1
 10
0
 20
0
 30
0
 70
1
  0
VERTEX
  8
LAYER_7
 10
153.942
 20
37.4034
 42
-0.01520763512
  0
VERTEX
  8
LAYER_7
 10
152.1399
 20
37.8395
 42
0.09160443264
  0
VERTEX
  8
LAYER_7
 10
151.8533
 20
37.895
 42
-0.09256808484
  0
VERTEX
  8
LAYER_7
 10
150.8994
 20
38.0977
 42
-0.09799469934
  0
VERTEX
  8
LAYER_7
 10
150.2621
 20
38.5324
 42
-0.1630918382
  0
VERTEX
  8
LAYER_7
 10
149.7964
 20
39.5259
 42
-0.0316951694
  0
VERTEX
  8
LAYER_7
 10
149.7793
 20
39.7998
 42
-0.1055313794
  0
VERTEX
  8
LAYER_7
 10
149.9533
 20
40.6417
 42
-0.1619874109
  0
VERTEX
  8
LAYER_7
 10
150.7418
 20
41.4867
 42
-0.09224146328
  0
VERTEX
  8
LAYER_7
 10
151.5409
 20
41.7524
 42
-0.03717154931
  0
VERTEX
  8
LAYER_7
 10
151.9725
 20
41.7838
 42
-0.09530639066
  0
VERTEX
  8
LAYER_7
 10
152.9361
 20
41.6062
 42
-0.1001950085
  0
VERTEX
  8
LAYER_7
 10
153.5732
 20
41.1834
 42
-0.1611155306
  0
VERTEX
  8
LAYER_7
 10
154.0599
 20
40.1825
 42
-0.03590167283
  0
VERTEX
  8
LAYER_7
 10
154.0815
 20
39.8784
 42
-0.1066761192
  0
VERTEX
  8
LAYER_7
 10
153.9051
 20
39.0236
 42
-0.2183970027
  0
VERTEX
  8
LAYER_7
 10
152.7953
 20
38.0897
 42
-0.006706711403
  0
VERTEX
  8
LAYER_7
 10
152.7407
 20
38.0738
  0
VERTEX
  8
LAYER_7
 10
152.7407
 20
38.0514
 42
0.01533555045
  0
VERTEX
  8
LAYER_7
 10
154.117
 20
37.8113
  0
SEQEND
  0
POLYLINE
  8
LAYER_7
 40
0.05
 41
0.05
 66
1
 10
0
 20
0
 30
0
 70
1
  0
VERTEX
  8
LAYER_7
 10
153.4394
 20
39.857
 42
0.1175610784
  0
VERTEX
  8
LAYER_7
 10
153.257
 20
40.6254
 42
0.1170135141
  0
VERTEX
  8
LAYER_7
 10
152.8315
 20
41.1234
 42
0.1200044572
  0
VERTEX
  8
LAYER_7
 10
152.2186
 20
41.3675
 42
0.03774262044
  0
VERTEX
  8
LAYER_7
 10
151.9511
 20
41.3873
 42
0.1153139376
  0
VERTEX
  8
LAYER_7
 10
151.2089
 20
41.2226
 42
0.1853550912
  0
VERTEX
  8
LAYER_7
 10
150.5507
 20
40.4882
 42
0.09859892291
  0
VERTEX
  8
LAYER_7
 10
150.4287
 20
39.8122
 42
0.1178359247
  0
VERTEX
  8
LAYER_7
 10
150.5964
 20
39.0734
 42
0.2866694251
  0
VERTEX
  8
LAYER_7
 10
151.9232
 20
38.2912
 42
0.1188197759
  0
VERTEX
  8
LAYER_7
 10
152.6722
 20
38.4633
 42
0.1796740134
  0
VERTEX
  8
LAYER_7
 10
153.3126
 20
39.18
 42
0.09850052237
  0
SEQEND
  0
ENDBLK
  0
BLOCK
  8
LAYER_7
  2
AIGNBL07040008
 70
64
 10
0
 20
0
 30
0
  3
AIGNBL07040008
  0
POLYLINE
  8
LAYER_7
 40
0.05
 41
0.05
 66
1
 10
0
 20
0
 30
0
 70
1
  0
VERTEX
  8
LAYER_7
 10
155.4089
 20
41.7225
  0
VERTEX
  8
LAYER_7
 10
155.4089
 20
39.4932
 42
0.1220213404
  0
VERTEX
  8
LAYER_7
 10
155.569
 20
38.7775
 42
0.2218709818
  0
VERTEX
  8
LAYER_7
 10
156.2104
 20
38.3206
 42
0.05223876895
  0
VERTEX
  8
LAYER_7
 10
156.5055
 20
38.2912
 42
0.1302821267
  0
VERTEX
  8
LAYER_7
 10
157.1748
 20
38.452
 42
0.1509367336
  0
VERTEX
  8
LAYER_7
 10
157.526
 20
38.8454
 42
0.1174732039
  0
VERTEX
  8
LAYER_7
 10
157.651
 20
39.4932
  0
VERTEX
  8
LAYER_7
 10
157.651
 20
41.7225
  0
VERTEX
  8
LAYER_7
 10
158.2656
 20
41.7225
  0
VERTEX
  8
LAYER_7
 10
158.2656
 20
39.5266
 42
-0.1106199636
  0
VERTEX
  8
LAYER_7
 10
158.0961
 20
38.708
 42
-0.1822316276
  0
VERTEX
  8
LAYER_7
 10
157.4057
 20
38.0637
 42
-0.09768689614
  0
VERTEX
  8
LAYER_7
 10
156.6028
 20
37.8972
 42
-0.01000776787
  0
VERTEX
  8
LAYER_7
 10
156.4845
 20
37.895
 42
-0.09899539667
  0
VERTEX
  8
LAYER_7
 10
155.612
 20
38.0554
 42
-0.120955925
  0
VERTEX
  8
LAYER_7
 10
155.1093
 20
38.4366
 42
-0.1193006487
  0
VERTEX
  8
LAYER_7
 10
154.8407
 20
39.0316
 42
-0.05319923583
  0
VERTEX
  8
LAYER_7
 10
154.7943
 20
39.5045
  0
VERTEX
  8
LAYER_7
 10
154.7943
 20
41.7225
  0
SEQEND
  0
ENDBLK
  0
BLOCK
  8
LAYER_7
  2
AIGNBL07040009
 70
64
 10
0
 20
0
 30
0
  3
AIGNBL07040009
  0
POLYLINE
  8
LAYER_7
 40
0.05
 41
0.05
 66
1
 10
0
 20
0
 30
0
 70
1
  0
VERTEX
  8
LAYER_7
 10
160.0119
 20
39.1418
  0
VERTEX
  8
LAYER_7
 10
159.5227
 20
37.9567
  0
VERTEX
  8
LAYER_7
 10
158.8947
 20
37.9567
  0
VERTEX
  8
LAYER_7
 10
160.4939
 20
41.7225
  0
VERTEX
  8
LAYER_7
 10
161.227
 20
41.7225
  0
VERTEX
  8
LAYER_7
 10
162.8335
 20
37.9567
  0
VERTEX
  8
LAYER_7
 10
162.1841
 20
37.9567
  0
VERTEX
  8
LAYER_7
 10
161.6814
 20
39.1418
  0
SEQEND
  0
POLYLINE
  8
LAYER_7
 40
0.05
 41
0.05
 66
1
 10
0
 20
0
 30
0
 70
1
  0
VERTEX
  8
LAYER_7
 10
161.5553
 20
39.5207
  0
VERTEX
  8
LAYER_7
 10
161.094
 20
40.6056
 42
-0.02227599701
  0
VERTEX
  8
LAYER_7
 10
160.8494
 20
41.2926
  0
VERTEX
  8
LAYER_7
 10
160.8357
 20
41.2926
 42
-0.0208222547
  0
VERTEX
  8
LAYER_7
 10
160.5983
 20
40.6101
  0
VERTEX
  8
LAYER_7
 10
160.1373
 20
39.5207
  0
SEQEND
  0
ENDBLK
  0
BLOCK
  8
LAYER_7
  2
AIGNBL0704000A
 70
64
 10
0
 20
0
 30
0
  3
AIGNBL0704000A
  0
POLYLINE
  8
LAYER_7
 40
0.05
 41
0.05
 66
1
 10
0
 20
0
 30
0
 70
1
  0
VERTEX
  8
LAYER_7
 10
163.8742
 20
41.6777
 42
-0.03334485223
  0
VERTEX
  8
LAYER_7
 10
165.0411
 20
41.7508
 42
-0.08844478427
  0
VERTEX
  8
LAYER_7
 10
166.0871
 20
41.5858
 42
-0.06037505309
  0
VERTEX
  8
LAYER_7
 10
166.3609
 20
41.4379
 42
-0.2472514979
  0
VERTEX
  8
LAYER_7
 10
166.7726
 20
40.6497
 42
-0.1483298328
  0
VERTEX
  8
LAYER_7
 10
166.6029
 20
40.0554
 42
-0.07223194904
  0
VERTEX
  8
LAYER_7
 10
166.4095
 20
39.8456
 42
-0.1209372404
  0
VERTEX
  8
LAYER_7
 10
165.7228
 20
39.517
 42
-0.06224269186
  0
VERTEX
  8
LAYER_7
 10
164.9708
 20
39.4319
 42
-0.05738783264
  0
VERTEX
  8
LAYER_7
 10
164.4823
 20
39.4653
  0
VERTEX
  8
LAYER_7
 10
164.4823
 20
37.9567
  0
VERTEX
  8
LAYER_7
 10
163.8742
 20
37.9567
  0
SEQEND
  0
POLYLINE
  8
LAYER_7
 40
0.05
 41
0.05
 66
1
 10
0
 20
0
 30
0
 70
1
  0
VERTEX
  8
LAYER_7
 10
164.4823
 20
39.8622
 42
0.05012782438
  0
VERTEX
  8
LAYER_7
 10
164.9846
 20
39.8229
 42
0.1135299982
  0
VERTEX
  8
LAYER_7
 10
165.7697
 20
39.9822
 42
0.1653556145
  0
VERTEX
  8
LAYER_7
 10
166.1074
 20
40.3302
 42
0.1044590446
  0
VERTEX
  8
LAYER_7
 10
166.1656
 20
40.6273
 42
0.2826437488
  0
VERTEX
  8
LAYER_7
 10
165.8147
 20
41.2103
 42
0.0629694601
  0
VERTEX
  8
LAYER_7
 10
165.549
 20
41.3107
 42
0.06259589917
  0
VERTEX
  8
LAYER_7
 10
165.0552
 20
41.3649
 42
0.05192366909
  0
VERTEX
  8
LAYER_7
 10
164.4823
 20
41.3257
  0
SEQEND
  0
ENDBLK
  0
BLOCK
  8
LAYER_7
  2
AIGNBL0704000B
 70
64
 10
0
 20
0
 30
0
  3
AIGNBL0704000B
  0
POLYLINE
  8
LAYER_7
 40
0.05
 41
0.05
 66
1
 10
0
 20
0
 30
0
 70
1
  0
VERTEX
  8
LAYER_7
 10
168.3246
 20
41.4207
 42
-0.3048675751
  0
VERTEX
  8
LAYER_7
 10
168.1582
 20
41.1661
 42
-0.1151020929
  0
VERTEX
  8
LAYER_7
 10
167.9329
 20
41.1189
 42
-0.2442513348
  0
VERTEX
  8
LAYER_7
 10
167.6028
 20
41.2794
 42
-0.1394546152
  0
VERTEX
  8
LAYER_7
 10
167.5626
 20
41.4207
 42
-0.287439772
  0
VERTEX
  8
LAYER_7
 10
167.7346
 20
41.6803
 42
-0.1179404017
  0
VERTEX
  8
LAYER_7
 10
167.9467
 20
41.7277
 42
-0.2416274379
  0
VERTEX
  8
LAYER_7
 10
168.2814
 20
41.5719
 42
-0.1426378456
  0
SEQEND
  0
POLYLINE
  8
LAYER_7
 40
0.05
 41
0.05
 66
1
 10
0
 20
0
 30
0
 70
1
  0
VERTEX
  8
LAYER_7
 10
167.639
 20
37.9567
  0
VERTEX
  8
LAYER_7
 10
167.639
 20
40.6607
  0
VERTEX
  8
LAYER_7
 10
168.2537
 20
40.6607
  0
VERTEX
  8
LAYER_7
 10
168.2537
 20
37.9567
  0
SEQEND
  0
ENDBLK
  0
BLOCK
  8
LAYER_7
  2
AIGNBL0704000C
 70
64
 10
0
 20
0
 30
0
  3
AIGNBL0704000C
  0
POLYLINE
  8
LAYER_7
 40
0.05
 41
0.05
 66
1
 10
0
 20
0
 30
0
 70
1
  0
VERTEX
  8
LAYER_7
 10
170.1254
 20
39.1418
  0
VERTEX
  8
LAYER_7
 10
169.6372
 20
37.9567
  0
VERTEX
  8
LAYER_7
 10
169.0081
 20
37.9567
  0
VERTEX
  8
LAYER_7
 10
170.6077
 20
41.7225
  0
VERTEX
  8
LAYER_7
 10
171.3415
 20
41.7225
  0
VERTEX
  8
LAYER_7
 10
172.9479
 20
37.9567
  0
VERTEX
  8
LAYER_7
 10
172.2982
 20
37.9567
  0
VERTEX
  8
LAYER_7
 10
171.7955
 20
39.1418
  0
SEQEND
  0
POLYLINE
  8
LAYER_7
 40
0.05
 41
0.05
 66
1
 10
0
 20
0
 30
0
 70
1
  0
VERTEX
  8
LAYER_7
 10
171.6695
 20
39.5207
  0
VERTEX
  8
LAYER_7
 10
171.2085
 20
40.6056
 42
-0.02430767271
  0
VERTEX
  8
LAYER_7
 10
170.9646
 20
41.2926
  0
VERTEX
  8
LAYER_7
 10
170.9498
 20
41.2926
 42
-0.02034719794
  0
VERTEX
  8
LAYER_7
 10
170.7128
 20
40.6101
  0
VERTEX
  8
LAYER_7
 10
170.2518
 20
39.5207
  0
SEQEND
  0
ENDBLK
  0
BLOCK
  8
LAYER_5
  2
AIGNBL0503000F
 70
64
 10
0
 20
0
 30
0
  3
AIGNBL0503000F
  0
INSERT
  8
LAYER_5
  2
AIGNBL05040010
 10
0
 20
0
 30
0
  0
ENDBLK
  0
BLOCK
  8
LAYER_5
  2
AIGNBL05030013
 70
64
 10
0
 20
0
 30
0
  3
AIGNBL05030013
  0
INSERT
  8
LAYER_5
  2
AIGNBL05040014
 10
0
 20
0
 30
0
  0
ENDBLK
  0
BLOCK
  8
LAYER_7
  2
AIGNBL07030005
 70
64
 10
0
 20
0
 30
0
  3
AIGNBL07030005
  0
INSERT
  8
LAYER_7
  2
AIGNBL07040006
 10
0
 20
0
 30
0
  0
INSERT
  8
LAYER_7
  2
AIGNBL07040007
 10
0
 20
0
 30
0
  0
INSERT
  8
LAYER_7
  2
AIGNBL07040008
 10
0
 20
0
 30
0
  0
INSERT
  8
LAYER_7
  2
AIGNBL07040009
 10
0
 20
0
 30
0
  0
INSERT
  8
LAYER_7
  2
AIGNBL0704000A
 10
0
 20
0
 30
0
  0
INSERT
  8
LAYER_7
  2
AIGNBL0704000B
 10
0
 20
0
 30
0
  0
INSERT
  8
LAYER_7
  2
AIGNBL0704000C
 10
0
 20
0
 30
0
  0
ENDBLK
  0
BLOCK
  8
LAYER_7
  2
AIGNBL0703000E
 70
64
 10
0
 20
0
 30
0
  3
AIGNBL0703000E
  0
POLYLINE
  8
LAYER_7
 40
0.05
 41
0.05
 66
1
 10
0
 20
0
 30
0
 70
1
  0
VERTEX
  8
LAYER_7
 10
145.7475
 20
36.0574
  0
VERTEX
  8
LAYER_7
 10
146.3008
 20
36.0574
  0
VERTEX
  8
LAYER_7
 10
146.3008
 20
35.9637
  0
VERTEX
  8
LAYER_7
 10
145.6424
 20
35.9637
  0
VERTEX
  8
LAYER_7
 10
145.6424
 20
36.9969
  0
VERTEX
  8
LAYER_7
 10
146.2832
 20
36.9969
  0
VERTEX
  8
LAYER_7
 10
146.2832
 20
36.9035
  0
VERTEX
  8
LAYER_7
 10
145.7475
 20
36.9035
  0
VERTEX
  8
LAYER_7
 10
145.7475
 20
36.549
  0
VERTEX
  8
LAYER_7
 10
146.2481
 20
36.549
  0
VERTEX
  8
LAYER_7
 10
146.2481
 20
36.4557
  0
VERTEX
  8
LAYER_7
 10
145.7475
 20
36.4557
  0
SEQEND
  0
ENDBLK
  0
BLOCK
  8
LAYER_7
  2
AIGNBL0703000F
 70
64
 10
0
 20
0
 30
0
  3
AIGNBL0703000F
  0
POLYLINE
  8
LAYER_7
 40
0.05
 41
0.05
 66
1
 10
0
 20
0
 30
0
 70
1
  0
VERTEX
  8
LAYER_7
 10
147.4404
 20
36.117
  0
VERTEX
  8
LAYER_7
 10
147.4432
 20
36.117
  0
VERTEX
  8
LAYER_7
 10
147.4432
 20
36.9969
  0
VERTEX
  8
LAYER_7
 10
147.5483
 20
36.9969
  0
VERTEX
  8
LAYER_7
 10
147.5483
 20
35.9637
  0
VERTEX
  8
LAYER_7
 10
147.4174
 20
35.9637
  0
VERTEX
  8
LAYER_7
 10
146.8162
 20
36.8525
  0
VERTEX
  8
LAYER_7
 10
146.8127
 20
36.8525
  0
VERTEX
  8
LAYER_7
 10
146.8127
 20
35.9637
  0
VERTEX
  8
LAYER_7
 10
146.708
 20
35.9637
  0
VERTEX
  8
LAYER_7
 10
146.708
 20
36.9969
  0
VERTEX
  8
LAYER_7
 10
146.8393
 20
36.9969
  0
SEQEND
  0
ENDBLK
  0
BLOCK
  8
LAYER_7
  2
AIGNBL07030010
 70
64
 10
0
 20
0
 30
0
  3
AIGNBL07030010
  0
POLYLINE
  8
LAYER_7
 40
0.05
 41
0.05
 66
1
 10
0
 20
0
 30
0
 70
1
  0
VERTEX
  8
LAYER_7
 10
148.0213
 20
36.1756
 42
0.1557655154
  0
VERTEX
  8
LAYER_7
 10
148.0757
 20
36.0725
 42
0.1918235184
  0
VERTEX
  8
LAYER_7
 10
148.1891
 20
36.0309
  0
VERTEX
  8
LAYER_7
 10
148.2783
 20
36.0505
  0
VERTEX
  8
LAYER_7
 10
148.3344
 20
36.1039
  0
VERTEX
  8
LAYER_7
 10
148.3634
 20
36.1804
  0
VERTEX
  8
LAYER_7
 10
148.3717
 20
36.27
  0
VERTEX
  8
LAYER_7
 10
148.3717
 20
36.9969
  0
VERTEX
  8
LAYER_7
 10
148.4767
 20
36.9969
  0
VERTEX
  8
LAYER_7
 10
148.4767
 20
36.2614
  0
VERTEX
  8
LAYER_7
 10
148.4654
 20
36.1535
 42
-0.0973308998
  0
VERTEX
  8
LAYER_7
 10
148.424
 20
36.0485
 42
-0.1149355521
  0
VERTEX
  8
LAYER_7
 10
148.3393
 20
35.9689
 42
-0.1249341208
  0
VERTEX
  8
LAYER_7
 10
148.2004
 20
35.9375
 42
-0.1793665557
  0
VERTEX
  8
LAYER_7
 10
148.0158
 20
35.9974
 42
-0.1772363953
  0
VERTEX
  8
LAYER_7
 10
147.9234
 20
36.149
  0
SEQEND
  0
ENDBLK
  0
BLOCK
  8
LAYER_7
  2
AIGNBL07030011
 70
64
 10
0
 20
0
 30
0
  3
AIGNBL07030011
  0
POLYLINE
  8
LAYER_7
 40
0.05
 41
0.05
 66
1
 10
0
 20
0
 30
0
 70
1
  0
VERTEX
  8
LAYER_7
 10
149.965
 20
36.4805
 42
-0.1019307791
  0
VERTEX
  8
LAYER_7
 10
149.924
 20
36.2631
 42
-0.1000112985
  0
VERTEX
  8
LAYER_7
 10
149.8113
 20
36.0915
 42
-0.09646612644
  0
VERTEX
  8
LAYER_7
 10
149.6405
 20
35.9785
 42
-0.09758594962
  0
VERTEX
  8
LAYER_7
 10
149.4265
 20
35.9375
 42
-0.1000844711
  0
VERTEX
  8
LAYER_7
 10
149.2129
 20
35.9785
 42
-0.09954994557
  0
VERTEX
  8
LAYER_7
 10
149.042
 20
36.0915
 42
-0.09699237735
  0
VERTEX
  8
LAYER_7
 10
148.9287
 20
36.2631
 42
-0.09653980076
  0
VERTEX
  8
LAYER_7
 10
148.8881
 20
36.4805
 42
-0.1004051845
  0
VERTEX
  8
LAYER_7
 10
148.9287
 20
36.6978
 42
-0.0998654539
  0
VERTEX
  8
LAYER_7
 10
149.042
 20
36.8694
 42
-0.09851519288
  0
VERTEX
  8
LAYER_7
 10
149.2129
 20
36.9824
 42
-0.09768823248
  0
VERTEX
  8
LAYER_7
 10
149.4265
 20
37.0234
 42
-0.1000514256
  0
VERTEX
  8
LAYER_7
 10
149.6405
 20
36.9824
 42
-0.09863053528
  0
VERTEX
  8
LAYER_7
 10
149.8113
 20
36.8694
 42
-0.09807107579
  0
VERTEX
  8
LAYER_7
 10
149.924
 20
36.6978
 42
-0.0978256893
  0
SEQEND
  0
POLYLINE
  8
LAYER_7
 40
0.05
 41
0.05
 66
1
 10
0
 20
0
 30
0
 70
1
  0
VERTEX
  8
LAYER_7
 10
149.8541
 20
36.4798
 42
0.08634913196
  0
VERTEX
  8
LAYER_7
 10
149.8251
 20
36.6517
 42
0.09649608129
  0
VERTEX
  8
LAYER_7
 10
149.7404
 20
36.795
 42
0.1032857511
  0
VERTEX
  8
LAYER_7
 10
149.6053
 20
36.8932
 42
0.1061320656
  0
VERTEX
  8
LAYER_7
 10
149.4265
 20
36.93
 42
0.1115874499
  0
VERTEX
  8
LAYER_7
 10
149.2478
 20
36.8932
 42
0.1058584166
  0
VERTEX
  8
LAYER_7
 10
149.113
 20
36.795
 42
0.09787799956
  0
VERTEX
  8
LAYER_7
 10
149.0283
 20
36.6517
 42
0.08491464556
  0
VERTEX
  8
LAYER_7
 10
148.999
 20
36.4798
 42
0.08693146424
  0
VERTEX
  8
LAYER_7
 10
149.0283
 20
36.3079
 42
0.1009797617
  0
VERTEX
  8
LAYER_7
 10
149.113
 20
36.1649
 42
0.09998489394
  0
VERTEX
  8
LAYER_7
 10
149.2478
 20
36.0674
 42
0.1061678446
  0
VERTEX
  8
LAYER_7
 10
149.4265
 20
36.0309
 42
0.1126980581
  0
VERTEX
  8
LAYER_7
 10
149.6053
 20
36.0674
 42
0.1036982708
  0
VERTEX
  8
LAYER_7
 10
149.7404
 20
36.1649
 42
0.09370250368
  0
VERTEX
  8
LAYER_7
 10
149.8251
 20
36.3079
 42
0.08466662837
  0
SEQEND
  0
ENDBLK
  0
BLOCK
  8
LAYER_7
  2
AIGNBL07030012
 70
64
 10
0
 20
0
 30
0
  3
AIGNBL07030012
  0
POLYLINE
  8
LAYER_7
 40
0.05
 41
0.05
 66
1
 10
0
 20
0
 30
0
 70
1
  0
VERTEX
  8
LAYER_7
 10
150.7398
 20
35.9637
  0
VERTEX
  8
LAYER_7
 10
150.6351
 20
35.9637
  0
VERTEX
  8
LAYER_7
 10
150.6351
 20
36.4091
  0
VERTEX
  8
LAYER_7
 10
150.2482
 20
36.9969
  0
VERTEX
  8
LAYER_7
 10
150.3795
 20
36.9969
  0
VERTEX
  8
LAYER_7
 10
150.6905
 20
36.4967
  0
VERTEX
  8
LAYER_7
 10
151.0041
 20
36.9969
  0
VERTEX
  8
LAYER_7
 10
151.1263
 20
36.9969
  0
VERTEX
  8
LAYER_7
 10
150.7398
 20
36.4091
  0
SEQEND
  0
ENDBLK
  0
BLOCK
  8
LAYER_7
  2
AIGNBL07030013
 70
64
 10
0
 20
0
 30
0
  3
AIGNBL07030013
  0
POLYLINE
  8
LAYER_7
 40
0.05
 41
0.05
 66
1
 10
0
 20
0
 30
0
 70
1
  0
VERTEX
  8
LAYER_7
 10
152.0314
 20
36.9969
  0
VERTEX
  8
LAYER_7
 10
152.339
 20
36.9969
  0
VERTEX
  8
LAYER_7
 10
152.4575
 20
36.9845
  0
VERTEX
  8
LAYER_7
 10
152.5643
 20
36.9421
 42
-0.1168262011
  0
VERTEX
  8
LAYER_7
 10
152.6422
 20
36.8611
 42
-0.1230288266
  0
VERTEX
  8
LAYER_7
 10
152.6718
 20
36.733
 42
-0.1795449175
  0
VERTEX
  8
LAYER_7
 10
152.6219
 20
36.5907
 42
-0.170141964
  0
VERTEX
  8
LAYER_7
 10
152.4885
 20
36.5111
  0
VERTEX
  8
LAYER_7
 10
152.4885
 20
36.5084
 42
-0.1719890535
  0
VERTEX
  8
LAYER_7
 10
152.6553
 20
36.4302
 42
-0.2018462152
  0
VERTEX
  8
LAYER_7
 10
152.7214
 20
36.2496
 42
-0.1247085485
  0
VERTEX
  8
LAYER_7
 10
152.6942
 20
36.1325
 42
-0.1153486961
  0
VERTEX
  8
LAYER_7
 10
152.6181
 20
36.0419
 42
-0.08656795839
  0
VERTEX
  8
LAYER_7
 10
152.4972
 20
35.9844
 42
-0.06557363107
  0
VERTEX
  8
LAYER_7
 10
152.3373
 20
35.9637
  0
VERTEX
  8
LAYER_7
 10
152.0314
 20
35.9637
  0
SEQEND
  0
POLYLINE
  8
LAYER_7
 40
0.05
 41
0.05
 66
1
 10
0
 20
0
 30
0
 70
1
  0
VERTEX
  8
LAYER_7
 10
152.1364
 20
36.5445
  0
VERTEX
  8
LAYER_7
 10
152.348
 20
36.5445
  0
VERTEX
  8
LAYER_7
 10
152.4248
 20
36.5535
  0
VERTEX
  8
LAYER_7
 10
152.4951
 20
36.5831
  0
VERTEX
  8
LAYER_7
 10
152.5471
 20
36.6396
 42
0.1162126025
  0
VERTEX
  8
LAYER_7
 10
152.5668
 20
36.7258
  0
VERTEX
  8
LAYER_7
 10
152.5471
 20
36.8095
  0
VERTEX
  8
LAYER_7
 10
152.494
 20
36.8656
  0
VERTEX
  8
LAYER_7
 10
152.4152
 20
36.897
  0
VERTEX
  8
LAYER_7
 10
152.3187
 20
36.9066
  0
VERTEX
  8
LAYER_7
 10
152.1364
 20
36.9066
  0
SEQEND
  0
POLYLINE
  8
LAYER_7
 40
0.05
 41
0.05
 66
1
 10
0
 20
0
 30
0
 70
1
  0
VERTEX
  8
LAYER_7
 10
152.1364
 20
36.0543
  0
VERTEX
  8
LAYER_7
 10
152.3321
 20
36.0543
  0
VERTEX
  8
LAYER_7
 10
152.4406
 20
36.0653
  0
VERTEX
  8
LAYER_7
 10
152.5313
 20
36.1001
 42
0.1172546835
  0
VERTEX
  8
LAYER_7
 10
152.5929
 20
36.1632
 42
0.1286243504
  0
VERTEX
  8
LAYER_7
 10
152.6164
 20
36.2559
 42
0.2498669706
  0
VERTEX
  8
LAYER_7
 10
152.5471
 20
36.4081
 42
0.1538083763
  0
VERTEX
  8
LAYER_7
 10
152.3511
 20
36.4584
  0
VERTEX
  8
LAYER_7
 10
152.1364
 20
36.4584
  0
SEQEND
  0
ENDBLK
  0
BLOCK
  8
LAYER_7
  2
AIGNBL07030014
 70
64
 10
0
 20
0
 30
0
  3
AIGNBL07030014
  0
POLYLINE
  8
LAYER_7
 40
0.05
 41
0.05
 66
1
 10
0
 20
0
 30
0
 70
1
  0
VERTEX
  8
LAYER_7
 10
153.1534
 20
35.9637
  0
VERTEX
  8
LAYER_7
 10
153.038
 20
35.9637
  0
VERTEX
  8
LAYER_7
 10
153.4849
 20
36.9969
  0
VERTEX
  8
LAYER_7
 10
153.5872
 20
36.9969
  0
VERTEX
  8
LAYER_7
 10
154.0306
 20
35.9637
  0
VERTEX
  8
LAYER_7
 10
153.9138
 20
35.9637
  0
VERTEX
  8
LAYER_7
 10
153.7997
 20
36.2352
  0
VERTEX
  8
LAYER_7
 10
153.2657
 20
36.2352
  0
SEQEND
  0
POLYLINE
  8
LAYER_7
 40
0.05
 41
0.05
 66
1
 10
0
 20
0
 30
0
 70
1
  0
VERTEX
  8
LAYER_7
 10
153.305
 20
36.3316
  0
VERTEX
  8
LAYER_7
 10
153.7604
 20
36.3316
  0
VERTEX
  8
LAYER_7
 10
153.5327
 20
36.8804
  0
SEQEND
  0
ENDBLK
  0
BLOCK
  8
LAYER_7
  2
AIGNBL07030015
 70
64
 10
0
 20
0
 30
0
  3
AIGNBL07030015
  0
POLYLINE
  8
LAYER_7
 40
0.05
 41
0.05
 66
1
 10
0
 20
0
 30
0
 70
1
  0
VERTEX
  8
LAYER_7
 10
154.7151
 20
35.9637
  0
VERTEX
  8
LAYER_7
 10
154.61
 20
35.9637
  0
VERTEX
  8
LAYER_7
 10
154.61
 20
36.9035
  0
VERTEX
  8
LAYER_7
 10
154.2638
 20
36.9035
  0
VERTEX
  8
LAYER_7
 10
154.2638
 20
36.9969
  0
VERTEX
  8
LAYER_7
 10
155.0606
 20
36.9969
  0
VERTEX
  8
LAYER_7
 10
155.0606
 20
36.9035
  0
VERTEX
  8
LAYER_7
 10
154.7151
 20
36.9035
  0
SEQEND
  0
ENDBLK
  0
BLOCK
  8
LAYER_7
  2
AIGNBL07030016
 70
64
 10
0
 20
0
 30
0
  3
AIGNBL07030016
  0
POLYLINE
  8
LAYER_7
 40
0.05
 41
0.05
 66
1
 10
0
 20
0
 30
0
 70
1
  0
VERTEX
  8
LAYER_7
 10
155.4169
 20
36.9969
  0
VERTEX
  8
LAYER_7
 10
155.5216
 20
36.9969
  0
VERTEX
  8
LAYER_7
 10
155.5216
 20
36.549
  0
VERTEX
  8
LAYER_7
 10
156.0852
 20
36.549
  0
VERTEX
  8
LAYER_7
 10
156.0852
 20
36.9969
  0
VERTEX
  8
LAYER_7
 10
156.1903
 20
36.9969
  0
VERTEX
  8
LAYER_7
 10
156.1903
 20
35.9637
  0
VERTEX
  8
LAYER_7
 10
156.0852
 20
35.9637
  0
VERTEX
  8
LAYER_7
 10
156.0852
 20
36.4529
  0
VERTEX
  8
LAYER_7
 10
155.5216
 20
36.4529
  0
VERTEX
  8
LAYER_7
 10
155.5216
 20
35.9637
  0
VERTEX
  8
LAYER_7
 10
155.4169
 20
35.9637
  0
SEQEND
  0
ENDBLK
  0
BLOCK
  8
LAYER_7
  2
AIGNBL07030017
 70
64
 10
0
 20
0
 30
0
  3
AIGNBL07030017
  0
POLYLINE
  8
LAYER_7
 40
0.05
 41
0.05
 66
1
 10
0
 20
0
 30
0
 70
1
  0
VERTEX
  8
LAYER_7
 10
156.7708
 20
35.9637
  0
VERTEX
  8
LAYER_7
 10
156.6657
 20
35.9637
  0
VERTEX
  8
LAYER_7
 10
156.6657
 20
36.9969
  0
VERTEX
  8
LAYER_7
 10
156.9696
 20
36.9969
  0
VERTEX
  8
LAYER_7
 10
157.1101
 20
36.9824
 42
-0.1032885834
  0
VERTEX
  8
LAYER_7
 10
157.2228
 20
36.9349
 42
-0.1280591957
  0
VERTEX
  8
LAYER_7
 10
157.2962
 20
36.8494
 42
-0.1078860225
  0
VERTEX
  8
LAYER_7
 10
157.3223
 20
36.7213
  0
VERTEX
  8
LAYER_7
 10
157.3024
 20
36.6176
  0
VERTEX
  8
LAYER_7
 10
157.2469
 20
36.5366
  0
VERTEX
  8
LAYER_7
 10
157.1635
 20
36.4818
  0
VERTEX
  8
LAYER_7
 10
157.0585
 20
36.4557
  0
VERTEX
  8
LAYER_7
 10
157.3606
 20
35.9637
  0
VERTEX
  8
LAYER_7
 10
157.2321
 20
35.9637
  0
VERTEX
  8
LAYER_7
 10
156.9461
 20
36.4467
  0
VERTEX
  8
LAYER_7
 10
156.7708
 20
36.4467
  0
SEQEND
  0
POLYLINE
  8
LAYER_7
 40
0.05
 41
0.05
 66
1
 10
0
 20
0
 30
0
 70
1
  0
VERTEX
  8
LAYER_7
 10
156.7708
 20
36.5373
  0
VERTEX
  8
LAYER_7
 10
156.9534
 20
36.5373
 42
0.153451873
  0
VERTEX
  8
LAYER_7
 10
157.1491
 20
36.5831
 42
0.2580279849
  0
VERTEX
  8
LAYER_7
 10
157.2176
 20
36.7213
  0
VERTEX
  8
LAYER_7
 10
157.1983
 20
36.8071
  0
VERTEX
  8
LAYER_7
 10
157.146
 20
36.8643
  0
VERTEX
  8
LAYER_7
 10
157.0643
 20
36.8963
  0
VERTEX
  8
LAYER_7
 10
156.9578
 20
36.9066
  0
VERTEX
  8
LAYER_7
 10
156.7708
 20
36.9066
  0
SEQEND
  0
ENDBLK
  0
BLOCK
  8
LAYER_7
  2
AIGNBL07030018
 70
64
 10
0
 20
0
 30
0
  3
AIGNBL07030018
  0
POLYLINE
  8
LAYER_7
 40
0.05
 41
0.05
 66
1
 10
0
 20
0
 30
0
 70
1
  0
VERTEX
  8
LAYER_7
 10
158.7627
 20
36.4805
 42
-0.09904480664
  0
VERTEX
  8
LAYER_7
 10
158.7221
 20
36.2631
 42
-0.09984043552
  0
VERTEX
  8
LAYER_7
 10
158.6087
 20
36.0915
 42
-0.09841590082
  0
VERTEX
  8
LAYER_7
 10
158.4382
 20
35.9785
 42
-0.09758412454
  0
VERTEX
  8
LAYER_7
 10
158.2243
 20
35.9375
 42
-0.09999517154
  0
VERTEX
  8
LAYER_7
 10
158.0103
 20
35.9785
 42
-0.09953435427
  0
VERTEX
  8
LAYER_7
 10
157.8398
 20
36.0915
 42
-0.09853706159
  0
VERTEX
  8
LAYER_7
 10
157.7268
 20
36.2631
 42
-0.09653980076
  0
VERTEX
  8
LAYER_7
 10
157.6862
 20
36.4805
 42
-0.1004051845
  0
VERTEX
  8
LAYER_7
 10
157.7268
 20
36.6978
 42
-0.1008040346
  0
VERTEX
  8
LAYER_7
 10
157.8398
 20
36.8694
 42
-0.09763764092
  0
VERTEX
  8
LAYER_7
 10
158.0103
 20
36.9824
 42
-0.09752919603
  0
VERTEX
  8
LAYER_7
 10
158.2243
 20
37.0234
 42
-0.1000174927
  0
VERTEX
  8
LAYER_7
 10
158.4382
 20
36.9824
 42
-0.1009762109
  0
VERTEX
  8
LAYER_7
 10
158.6087
 20
36.8694
 42
-0.09735230618
  0
VERTEX
  8
LAYER_7
 10
158.7221
 20
36.6978
 42
-0.09580191209
  0
SEQEND
  0
POLYLINE
  8
LAYER_7
 40
0.05
 41
0.05
 66
1
 10
0
 20
0
 30
0
 70
1
  0
VERTEX
  8
LAYER_7
 10
158.6518
 20
36.4798
 42
0.08852014676
  0
VERTEX
  8
LAYER_7
 10
158.6225
 20
36.6517
 42
0.09973444611
  0
VERTEX
  8
LAYER_7
 10
158.5378
 20
36.795
 42
0.1024799068
  0
VERTEX
  8
LAYER_7
 10
158.4031
 20
36.8932
 42
0.1060321998
  0
VERTEX
  8
LAYER_7
 10
158.2243
 20
36.93
 42
0.1116325688
  0
VERTEX
  8
LAYER_7
 10
158.0455
 20
36.8932
 42
0.1060506217
  0
VERTEX
  8
LAYER_7
 10
157.9104
 20
36.795
 42
0.09526104957
  0
VERTEX
  8
LAYER_7
 10
157.8257
 20
36.6517
 42
0.08422602157
  0
VERTEX
  8
LAYER_7
 10
157.7968
 20
36.4798
 42
0.0876992245
  0
VERTEX
  8
LAYER_7
 10
157.8257
 20
36.3079
 42
0.09826867926
  0
VERTEX
  8
LAYER_7
 10
157.9104
 20
36.1649
 42
0.09965756504
  0
VERTEX
  8
LAYER_7
 10
158.0455
 20
36.0674
 42
0.1061654103
  0
VERTEX
  8
LAYER_7
 10
158.2243
 20
36.0309
 42
0.1124388132
  0
VERTEX
  8
LAYER_7
 10
158.4031
 20
36.0674
 42
0.1029122982
  0
VERTEX
  8
LAYER_7
 10
158.5378
 20
36.1649
 42
0.09882210045
  0
VERTEX
  8
LAYER_7
 10
158.6225
 20
36.3079
 42
0.08589740831
  0
SEQEND
  0
ENDBLK
  0
BLOCK
  8
LAYER_7
  2
AIGNBL07030019
 70
64
 10
0
 20
0
 30
0
  3
AIGNBL07030019
  0
POLYLINE
  8
LAYER_7
 40
0.05
 41
0.05
 66
1
 10
0
 20
0
 30
0
 70
1
  0
VERTEX
  8
LAYER_7
 10
160.2045
 20
36.4805
 42
-0.1019307791
  0
VERTEX
  8
LAYER_7
 10
160.1635
 20
36.2631
 42
-0.09929652324
  0
VERTEX
  8
LAYER_7
 10
160.0509
 20
36.0915
 42
-0.09710469009
  0
VERTEX
  8
LAYER_7
 10
159.88
 20
35.9785
 42
-0.09758412454
  0
VERTEX
  8
LAYER_7
 10
159.6661
 20
35.9375
 42
-0.1005051182
  0
VERTEX
  8
LAYER_7
 10
159.4524
 20
35.9785
 42
-0.1009789173
  0
VERTEX
  8
LAYER_7
 10
159.2816
 20
36.0915
 42
-0.09724598852
  0
VERTEX
  8
LAYER_7
 10
159.1682
 20
36.2631
 42
-0.09653980076
  0
VERTEX
  8
LAYER_7
 10
159.1276
 20
36.4805
 42
-0.1004051845
  0
VERTEX
  8
LAYER_7
 10
159.1682
 20
36.6978
 42
-0.1001669327
  0
VERTEX
  8
LAYER_7
 10
159.2816
 20
36.8694
 42
-0.09846843416
  0
VERTEX
  8
LAYER_7
 10
159.4524
 20
36.9824
 42
-0.09783444074
  0
VERTEX
  8
LAYER_7
 10
159.6661
 20
37.0234
 42
-0.1000174927
  0
VERTEX
  8
LAYER_7
 10
159.88
 20
36.9824
 42
-0.098457988
  0
VERTEX
  8
LAYER_7
 10
160.0509
 20
36.8694
 42
-0.09762598086
  0
VERTEX
  8
LAYER_7
 10
160.1635
 20
36.6978
 42
-0.0978256893
  0
SEQEND
  0
POLYLINE
  8
LAYER_7
 40
0.05
 41
0.05
 66
1
 10
0
 20
0
 30
0
 70
1
  0
VERTEX
  8
LAYER_7
 10
160.0936
 20
36.4798
 42
0.08653869446
  0
VERTEX
  8
LAYER_7
 10
160.0647
 20
36.6517
 42
0.09689814906
  0
VERTEX
  8
LAYER_7
 10
159.9799
 20
36.795
 42
0.1032857511
  0
VERTEX
  8
LAYER_7
 10
159.8448
 20
36.8932
 42
0.1061350344
  0
VERTEX
  8
LAYER_7
 10
159.6661
 20
36.93
 42
0.1114208933
  0
VERTEX
  8
LAYER_7
 10
159.4872
 20
36.8932
 42
0.1056595975
  0
VERTEX
  8
LAYER_7
 10
159.3525
 20
36.795
 42
0.09787799956
  0
VERTEX
  8
LAYER_7
 10
159.2678
 20
36.6517
 42
0.08491464556
  0
VERTEX
  8
LAYER_7
 10
159.2385
 20
36.4798
 42
0.08693146424
  0
VERTEX
  8
LAYER_7
 10
159.2678
 20
36.3079
 42
0.1009797617
  0
VERTEX
  8
LAYER_7
 10
159.3525
 20
36.1649
 42
0.09978391674
  0
VERTEX
  8
LAYER_7
 10
159.4872
 20
36.0674
 42
0.1060616244
  0
VERTEX
  8
LAYER_7
 10
159.6661
 20
36.0309
 42
0.1126531325
  0
VERTEX
  8
LAYER_7
 10
159.8448
 20
36.0674
 42
0.1036982708
  0
VERTEX
  8
LAYER_7
 10
159.9799
 20
36.1649
 42
0.09401062747
  0
VERTEX
  8
LAYER_7
 10
160.0647
 20
36.3079
 42
0.0844927763
  0
SEQEND
  0
ENDBLK
  0
BLOCK
  8
LAYER_7
  2
AIGNBL0703001A
 70
64
 10
0
 20
0
 30
0
  3
AIGNBL0703001A
  0
POLYLINE
  8
LAYER_7
 40
0.05
 41
0.05
 66
1
 10
0
 20
0
 30
0
 70
1
  0
VERTEX
  8
LAYER_7
 10
161.1354
 20
36.1418
  0
VERTEX
  8
LAYER_7
 10
161.1371
 20
36.1418
  0
VERTEX
  8
LAYER_7
 10
161.4826
 20
36.9969
  0
VERTEX
  8
LAYER_7
 10
161.6435
 20
36.9969
  0
VERTEX
  8
LAYER_7
 10
161.6435
 20
35.9637
  0
VERTEX
  8
LAYER_7
 10
161.5381
 20
35.9637
  0
VERTEX
  8
LAYER_7
 10
161.5381
 20
36.8611
  0
VERTEX
  8
LAYER_7
 10
161.5354
 20
36.8611
  0
VERTEX
  8
LAYER_7
 10
161.1619
 20
35.9637
  0
VERTEX
  8
LAYER_7
 10
161.1064
 20
35.9637
  0
VERTEX
  8
LAYER_7
 10
160.7326
 20
36.8611
  0
VERTEX
  8
LAYER_7
 10
160.7299
 20
36.8611
  0
VERTEX
  8
LAYER_7
 10
160.7299
 20
35.9637
  0
VERTEX
  8
LAYER_7
 10
160.6248
 20
35.9637
  0
VERTEX
  8
LAYER_7
 10
160.6248
 20
36.9969
  0
VERTEX
  8
LAYER_7
 10
160.7853
 20
36.9969
  0
SEQEND
  0
ENDBLK
  0
BLOCK
  8
LAYER_7
  2
AIGNBL0703001B
 70
64
 10
0
 20
0
 30
0
  3
AIGNBL0703001B
  0
POLYLINE
  8
LAYER_7
 40
0.05
 41
0.05
 66
1
 10
0
 20
0
 30
0
 70
1
  0
VERTEX
  8
LAYER_7
 10
162.79
 20
36.0574
  0
VERTEX
  8
LAYER_7
 10
163.3433
 20
36.0574
  0
VERTEX
  8
LAYER_7
 10
163.3433
 20
35.9637
  0
VERTEX
  8
LAYER_7
 10
162.685
 20
35.9637
  0
VERTEX
  8
LAYER_7
 10
162.685
 20
36.9969
  0
VERTEX
  8
LAYER_7
 10
163.3258
 20
36.9969
  0
VERTEX
  8
LAYER_7
 10
163.3258
 20
36.9035
  0
VERTEX
  8
LAYER_7
 10
162.79
 20
36.9035
  0
VERTEX
  8
LAYER_7
 10
162.79
 20
36.549
  0
VERTEX
  8
LAYER_7
 10
163.2906
 20
36.549
  0
VERTEX
  8
LAYER_7
 10
163.2906
 20
36.4557
  0
VERTEX
  8
LAYER_7
 10
162.79
 20
36.4557
  0
SEQEND
  0
ENDBLK
  0
BLOCK
  8
LAYER_7
  2
AIGNBL0703001C
 70
64
 10
0
 20
0
 30
0
  3
AIGNBL0703001C
  0
POLYLINE
  8
LAYER_7
 40
0.05
 41
0.05
 66
1
 10
0
 20
0
 30
0
 70
1
  0
VERTEX
  8
LAYER_7
 10
164.0885
 20
36.5797
  0
VERTEX
  8
LAYER_7
 10
164.3707
 20
36.9969
  0
VERTEX
  8
LAYER_7
 10
164.4957
 20
36.9969
  0
VERTEX
  8
LAYER_7
 10
164.1533
 20
36.5053
  0
VERTEX
  8
LAYER_7
 10
164.5326
 20
35.9637
  0
VERTEX
  8
LAYER_7
 10
164.4013
 20
35.9637
  0
VERTEX
  8
LAYER_7
 10
164.0858
 20
36.4295
  0
VERTEX
  8
LAYER_7
 10
163.7722
 20
35.9637
  0
VERTEX
  8
LAYER_7
 10
163.6407
 20
35.9637
  0
VERTEX
  8
LAYER_7
 10
164.0203
 20
36.5066
  0
VERTEX
  8
LAYER_7
 10
163.6744
 20
36.9969
  0
VERTEX
  8
LAYER_7
 10
163.806
 20
36.9969
  0
SEQEND
  0
ENDBLK
  0
BLOCK
  8
LAYER_7
  2
AIGNBL0703001D
 70
64
 10
0
 20
0
 30
0
  3
AIGNBL0703001D
  0
POLYLINE
  8
LAYER_7
 40
0.05
 41
0.05
 66
1
 10
0
 20
0
 30
0
 70
1
  0
VERTEX
  8
LAYER_7
 10
164.8988
 20
36.9969
  0
VERTEX
  8
LAYER_7
 10
165.1909
 20
36.9969
  0
VERTEX
  8
LAYER_7
 10
165.3339
 20
36.9804
 42
-0.104160294
  0
VERTEX
  8
LAYER_7
 10
165.4438
 20
36.929
 42
-0.1209616443
  0
VERTEX
  8
LAYER_7
 10
165.5148
 20
36.8429
 42
-0.1032545831
  0
VERTEX
  8
LAYER_7
 10
165.5392
 20
36.7213
 42
-0.1239274235
  0
VERTEX
  8
LAYER_7
 10
165.5141
 20
36.5993
 42
-0.1163667494
  0
VERTEX
  8
LAYER_7
 10
165.4424
 20
36.5132
 42
-0.08715194998
  0
VERTEX
  8
LAYER_7
 10
165.3315
 20
36.4615
 42
-0.06075348808
  0
VERTEX
  8
LAYER_7
 10
165.1878
 20
36.444
  0
VERTEX
  8
LAYER_7
 10
165.0039
 20
36.444
  0
VERTEX
  8
LAYER_7
 10
165.0039
 20
35.9637
  0
VERTEX
  8
LAYER_7
 10
164.8988
 20
35.9637
  0
SEQEND
  0
POLYLINE
  8
LAYER_7
 40
0.05
 41
0.05
 66
1
 10
0
 20
0
 30
0
 70
1
  0
VERTEX
  8
LAYER_7
 10
165.0039
 20
36.5328
  0
VERTEX
  8
LAYER_7
 10
165.1816
 20
36.5328
 42
0.1694225951
  0
VERTEX
  8
LAYER_7
 10
165.3701
 20
36.581
 42
0.2442570363
  0
VERTEX
  8
LAYER_7
 10
165.4345
 20
36.7213
 42
0.2590967024
  0
VERTEX
  8
LAYER_7
 10
165.368
 20
36.8622
 42
0.143072224
  0
VERTEX
  8
LAYER_7
 10
165.1816
 20
36.9066
  0
VERTEX
  8
LAYER_7
 10
165.0039
 20
36.9066
  0
SEQEND
  0
ENDBLK
  0
BLOCK
  8
LAYER_7
  2
AIGNBL0703001E
 70
64
 10
0
 20
0
 30
0
  3
AIGNBL0703001E
  0
POLYLINE
  8
LAYER_7
 40
0.05
 41
0.05
 66
1
 10
0
 20
0
 30
0
 70
1
  0
VERTEX
  8
LAYER_7
 10
166.0515
 20
36.0574
  0
VERTEX
  8
LAYER_7
 10
166.6048
 20
36.0574
  0
VERTEX
  8
LAYER_7
 10
166.6048
 20
35.9637
  0
VERTEX
  8
LAYER_7
 10
165.9465
 20
35.9637
  0
VERTEX
  8
LAYER_7
 10
165.9465
 20
36.9969
  0
VERTEX
  8
LAYER_7
 10
166.5872
 20
36.9969
  0
VERTEX
  8
LAYER_7
 10
166.5872
 20
36.9035
  0
VERTEX
  8
LAYER_7
 10
166.0515
 20
36.9035
  0
VERTEX
  8
LAYER_7
 10
166.0515
 20
36.549
  0
VERTEX
  8
LAYER_7
 10
166.5521
 20
36.549
  0
VERTEX
  8
LAYER_7
 10
166.5521
 20
36.4557
  0
VERTEX
  8
LAYER_7
 10
166.0515
 20
36.4557
  0
SEQEND
  0
ENDBLK
  0
BLOCK
  8
LAYER_7
  2
AIGNBL0703001F
 70
64
 10
0
 20
0
 30
0
  3
AIGNBL0703001F
  0
POLYLINE
  8
LAYER_7
 40
0.05
 41
0.05
 66
1
 10
0
 20
0
 30
0
 70
1
  0
VERTEX
  8
LAYER_7
 10
167.1168
 20
35.9637
  0
VERTEX
  8
LAYER_7
 10
167.0117
 20
35.9637
  0
VERTEX
  8
LAYER_7
 10
167.0117
 20
36.9969
  0
VERTEX
  8
LAYER_7
 10
167.3155
 20
36.9969
  0
VERTEX
  8
LAYER_7
 10
167.4561
 20
36.9824
 42
-0.1039428931
  0
VERTEX
  8
LAYER_7
 10
167.5687
 20
36.9349
 42
-0.1259973384
  0
VERTEX
  8
LAYER_7
 10
167.6425
 20
36.8494
 42
-0.1064650891
  0
VERTEX
  8
LAYER_7
 10
167.6683
 20
36.7213
  0
VERTEX
  8
LAYER_7
 10
167.6483
 20
36.6176
  0
VERTEX
  8
LAYER_7
 10
167.5929
 20
36.5366
  0
VERTEX
  8
LAYER_7
 10
167.5095
 20
36.4818
  0
VERTEX
  8
LAYER_7
 10
167.4044
 20
36.4557
  0
VERTEX
  8
LAYER_7
 10
167.7066
 20
35.9637
  0
VERTEX
  8
LAYER_7
 10
167.578
 20
35.9637
  0
VERTEX
  8
LAYER_7
 10
167.2921
 20
36.4467
  0
VERTEX
  8
LAYER_7
 10
167.1168
 20
36.4467
  0
SEQEND
  0
POLYLINE
  8
LAYER_7
 40
0.05
 41
0.05
 66
1
 10
0
 20
0
 30
0
 70
1
  0
VERTEX
  8
LAYER_7
 10
167.1168
 20
36.5373
  0
VERTEX
  8
LAYER_7
 10
167.2994
 20
36.5373
 42
0.1542400453
  0
VERTEX
  8
LAYER_7
 10
167.495
 20
36.5831
 42
0.2583775622
  0
VERTEX
  8
LAYER_7
 10
167.5636
 20
36.7213
  0
VERTEX
  8
LAYER_7
 10
167.5446
 20
36.8071
  0
VERTEX
  8
LAYER_7
 10
167.4919
 20
36.8643
  0
VERTEX
  8
LAYER_7
 10
167.4103
 20
36.8963
  0
VERTEX
  8
LAYER_7
 10
167.3038
 20
36.9066
  0
VERTEX
  8
LAYER_7
 10
167.1168
 20
36.9066
  0
SEQEND
  0
ENDBLK
  0
BLOCK
  8
LAYER_7
  2
AIGNBL07030020
 70
64
 10
0
 20
0
 30
0
  3
AIGNBL07030020
  0
POLYLINE
  8
LAYER_7
 40
0.05
 41
0.05
 66
1
 10
0
 20
0
 30
0
 70
1
  0
VERTEX
  8
LAYER_7
 10
168.1923
 20
35.9637
  0
VERTEX
  8
LAYER_7
 10
168.0876
 20
35.9637
  0
VERTEX
  8
LAYER_7
 10
168.0876
 20
36.9969
  0
VERTEX
  8
LAYER_7
 10
168.1923
 20
36.9969
  0
SEQEND
  0
ENDBLK
  0
BLOCK
  8
LAYER_7
  2
AIGNBL07030021
 70
64
 10
0
 20
0
 30
0
  3
AIGNBL07030021
  0
POLYLINE
  8
LAYER_7
 40
0.05
 41
0.05
 66
1
 10
0
 20
0
 30
0
 70
1
  0
VERTEX
  8
LAYER_7
 10
168.7732
 20
36.0574
  0
VERTEX
  8
LAYER_7
 10
169.3261
 20
36.0574
  0
VERTEX
  8
LAYER_7
 10
169.3261
 20
35.9637
  0
VERTEX
  8
LAYER_7
 10
168.6681
 20
35.9637
  0
VERTEX
  8
LAYER_7
 10
168.6681
 20
36.9969
  0
VERTEX
  8
LAYER_7
 10
169.3089
 20
36.9969
  0
VERTEX
  8
LAYER_7
 10
169.3089
 20
36.9035
  0
VERTEX
  8
LAYER_7
 10
168.7732
 20
36.9035
  0
VERTEX
  8
LAYER_7
 10
168.7732
 20
36.549
  0
VERTEX
  8
LAYER_7
 10
169.2737
 20
36.549
  0
VERTEX
  8
LAYER_7
 10
169.2737
 20
36.4557
  0
VERTEX
  8
LAYER_7
 10
168.7732
 20
36.4557
  0
SEQEND
  0
ENDBLK
  0
BLOCK
  8
LAYER_7
  2
AIGNBL07030022
 70
64
 10
0
 20
0
 30
0
  3
AIGNBL07030022
  0
POLYLINE
  8
LAYER_7
 40
0.05
 41
0.05
 66
1
 10
0
 20
0
 30
0
 70
1
  0
VERTEX
  8
LAYER_7
 10
170.4661
 20
36.117
  0
VERTEX
  8
LAYER_7
 10
170.4689
 20
36.117
  0
VERTEX
  8
LAYER_7
 10
170.4689
 20
36.9969
  0
VERTEX
  8
LAYER_7
 10
170.5739
 20
36.9969
  0
VERTEX
  8
LAYER_7
 10
170.5739
 20
35.9637
  0
VERTEX
  8
LAYER_7
 10
170.4426
 20
35.9637
  0
VERTEX
  8
LAYER_7
 10
169.8415
 20
36.8525
  0
VERTEX
  8
LAYER_7
 10
169.8384
 20
36.8525
  0
VERTEX
  8
LAYER_7
 10
169.8384
 20
35.9637
  0
VERTEX
  8
LAYER_7
 10
169.7333
 20
35.9637
  0
VERTEX
  8
LAYER_7
 10
169.7333
 20
36.9969
  0
VERTEX
  8
LAYER_7
 10
169.8649
 20
36.9969
  0
SEQEND
  0
ENDBLK
  0
BLOCK
  8
LAYER_7
  2
AIGNBL07030023
 70
64
 10
0
 20
0
 30
0
  3
AIGNBL07030023
  0
POLYLINE
  8
LAYER_7
 40
0.05
 41
0.05
 66
1
 10
0
 20
0
 30
0
 70
1
  0
VERTEX
  8
LAYER_7
 10
171.9196
 20
36.1315
  0
VERTEX
  8
LAYER_7
 10
171.8558
 20
36.0571
  0
VERTEX
  8
LAYER_7
 10
171.7697
 20
35.9954
  0
VERTEX
  8
LAYER_7
 10
171.6615
 20
35.953
  0
VERTEX
  8
LAYER_7
 10
171.5327
 20
35.9375
 42
-0.0997799169
  0
VERTEX
  8
LAYER_7
 10
171.3167
 20
35.9785
 42
-0.102530266
  0
VERTEX
  8
LAYER_7
 10
171.1461
 20
36.0915
 42
-0.09968794278
  0
VERTEX
  8
LAYER_7
 10
171.0345
 20
36.2631
 42
-0.09630702324
  0
VERTEX
  8
LAYER_7
 10
170.9942
 20
36.4805
 42
-0.1018981748
  0
VERTEX
  8
LAYER_7
 10
171.0352
 20
36.6978
 42
-0.09989904409
  0
VERTEX
  8
LAYER_7
 10
171.1479
 20
36.8694
 42
-0.09694965588
  0
VERTEX
  8
LAYER_7
 10
171.3187
 20
36.9824
 42
-0.09744116728
  0
VERTEX
  8
LAYER_7
 10
171.5327
 20
37.0234
  0
VERTEX
  8
LAYER_7
 10
171.6443
 20
37.0114
  0
VERTEX
  8
LAYER_7
 10
171.7473
 20
36.9779
  0
VERTEX
  8
LAYER_7
 10
171.8348
 20
36.9263
  0
VERTEX
  8
LAYER_7
 10
171.9006
 20
36.8584
  0
VERTEX
  8
LAYER_7
 10
171.8131
 20
36.794
  0
VERTEX
  8
LAYER_7
 10
171.7697
 20
36.8439
  0
VERTEX
  8
LAYER_7
 10
171.7063
 20
36.8877
  0
VERTEX
  8
LAYER_7
 10
171.6267
 20
36.9183
  0
VERTEX
  8
LAYER_7
 10
171.5341
 20
36.93
 42
0.1106055686
  0
VERTEX
  8
LAYER_7
 10
171.3539
 20
36.8935
 42
0.1037389517
  0
VERTEX
  8
LAYER_7
 10
171.2188
 20
36.7954
 42
0.09534605581
  0
VERTEX
  8
LAYER_7
 10
171.1341
 20
36.652
 42
0.08447361069
  0
VERTEX
  8
LAYER_7
 10
171.1052
 20
36.4805
 42
0.09038739564
  0
VERTEX
  8
LAYER_7
 10
171.1351
 20
36.3089
 42
0.09795352863
  0
VERTEX
  8
LAYER_7
 10
171.2205
 20
36.1656
 42
0.1034747097
  0
VERTEX
  8
LAYER_7
 10
171.3556
 20
36.0674
 42
0.1064777274
  0
VERTEX
  8
LAYER_7
 10
171.5341
 20
36.0309
 42
0.1092499226
  0
VERTEX
  8
LAYER_7
 10
171.7032
 20
36.0674
 42
0.1370031249
  0
VERTEX
  8
LAYER_7
 10
171.8376
 20
36.1842
  0
SEQEND
  0
ENDBLK
  0
BLOCK
  8
LAYER_7
  2
AIGNBL07030024
 70
64
 10
0
 20
0
 30
0
  3
AIGNBL07030024
  0
POLYLINE
  8
LAYER_7
 40
0.05
 41
0.05
 66
1
 10
0
 20
0
 30
0
 70
1
  0
VERTEX
  8
LAYER_7
 10
172.4067
 20
36.0574
  0
VERTEX
  8
LAYER_7
 10
172.96
 20
36.0574
  0
VERTEX
  8
LAYER_7
 10
172.96
 20
35.9637
  0
VERTEX
  8
LAYER_7
 10
172.3016
 20
35.9637
  0
VERTEX
  8
LAYER_7
 10
172.3016
 20
36.9969
  0
VERTEX
  8
LAYER_7
 10
172.9424
 20
36.9969
  0
VERTEX
  8
LAYER_7
 10
172.9424
 20
36.9035
  0
VERTEX
  8
LAYER_7
 10
172.4067
 20
36.9035
  0
VERTEX
  8
LAYER_7
 10
172.4067
 20
36.549
  0
VERTEX
  8
LAYER_7
 10
172.9073
 20
36.549
  0
VERTEX
  8
LAYER_7
 10
172.9073
 20
36.4557
  0
VERTEX
  8
LAYER_7
 10
172.4067
 20
36.4557
  0
SEQEND
  0
ENDBLK
  0
BLOCK
  8
LAYER_5
  2
AIGNBL05020003
 70
64
 10
0
 20
0
 30
0
  3
AIGNBL05020003
  0
POLYLINE
  8
LAYER_5
 40
0.0882
 41
0.0882
 62
1
 66
1
 10
0
 20
0
 30
0
  0
VERTEX
  8
LAYER_5
 10
81.2917
 20
149.3475
  0
VERTEX
  8
LAYER_5
 10
81.2917
 20
149.1711
  0
VERTEX
  8
LAYER_5
 10
81.1153
 20
149.1711
  0
SEQEND
  0
POLYLINE
  8
LAYER_5
  6
AIGENLINE001
 40
0.0882
 41
0.0882
 62
1
 66
1
 10
0
 20
0
 30
0
 70
128
  0
VERTEX
  8
LAYER_5
 10
80.7654
 20
149.1711
  0
VERTEX
  8
LAYER_5
 10
67.6432
 20
149.1711
  0
SEQEND
  0
POLYLINE
  8
LAYER_5
 40
0.0882
 41
0.0882
 62
1
 66
1
 10
0
 20
0
 30
0
  0
VERTEX
  8
LAYER_5
 10
67.4682
 20
149.1711
  0
VERTEX
  8
LAYER_5
 10
67.2918
 20
149.1711
  0
VERTEX
  8
LAYER_5
 10
67.2918
 20
149.3475
  0
SEQEND
  0
POLYLINE
  8
LAYER_5
  6
AIGENLINE002
 40
0.0882
 41
0.0882
 62
1
 66
1
 10
0
 20
0
 30
0
 70
128
  0
VERTEX
  8
LAYER_5
 10
67.2918
 20
149.6963
  0
VERTEX
  8
LAYER_5
 10
67.2918
 20
178.8204
  0
SEQEND
  0
POLYLINE
  8
LAYER_5
 40
0.0882
 41
0.0882
 62
1
 66
1
 10
0
 20
0
 30
0
  0
VERTEX
  8
LAYER_5
 10
67.2918
 20
178.9947
  0
VERTEX
  8
LAYER_5
 10
67.2918
 20
179.1711
  0
VERTEX
  8
LAYER_5
 10
67.4682
 20
179.1711
  0
SEQEND
  0
POLYLINE
  8
LAYER_5
  6
AIGENLINE001
 40
0.0882
 41
0.0882
 62
1
 66
1
 10
0
 20
0
 30
0
 70
128
  0
VERTEX
  8
LAYER_5
 10
67.8181
 20
179.1711
  0
VERTEX
  8
LAYER_5
 10
80.9403
 20
179.1711
  0
SEQEND
  0
POLYLINE
  8
LAYER_5
 40
0.0882
 41
0.0882
 62
1
 66
1
 10
0
 20
0
 30
0
  0
VERTEX
  8
LAYER_5
 10
81.1153
 20
179.1711
  0
VERTEX
  8
LAYER_5
 10
81.2917
 20
179.1711
  0
VERTEX
  8
LAYER_5
 10
81.2917
 20
178.9947
  0
SEQEND
  0
POLYLINE
  8
LAYER_5
  6
AIGENLINE002
 40
0.0882
 41
0.0882
 62
1
 66
1
 10
0
 20
0
 30
0
 70
128
  0
VERTEX
  8
LAYER_5
 10
81.2917
 20
178.6459
  0
VERTEX
  8
LAYER_5
 10
81.2917
 20
149.5218
  0
SEQEND
  0
ENDBLK
  0
BLOCK
  8
LAYER_5
  2
AIGNBL05020005
 70
64
 10
0
 20
0
 30
0
  3
AIGNBL05020005
  0
POLYLINE
  8
LAYER_5
 40
0.1693
 41
0.1693
 66
1
 10
0
 20
0
 30
0
  0
VERTEX
  8
LAYER_5
 10
85.8387
 20
179.1663
  0
VERTEX
  8
LAYER_5
 10
85.9365
 20
178.8979
  0
SEQEND
  0
POLYLINE
  8
LAYER_5
  6
AIGENLINE003
 40
0.1693
 41
0.1693
 66
1
 10
0
 20
0
 30
0
 70
128
  0
VERTEX
  8
LAYER_5
 10
86.1305
 20
178.3595
 42
-0.01632687635
  0
VERTEX
  8
LAYER_5
 10
87.8733
 20
172.9128
 42
-0.01512987506
  0
VERTEX
  8
LAYER_5
 10
89.109
 20
167.9998
 42
-0.01526713631
  0
VERTEX
  8
LAYER_5
 10
90.0409
 20
163.0322
 42
-0.01505700216
  0
VERTEX
  8
LAYER_5
 10
90.6741
 20
157.9842
 42
-0.01175695648
  0
VERTEX
  8
LAYER_5
 10
90.9708
 20
153.8308
 42
-0.3734799862
  0
VERTEX
  8
LAYER_5
 10
86.1739
 20
147.7312
 42
-0.01848324707
  0
VERTEX
  8
LAYER_5
 10
81.3082
 20
146.9807
 42
-0.01801636092
  0
VERTEX
  8
LAYER_5
 10
76.8706
 20
146.6275
 42
-0.01843027104
  0
VERTEX
  8
LAYER_5
 10
72.4519
 20
146.6004
 42
-0.01825159384
  0
VERTEX
  8
LAYER_5
 10
68.0198
 20
146.8992
 42
-0.01750442739
  0
VERTEX
  8
LAYER_5
 10
63.5426
 20
147.5241
 42
-0.004216721049
  0
VERTEX
  8
LAYER_5
 10
62.4124
 20
147.7312
 42
-0.3735083456
  0
VERTEX
  8
LAYER_5
 10
57.6127
 20
153.8308
 42
-0.01581764077
  0
VERTEX
  8
LAYER_5
 10
58.0582
 20
159.4139
 42
-0.01524403109
  0
VERTEX
  8
LAYER_5
 10
58.7848
 20
164.4925
 42
-0.0231574846
  0
VERTEX
  8
LAYER_5
 10
60.4521
 20
171.979
 42
-0.01507481712
  0
VERTEX
  8
LAYER_5
 10
61.9564
 20
176.9211
 42
-0.005038562045
  0
VERTEX
  8
LAYER_5
 10
62.5516
 20
178.6285
  0
SEQEND
  0
POLYLINE
  8
LAYER_5
 40
0.1693
 41
0.1693
 66
1
 10
0
 20
0
 30
0
  0
VERTEX
  8
LAYER_5
 10
62.6487
 20
178.8979
  0
VERTEX
  8
LAYER_5
 10
62.7469
 20
179.1663
  0
SEQEND
  0
ENDBLK
  0
BLOCK
  8
LAYER_5
  2
AIGNBL05020007
 70
64
 10
0
 20
0
 30
0
  3
AIGNBL05020007
  0
POLYLINE
  8
LAYER_5
 40
0.1305
 41
0.1305
 66
1
 10
0
 20
0
 30
0
  0
VERTEX
  8
LAYER_5
 10
70.8866
 20
177.2712
  0
VERTEX
  8
LAYER_5
 10
70.8866
 20
177.082
  0
VERTEX
  8
LAYER_5
 10
70.6975
 20
177.082
  0
SEQEND
  0
POLYLINE
  8
LAYER_5
  6
AIGENLINE004
 40
0.1305
 41
0.1305
 66
1
 10
0
 20
0
 30
0
 70
128
  0
VERTEX
  8
LAYER_5
 10
70.3082
 20
177.082
  0
VERTEX
  8
LAYER_5
 10
67.3892
 20
177.082
  0
SEQEND
  0
POLYLINE
  8
LAYER_5
 40
0.1305
 41
0.1305
 66
1
 10
0
 20
0
 30
0
  0
VERTEX
  8
LAYER_5
 10
67.1945
 20
177.082
  0
VERTEX
  8
LAYER_5
 10
67.0054
 20
177.082
  0
VERTEX
  8
LAYER_5
 10
67.0054
 20
177.2712
  0
SEQEND
  0
POLYLINE
  8
LAYER_5
  6
AIGENLINE005
 40
0.1305
 41
0.1305
 66
1
 10
0
 20
0
 30
0
 70
128
  0
VERTEX
  8
LAYER_5
 10
67.0054
 20
177.6877
  0
VERTEX
  8
LAYER_5
 10
67.0054
 20
178.313
  0
SEQEND
  0
POLYLINE
  8
LAYER_5
 40
0.1305
 41
0.1305
 66
1
 10
0
 20
0
 30
0
  0
VERTEX
  8
LAYER_5
 10
67.0054
 20
178.5214
  0
VERTEX
  8
LAYER_5
 10
67.0054
 20
178.7106
  0
VERTEX
  8
LAYER_5
 10
67.1945
 20
178.7106
  0
SEQEND
  0
POLYLINE
  8
LAYER_5
  6
AIGENLINE004
 40
0.1305
 41
0.1305
 66
1
 10
0
 20
0
 30
0
 70
128
  0
VERTEX
  8
LAYER_5
 10
67.5838
 20
178.7106
  0
VERTEX
  8
LAYER_5
 10
70.5028
 20
178.7106
  0
SEQEND
  0
POLYLINE
  8
LAYER_5
 40
0.1305
 41
0.1305
 66
1
 10
0
 20
0
 30
0
  0
VERTEX
  8
LAYER_5
 10
70.6975
 20
178.7106
  0
VERTEX
  8
LAYER_5
 10
70.8866
 20
178.7106
  0
VERTEX
  8
LAYER_5
 10
70.8866
 20
178.5214
  0
SEQEND
  0
POLYLINE
  8
LAYER_5
  6
AIGENLINE005
 40
0.1305
 41
0.1305
 66
1
 10
0
 20
0
 30
0
 70
128
  0
VERTEX
  8
LAYER_5
 10
70.8866
 20
178.1045
  0
VERTEX
  8
LAYER_5
 10
70.8866
 20
177.4796
  0
SEQEND
  0
ENDBLK
  0
BLOCK
  8
LAYER_5
  2
AIGNBL05020009
 70
64
 10
0
 20
0
 30
0
  3
AIGNBL05020009
  0
POLYLINE
  8
LAYER_5
 40
0.1305
 41
0.1305
 66
1
 10
0
 20
0
 30
0
  0
VERTEX
  8
LAYER_5
 10
81.5792
 20
177.2712
  0
VERTEX
  8
LAYER_5
 10
81.5792
 20
177.082
  0
VERTEX
  8
LAYER_5
 10
81.39
 20
177.082
  0
SEQEND
  0
POLYLINE
  8
LAYER_5
  6
AIGENLINE006
 40
0.1305
 41
0.1305
 66
1
 10
0
 20
0
 30
0
 70
128
  0
VERTEX
  8
LAYER_5
 10
81.0007
 20
177.082
  0
VERTEX
  8
LAYER_5
 10
78.0807
 20
177.082
  0
SEQEND
  0
POLYLINE
  8
LAYER_5
 40
0.1305
 41
0.1305
 66
1
 10
0
 20
0
 30
0
  0
VERTEX
  8
LAYER_5
 10
77.886
 20
177.082
  0
VERTEX
  8
LAYER_5
 10
77.6969
 20
177.082
  0
VERTEX
  8
LAYER_5
 10
77.6969
 20
177.2712
  0
SEQEND
  0
POLYLINE
  8
LAYER_5
  6
AIGENLINE005
 40
0.1305
 41
0.1305
 66
1
 10
0
 20
0
 30
0
 70
128
  0
VERTEX
  8
LAYER_5
 10
77.6969
 20
177.6877
  0
VERTEX
  8
LAYER_5
 10
77.6969
 20
178.313
  0
SEQEND
  0
POLYLINE
  8
LAYER_5
 40
0.1305
 41
0.1305
 66
1
 10
0
 20
0
 30
0
  0
VERTEX
  8
LAYER_5
 10
77.6969
 20
178.5214
  0
VERTEX
  8
LAYER_5
 10
77.6969
 20
178.7106
  0
VERTEX
  8
LAYER_5
 10
77.886
 20
178.7106
  0
SEQEND
  0
POLYLINE
  8
LAYER_5
  6
AIGENLINE006
 40
0.1305
 41
0.1305
 66
1
 10
0
 20
0
 30
0
 70
128
  0
VERTEX
  8
LAYER_5
 10
78.2753
 20
178.7106
  0
VERTEX
  8
LAYER_5
 10
81.1954
 20
178.7106
  0
SEQEND
  0
POLYLINE
  8
LAYER_5
 40
0.1305
 41
0.1305
 66
1
 10
0
 20
0
 30
0
  0
VERTEX
  8
LAYER_5
 10
81.39
 20
178.7106
  0
VERTEX
  8
LAYER_5
 10
81.5792
 20
178.7106
  0
VERTEX
  8
LAYER_5
 10
81.5792
 20
178.5214
  0
SEQEND
  0
POLYLINE
  8
LAYER_5
  6
AIGENLINE005
 40
0.1305
 41
0.1305
 66
1
 10
0
 20
0
 30
0
 70
128
  0
VERTEX
  8
LAYER_5
 10
81.5792
 20
178.1045
  0
VERTEX
  8
LAYER_5
 10
81.5792
 20
177.4796
  0
SEQEND
  0
ENDBLK
  0
BLOCK
  8
LAYER_5
  2
AIGNBL0502000E
 70
64
 10
0
 20
0
 30
0
  3
AIGNBL0502000E
  0
INSERT
  8
LAYER_5
  2
AIGNBL0503000F
 10
0
 20
0
 30
0
  0
ENDBLK
  0
BLOCK
  8
LAYER_5
  2
AIGNBL05020012
 70
64
 10
0
 20
0
 30
0
  3
AIGNBL05020012
  0
INSERT
  8
LAYER_5
  2
AIGNBL05030013
 10
0
 20
0
 30
0
  0
ENDBLK
  0
BLOCK
  8
LAYER_7
  2
AIGNBL07020004
 70
64
 10
0
 20
0
 30
0
  3
AIGNBL07020004
  0
INSERT
  8
LAYER_7
  2
AIGNBL07030005
 10
0
 20
0
 30
0
  0
ENDBLK
  0
BLOCK
  8
LAYER_7
  2
AIGNBL0702000D
 70
64
 10
0
 20
0
 30
0
  3
AIGNBL0702000D
  0
INSERT
  8
LAYER_7
  2
AIGNBL0703000E
 10
0
 20
0
 30
0
  0
INSERT
  8
LAYER_7
  2
AIGNBL0703000F
 10
0
 20
0
 30
0
  0
INSERT
  8
LAYER_7
  2
AIGNBL07030010
 10
0
 20
0
 30
0
  0
INSERT
  8
LAYER_7
  2
AIGNBL07030011
 10
0
 20
0
 30
0
  0
INSERT
  8
LAYER_7
  2
AIGNBL07030012
 10
0
 20
0
 30
0
  0
INSERT
  8
LAYER_7
  2
AIGNBL07030013
 10
0
 20
0
 30
0
  0
INSERT
  8
LAYER_7
  2
AIGNBL07030014
 10
0
 20
0
 30
0
  0
INSERT
  8
LAYER_7
  2
AIGNBL07030015
 10
0
 20
0
 30
0
  0
INSERT
  8
LAYER_7
  2
AIGNBL07030016
 10
0
 20
0
 30
0
  0
INSERT
  8
LAYER_7
  2
AIGNBL07030017
 10
0
 20
0
 30
0
  0
INSERT
  8
LAYER_7
  2
AIGNBL07030018
 10
0
 20
0
 30
0
  0
INSERT
  8
LAYER_7
  2
AIGNBL07030019
 10
0
 20
0
 30
0
  0
INSERT
  8
LAYER_7
  2
AIGNBL0703001A
 10
0
 20
0
 30
0
  0
INSERT
  8
LAYER_7
  2
AIGNBL0703001B
 10
0
 20
0
 30
0
  0
INSERT
  8
LAYER_7
  2
AIGNBL0703001C
 10
0
 20
0
 30
0
  0
INSERT
  8
LAYER_7
  2
AIGNBL0703001D
 10
0
 20
0
 30
0
  0
INSERT
  8
LAYER_7
  2
AIGNBL0703001E
 10
0
 20
0
 30
0
  0
INSERT
  8
LAYER_7
  2
AIGNBL0703001F
 10
0
 20
0
 30
0
  0
INSERT
  8
LAYER_7
  2
AIGNBL07030020
 10
0
 20
0
 30
0
  0
INSERT
  8
LAYER_7
  2
AIGNBL07030021
 10
0
 20
0
 30
0
  0
INSERT
  8
LAYER_7
  2
AIGNBL07030022
 10
0
 20
0
 30
0
  0
INSERT
  8
LAYER_7
  2
AIGNBL07030023
 10
0
 20
0
 30
0
  0
INSERT
  8
LAYER_7
  2
AIGNBL07030024
 10
0
 20
0
 30
0
  0
ENDBLK
  0
BLOCK
  8
LAYER_7
  2
AIGNBL07020026
 70
64
 10
0
 20
0
 30
0
  3
AIGNBL07020026
  0
POLYLINE
  8
LAYER_7
 40
0.05
 41
0.05
 66
1
 10
0
 20
0
 30
0
  0
VERTEX
  8
LAYER_7
 10
-7.0151
 20
219.4629
 42
0.1036295037
  0
VERTEX
  8
LAYER_7
 10
-7.1824
 20
220.2981
 42
0.2712377295
  0
VERTEX
  8
LAYER_7
 10
-8.5808
 20
221.2683
 42
0.0303823279
  0
VERTEX
  8
LAYER_7
 10
-8.8902
 20
221.2869
 42
0.07624666781
  0
VERTEX
  8
LAYER_7
 10
-10.0755
 20
221.1157
 42
0.09017583051
  0
VERTEX
  8
LAYER_7
 10
-10.8588
 20
220.699
 42
0.02803056833
  0
VERTEX
  8
LAYER_7
 10
-11.0228
 20
220.5491
  0
VERTEX
  8
LAYER_7
 10
-11.077
 20
220.4928
  0
VERTEX
  8
LAYER_7
 10
-10.5515
 20
219.8736
  0
VERTEX
  8
LAYER_7
 10
-10.486
 20
219.9328
 42
-0.1028805994
  0
VERTEX
  8
LAYER_7
 10
-9.7273
 20
220.3798
 42
-0.08113187333
  0
VERTEX
  8
LAYER_7
 10
-9.0479
 20
220.4863
 42
-0.1265582199
  0
VERTEX
  8
LAYER_7
 10
-8.3271
 20
220.3251
 42
-0.1601174183
  0
VERTEX
  8
LAYER_7
 10
-7.989
 20
219.9367
 42
-0.1111761681
  0
VERTEX
  8
LAYER_7
 10
-7.8786
 20
219.3074
  0
VERTEX
  8
LAYER_7
 10
-7.8786
 20
219.2664
  0
VERTEX
  8
LAYER_7
 10
-8.1378
 20
219.2664
 42
0.06077576534
  0
VERTEX
  8
LAYER_7
 10
-9.7982
 20
219.1093
 42
0.08580258361
  0
VERTEX
  8
LAYER_7
 10
-10.637
 20
218.7454
 42
0.1116389774
  0
VERTEX
  8
LAYER_7
 10
-11.084
 20
218.2559
 42
0.1204112073
  0
VERTEX
  8
LAYER_7
 10
-11.2651
 20
217.5692
 42
0.01082752958
  0
VERTEX
  8
LAYER_7
 10
-11.2668
 20
217.4871
 42
0.1262361208
  0
VERTEX
  8
LAYER_7
 10
-11.0913
 20
216.7743
 42
0.1210090978
  0
VERTEX
  8
LAYER_7
 10
-10.6379
 20
216.2914
 42
0.1012970948
  0
VERTEX
  8
LAYER_7
 10
-9.9371
 20
216.0111
 42
0.04827473988
  0
VERTEX
  8
LAYER_7
 10
-9.4954
 20
215.9685
 42
0.09684375777
  0
VERTEX
  8
LAYER_7
 10
-8.5823
 20
216.1314
 42
0.1382606358
  0
VERTEX
  8
LAYER_7
 10
-7.831
 20
216.7347
 42
-0.01012269081
  0
VERTEX
  8
LAYER_7
 10
-7.831
 20
216.0938
  0
VERTEX
  8
LAYER_7
 10
-7.0151
 20
216.0938
  0
SEQEND
  0
POLYLINE
  8
LAYER_7
 40
0.05
 41
0.05
 66
1
 10
0
 20
0
 30
0
 70
1
  0
VERTEX
  8
LAYER_7
 10
-7.8786
 20
218.2604
 42
-0.1095386536
  0
VERTEX
  8
LAYER_7
 10
-8.0512
 20
217.4437
 42
-0.1199361921
  0
VERTEX
  8
LAYER_7
 10
-8.4534
 20
216.9519
 42
-0.1209196473
  0
VERTEX
  8
LAYER_7
 10
-9.0539
 20
216.7055
 42
-0.04108384777
  0
VERTEX
  8
LAYER_7
 10
-9.3645
 20
216.6807
 42
-0.1210384521
  0
VERTEX
  8
LAYER_7
 10
-10.0836
 20
216.8493
 42
-0.1552969123
  0
VERTEX
  8
LAYER_7
 10
-10.4405
 20
217.2222
 42
-0.1101808209
  0
VERTEX
  8
LAYER_7
 10
-10.5141
 20
217.581
 42
-0.2541083385
  0
VERTEX
  8
LAYER_7
 10
-10.1607
 20
218.2336
 42
-0.05632516065
  0
VERTEX
  8
LAYER_7
 10
-9.8761
 20
218.386
 42
-0.04424231247
  0
VERTEX
  8
LAYER_7
 10
-9.4522
 20
218.5131
 42
-0.03214641787
  0
VERTEX
  8
LAYER_7
 10
-8.8857
 20
218.5932
 42
-0.02048965766
  0
VERTEX
  8
LAYER_7
 10
-8.2341
 20
218.6168
  0
VERTEX
  8
LAYER_7
 10
-7.8786
 20
218.6168
  0
SEQEND
  0
ENDBLK
  0
BLOCK
  8
LAYER_7
  2
AIGNBL07020027
 70
64
 10
0
 20
0
 30
0
  3
AIGNBL07020027
  0
POLYLINE
  8
LAYER_7
 40
0.05
 41
0.05
 66
1
 10
0
 20
0
 30
0
  0
VERTEX
  8
LAYER_7
 10
-2.3816
 20
222.5694
 42
-0.3911816587
  0
VERTEX
  8
LAYER_7
 10
-1.7162
 20
221.9134
 42
-0.3962775652
  0
VERTEX
  8
LAYER_7
 10
-2.3816
 20
221.249
 42
-0.3917541856
  0
VERTEX
  8
LAYER_7
 10
-3.0465
 20
221.9058
 42
-0.3962384604
  0
VERTEX
  8
LAYER_7
 10
-2.3816
 20
222.5694
  0
SEQEND
  0
POLYLINE
  8
LAYER_7
 40
0.05
 41
0.05
 66
1
 10
0
 20
0
 30
0
  0
VERTEX
  8
LAYER_7
 10
-2.3816
 20
221.3453
 42
0.4000887886
  0
VERTEX
  8
LAYER_7
 10
-1.8235
 20
221.9134
 42
0.3965824436
  0
VERTEX
  8
LAYER_7
 10
-2.3816
 20
222.4732
 42
0.3991350597
  0
VERTEX
  8
LAYER_7
 10
-2.9423
 20
221.9058
 42
0.3960577263
  0
VERTEX
  8
LAYER_7
 10
-2.3816
 20
221.3453
  0
SEQEND
  0
POLYLINE
  8
LAYER_7
 40
0.05
 41
0.05
 66
1
 10
0
 20
0
 30
0
 70
1
  0
VERTEX
  8
LAYER_7
 10
-2.6271
 20
222.2877
  0
VERTEX
  8
LAYER_7
 10
-2.3465
 20
222.2877
 42
-0.1689544217
  0
VERTEX
  8
LAYER_7
 10
-2.1506
 20
222.2398
 42
-0.2573750898
  0
VERTEX
  8
LAYER_7
 10
-2.0783
 20
222.067
 42
-0.4159594774
  0
VERTEX
  8
LAYER_7
 10
-2.2813
 20
221.8598
  0
VERTEX
  8
LAYER_7
 10
-2.06
 20
221.5215
  0
VERTEX
  8
LAYER_7
 10
-2.1757
 20
221.5215
  0
VERTEX
  8
LAYER_7
 10
-2.3844
 20
221.8504
  0
VERTEX
  8
LAYER_7
 10
-2.5215
 20
221.8504
  0
VERTEX
  8
LAYER_7
 10
-2.5215
 20
221.5215
  0
VERTEX
  8
LAYER_7
 10
-2.6271
 20
221.5215
  0
SEQEND
  0
POLYLINE
  8
LAYER_7
 40
0.05
 41
0.05
 66
1
 10
0
 20
0
 30
0
 70
1
  0
VERTEX
  8
LAYER_7
 10
-2.5215
 20
221.9473
  0
VERTEX
  8
LAYER_7
 10
-2.3906
 20
221.9473
 42
0.2474961449
  0
VERTEX
  8
LAYER_7
 10
-2.2112
 20
221.9902
 42
0.1843421729
  0
VERTEX
  8
LAYER_7
 10
-2.1847
 20
222.0724
 42
0.2728673912
  0
VERTEX
  8
LAYER_7
 10
-2.23
 20
222.1656
 42
0.14179533
  0
VERTEX
  8
LAYER_7
 10
-2.3563
 20
222.1913
  0
VERTEX
  8
LAYER_7
 10
-2.5215
 20
222.1913
  0
SEQEND
  0
ENDBLK
  0
BLOCK
  8
LAYER_7
  2
AIGNBL07020028
 70
64
 10
0
 20
0
 30
0
  3
AIGNBL07020028
  0
POLYLINE
  8
LAYER_7
 40
0.05
 41
0.05
 66
1
 10
0
 20
0
 30
0
  0
VERTEX
  8
LAYER_7
 10
-23.704
 20
214.1029
  0
VERTEX
  8
LAYER_7
 10
-23.4337
 20
214.1029
  0
VERTEX
  8
LAYER_7
 10
-22.6792
 20
212.3512
  0
VERTEX
  8
LAYER_7
 10
-23.0351
 20
212.3512
  0
VERTEX
  8
LAYER_7
 10
-23.1989
 20
212.7513
  0
VERTEX
  8
LAYER_7
 10
-23.9579
 20
212.7513
  0
VERTEX
  8
LAYER_7
 10
-24.116
 20
212.3512
  0
VERTEX
  8
LAYER_7
 10
-24.4648
 20
212.3512
  0
SEQEND
  0
POLYLINE
  8
LAYER_7
 40
0.05
 41
0.05
 66
1
 10
0
 20
0
 30
0
 70
1
  0
VERTEX
  8
LAYER_7
 10
-23.3081
 20
213.0189
  0
VERTEX
  8
LAYER_7
 10
-23.5767
 20
213.7308
  0
VERTEX
  8
LAYER_7
 10
-23.8523
 20
213.0189
  0
SEQEND
  0
ENDBLK
  0
BLOCK
  8
LAYER_7
  2
AIGNBL07020029
 70
64
 10
0
 20
0
 30
0
  3
AIGNBL07020029
  0
POLYLINE
  8
LAYER_7
 40
0.05
 41
0.05
 66
1
 10
0
 20
0
 30
0
  0
VERTEX
  8
LAYER_7
 10
-18.1673
 20
212.3512
  0
VERTEX
  8
LAYER_7
 10
-19.1856
 20
212.3512
 42
-0.1498985077
  0
VERTEX
  8
LAYER_7
 10
-19.7815
 20
212.5257
 42
-0.2523688634
  0
VERTEX
  8
LAYER_7
 10
-20.1395
 20
213.2635
 42
-0.4051360019
  0
VERTEX
  8
LAYER_7
 10
-19.2198
 20
214.1463
 42
-0.224501409
  0
VERTEX
  8
LAYER_7
 10
-18.4791
 20
213.7949
 42
-0.1669496671
  0
VERTEX
  8
LAYER_7
 10
-18.3009
 20
213.2635
 42
-0.175299756
  0
VERTEX
  8
LAYER_7
 10
-18.4675
 20
212.7739
 42
-0.08694350938
  0
VERTEX
  8
LAYER_7
 10
-18.6688
 20
212.6077
  0
VERTEX
  8
LAYER_7
 10
-18.6688
 20
212.603
  0
VERTEX
  8
LAYER_7
 10
-18.1673
 20
212.603
  0
SEQEND
  0
POLYLINE
  8
LAYER_7
 40
0.05
 41
0.05
 66
1
 10
0
 20
0
 30
0
  0
VERTEX
  8
LAYER_7
 10
-19.8145
 20
213.2559
 42
0.1875932054
  0
VERTEX
  8
LAYER_7
 10
-19.6465
 20
212.8098
 42
0.2073404857
  0
VERTEX
  8
LAYER_7
 10
-19.2224
 20
212.633
 42
0.4105620229
  0
VERTEX
  8
LAYER_7
 10
-18.6274
 20
213.2559
 42
0.1910634766
  0
VERTEX
  8
LAYER_7
 10
-18.7946
 20
213.6914
 42
0.2063538266
  0
VERTEX
  8
LAYER_7
 10
-19.2274
 20
213.8648
 42
0.4079661945
  0
VERTEX
  8
LAYER_7
 10
-19.8145
 20
213.2559
  0
SEQEND
  0
ENDBLK
  0
BLOCK
  8
LAYER_7
  2
AIGNBL0702002A
 70
64
 10
0
 20
0
 30
0
  3
AIGNBL0702002A
  0
POLYLINE
  8
LAYER_7
 40
0.05
 41
0.05
 66
1
 10
0
 20
0
 30
0
  0
VERTEX
  8
LAYER_7
 10
-14.8442
 20
214.1029
  0
VERTEX
  8
LAYER_7
 10
-14.5738
 20
214.1029
  0
VERTEX
  8
LAYER_7
 10
-13.8207
 20
212.3512
  0
VERTEX
  8
LAYER_7
 10
-14.1752
 20
212.3512
  0
VERTEX
  8
LAYER_7
 10
-14.3392
 20
212.7513
  0
VERTEX
  8
LAYER_7
 10
-15.0981
 20
212.7513
  0
VERTEX
  8
LAYER_7
 10
-15.2575
 20
212.3512
  0
VERTEX
  8
LAYER_7
 10
-15.6063
 20
212.3512
  0
SEQEND
  0
POLYLINE
  8
LAYER_7
 40
0.05
 41
0.05
 66
1
 10
0
 20
0
 30
0
 70
1
  0
VERTEX
  8
LAYER_7
 10
-14.4479
 20
213.0189
  0
VERTEX
  8
LAYER_7
 10
-14.7168
 20
213.7308
  0
VERTEX
  8
LAYER_7
 10
-14.9917
 20
213.0189
  0
SEQEND
  0
ENDBLK
  0
BLOCK
  8
LAYER_7
  2
AIGNBL0702002B
 70
64
 10
0
 20
0
 30
0
  3
AIGNBL0702002B
  0
POLYLINE
  8
LAYER_7
 40
0.05
 41
0.05
 66
1
 10
0
 20
0
 30
0
  0
VERTEX
  8
LAYER_7
 10
-10.3596
 20
214.1029
  0
VERTEX
  8
LAYER_7
 10
-9.7694
 20
214.1029
 42
-0.08664900819
  0
VERTEX
  8
LAYER_7
 10
-9.4428
 20
214.0546
 42
-0.2128687583
  0
VERTEX
  8
LAYER_7
 10
-9.1601
 20
213.8001
 42
-0.09485863917
  0
VERTEX
  8
LAYER_7
 10
-9.1245
 20
213.5956
 42
-0.2245415231
  0
VERTEX
  8
LAYER_7
 10
-9.2838
 20
213.2053
 42
-0.09365248342
  0
VERTEX
  8
LAYER_7
 10
-9.4539
 20
213.1196
 42
-0.07750467464
  0
VERTEX
  8
LAYER_7
 10
-9.8242
 20
213.076
  0
VERTEX
  8
LAYER_7
 10
-10.0473
 20
213.076
  0
VERTEX
  8
LAYER_7
 10
-10.0473
 20
212.3512
  0
VERTEX
  8
LAYER_7
 10
-10.3596
 20
212.3512
  0
SEQEND
  0
POLYLINE
  8
LAYER_7
 40
0.05
 41
0.05
 66
1
 10
0
 20
0
 30
0
 70
1
  0
VERTEX
  8
LAYER_7
 10
-9.8588
 20
213.3431
 42
0.1309894322
  0
VERTEX
  8
LAYER_7
 10
-9.5664
 20
213.3874
 42
0.3030880954
  0
VERTEX
  8
LAYER_7
 10
-9.4514
 20
213.5902
 42
0.3460368744
  0
VERTEX
  8
LAYER_7
 10
-9.6132
 20
213.8091
 42
0.07918236105
  0
VERTEX
  8
LAYER_7
 10
-9.8242
 20
213.8357
  0
VERTEX
  8
LAYER_7
 10
-10.0473
 20
213.8357
  0
VERTEX
  8
LAYER_7
 10
-10.0473
 20
213.3431
  0
SEQEND
  0
ENDBLK
  0
BLOCK
  8
LAYER_7
  2
AIGNBL0702002C
 70
64
 10
0
 20
0
 30
0
  3
AIGNBL0702002C
  0
POLYLINE
  8
LAYER_7
 40
0.05
 41
0.05
 66
1
 10
0
 20
0
 30
0
  0
VERTEX
  8
LAYER_7
 10
-8.092
 20
214.1029
  0
VERTEX
  8
LAYER_7
 10
-7.823
 20
214.1029
  0
VERTEX
  8
LAYER_7
 10
-7.0685
 20
212.3512
  0
VERTEX
  8
LAYER_7
 10
-7.4235
 20
212.3512
  0
VERTEX
  8
LAYER_7
 10
-7.5873
 20
212.7513
  0
VERTEX
  8
LAYER_7
 10
-8.3463
 20
212.7513
  0
VERTEX
  8
LAYER_7
 10
-8.5054
 20
212.3512
  0
VERTEX
  8
LAYER_7
 10
-8.8537
 20
212.3512
  0
SEQEND
  0
POLYLINE
  8
LAYER_7
 40
0.05
 41
0.05
 66
1
 10
0
 20
0
 30
0
 70
1
  0
VERTEX
  8
LAYER_7
 10
-7.6957
 20
213.0189
  0
VERTEX
  8
LAYER_7
 10
-7.9656
 20
213.7308
  0
VERTEX
  8
LAYER_7
 10
-8.2403
 20
213.0189
  0
SEQEND
  0
ENDBLK
  0
BLOCK
  8
LAYER_5
  2
AIGNBL05010002
 70
64
 10
0
 20
0
 30
0
  3
AIGNBL05010002
  0
INSERT
  8
LAYER_5
  2
AIGNBL05020003
 10
0
 20
0
 30
0
  0
ENDBLK
  0
BLOCK
  8
LAYER_5
  2
AIGNBL05010004
 70
64
 10
0
 20
0
 30
0
  3
AIGNBL05010004
  0
INSERT
  8
LAYER_5
  2
AIGNBL05020005
 10
0
 20
0
 30
0
  0
ENDBLK
  0
BLOCK
  8
LAYER_5
  2
AIGNBL05010006
 70
64
 10
0
 20
0
 30
0
  3
AIGNBL05010006
  0
INSERT
  8
LAYER_5
  2
AIGNBL05020007
 10
0
 20
0
 30
0
  0
ENDBLK
  0
BLOCK
  8
LAYER_5
  2
AIGNBL05010008
 70
64
 10
0
 20
0
 30
0
  3
AIGNBL05010008
  0
INSERT
  8
LAYER_5
  2
AIGNBL05020009
 10
0
 20
0
 30
0
  0
ENDBLK
  0
BLOCK
  8
LAYER_5
  2
AIGNBL0501000A
 70
64
 10
0
 20
0
 30
0
  3
AIGNBL0501000A
  0
TEXT
  8
LAYER_5
 10
69.4669
 20
109.5254
 11
69.4669
 21
109.5254
 40
3.5541
 41
0.5
  1
110
  0
ENDBLK
  0
BLOCK
  8
LAYER_5
  2
AIGNBL0501000B
 70
64
 10
0
 20
0
 30
0
  3
AIGNBL0501000B
  0
POLYLINE
  8
LAYER_5
 40
0.1058
 41
0.1058
 66
1
 10
0
 20
0
 30
0
  0
VERTEX
  8
LAYER_5
 10
36.193
 20
84.0706
  0
VERTEX
  8
LAYER_5
 10
41.228
 20
84.0706
  0
SEQEND
  0
ENDBLK
  0
BLOCK
  8
LAYER_5
  2
AIGNBL0501000C
 70
64
 10
0
 20
0
 30
0
  3
AIGNBL0501000C
  0
POLYLINE
  8
LAYER_5
 40
0.1058
 41
0.1058
 66
1
 10
0
 20
0
 30
0
  0
VERTEX
  8
LAYER_5
 10
41.228
 20
84.0706
  0
VERTEX
  8
LAYER_5
 10
36.193
 20
84.0706
  0
VERTEX
  8
LAYER_5
 10
36.193
 20
89.4123
  0
SEQEND
  0
POLYLINE
  8
LAYER_5
 40
0.1058
 41
0.1058
 66
1
 10
0
 20
0
 30
0
  0
VERTEX
  8
LAYER_5
 10
36.1671
 20
94.1624
  0
VERTEX
  8
LAYER_5
 10
36.1671
 20
99.5846
  0
VERTEX
  8
LAYER_5
 10
41.228
 20
99.5846
  0
SEQEND
  0
TEXT
  8
LAYER_5
 10
31.9157
 20
90.0217
 11
31.9157
 21
90.0217
 40
3.5541
 41
0.5
  1
160
  0
ENDBLK
  0
BLOCK
  8
LAYER_5
  2
AIGNBL0501000D
 70
64
 10
0
 20
0
 30
0
  3
AIGNBL0501000D
  0
INSERT
  8
LAYER_5
  2
AIGNBL0502000E
 10
0
 20
0
 30
0
  0
ENDBLK
  0
BLOCK
  8
LAYER_5
  2
AIGNBL05010011
 70
64
 10
0
 20
0
 30
0
  3
AIGNBL05010011
  0
INSERT
  8
LAYER_5
  2
AIGNBL05020012
 10
0
 20
0
 30
0
  0
ENDBLK
  0
BLOCK
  8
LAYER_5
  2
AIGNBL05010015
 70
64
 10
0
 20
0
 30
0
  3
AIGNBL05010015
  0
POLYLINE
  8
LAYER_5
  6
AIGENLINE007
 40
0.1058
 41
0.1058
 66
1
 10
0
 20
0
 30
0
 70
128
  0
VERTEX
  8
LAYER_5
 10
152.3869
 20
100.0535
  0
VERTEX
  8
LAYER_5
 10
152.3835
 20
103.7966
  0
SEQEND
  0
ENDBLK
  0
BLOCK
  8
LAYER_5
  2
AIGNBL05010016
 70
64
 10
0
 20
0
 30
0
  3
AIGNBL05010016
  0
TEXT
  8
LAYER_5
 10
156.0604
 20
92.2572
 11
156.0604
 21
92.2572
 40
3.5541
 41
0.5
 72
1
  1
100
  0
ENDBLK
  0
BLOCK
  8
LAYER_5
  2
AIGNBL05010017
 70
64
 10
0
 20
0
 30
0
  3
AIGNBL05010017
  0
POLYLINE
  8
LAYER_5
 40
0.1058
 41
0.1058
 66
1
 10
0
 20
0
 30
0
  0
VERTEX
  8
LAYER_5
 10
181.3126
 20
94.3791
  0
VERTEX
  8
LAYER_5
 10
181.3126
 20
99.5608
  0
VERTEX
  8
LAYER_5
 10
175.9548
 20
99.5608
  0
SEQEND
  0
POLYLINE
  8
LAYER_5
 40
0.1058
 41
0.1058
 66
1
 10
0
 20
0
 30
0
  0
VERTEX
  8
LAYER_5
 10
181.3126
 20
88.7525
  0
VERTEX
  8
LAYER_5
 10
181.3126
 20
83.7785
  0
SEQEND
  0
ENDBLK
  0
BLOCK
  8
LAYER_5
  2
AIGNBL05010018
 70
64
 10
0
 20
0
 30
0
  3
AIGNBL05010018
  0
POLYLINE
  8
LAYER_5
 40
0.1058
 41
0.1058
 66
1
 10
0
 20
0
 30
0
  0
VERTEX
  8
LAYER_5
 10
181.3126
 20
83.7623
  0
VERTEX
  8
LAYER_5
 10
175.9548
 20
83.7623
  0
SEQEND
  0
ENDBLK
  0
BLOCK
  8
LAYER_5
  2
AIGNBL05010019
 70
64
 10
0
 20
0
 30
0
  3
AIGNBL05010019
  0
TEXT
  8
LAYER_5
 10
170.8285
 20
107.2775
 11
170.8285
 21
107.2775
 40
3.5541
 41
0.5
  1
10
  0
ENDBLK
  0
BLOCK
  8
LAYER_5
  2
AIGNBL0501001A
 70
64
 10
0
 20
0
 30
0
  3
AIGNBL0501001A
  0
POLYLINE
  8
LAYER_5
 40
0.1058
 41
0.1058
 66
1
 10
0
 20
0
 30
0
  0
VERTEX
  8
LAYER_5
 10
174.5437
 20
103.0852
  0
VERTEX
  8
LAYER_5
 10
174.5437
 20
106.7025
  0
VERTEX
  8
LAYER_5
 10
173.4041
 20
106.7025
  0
VERTEX
  8
LAYER_5
 10
173.4041
 20
103.0852
  0
SEQEND
  0
ENDBLK
  0
BLOCK
  8
LAYER_5
  2
AIGNBL0501001B
 70
64
 10
0
 20
0
 30
0
  3
AIGNBL0501001B
  0
TEXT
  8
LAYER_5
 10
108.1869
 20
147.1262
 11
108.1869
 21
147.1262
 40
3.5541
 41
0.5
  1
305
  0
ENDBLK
  0
BLOCK
  8
LAYER_5
  2
AIGNBL0501001C
 70
64
 10
0
 20
0
 30
0
  3
AIGNBL0501001C
  0
POLYLINE
  8
LAYER_5
 40
0.1058
 41
0.1058
 66
1
 10
0
 20
0
 30
0
  0
VERTEX
  8
LAYER_5
 10
112.7869
 20
151.9935
  0
VERTEX
  8
LAYER_5
 10
112.7869
 20
164.8582
  0
SEQEND
  0
POLYLINE
  8
LAYER_5
 40
0.1058
 41
0.1058
 66
1
 10
0
 20
0
 30
0
  0
VERTEX
  8
LAYER_5
 10
107.3258
 20
164.8582
  0
VERTEX
  8
LAYER_5
 10
117.4154
 20
164.8582
  0
VERTEX
  8
LAYER_5
 10
117.4154
 20
170.3335
  0
SEQEND
  0
POLYLINE
  8
LAYER_5
 40
0.1058
 41
0.1058
 66
1
 10
0
 20
0
 30
0
  0
VERTEX
  8
LAYER_5
 10
112.7869
 20
135.1091
  0
VERTEX
  8
LAYER_5
 10
107.3258
 20
135.1091
  0
SEQEND
  0
POLYLINE
  8
LAYER_5
 40
0.1058
 41
0.1058
 66
1
 10
0
 20
0
 30
0
  0
VERTEX
  8
LAYER_5
 10
112.779
 20
146.0397
  0
VERTEX
  8
LAYER_5
 10
112.7869
 20
133.7741
  0
VERTEX
  8
LAYER_5
 10
107.3258
 20
133.7741
  0
SEQEND
  0
ENDBLK
  0
BLOCK
  8
LAYER_5
  2
AIGNBL0501001D
 70
64
 10
0
 20
0
 30
0
  3
AIGNBL0501001D
  0
TEXT
  8
LAYER_5
 10
111.3898
 20
180.2622
 11
111.3898
 21
180.2622
 40
3.5541
 41
0.5
  1
70
  0
ENDBLK
  0
BLOCK
  8
LAYER_5
  2
AIGNBL0501001E
 70
64
 10
0
 20
0
 30
0
  3
AIGNBL0501001E
  0
TEXT
  8
LAYER_5
 10
112.8233
 20
170.9928
 11
112.8233
 21
170.9928
 40
3.5541
 41
0.5
  1
145
  0
ENDBLK
  0
BLOCK
  8
LAYER_5
  2
AIGNBL0501001F
 70
64
 10
0
 20
0
 30
0
  3
AIGNBL0501001F
  0
TEXT
  8
LAYER_5
 10
113.7055
 20
133.0451
 11
113.7055
 21
133.0451
 40
3.5541
 41
0.5
  1
10
  0
ENDBLK
  0
BLOCK
  8
LAYER_5
  2
AIGNBL05010020
 70
64
 10
0
 20
0
 30
0
  3
AIGNBL05010020
  0
POLYLINE
  8
LAYER_5
 40
0.1058
 41
0.1058
 66
1
 10
0
 20
0
 30
0
  0
VERTEX
  8
LAYER_5
 10
117.4154
 20
175.5969
  0
VERTEX
  8
LAYER_5
 10
117.4154
 20
179.363
  0
VERTEX
  8
LAYER_5
 10
107.3258
 20
179.363
  0
SEQEND
  0
ENDBLK
  0
BLOCK
  8
LAYER_5
  2
AIGNBL05010021
 70
64
 10
0
 20
0
 30
0
  3
AIGNBL05010021
  0
POLYLINE
  8
LAYER_5
 40
0.1058
 41
0.1058
 66
1
 10
0
 20
0
 30
0
  0
VERTEX
  8
LAYER_5
 10
49.3324
 20
181.8683
  0
VERTEX
  8
LAYER_5
 10
49.3324
 20
186.6032
  0
VERTEX
  8
LAYER_5
 10
69.182
 20
186.6032
  0
SEQEND
  0
POLYLINE
  8
LAYER_5
 40
0.1058
 41
0.1058
 66
1
 10
0
 20
0
 30
0
  0
VERTEX
  8
LAYER_5
 10
79.271
 20
186.6032
  0
VERTEX
  8
LAYER_5
 10
98.9735
 20
186.6032
  0
VERTEX
  8
LAYER_5
 10
98.9735
 20
181.8683
  0
SEQEND
  0
TEXT
  8
LAYER_5
 10
77.9689
 20
184.86
 11
77.9689
 21
184.86
 40
3.5541
 41
0.5
 72
1
  1
500
  0
ENDBLK
  0
BLOCK
  8
LAYER_5
  2
AIGNBL05010022
 70
64
 10
0
 20
0
 30
0
  3
AIGNBL05010022
  0
POLYLINE
  8
LAYER_5
 40
0.1058
 41
0.1058
 66
1
 10
0
 20
0
 30
0
  0
VERTEX
  8
LAYER_5
 10
104.1087
 20
181.8683
  0
VERTEX
  8
LAYER_5
 10
104.1087
 20
192.7317
  0
VERTEX
  8
LAYER_5
 10
80.6634
 20
192.7317
  0
SEQEND
  0
POLYLINE
  8
LAYER_5
 40
0.1058
 41
0.1058
 66
1
 10
0
 20
0
 30
0
  0
VERTEX
  8
LAYER_5
 10
67.8443
 20
192.7317
  0
VERTEX
  8
LAYER_5
 10
44.1089
 20
192.7317
  0
VERTEX
  8
LAYER_5
 10
44.1089
 20
181.8683
  0
SEQEND
  0
TEXT
  8
LAYER_5
 10
77.9645
 20
190.8206
 11
77.9645
 21
190.8206
 40
3.5541
 41
0.5
 72
1
  1
600
  0
ENDBLK
  0
BLOCK
  8
LAYER_5
  2
AIGNBL05010023
 70
64
 10
0
 20
0
 30
0
  3
AIGNBL05010023
  0
POLYLINE
  8
LAYER_5
 40
0.1058
 41
0.1058
 66
1
 10
0
 20
0
 30
0
  0
VERTEX
  8
LAYER_5
 10
45.5042
 20
131.3556
  0
VERTEX
  8
LAYER_5
 10
45.5042
 20
126.3589
  0
VERTEX
  8
LAYER_5
 10
69.4332
 20
126.3589
  0
SEQEND
  0
POLYLINE
  8
LAYER_5
 40
0.1058
 41
0.1058
 66
1
 10
0
 20
0
 30
0
  0
VERTEX
  8
LAYER_5
 10
79.118
 20
126.3589
  0
VERTEX
  8
LAYER_5
 10
102.7148
 20
126.3589
  0
VERTEX
  8
LAYER_5
 10
102.7148
 20
131.3556
  0
SEQEND
  0
TEXT
  8
LAYER_5
 10
78.1205
 20
124.615
 11
78.1205
 21
124.615
 40
3.5541
 41
0.5
 72
1
  1
580
  0
TEXT
  8
LAYER_5
 10
47.268
 20
121.9646
 11
47.268
 21
121.9646
 40
3.5541
 41
0.5
 72
1
  1
10
  0
TEXT
  8
LAYER_5
 10
105.8198
 20
121.9646
 11
105.8198
 21
121.9646
 40
3.5541
 41
0.5
 72
1
  1
10
  0
ENDBLK
  0
BLOCK
  8
LAYER_5
  2
AIGNBL05010024
 70
64
 10
0
 20
0
 30
0
  3
AIGNBL05010024
  0
POLYLINE
  8
LAYER_5
 40
0.1058
 41
0.1058
 66
1
 10
0
 20
0
 30
0
  0
VERTEX
  8
LAYER_5
 10
57.2043
 20
81.6774
  0
VERTEX
  8
LAYER_5
 10
57.2043
 20
77.7251
  0
VERTEX
  8
LAYER_5
 10
69.7034
 20
77.7251
  0
SEQEND
  0
POLYLINE
  8
LAYER_5
 40
0.1058
 41
0.1058
 66
1
 10
0
 20
0
 30
0
  0
VERTEX
  8
LAYER_5
 10
79.0403
 20
77.7251
  0
VERTEX
  8
LAYER_5
 10
91.5064
 20
77.7251
  0
VERTEX
  8
LAYER_5
 10
91.5064
 20
81.6774
  0
SEQEND
  0
TEXT
  8
LAYER_5
 10
78.0418
 20
75.9816
 11
78.0418
 21
75.9816
 40
3.5541
 41
0.5
 72
1
  1
340
  0
ENDBLK
  0
BLOCK
  8
LAYER_5
  2
AIGNBL05010025
 70
64
 10
0
 20
0
 30
0
  3
AIGNBL05010025
  0
POLYLINE
  8
LAYER_5
 40
0.1058
 41
0.1058
 66
1
 10
0
 20
0
 30
0
  0
VERTEX
  8
LAYER_5
 10
129.1539
 20
102.0561
  0
VERTEX
  8
LAYER_5
 10
129.1539
 20
106.6987
  0
VERTEX
  8
LAYER_5
 10
135.2048
 20
106.6987
  0
SEQEND
  0
ENDBLK
  0
BLOCK
  8
LAYER_5
  2
AIGNBL05010026
 70
64
 10
0
 20
0
 30
0
  3
AIGNBL05010026
  0
POLYLINE
  8
LAYER_5
  6
AIGENLINE008
 40
0.1658
 41
0.1658
 66
1
 10
0
 20
0
 30
0
 70
129
  0
VERTEX
  8
LAYER_5
 10
67.9023
 20
95.4295
 42
0.3929727992
  0
VERTEX
  8
LAYER_5
 10
68.7794
 20
94.5513
 42
0.4142244411
  0
VERTEX
  8
LAYER_5
 10
69.6576
 20
95.4295
 42
0.393784274
  0
VERTEX
  8
LAYER_5
 10
68.7794
 20
96.3059
 42
0.4142026642
  0
SEQEND
  0
ENDBLK
  0
BLOCK
  8
LAYER_5
  2
AIGNBL05010027
 70
64
 10
0
 20
0
 30
0
  3
AIGNBL05010027
  0
POLYLINE
  8
LAYER_5
  6
AIGENLINE009
 40
0.1658
 41
0.1658
 66
1
 10
0
 20
0
 30
0
 70
129
  0
VERTEX
  8
LAYER_5
 10
78.7609
 20
95.4295
 42
0.3930665523
  0
VERTEX
  8
LAYER_5
 10
79.638
 20
94.5513
 42
0.4142262976
  0
VERTEX
  8
LAYER_5
 10
80.5155
 20
95.4295
 42
0.3935898491
  0
VERTEX
  8
LAYER_5
 10
79.638
 20
96.3059
 42
0.4142008064
  0
SEQEND
  0
ENDBLK
  0
BLOCK
  8
LAYER_7
  2
AIGNBL07010002
 70
64
 10
0
 20
0
 30
0
  3
AIGNBL07010002
  0
POLYLINE
  8
LAYER_7
 40
0.7056
 41
0.7056
 66
1
 10
0
 20
0
 30
0
 70
1
  0
VERTEX
  8
LAYER_7
 10
251.6749
 20
230.337
  0
VERTEX
  8
LAYER_7
 10
251.6749
 20
33.3285
  0
VERTEX
  8
LAYER_7
 10
-30.3177
 20
33.3285
  0
VERTEX
  8
LAYER_7
 10
-30.3177
 20
230.337
  0
SEQEND
  0
ENDBLK
  0
BLOCK
  8
LAYER_7
  2
AIGNBL07010003
 70
64
 10
0
 20
0
 30
0
  3
AIGNBL07010003
  0
INSERT
  8
LAYER_7
  2
AIGNBL07020004
 10
0
 20
0
 30
0
  0
INSERT
  8
LAYER_7
  2
AIGNBL0702000D
 10
0
 20
0
 30
0
  0
ENDBLK
  0
BLOCK
  8
LAYER_7
  2
AIGNBL07010025
 70
64
 10
0
 20
0
 30
0
  3
AIGNBL07010025
  0
POLYLINE
  8
LAYER_7
 40
0.05
 41
0.05
 66
1
 10
0
 20
0
 30
0
  0
VERTEX
  8
LAYER_7
 10
-24.7289
 20
219.7266
 42
0.1341998603
  0
VERTEX
  8
LAYER_7
 10
-24.5592
 20
219.0834
 42
0.1261801142
  0
VERTEX
  8
LAYER_7
 10
-24.0913
 20
218.6274
 42
0.07945580654
  0
VERTEX
  8
LAYER_7
 10
-23.4074
 20
218.3548
  0
VERTEX
  8
LAYER_7
 10
-22.7374
 20
218.1977
 42
-0.06331165485
  0
VERTEX
  8
LAYER_7
 10
-22.2151
 20
218.0208
 42
-0.1808600581
  0
VERTEX
  8
LAYER_7
 10
-21.906
 20
217.7022
 42
-0.08676304228
  0
VERTEX
  8
LAYER_7
 10
-21.8731
 20
217.4973
 42
-0.2941221031
  0
VERTEX
  8
LAYER_7
 10
-22.2545
 20
216.9168
 42
-0.1199318645
  0
VERTEX
  8
LAYER_7
 10
-22.9007
 20
216.7681
 42
-0.005101656443
  0
VERTEX
  8
LAYER_7
 10
-22.938
 20
216.7677
 42
-0.1318116097
  0
VERTEX
  8
LAYER_7
 10
-23.6289
 20
216.9475
 42
-0.1172183099
  0
VERTEX
  8
LAYER_7
 10
-24.1316
 20
217.4313
 42
-0.004867741498
  0
VERTEX
  8
LAYER_7
 10
-24.1512
 20
217.4611
  0
VERTEX
  8
LAYER_7
 10
-24.2002
 20
217.5355
  0
VERTEX
  8
LAYER_7
 10
-24.9396
 20
217.0282
  0
VERTEX
  8
LAYER_7
 10
-24.8924
 20
216.9575
 42
0.1006692345
  0
VERTEX
  8
LAYER_7
 10
-24.2656
 20
216.3278
 42
0.09822650202
  0
VERTEX
  8
LAYER_7
 10
-23.491
 20
216.02
 42
0.04873469498
  0
VERTEX
  8
LAYER_7
 10
-22.938
 20
215.9689
 42
0.09078870715
  0
VERTEX
  8
LAYER_7
 10
-21.9452
 20
216.1461
 42
0.1030174332
  0
VERTEX
  8
LAYER_7
 10
-21.3352
 20
216.5404
 42
0.1803448142
  0
VERTEX
  8
LAYER_7
 10
-20.9524
 20
217.4258
 42
0.01943778951
  0
VERTEX
  8
LAYER_7
 10
-20.9476
 20
217.56
 42
0.2531765608
  0
VERTEX
  8
LAYER_7
 10
-21.5885
 20
218.7222
 42
0.09194545039
  0
VERTEX
  8
LAYER_7
 10
-22.2057
 20
218.9827
  0
VERTEX
  8
LAYER_7
 10
-22.9068
 20
219.1511
 42
-0.0578189963
  0
VERTEX
  8
LAYER_7
 10
-23.4528
 20
219.3232
 42
-0.1855772451
  0
VERTEX
  8
LAYER_7
 10
-23.7676
 20
219.6264
 42
-0.08926070578
  0
VERTEX
  8
LAYER_7
 10
-23.8011
 20
219.8403
 42
-0.313498231
  0
VERTEX
  8
LAYER_7
 10
-23.4222
 20
220.3762
 42
-0.106300738
  0
VERTEX
  8
LAYER_7
 10
-22.8751
 20
220.4863
 42
-0.1482953379
  0
VERTEX
  8
LAYER_7
 10
-22.2709
 20
220.3127
 42
-0.1294644155
  0
VERTEX
  8
LAYER_7
 10
-21.8948
 20
219.8732
  0
VERTEX
  8
LAYER_7
 10
-21.8504
 20
219.7888
  0
VERTEX
  8
LAYER_7
 10
-21.0886
 20
220.2925
  0
VERTEX
  8
LAYER_7
 10
-21.1229
 20
220.3597
 42
0.2370693896
  0
VERTEX
  8
LAYER_7
 10
-22.2986
 20
221.2338
 42
0.05316238654
  0
VERTEX
  8
LAYER_7
 10
-22.8329
 20
221.2874
 42
0.09532594653
  0
VERTEX
  8
LAYER_7
 10
-23.7699
 20
221.1115
 42
0.1053422287
  0
VERTEX
  8
LAYER_7
 10
-24.364
 20
220.7089
 42
0.1944052329
  0
VERTEX
  8
LAYER_7
 10
-24.7289
 20
219.7266
  0
SEQEND
  0
POLYLINE
  8
LAYER_7
 40
0.05
 41
0.05
 66
1
 10
0
 20
0
 30
0
  0
VERTEX
  8
LAYER_7
 10
-20.6499
 20
222.9567
 42
0.3936231745
  0
VERTEX
  8
LAYER_7
 10
-20.0589
 20
222.3685
 42
0.386081733
  0
VERTEX
  8
LAYER_7
 10
-19.4719
 20
222.9567
 42
0.3921277689
  0
VERTEX
  8
LAYER_7
 10
-20.0589
 20
223.5464
 42
0.3856970876
  0
VERTEX
  8
LAYER_7
 10
-20.6499
 20
222.9567
  0
SEQEND
  0
POLYLINE
  8
LAYER_7
 40
0.05
 41
0.05
 66
1
 10
0
 20
0
 30
0
  0
VERTEX
  8
LAYER_7
 10
-19.7159
 20
221.162
  0
VERTEX
  8
LAYER_7
 10
-20.4918
 20
221.162
  0
VERTEX
  8
LAYER_7
 10
-20.4918
 20
216.0938
  0
VERTEX
  8
LAYER_7
 10
-19.6286
 20
216.0938
  0
VERTEX
  8
LAYER_7
 10
-19.6286
 20
221.162
  0
SEQEND
  0
POLYLINE
  8
LAYER_7
 40
0.05
 41
0.05
 66
1
 10
0
 20
0
 30
0
  0
VERTEX
  8
LAYER_7
 10
-15.1212
 20
220.3724
 42
0.1207793697
  0
VERTEX
  8
LAYER_7
 10
-15.6145
 20
220.9712
 42
0.1123792155
  0
VERTEX
  8
LAYER_7
 10
-16.2716
 20
221.2487
 42
0.04782249271
  0
VERTEX
  8
LAYER_7
 10
-16.6841
 20
221.2869
 42
0.1072902452
  0
VERTEX
  8
LAYER_7
 10
-17.5023
 20
221.1052
 42
0.09984805864
  0
VERTEX
  8
LAYER_7
 10
-18.1382
 20
220.6458
 42
0.01292207714
  0
VERTEX
  8
LAYER_7
 10
-18.198
 20
220.5762
  0
VERTEX
  8
LAYER_7
 10
-18.198
 20
221.1615
  0
VERTEX
  8
LAYER_7
 10
-19.0617
 20
221.1615
  0
VERTEX
  8
LAYER_7
 10
-19.0617
 20
216.0936
  0
VERTEX
  8
LAYER_7
 10
-18.198
 20
216.0936
  0
VERTEX
  8
LAYER_7
 10
-18.198
 20
218.6907
 42
-0.09654084086
  0
VERTEX
  8
LAYER_7
 10
-18.0246
 20
219.6722
 42
-0.1188565985
  0
VERTEX
  8
LAYER_7
 10
-17.6298
 20
220.2091
 42
-0.15802177
  0
VERTEX
  8
LAYER_7
 10
-16.9046
 20
220.4863
 42
-0.1299839892
  0
VERTEX
  8
LAYER_7
 10
-16.2243
 20
220.3327
 42
-0.1576712877
  0
VERTEX
  8
LAYER_7
 10
-15.902
 20
219.953
 42
-0.05721861023
  0
VERTEX
  8
LAYER_7
 10
-15.8045
 20
219.631
 42
-0.04865875875
  0
VERTEX
  8
LAYER_7
 10
-15.7563
 20
219.0344
  0
VERTEX
  8
LAYER_7
 10
-15.7563
 20
216.0936
  0
VERTEX
  8
LAYER_7
 10
-14.8928
 20
216.0936
  0
VERTEX
  8
LAYER_7
 10
-14.8928
 20
218.7842
 42
-0.09089878682
  0
VERTEX
  8
LAYER_7
 10
-14.73
 20
219.7237
 42
-0.1191956233
  0
VERTEX
  8
LAYER_7
 10
-14.373
 20
220.2329
 42
-0.1344089617
  0
VERTEX
  8
LAYER_7
 10
-13.8547
 20
220.4654
 42
-0.0420961071
  0
VERTEX
  8
LAYER_7
 10
-13.5999
 20
220.4863
 42
-0.1298626135
  0
VERTEX
  8
LAYER_7
 10
-12.9187
 20
220.3327
 42
-0.1577606685
  0
VERTEX
  8
LAYER_7
 10
-12.5963
 20
219.953
 42
-0.05724335824
  0
VERTEX
  8
LAYER_7
 10
-12.4988
 20
219.631
 42
-0.04863743227
  0
VERTEX
  8
LAYER_7
 10
-12.4506
 20
219.0344
  0
VERTEX
  8
LAYER_7
 10
-12.4506
 20
216.0936
  0
VERTEX
  8
LAYER_7
 10
-11.5888
 20
216.0936
  0
VERTEX
  8
LAYER_7
 10
-11.5888
 20
219.2863
 42
0.09153279999
  0
VERTEX
  8
LAYER_7
 10
-11.7541
 20
220.2648
 42
0.1137257525
  0
VERTEX
  8
LAYER_7
 10
-12.1584
 20
220.8532
 42
0.1162530232
  0
VERTEX
  8
LAYER_7
 10
-12.7979
 20
221.1952
 42
0.0722532527
  0
VERTEX
  8
LAYER_7
 10
-13.5156
 20
221.2869
 42
0.2580675194
  0
VERTEX
  8
LAYER_7
 10
-15.1212
 20
220.3724
  0
SEQEND
  0
POLYLINE
  8
LAYER_7
 40
0.05
 41
0.05
 66
1
 10
0
 20
0
 30
0
  0
VERTEX
  8
LAYER_7
 10
-6.5398
 20
219.7266
 42
0.134478161
  0
VERTEX
  8
LAYER_7
 10
-6.3695
 20
219.0834
 42
0.1258963062
  0
VERTEX
  8
LAYER_7
 10
-5.9013
 20
218.6274
 42
0.07937172531
  0
VERTEX
  8
LAYER_7
 10
-5.2179
 20
218.3548
  0
VERTEX
  8
LAYER_7
 10
-4.5484
 20
218.1975
 42
-0.0631755932
  0
VERTEX
  8
LAYER_7
 10
-4.0263
 20
218.0207
 42
-0.1806469744
  0
VERTEX
  8
LAYER_7
 10
-3.7165
 20
217.702
 42
-0.08701309377
  0
VERTEX
  8
LAYER_7
 10
-3.6835
 20
217.4971
 42
-0.2942528815
  0
VERTEX
  8
LAYER_7
 10
-4.0651
 20
216.9167
 42
-0.1198372064
  0
VERTEX
  8
LAYER_7
 10
-4.7111
 20
216.7681
 42
-0.005099843066
  0
VERTEX
  8
LAYER_7
 10
-4.7484
 20
216.7677
 42
-0.1318208153
  0
VERTEX
  8
LAYER_7
 10
-5.4397
 20
216.9475
 42
-0.1159302133
  0
VERTEX
  8
LAYER_7
 10
-5.937
 20
217.4238
 42
-0.006094096148
  0
VERTEX
  8
LAYER_7
 10
-5.9617
 20
217.4611
  0
VERTEX
  8
LAYER_7
 10
-6.0112
 20
217.5355
  0
VERTEX
  8
LAYER_7
 10
-6.75
 20
217.0282
  0
VERTEX
  8
LAYER_7
 10
-6.7036
 20
216.9575
 42
0.1006943621
  0
VERTEX
  8
LAYER_7
 10
-6.0762
 20
216.3276
 42
0.09809760808
  0
VERTEX
  8
LAYER_7
 10
-5.3011
 20
216.0196
 42
0.04877336623
  0
VERTEX
  8
LAYER_7
 10
-4.7484
 20
215.9685
 42
0.09080061549
  0
VERTEX
  8
LAYER_7
 10
-3.7557
 20
216.1458
 42
0.1029663831
  0
VERTEX
  8
LAYER_7
 10
-3.1454
 20
216.5402
 42
0.180354229
  0
VERTEX
  8
LAYER_7
 10
-2.7623
 20
217.4258
 42
0.01945068344
  0
VERTEX
  8
LAYER_7
 10
-2.7575
 20
217.56
 42
0.2535980107
  0
VERTEX
  8
LAYER_7
 10
-3.3999
 20
218.7221
 42
0.09173199894
  0
VERTEX
  8
LAYER_7
 10
-4.018
 20
218.9827
  0
VERTEX
  8
LAYER_7
 10
-4.7177
 20
219.1511
 42
-0.05991192419
  0
VERTEX
  8
LAYER_7
 10
-5.2728
 20
219.3275
 42
-0.1874515711
  0
VERTEX
  8
LAYER_7
 10
-5.5828
 20
219.6332
 42
-0.08582021468
  0
VERTEX
  8
LAYER_7
 10
-5.6143
 20
219.8403
 42
-0.314077401
  0
VERTEX
  8
LAYER_7
 10
-5.2343
 20
220.3762
 42
-0.1060544966
  0
VERTEX
  8
LAYER_7
 10
-4.6848
 20
220.4863
 42
-0.1486063154
  0
VERTEX
  8
LAYER_7
 10
-4.0809
 20
220.3127
 42
-0.1292830572
  0
VERTEX
  8
LAYER_7
 10
-3.7057
 20
219.8732
  0
VERTEX
  8
LAYER_7
 10
-3.6608
 20
219.7888
  0
VERTEX
  8
LAYER_7
 10
-2.8992
 20
220.2925
  0
VERTEX
  8
LAYER_7
 10
-2.933
 20
220.3595
 42
0.237196535
  0
VERTEX
  8
LAYER_7
 10
-4.1097
 20
221.2337
 42
0.05314185225
  0
VERTEX
  8
LAYER_7
 10
-4.6438
 20
221.2873
 42
0.09533727001
  0
VERTEX
  8
LAYER_7
 10
-5.5811
 20
221.1115
 42
0.1053851178
  0
VERTEX
  8
LAYER_7
 10
-6.1751
 20
220.7089
 42
0.1943913526
  0
VERTEX
  8
LAYER_7
 10
-6.5398
 20
219.7266
  0
SEQEND
  0
INSERT
  8
LAYER_7
  2
AIGNBL07020026
 10
0
 20
0
 30
0
  0
INSERT
  8
LAYER_7
  2
AIGNBL07020027
 10
0
 20
0
 30
0
  0
INSERT
  8
LAYER_7
  2
AIGNBL07020028
 10
0
 20
0
 30
0
  0
POLYLINE
  8
LAYER_7
 40
0.05
 41
0.05
 66
1
 10
0
 20
0
 30
0
  0
VERTEX
  8
LAYER_7
 10
-20.9091
 20
213.692
 42
0.2126578199
  0
VERTEX
  8
LAYER_7
 10
-21.2785
 20
213.8653
 42
0.4107545191
  0
VERTEX
  8
LAYER_7
 10
-21.8793
 20
213.2387
 42
0.1832232544
  0
VERTEX
  8
LAYER_7
 10
-21.7095
 20
212.7686
 42
0.2124026091
  0
VERTEX
  8
LAYER_7
 10
-21.2785
 20
212.5886
 42
0.2429399681
  0
VERTEX
  8
LAYER_7
 10
-20.8847
 20
212.8017
  0
VERTEX
  8
LAYER_7
 10
-20.6282
 20
212.6175
 42
-0.2483368577
  0
VERTEX
  8
LAYER_7
 10
-21.2802
 20
212.3057
 42
-0.1519221822
  0
VERTEX
  8
LAYER_7
 10
-21.8463
 20
212.4749
 42
-0.2337791857
  0
VERTEX
  8
LAYER_7
 10
-22.2039
 20
213.1558
 42
-0.01462202831
  0
VERTEX
  8
LAYER_7
 10
-22.2057
 20
213.219
 42
-0.1526640936
  0
VERTEX
  8
LAYER_7
 10
-22.0367
 20
213.7867
 42
-0.2349220238
  0
VERTEX
  8
LAYER_7
 10
-21.3427
 20
214.1454
 42
-0.01403410383
  0
VERTEX
  8
LAYER_7
 10
-21.2802
 20
214.1471
 42
-0.1771442668
  0
VERTEX
  8
LAYER_7
 10
-20.7724
 20
213.9741
 42
-0.0394909762
  0
VERTEX
  8
LAYER_7
 10
-20.6673
 20
213.8707
  0
SEQEND
  0
INSERT
  8
LAYER_7
  2
AIGNBL07020029
 10
0
 20
0
 30
0
  0
POLYLINE
  8
LAYER_7
 40
0.05
 41
0.05
 66
1
 10
0
 20
0
 30
0
  0
VERTEX
  8
LAYER_7
 10
-16.1647
 20
212.9941
 42
-0.182226301
  0
VERTEX
  8
LAYER_7
 10
-16.3329
 20
212.5261
 42
-0.1768067702
  0
VERTEX
  8
LAYER_7
 10
-16.7424
 20
212.3151
 42
-0.03937171115
  0
VERTEX
  8
LAYER_7
 10
-16.8703
 20
212.3057
 42
-0.1767902592
  0
VERTEX
  8
LAYER_7
 10
-17.3545
 20
212.4748
 42
-0.2234110022
  0
VERTEX
  8
LAYER_7
 10
-17.5745
 20
212.9941
  0
VERTEX
  8
LAYER_7
 10
-17.5745
 20
214.1029
  0
VERTEX
  8
LAYER_7
 10
-17.2613
 20
214.1029
  0
VERTEX
  8
LAYER_7
 10
-17.2613
 20
213.0037
 42
0.2349518793
  0
VERTEX
  8
LAYER_7
 10
-17.1016
 20
212.6665
 42
0.1547549989
  0
VERTEX
  8
LAYER_7
 10
-16.8703
 20
212.6029
 42
0.2547042701
  0
VERTEX
  8
LAYER_7
 10
-16.5428
 20
212.765
 42
0.1423144498
  0
VERTEX
  8
LAYER_7
 10
-16.477
 20
213.0037
  0
VERTEX
  8
LAYER_7
 10
-16.477
 20
214.1029
  0
VERTEX
  8
LAYER_7
 10
-16.1647
 20
214.1029
  0
SEQEND
  0
INSERT
  8
LAYER_7
  2
AIGNBL0702002A
 10
0
 20
0
 30
0
  0
POLYLINE
  8
LAYER_7
 40
0.05
 41
0.05
 66
1
 10
0
 20
0
 30
0
  0
VERTEX
  8
LAYER_7
 10
-11.0637
 20
213.9659
 42
0.1865846686
  0
VERTEX
  8
LAYER_7
 10
-11.5272
 20
214.146
 42
0.01070457993
  0
VERTEX
  8
LAYER_7
 10
-11.566
 20
214.1468
 42
0.1725298242
  0
VERTEX
  8
LAYER_7
 10
-12.0539
 20
213.9827
 42
0.2187144791
  0
VERTEX
  8
LAYER_7
 10
-12.212
 20
213.6169
 42
0.3561528276
  0
VERTEX
  8
LAYER_7
 10
-11.8351
 20
213.1453
 42
-0.4171847534
  0
VERTEX
  8
LAYER_7
 10
-11.3804
 20
212.8287
 42
-0.3335028506
  0
VERTEX
  8
LAYER_7
 10
-11.5558
 20
212.6101
 42
-0.08319549326
  0
VERTEX
  8
LAYER_7
 10
-11.6868
 20
212.588
 42
-0.2454746759
  0
VERTEX
  8
LAYER_7
 10
-12.0342
 20
212.7715
  0
VERTEX
  8
LAYER_7
 10
-12.269
 20
212.5433
 42
0.1909646496
  0
VERTEX
  8
LAYER_7
 10
-11.8308
 20
212.3153
 42
0.03754446626
  0
VERTEX
  8
LAYER_7
 10
-11.6944
 20
212.3061
 42
0.1762916439
  0
VERTEX
  8
LAYER_7
 10
-11.2183
 20
212.4674
 42
0.2195743063
  0
VERTEX
  8
LAYER_7
 10
-11.0534
 20
212.8657
 42
0.3531185733
  0
VERTEX
  8
LAYER_7
 10
-11.4303
 20
213.3408
 42
-0.05600345769
  0
VERTEX
  8
LAYER_7
 10
-11.796
 20
213.4825
 42
-0.2536946722
  0
VERTEX
  8
LAYER_7
 10
-11.885
 20
213.6399
 42
-0.3489083621
  0
VERTEX
  8
LAYER_7
 10
-11.7191
 20
213.848
 42
-0.07098211707
  0
VERTEX
  8
LAYER_7
 10
-11.5983
 20
213.8648
 42
-0.2306121412
  0
VERTEX
  8
LAYER_7
 10
-11.2913
 20
213.7261
  0
SEQEND
  0
INSERT
  8
LAYER_7
  2
AIGNBL0702002B
 10
0
 20
0
 30
0
  0
INSERT
  8
LAYER_7
  2
AIGNBL0702002C
 10
0
 20
0
 30
0
  0
POLYLINE
  8
LAYER_7
 40
0.05
 41
0.05
 66
1
 10
0
 20
0
 30
0
  0
VERTEX
  8
LAYER_7
 10
-5.2994
 20
213.692
 42
0.2129687332
  0
VERTEX
  8
LAYER_7
 10
-5.6677
 20
213.8653
 42
0.4105330837
  0
VERTEX
  8
LAYER_7
 10
-6.269
 20
213.2387
 42
0.1833694889
  0
VERTEX
  8
LAYER_7
 10
-6.099
 20
212.7686
 42
0.2122774884
  0
VERTEX
  8
LAYER_7
 10
-5.6677
 20
212.5886
 42
0.2420713992
  0
VERTEX
  8
LAYER_7
 10
-5.2745
 20
212.8017
  0
VERTEX
  8
LAYER_7
 10
-5.0183
 20
212.6175
 42
-0.2483961933
  0
VERTEX
  8
LAYER_7
 10
-5.6704
 20
212.3057
 42
-0.1519079839
  0
VERTEX
  8
LAYER_7
 10
-6.2365
 20
212.4749
 42
-0.2337913088
  0
VERTEX
  8
LAYER_7
 10
-6.5942
 20
213.1558
 42
-0.0146222367
  0
VERTEX
  8
LAYER_7
 10
-6.596
 20
213.219
 42
-0.1526708466
  0
VERTEX
  8
LAYER_7
 10
-6.427
 20
213.7867
 42
-0.2349281849
  0
VERTEX
  8
LAYER_7
 10
-5.7329
 20
214.1454
 42
-0.01403209072
  0
VERTEX
  8
LAYER_7
 10
-5.6704
 20
214.1471
 42
-0.177045353
  0
VERTEX
  8
LAYER_7
 10
-5.1623
 20
213.9741
 42
-0.03940754375
  0
VERTEX
  8
LAYER_7
 10
-5.0571
 20
213.8707
  0
SEQEND
  0
POLYLINE
  8
LAYER_7
 40
0.05
 41
0.05
 66
1
 10
0
 20
0
 30
0
  0
VERTEX
  8
LAYER_7
 10
-4.4354
 20
214.1029
  0
VERTEX
  8
LAYER_7
 10
-3.2751
 20
214.1029
  0
VERTEX
  8
LAYER_7
 10
-3.2751
 20
213.8202
  0
VERTEX
  8
LAYER_7
 10
-4.1231
 20
213.8202
  0
VERTEX
  8
LAYER_7
 10
-4.1231
 20
213.3901
  0
VERTEX
  8
LAYER_7
 10
-3.3195
 20
213.3901
  0
VERTEX
  8
LAYER_7
 10
-3.3195
 20
213.1079
  0
VERTEX
  8
LAYER_7
 10
-4.1231
 20
213.1079
  0
VERTEX
  8
LAYER_7
 10
-4.1231
 20
212.633
  0
VERTEX
  8
LAYER_7
 10
-3.2318
 20
212.633
  0
VERTEX
  8
LAYER_7
 10
-3.2318
 20
212.3512
  0
VERTEX
  8
LAYER_7
 10
-4.4354
 20
212.3512
  0
SEQEND
  0
ENDBLK
  0
ENDSEC
  0
SECTION
  2
ENTITIES
  0
TEXT
  8
LAYER_5
 10
75.4601
 20
166.282
 11
75.4601
 21
166.282
 40
3.5541
 41
0.5
 72
1
  1
35
  0
INSERT
  8
LAYER_5
  2
AIGNBL05010002
 10
0
 20
0
 30
0
  0
TEXT
  8
LAYER_5
 10
82.292
 20
156.8139
 11
82.292
 21
156.8139
 40
2.5981
 41
0.5
  1
カウンター
  0
TEXT
  8
LAYER_5
 10
82.292
 20
153.314
 11
82.292
 21
153.314
 40
2.5981
 41
0.5
  1
開口寸法：
  0
TEXT
  8
LAYER_5
 10
82.292
 20
149.7387
 11
82.292
 21
149.7387
 40
2.9618
 41
0.5
  1
140×300
  0
POLYLINE
  8
LAYER_5
 40
0.1235
 41
0.1235
 66
1
 10
0
 20
0
 30
0
  0
VERTEX
  8
LAYER_5
 10
172.5187
 20
94.3098
  0
VERTEX
  8
LAYER_5
 10
172.5352
 20
94.3009
  0
SEQEND
  0
POLYLINE
  8
LAYER_5
 40
0.1305
 41
0.1305
 66
1
 10
0
 20
0
 30
0
  0
VERTEX
  8
LAYER_5
 10
150.0615
 20
87.1265
  0
VERTEX
  8
LAYER_5
 10
150.0615
 20
86.1842
  0
SEQEND
  0
POLYLINE
  8
LAYER_5
 40
0.1305
 41
0.1305
 66
1
 10
0
 20
0
 30
0
  0
VERTEX
  8
LAYER_5
 10
149.2994
 20
86.3933
  0
VERTEX
  8
LAYER_5
 10
149.2994
 20
87.3342
  0
SEQEND
  0
POLYLINE
  8
LAYER_5
 40
0.1305
 41
0.1305
 66
1
 10
0
 20
0
 30
0
  0
VERTEX
  8
LAYER_5
 10
134.4111
 20
98.4801
  0
VERTEX
  8
LAYER_5
 10
137.9561
 20
98.4801
  0
SEQEND
  0
POLYLINE
  8
LAYER_5
 40
0.1305
 41
0.1305
 66
1
 10
0
 20
0
 30
0
  0
VERTEX
  8
LAYER_5
 10
134.4138
 20
99.2939
  0
VERTEX
  8
LAYER_5
 10
137.9589
 20
99.2939
  0
SEQEND
  0
POLYLINE
  8
LAYER_5
 40
0.1305
 41
0.1305
 66
1
 10
0
 20
0
 30
0
  0
VERTEX
  8
LAYER_5
 10
150.0615
 20
87.944
  0
VERTEX
  8
LAYER_5
 10
154.9514
 20
87.944
  0
SEQEND
  0
POLYLINE
  8
LAYER_5
 40
0.1305
 41
0.1305
 66
1
 10
0
 20
0
 30
0
  0
VERTEX
  8
LAYER_5
 10
150.1621
 20
84.9399
  0
VERTEX
  8
LAYER_5
 10
154.8336
 20
84.9399
  0
SEQEND
  0
POLYLINE
  8
LAYER_5
 40
0.1305
 41
0.1305
 66
1
 10
0
 20
0
 30
0
  0
VERTEX
  8
LAYER_5
 10
148.6745
 20
89.3761
  0
VERTEX
  8
LAYER_5
 10
156.3322
 20
89.3761
  0
SEQEND
  0
POLYLINE
  8
LAYER_5
 40
0.1305
 41
0.1305
 66
1
 10
0
 20
0
 30
0
  0
VERTEX
  8
LAYER_5
 10
142.627
 20
99.2939
  0
VERTEX
  8
LAYER_5
 10
173.712
 20
99.2939
  0
SEQEND
  0
POLYLINE
  8
LAYER_5
 40
0.1305
 41
0.1305
 66
1
 10
0
 20
0
 30
0
  0
VERTEX
  8
LAYER_5
 10
131.0604
 20
83.7045
  0
VERTEX
  8
LAYER_5
 10
160.8949
 20
83.7045
  0
SEQEND
  0
INSERT
  8
LAYER_5
  2
AIGNBL05010004
 10
0
 20
0
 30
0
  0
POLYLINE
  8
LAYER_5
 40
0.05
 41
0.05
 66
1
 10
0
 20
0
 30
0
 70
1
  0
VERTEX
  8
LAYER_5
 10
150.1683
 20
87.1189
  0
VERTEX
  8
LAYER_5
 10
149.1802
 20
87.3142
  0
VERTEX
  8
LAYER_5
 10
149.1802
 20
87.5485
  0
VERTEX
  8
LAYER_5
 10
148.1701
 20
88.6089
 42
-0.06836530943
  0
VERTEX
  8
LAYER_5
 10
146.3538
 20
89.3117
 42
-0.05769692358
  0
VERTEX
  8
LAYER_5
 10
145.0491
 20
90.2574
 42
-0.02253800863
  0
VERTEX
  8
LAYER_5
 10
144.5672
 20
90.739
 42
-0.03657125382
  0
VERTEX
  8
LAYER_5
 10
143.8313
 20
91.6774
 42
-0.05140025753
  0
VERTEX
  8
LAYER_5
 10
142.8419
 20
93.5326
 42
-0.04083389972
  0
VERTEX
  8
LAYER_5
 10
142.1439
 20
95.712
 42
-0.007138764465
  0
VERTEX
  8
LAYER_5
 10
142.0337
 20
96.2015
 42
-0.02576546642
  0
VERTEX
  8
LAYER_5
 10
141.6968
 20
98.3919
  0
VERTEX
  8
LAYER_5
 10
139.6008
 20
98.3919
  0
VERTEX
  8
LAYER_5
 10
140.9836
 20
92.1977
 42
0.2971929727
  0
VERTEX
  8
LAYER_5
 10
146.3835
 20
86.9263
  0
VERTEX
  8
LAYER_5
 10
150.1683
 20
86.1767
  0
VERTEX
  8
LAYER_5
 10
150.1683
 20
84.8744
  0
VERTEX
  8
LAYER_5
 10
149.1802
 20
84.8744
  0
VERTEX
  8
LAYER_5
 10
149.1802
 20
85.3671
  0
VERTEX
  8
LAYER_5
 10
146.1919
 20
85.9589
 42
-0.297209993
  0
VERTEX
  8
LAYER_5
 10
140.0197
 20
91.9833
  0
VERTEX
  8
LAYER_5
 10
138.59
 20
98.3919
  0
VERTEX
  8
LAYER_5
 10
137.9589
 20
98.3919
  0
VERTEX
  8
LAYER_5
 10
137.9589
 20
99.3782
  0
VERTEX
  8
LAYER_5
 10
142.6008
 20
99.3782
 42
0.03060470382
  0
VERTEX
  8
LAYER_5
 10
142.9624
 20
96.576
 42
0.03491645237
  0
VERTEX
  8
LAYER_5
 10
143.5289
 20
94.472
 42
0.04321503535
  0
VERTEX
  8
LAYER_5
 10
144.2946
 20
92.7738
 42
0.04881232473
  0
VERTEX
  8
LAYER_5
 10
145.1792
 20
91.5171
 42
0.05652719207
  0
VERTEX
  8
LAYER_5
 10
146.2373
 20
90.5469
 42
0.08057184483
  0
VERTEX
  8
LAYER_5
 10
147.9373
 20
89.6959
 42
0.02883939404
  0
VERTEX
  8
LAYER_5
 10
148.6745
 20
89.5094
  0
VERTEX
  8
LAYER_5
 10
150.1683
 20
87.944
  0
SEQEND
  0
POLYLINE
  8
LAYER_5
 40
0.05
 41
0.05
 66
1
 10
0
 20
0
 30
0
 70
1
  0
VERTEX
  8
LAYER_5
 10
134.4138
 20
98.3919
  0
VERTEX
  8
LAYER_5
 10
132.8821
 20
98.3909
  0
VERTEX
  8
LAYER_5
 10
131.2513
 20
83.5884
  0
VERTEX
  8
LAYER_5
 10
129.2772
 20
83.5884
  0
VERTEX
  8
LAYER_5
 10
129.2772
 20
99.3782
  0
VERTEX
  8
LAYER_5
 10
134.4138
 20
99.3782
  0
SEQEND
  0
POLYLINE
  8
LAYER_5
 40
0.05
 41
0.05
 66
1
 10
0
 20
0
 30
0
  0
VERTEX
  8
LAYER_5
 10
172.538
 20
94.2998
 42
-0.2426199567
  0
VERTEX
  8
LAYER_5
 10
162.0463
 20
85.6061
 42
0.1132005724
  0
VERTEX
  8
LAYER_5
 10
161.2861
 20
85.2765
 42
0.1408886659
  0
VERTEX
  8
LAYER_5
 10
160.9733
 20
84.8119
 42
0.0884755991
  0
VERTEX
  8
LAYER_5
 10
160.8832
 20
84.1603
  0
VERTEX
  8
LAYER_5
 10
160.8832
 20
83.5884
  0
VERTEX
  8
LAYER_5
 10
161.8699
 20
83.5884
  0
VERTEX
  8
LAYER_5
 10
161.8699
 20
84.1603
 42
-0.1174105196
  0
VERTEX
  8
LAYER_5
 10
161.9166
 20
84.4182
 42
-0.1272665847
  0
VERTEX
  8
LAYER_5
 10
162.0235
 20
84.5466
 42
-0.1066963348
  0
VERTEX
  8
LAYER_5
 10
162.2585
 20
84.6415
 42
0.3296433477
  0
VERTEX
  8
LAYER_5
 10
174.6643
 20
98.8453
 42
0.1104953309
  0
VERTEX
  8
LAYER_5
 10
174.639
 20
99.133
 42
0.250948639
  0
VERTEX
  8
LAYER_5
 10
174.4043
 20
99.3489
 42
0.07339797653
  0
VERTEX
  8
LAYER_5
 10
174.1716
 20
99.3782
  0
VERTEX
  8
LAYER_5
 10
174.0683
 20
99.3782
 42
0.122064734
  0
VERTEX
  8
LAYER_5
 10
173.8057
 20
99.3289
 42
0.1215221419
  0
VERTEX
  8
LAYER_5
 10
173.6831
 20
99.2252
 42
0.1023060151
  0
VERTEX
  8
LAYER_5
 10
173.588
 20
98.999
 42
-0.04165325233
  0
VERTEX
  8
LAYER_5
 10
172.9156
 20
96.929
 42
-0.04315311316
  0
VERTEX
  8
LAYER_5
 10
172.155
 20
95.5036
 42
-0.04701094487
  0
VERTEX
  8
LAYER_5
 10
171.2003
 20
94.3098
 42
-0.04670219638
  0
VERTEX
  8
LAYER_5
 10
169.9768
 20
93.2637
 42
-0.04144755288
  0
VERTEX
  8
LAYER_5
 10
168.3618
 20
92.3102
 42
-0.02525063198
  0
VERTEX
  8
LAYER_5
 10
166.7109
 20
91.6006
 42
-0.02862747683
  0
VERTEX
  8
LAYER_5
 10
163.6791
 20
90.657
 42
-0.02375914155
  0
VERTEX
  8
LAYER_5
 10
160.3662
 20
89.9922
 42
-0.01678344973
  0
VERTEX
  8
LAYER_5
 10
156.3322
 20
89.5094
  0
VERTEX
  8
LAYER_5
 10
154.8405
 20
87.944
  0
VERTEX
  8
LAYER_5
 10
154.8405
 20
84.8744
  0
VERTEX
  8
LAYER_5
 10
155.8272
 20
84.8744
  0
VERTEX
  8
LAYER_5
 10
155.8272
 20
87.5485
  0
VERTEX
  8
LAYER_5
 10
156.7925
 20
88.5624
 42
0.02378840271
  0
VERTEX
  8
LAYER_5
 10
162.0456
 20
89.3069
 42
0.01708220636
  0
VERTEX
  8
LAYER_5
 10
164.484
 20
89.8622
 42
0.02013879017
  0
VERTEX
  8
LAYER_5
 10
166.6613
 20
90.5323
 42
0.02552971562
  0
VERTEX
  8
LAYER_5
 10
168.5733
 20
91.3195
 42
0.03277120139
  0
VERTEX
  8
LAYER_5
 10
170.2132
 20
92.2352
 42
0.04143744989
  0
VERTEX
  8
LAYER_5
 10
171.5782
 20
93.2832
 42
0.04076195922
  0
VERTEX
  8
LAYER_5
 10
172.5187
 20
94.3098
  0
SEQEND
  0
CIRCLE
  8
LAYER_5
 10
74.2918
 20
155.977
 40
2.3365
  0
POLYLINE
  8
LAYER_5
 40
0.381
 41
0.381
 66
1
 10
0
 20
0
 30
0
 70
1
  0
VERTEX
  8
LAYER_5
 10
103.8348
 20
148.9515
 42
-0.2968611005
  0
VERTEX
  8
LAYER_5
 10
94.2943
 20
137.0008
 42
-0.1613666194
  0
VERTEX
  8
LAYER_5
 10
54.2895
 20
137.0008
 42
-0.29683533
  0
VERTEX
  8
LAYER_5
 10
44.7497
 20
148.9515
 42
-0.1337926835
  0
VERTEX
  8
LAYER_5
 10
49.9177
 20
179.1663
  0
VERTEX
  8
LAYER_5
 10
98.6668
 20
179.1663
 42
-0.1337693061
  0
SEQEND
  0
POLYLINE
  8
LAYER_5
 40
0.1905
 41
0.1905
 66
1
 10
0
 20
0
 30
0
 70
1
  0
VERTEX
  8
LAYER_5
 10
92.4174
 20
163.0798
 42
-0.04236472366
  0
VERTEX
  8
LAYER_5
 10
94.7381
 20
162.4154
 42
-0.04357463963
  0
VERTEX
  8
LAYER_5
 10
96.7752
 20
161.426
 42
-0.04368490619
  0
VERTEX
  8
LAYER_5
 10
98.5259
 20
160.1553
 42
-0.06359890612
  0
VERTEX
  8
LAYER_5
 10
100.6089
 20
157.8175
 42
-0.04025949806
  0
VERTEX
  8
LAYER_5
 10
101.6317
 20
156.0348
 42
-0.03868676956
  0
VERTEX
  8
LAYER_5
 10
102.3585
 20
154.124
 42
-0.03758656016
  0
VERTEX
  8
LAYER_5
 10
102.7867
 20
152.1286
 42
-0.09331779161
  0
VERTEX
  8
LAYER_5
 10
102.5328
 20
147.0577
 42
-0.03919858235
  0
VERTEX
  8
LAYER_5
 10
101.8943
 20
145.1111
 42
-0.04090283365
  0
VERTEX
  8
LAYER_5
 10
100.945
 20
143.2769
 42
-0.1318031426
  0
VERTEX
  8
LAYER_5
 10
96.2044
 20
138.8857
 42
-0.04298349919
  0
VERTEX
  8
LAYER_5
 10
93.9843
 20
137.9382
 42
-0.1613801795
  0
VERTEX
  8
LAYER_5
 10
54.6006
 20
137.9382
 42
-0.04236358706
  0
VERTEX
  8
LAYER_5
 10
52.3803
 20
138.8857
 42
-0.04357250854
  0
VERTEX
  8
LAYER_5
 10
50.4819
 20
140.1204
 42
-0.04368200918
  0
VERTEX
  8
LAYER_5
 10
48.9025
 20
141.5987
 42
-0.06359414282
  0
VERTEX
  8
LAYER_5
 10
47.1258
 20
144.1772
 42
-0.04025671146
  0
VERTEX
  8
LAYER_5
 10
46.3323
 20
146.0731
 42
-0.03868462929
  0
VERTEX
  8
LAYER_5
 10
45.8483
 20
148.0595
 42
-0.03758522234
  0
VERTEX
  8
LAYER_5
 10
45.6711
 20
150.0925
 42
-0.09331757451
  0
VERTEX
  8
LAYER_5
 10
46.5525
 20
155.0927
 42
-0.03920052224
  0
VERTEX
  8
LAYER_5
 10
47.4276
 20
156.9449
 42
-0.04090566417
  0
VERTEX
  8
LAYER_5
 10
48.5973
 20
158.647
 42
-0.1318142586
  0
VERTEX
  8
LAYER_5
 10
53.8463
 20
162.4154
 42
-0.04298610264
  0
VERTEX
  8
LAYER_5
 10
56.1668
 20
163.0798
 42
-0.01526200574
  0
VERTEX
  8
LAYER_5
 10
62.1743
 20
164.0825
 42
-0.01531468273
  0
VERTEX
  8
LAYER_5
 10
67.8296
 20
164.6715
 42
-0.01498997789
  0
VERTEX
  8
LAYER_5
 10
73.1698
 20
164.9004
 42
-0.0143022816
  0
VERTEX
  8
LAYER_5
 10
78.2235
 20
164.8201
 42
-0.01490305356
  0
VERTEX
  8
LAYER_5
 10
83.5766
 20
164.4216
 42
-0.01513311781
  0
VERTEX
  8
LAYER_5
 10
89.2599
 20
163.6541
 42
-0.007915085271
  0
SEQEND
  0
POLYLINE
  8
LAYER_5
 40
0.1235
 41
0.1235
 66
1
 10
0
 20
0
 30
0
  0
VERTEX
  8
LAYER_5
 10
58.1255
 20
84.5923
  0
VERTEX
  8
LAYER_5
 10
90.488
 20
84.5923
  0
SEQEND
  0
POLYLINE
  8
LAYER_5
 40
0.1905
 41
0.1905
 66
1
 10
0
 20
0
 30
0
 70
1
  0
VERTEX
  8
LAYER_5
 10
76.0684
 20
172.2606
 42
0.3934426813
  0
VERTEX
  8
LAYER_5
 10
74.2918
 20
174.0352
 42
0.4142285992
  0
VERTEX
  8
LAYER_5
 10
72.5158
 20
172.2606
 42
0.4142141712
  0
VERTEX
  8
LAYER_5
 10
74.2918
 20
170.4833
 42
0.4141985411
  0
SEQEND
  0
CIRCLE
  8
LAYER_5
 10
74.2918
 20
155.977
 40
3.7939
  0
POLYLINE
  8
LAYER_5
 40
0.381
 41
0.381
 66
1
 10
0
 20
0
 30
0
  0
VERTEX
  8
LAYER_5
 10
45.2139
 20
99.3779
  0
VERTEX
  8
LAYER_5
 10
103.404
 20
99.3779
  0
VERTEX
  8
LAYER_5
 10
103.3706
 20
99.3779
 42
-0.1093791148
  0
VERTEX
  8
LAYER_5
 10
103.6561
 20
99.3292
 42
-0.2516754876
  0
VERTEX
  8
LAYER_5
 10
103.8521
 20
99.0789
 42
-0.07361495037
  0
VERTEX
  8
LAYER_5
 10
103.8619
 20
98.8453
 42
-0.3297534779
  0
VERTEX
  8
LAYER_5
 10
91.4561
 20
84.6439
 42
0.1188602061
  0
VERTEX
  8
LAYER_5
 10
91.2098
 20
84.5393
 42
0.2395057816
  0
VERTEX
  8
LAYER_5
 10
91.0695
 20
84.2134
 42
0.01583796842
  0
VERTEX
  8
LAYER_5
 10
91.0682
 20
84.1613
  0
VERTEX
  8
LAYER_5
 10
91.0682
 20
83.5884
  0
VERTEX
  8
LAYER_5
 10
57.5167
 20
83.5884
  0
VERTEX
  8
LAYER_5
 10
57.5167
 20
84.1613
 42
0.120076592
  0
VERTEX
  8
LAYER_5
 10
57.468
 20
84.4236
 42
0.1232846687
  0
VERTEX
  8
LAYER_5
 10
57.3634
 20
84.548
 42
0.1063048502
  0
VERTEX
  8
LAYER_5
 10
57.1288
 20
84.6439
 42
-0.3297283306
  0
VERTEX
  8
LAYER_5
 10
44.7227
 20
98.8453
 42
-0.1101177524
  0
VERTEX
  8
LAYER_5
 10
44.7478
 20
99.1334
 42
-0.251595539
  0
VERTEX
  8
LAYER_5
 10
44.9818
 20
99.3488
 42
-0.07318861096
  0
VERTEX
  8
LAYER_5
 10
45.2139
 20
99.3779
  0
SEQEND
  0
INSERT
  8
LAYER_5
  2
AIGNBL05010006
 10
0
 20
0
 30
0
  0
INSERT
  8
LAYER_5
  2
AIGNBL05010008
 10
0
 20
0
 30
0
  0
INSERT
  8
LAYER_5
  2
AIGNBL0501000A
 10
0
 20
0
 30
0
  0
POLYLINE
  8
LAYER_5
 40
0.1058
 41
0.1058
 66
1
 10
0
 20
0
 30
0
  0
VERTEX
  8
LAYER_5
 10
68.7794
 20
104.5145
  0
VERTEX
  8
LAYER_5
 10
68.7794
 20
108.7303
  0
VERTEX
  8
LAYER_5
 10
79.638
 20
108.7303
  0
VERTEX
  8
LAYER_5
 10
79.638
 20
104.5145
  0
SEQEND
  0
INSERT
  8
LAYER_5
  2
AIGNBL0501000B
 10
0
 20
0
 30
0
  0
INSERT
  8
LAYER_5
  2
AIGNBL0501000C
 10
0
 20
0
 30
0
  0
INSERT
  8
LAYER_5
  2
AIGNBL0501000D
 10
0
 20
0
 30
0
  0
INSERT
  8
LAYER_5
  2
AIGNBL05010011
 10
0
 20
0
 30
0
  0
POLYLINE
  8
LAYER_5
 40
0.1058
 41
0.1058
 66
1
 10
0
 20
0
 30
0
  0
VERTEX
  8
LAYER_5
 10
145.135
 20
106.6987
  0
VERTEX
  8
LAYER_5
 10
152.3835
 20
106.6987
  0
VERTEX
  8
LAYER_5
 10
152.3835
 20
103.7966
  0
SEQEND
  0
INSERT
  8
LAYER_5
  2
AIGNBL05010015
 10
0
 20
0
 30
0
  0
INSERT
  8
LAYER_5
  2
AIGNBL05010016
 10
0
 20
0
 30
0
  0
INSERT
  8
LAYER_5
  2
AIGNBL05010017
 10
0
 20
0
 30
0
  0
INSERT
  8
LAYER_5
  2
AIGNBL05010018
 10
0
 20
0
 30
0
  0
INSERT
  8
LAYER_5
  2
AIGNBL05010019
 10
0
 20
0
 30
0
  0
INSERT
  8
LAYER_5
  2
AIGNBL0501001A
 10
0
 20
0
 30
0
  0
POLYLINE
  8
LAYER_5
 40
0.1058
 41
0.1058
 66
1
 10
0
 20
0
 30
0
  0
VERTEX
  8
LAYER_5
 10
152.3669
 20
92.055
  0
VERTEX
  8
LAYER_5
 10
152.3669
 20
89.2817
  0
SEQEND
  0
POLYLINE
  8
LAYER_5
 40
0.1058
 41
0.1058
 66
1
 10
0
 20
0
 30
0
  0
VERTEX
  8
LAYER_5
 10
152.3869
 20
99.2939
  0
VERTEX
  8
LAYER_5
 10
152.3793
 20
96.1902
  0
SEQEND
  0
POLYLINE
  8
LAYER_5
 40
0.05
 41
0.05
 62
255
 66
1
 10
0
 20
0
 30
0
 70
1
  0
VERTEX
  8
LAYER_5
 10
131.7666
 20
98.5721
  0
VERTEX
  8
LAYER_5
 10
130.2432
 20
84.7573
  0
VERTEX
  8
LAYER_5
 10
130.1412
 20
84.7573
  0
VERTEX
  8
LAYER_5
 10
130.1412
 20
98.5721
  0
SEQEND
  0
INSERT
  8
LAYER_5
  2
AIGNBL0501001B
 10
0
 20
0
 30
0
  0
INSERT
  8
LAYER_5
  2
AIGNBL0501001C
 10
0
 20
0
 30
0
  0
INSERT
  8
LAYER_5
  2
AIGNBL0501001D
 10
0
 20
0
 30
0
  0
INSERT
  8
LAYER_5
  2
AIGNBL0501001E
 10
0
 20
0
 30
0
  0
INSERT
  8
LAYER_5
  2
AIGNBL0501001F
 10
0
 20
0
 30
0
  0
INSERT
  8
LAYER_5
  2
AIGNBL05010020
 10
0
 20
0
 30
0
  0
POLYLINE
  8
LAYER_5
 40
0.1058
 41
0.1058
 66
1
 10
0
 20
0
 30
0
  0
VERTEX
  8
LAYER_5
 10
107.3258
 20
172.2606
  0
VERTEX
  8
LAYER_5
 10
110.858
 20
172.2606
  0
VERTEX
  8
LAYER_5
 10
110.858
 20
184.5978
  0
SEQEND
  0
INSERT
  8
LAYER_5
  2
AIGNBL05010021
 10
0
 20
0
 30
0
  0
INSERT
  8
LAYER_5
  2
AIGNBL05010022
 10
0
 20
0
 30
0
  0
INSERT
  8
LAYER_5
  2
AIGNBL05010023
 10
0
 20
0
 30
0
  0
POLYLINE
  8
LAYER_5
 40
0.1058
 41
0.1058
 66
1
 10
0
 20
0
 30
0
  0
VERTEX
  8
LAYER_5
 10
102.1274
 20
126.3589
  0
VERTEX
  8
LAYER_5
 10
104.0068
 20
126.3589
  0
VERTEX
  8
LAYER_5
 10
104.0068
 20
131.3556
  0
SEQEND
  0
POLYLINE
  8
LAYER_5
 40
0.1058
 41
0.1058
 66
1
 10
0
 20
0
 30
0
  0
VERTEX
  8
LAYER_5
 10
45.9883
 20
126.3589
  0
VERTEX
  8
LAYER_5
 10
44.1089
 20
126.3589
  0
VERTEX
  8
LAYER_5
 10
44.1089
 20
131.3556
  0
SEQEND
  0
INSERT
  8
LAYER_5
  2
AIGNBL05010024
 10
0
 20
0
 30
0
  0
INSERT
  8
LAYER_5
  2
AIGNBL05010025
 10
0
 20
0
 30
0
  0
POLYLINE
  8
LAYER_5
 40
0.1058
 41
0.1058
 66
1
 10
0
 20
0
 30
0
  0
VERTEX
  8
LAYER_5
 10
37.9467
 20
133.7917
  0
VERTEX
  8
LAYER_5
 10
27.0716
 20
133.7917
  0
VERTEX
  8
LAYER_5
 10
27.0716
 20
153.7553
  0
SEQEND
  0
POLYLINE
  8
LAYER_5
 40
0.1058
 41
0.1058
 66
1
 10
0
 20
0
 30
0
  0
VERTEX
  8
LAYER_5
 10
27.0716
 20
159.1524
  0
VERTEX
  8
LAYER_5
 10
27.0716
 20
179.363
  0
VERTEX
  8
LAYER_5
 10
33.2417
 20
179.363
  0
SEQEND
  0
TEXT
  8
LAYER_5
 10
30.7625
 20
154.4447
 11
30.7625
 21
154.4447
 40
3.5541
 41
0.5
 72
1
  1
460
  0
POLYLINE
  8
LAYER_5
 40
0.1058
 41
0.1058
 66
1
 10
0
 20
0
 30
0
  0
VERTEX
  8
LAYER_5
 10
37.9467
 20
146.5723
  0
VERTEX
  8
LAYER_5
 10
33.2062
 20
146.5723
  0
VERTEX
  8
LAYER_5
 10
33.2062
 20
162.1124
  0
SEQEND
  0
POLYLINE
  8
LAYER_5
 40
0.1058
 41
0.1058
 66
1
 10
0
 20
0
 30
0
  0
VERTEX
  8
LAYER_5
 10
33.2062
 20
167.5109
  0
VERTEX
  8
LAYER_5
 10
33.2059
 20
179.363
  0
VERTEX
  8
LAYER_5
 10
37.9832
 20
179.363
  0
SEQEND
  0
TEXT
  8
LAYER_5
 10
36.8961
 20
162.8028
 11
36.8961
 21
162.8028
 40
3.5541
 41
0.5
 72
1
  1
340
  0
INSERT
  8
LAYER_5
  2
AIGNBL05010026
 10
0
 20
0
 30
0
  0
INSERT
  8
LAYER_5
  2
AIGNBL05010027
 10
0
 20
0
 30
0
  0
TEXT
  8
LAYER_7
 10
-26.2556
 20
43.1712
 11
-26.2556
 21
43.1712
 40
3.2995
 41
0.5
  1
仕様
  0
POLYLINE
  8
LAYER_7
 40
0.3528
 41
0.3528
 66
1
 10
0
 20
0
 30
0
  0
VERTEX
  8
LAYER_7
 10
250.6748
 20
51.9507
  0
VERTEX
  8
LAYER_7
 10
-29.3178
 20
51.9507
  0
SEQEND
  0
INSERT
  8
LAYER_7
  2
AIGNBL07010002
 10
0
 20
0
 30
0
  0
POLYLINE
  8
LAYER_7
 40
0.3528
 41
0.3528
 66
1
 10
0
 20
0
 30
0
  0
VERTEX
  8
LAYER_7
 10
-29.3178
 20
229.3369
  0
VERTEX
  8
LAYER_7
 10
-29.3178
 20
34.3283
  0
VERTEX
  8
LAYER_7
 10
250.6748
 20
34.3283
  0
VERTEX
  8
LAYER_7
 10
250.6748
 20
229.3369
  0
VERTEX
  8
LAYER_7
 10
-29.3178
 20
229.3369
  0
SEQEND
  0
POLYLINE
  8
LAYER_7
 40
0.3528
 41
0.3528
 66
1
 10
0
 20
0
 30
0
  0
VERTEX
  8
LAYER_7
 10
250.6748
 20
60.4597
  0
VERTEX
  8
LAYER_7
 10
-29.3178
 20
60.4597
  0
SEQEND
  0
POLYLINE
  8
LAYER_7
 40
0.3528
 41
0.3528
 66
1
 10
0
 20
0
 30
0
  0
VERTEX
  8
LAYER_7
 10
250.6748
 20
43.4416
  0
VERTEX
  8
LAYER_7
 10
143.5341
 20
43.4416
  0
SEQEND
  0
TEXT
  8
LAYER_7
 10
188.1725
 20
45.7175
 11
188.1725
 21
45.7175
 40
3.7615
 41
0.5
  1
-
  0
TEXT
  8
LAYER_7
 10
182.8808
 20
49.4743
 11
182.8808
 21
49.4743
 40
2.1997
 41
0.5
  1
縮尺
  0
POLYLINE
  8
LAYER_7
 40
0.3528
 41
0.3528
 66
1
 10
0
 20
0
 30
0
  0
VERTEX
  8
LAYER_7
 10
181.3526
 20
43.4416
  0
VERTEX
  8
LAYER_7
 10
181.3526
 20
51.9507
  0
SEQEND
  0
TEXT
  8
LAYER_7
 10
144.2327
 20
57.9834
 11
144.2327
 21
57.9834
 40
2.1997
 41
0.5
  1
品番
  0
TEXT
  8
LAYER_7
 10
-28.1609
 20
57.9834
 11
-28.1609
 21
57.9834
 40
2.1997
 41
0.5
  1
品名
  0
TEXT
  8
LAYER_7
 10
144.2327
 20
49.4743
 11
144.2327
 21
49.4743
 40
2.1997
 41
0.5
  1
重量
  0
TEXT
  8
LAYER_7
 10
150.2547
 20
54.1514
 11
150.2547
 21
54.1514
 40
5.9385
 41
0.5
  1
SIM-VI10/
  0
POLYLINE
  8
LAYER_7
 40
0.3528
 41
0.3528
 66
1
 10
0
 20
0
 30
0
  0
VERTEX
  8
LAYER_7
 10
143.5341
 20
34.9539
  0
VERTEX
  8
LAYER_7
 10
143.5341
 20
60.4597
  0
SEQEND
  0
TEXT
  8
LAYER_7
 10
-15.3934
 20
54.891
 11
-15.3934
 21
54.891
 40
4.1465
 41
0.5
  1
ヴィニョーニ  壁付け／カウンター置き型洗面器600mm
  0
TEXT
  8
LAYER_7
 10
-15.6835
 20
45.3736
 11
-15.6835
 21
45.3736
 40
3.5541
 41
0.5
  1
●サイズ：W600×D500×H160mm●設置方法：壁付け／カウンター置き●背面釉薬なし（カウンター置きの際は壁に
  0
TEXT
  8
LAYER_7
 10
-15.6835
 20
40.6235
 11
-15.6835
 21
40.6235
 40
3.1177
 41
0.5
  1
付けてください）●l4栓取付zt：１zt●オーバーフロー付き●排l4帯具別途
  0
TEXT
  8
LAYER_7
 10
237.263
 20
63.2582
 11
237.263
 21
63.2582
 40
2.9618
 41
0.5
  1
単位：mm
  0
TEXT
  8
LAYER_7
 10
6.5217
 20
219.7385
 11
6.5217
 21
219.7385
 40
2.5981
 41
0.5
  1
※陶器製品は寸法公差が発生します。施工の際は必ず現物を合わせてご確認ください。
  0
TEXT
  8
LAYER_7
 10
6.5217
 20
214.9886
 11
6.5217
 21
214.9886
 40
2.5981
 41
0.5
  1
※製品と接する部分には必ずコーキング処理を行ってください。
  0
TEXT
  8
LAYER_7
 10
176.0254
 20
39.5359
 11
176.0254
 21
39.5359
 40
3.3853
 41
0.5
  1
●TEL 0120-65-1232●FAX 06-6532-1580
  0
TEXT
  8
LAYER_7
 10
176.0254
 20
36.0212
 11
176.0254
 21
36.0212
 40
3.3853
 41
0.5
  1
hits@hiratatile.co.jp
  0
INSERT
  8
LAYER_7
  2
AIGNBL07010003
 10
0
 20
0
 30
0
  0
INSERT
  8
LAYER_7
  2
AIGNBL07010025
 10
0
 20
0
 30
0
  0
TEXT
  8
LAYER_7
 10
157.2803
 20
46.4933
 11
157.2803
 21
46.4933
 40
3.7615
 41
0.5
  1
15kg
  0
TEXT
  8
LAYER_7
 10
240.3591
 20
225.8432
 11
240.3591
 21
225.8432
 40
2.0732
 41
0.5
  1
180612RT
  0
ENDSEC
  0
EOF
