  0
SECTION
  2
HEADER
  9
$ACADVER
  1
AC1009
  9
$LUNITS
 70
2
  9
$LUPREC
 70
4
  9
$LTSCALE
 40
1.0
  9
$EXTMIN
 10
33.7873
 20
-259.334
 30
0
  9
$EXTMAX
 10
230.7955
 20
22.6587
 30
0
  0
ENDSEC
  0
SECTION
  2
TABLES
  0
TABLE
  2
LTYPE
 70
256
  0
LTYPE
  2
AIGENLINE001
 70
64
  3
generate AI->DXF Converter
 72
65
 73
4
 40
14
 49
11
 49
-1
 49
1
 49
-1
  0
ENDTAB
  0
TABLE
  2
LAYER
 70
6
  0
LAYER
  2
LAYER_1
 70
64
 62
7
  6
CONTINUOUS
  0
LAYER
  2
LAYER_2
 70
64
 62
7
  6
CONTINUOUS
  0
LAYER
  2
LAYER_3
 70
64
 62
7
  6
CONTINUOUS
  0
LAYER
  2
LAYER_4
 70
64
 62
7
  6
CONTINUOUS
  0
LAYER
  2
LAYER_5
 70
64
 62
7
  6
CONTINUOUS
  0
LAYER
  2
LAYER_6
 70
64
 62
7
  6
CONTINUOUS
  0
ENDTAB
  0
TABLE
  2
STYLE
 70
6
  0
STYLE
  2
STANDARD
 70
0
 40
0
 50
0
 71
0
 41
0
 42
0
  3
TXT
  4
BIGFONT
  0
ENDTAB
  0
ENDSEC
  0
SECTION
  2
BLOCKS
  0
BLOCK
  8
LAYER_1
  2
AIGNBL01040005
 70
64
 10
0
 20
0
 30
0
  3
AIGNBL01040005
  0
POLYLINE
  8
LAYER_1
 40
0.05
 41
0.05
 66
1
 10
0
 20
0
 30
0
 70
1
  0
VERTEX
  8
LAYER_1
 10
138.3767
 20
-249.1011
  0
VERTEX
  8
LAYER_1
 10
137.891
 20
-250.2793
  0
VERTEX
  8
LAYER_1
 10
137.2664
 20
-250.2793
  0
VERTEX
  8
LAYER_1
 10
138.857
 20
-246.5355
  0
VERTEX
  8
LAYER_1
 10
139.586
 20
-246.5355
  0
VERTEX
  8
LAYER_1
 10
141.1828
 20
-250.2793
  0
VERTEX
  8
LAYER_1
 10
140.5365
 20
-250.2793
  0
VERTEX
  8
LAYER_1
 10
140.0369
 20
-249.1011
  0
SEQEND
  0
POLYLINE
  8
LAYER_1
 40
0.05
 41
0.05
 66
1
 10
0
 20
0
 30
0
 70
1
  0
VERTEX
  8
LAYER_1
 10
139.9115
 20
-248.7245
  0
VERTEX
  8
LAYER_1
 10
139.4533
 20
-247.6459
  0
VERTEX
  8
LAYER_1
 10
139.2101
 20
-246.963
  0
VERTEX
  8
LAYER_1
 10
139.1967
 20
-246.963
  0
VERTEX
  8
LAYER_1
 10
138.9603
 20
-247.6414
  0
VERTEX
  8
LAYER_1
 10
138.5021
 20
-248.7245
  0
SEQEND
  0
ENDBLK
  0
BLOCK
  8
LAYER_1
  2
AIGNBL01040006
 70
64
 10
0
 20
0
 30
0
  3
AIGNBL01040006
  0
POLYLINE
  8
LAYER_1
 40
0.05
 41
0.05
 66
1
 10
0
 20
0
 30
0
 70
1
  0
VERTEX
  8
LAYER_1
 10
145.5226
 20
-250.8295
 42
-0.01588995579
  0
VERTEX
  8
LAYER_1
 10
143.7311
 20
-250.3954
  0
VERTEX
  8
LAYER_1
 10
143.4465
 20
-250.3406
 42
-0.08603985201
  0
VERTEX
  8
LAYER_1
 10
142.5648
 20
-250.1665
 42
-0.09807603942
  0
VERTEX
  8
LAYER_1
 10
141.9131
 20
-249.7557
 42
-0.2094886647
  0
VERTEX
  8
LAYER_1
 10
141.3839
 20
-248.4469
 42
-0.09686882676
  0
VERTEX
  8
LAYER_1
 10
141.5276
 20
-247.6779
 42
-0.2046492491
  0
VERTEX
  8
LAYER_1
 10
142.5693
 20
-246.6597
 42
-0.09822810302
  0
VERTEX
  8
LAYER_1
 10
143.5644
 20
-246.4745
 42
-0.08551091506
  0
VERTEX
  8
LAYER_1
 10
144.4282
 20
-246.615
 42
-0.1004264881
  0
VERTEX
  8
LAYER_1
 10
145.0896
 20
-247.0069
 42
-0.2141381959
  0
VERTEX
  8
LAYER_1
 10
145.6617
 20
-248.3686
 42
-0.09538251124
  0
VERTEX
  8
LAYER_1
 10
145.5236
 20
-249.1322
 42
-0.2145004706
  0
VERTEX
  8
LAYER_1
 10
144.5063
 20
-250.1049
 42
-0.02339472194
  0
VERTEX
  8
LAYER_1
 10
144.3281
 20
-250.1628
  0
VERTEX
  8
LAYER_1
 10
144.3281
 20
-250.1852
  0
VERTEX
  8
LAYER_1
 10
145.6965
 20
-250.424
  0
SEQEND
  0
POLYLINE
  8
LAYER_1
 40
0.05
 41
0.05
 66
1
 10
0
 20
0
 30
0
 70
1
  0
VERTEX
  8
LAYER_1
 10
145.0233
 20
-248.39
 42
0.1071465477
  0
VERTEX
  8
LAYER_1
 10
144.8729
 20
-247.6894
 42
0.2977221891
  0
VERTEX
  8
LAYER_1
 10
143.5433
 20
-246.8687
 42
0.1072160189
  0
VERTEX
  8
LAYER_1
 10
142.8575
 20
-247.0073
 42
0.2385375056
  0
VERTEX
  8
LAYER_1
 10
142.0749
 20
-248.007
 42
0.05759145292
  0
VERTEX
  8
LAYER_1
 10
142.0296
 20
-248.4344
 42
0.2182236294
  0
VERTEX
  8
LAYER_1
 10
142.5575
 20
-249.6231
 42
0.1771891839
  0
VERTEX
  8
LAYER_1
 10
143.5161
 20
-249.9468
 42
0.1075696895
  0
VERTEX
  8
LAYER_1
 10
144.1932
 20
-249.8086
 42
0.236982977
  0
VERTEX
  8
LAYER_1
 10
144.9758
 20
-248.8146
 42
0.05604944619
  0
SEQEND
  0
ENDBLK
  0
BLOCK
  8
LAYER_1
  2
AIGNBL01040007
 70
64
 10
0
 20
0
 30
0
  3
AIGNBL01040007
  0
POLYLINE
  8
LAYER_1
 40
0.05
 41
0.05
 66
1
 10
0
 20
0
 30
0
 70
1
  0
VERTEX
  8
LAYER_1
 10
146.9815
 20
-246.5355
  0
VERTEX
  8
LAYER_1
 10
146.9815
 20
-248.7517
 42
0.114472655
  0
VERTEX
  8
LAYER_1
 10
147.1146
 20
-249.4136
 42
0.1464766
  0
VERTEX
  8
LAYER_1
 10
147.4628
 20
-249.7966
 42
0.1363197034
  0
VERTEX
  8
LAYER_1
 10
148.0716
 20
-249.9468
 42
0.1219363095
  0
VERTEX
  8
LAYER_1
 10
148.6913
 20
-249.8128
 42
0.1503291203
  0
VERTEX
  8
LAYER_1
 10
149.0609
 20
-249.446
 42
0.1255921242
  0
VERTEX
  8
LAYER_1
 10
149.2105
 20
-248.7517
  0
VERTEX
  8
LAYER_1
 10
149.2105
 20
-246.5355
  0
VERTEX
  8
LAYER_1
 10
149.8217
 20
-246.5355
  0
VERTEX
  8
LAYER_1
 10
149.8217
 20
-248.7187
 42
-0.1000186514
  0
VERTEX
  8
LAYER_1
 10
149.6875
 20
-249.4569
 42
-0.1214826848
  0
VERTEX
  8
LAYER_1
 10
149.3164
 20
-249.9606
 42
-0.1105884685
  0
VERTEX
  8
LAYER_1
 10
148.6945
 20
-250.2654
 42
-0.06129767201
  0
VERTEX
  8
LAYER_1
 10
148.0509
 20
-250.3406
 42
-0.09420892198
  0
VERTEX
  8
LAYER_1
 10
147.2365
 20
-250.2032
 42
-0.2431575096
  0
VERTEX
  8
LAYER_1
 10
146.4378
 20
-249.2978
 42
-0.06319469768
  0
VERTEX
  8
LAYER_1
 10
146.3707
 20
-248.7404
  0
VERTEX
  8
LAYER_1
 10
146.3707
 20
-246.5355
  0
SEQEND
  0
ENDBLK
  0
BLOCK
  8
LAYER_1
  2
AIGNBL01040008
 70
64
 10
0
 20
0
 30
0
  3
AIGNBL01040008
  0
POLYLINE
  8
LAYER_1
 40
0.05
 41
0.05
 66
1
 10
0
 20
0
 30
0
 70
1
  0
VERTEX
  8
LAYER_1
 10
151.5573
 20
-249.1011
  0
VERTEX
  8
LAYER_1
 10
151.0709
 20
-250.2793
  0
VERTEX
  8
LAYER_1
 10
150.447
 20
-250.2793
  0
VERTEX
  8
LAYER_1
 10
152.0365
 20
-246.5355
  0
VERTEX
  8
LAYER_1
 10
152.7655
 20
-246.5355
  0
VERTEX
  8
LAYER_1
 10
154.3623
 20
-250.2793
  0
VERTEX
  8
LAYER_1
 10
153.7167
 20
-250.2793
  0
VERTEX
  8
LAYER_1
 10
153.2175
 20
-249.1011
  0
SEQEND
  0
POLYLINE
  8
LAYER_1
 40
0.05
 41
0.05
 66
1
 10
0
 20
0
 30
0
 70
1
  0
VERTEX
  8
LAYER_1
 10
153.0921
 20
-248.7245
  0
VERTEX
  8
LAYER_1
 10
152.6332
 20
-247.6459
  0
VERTEX
  8
LAYER_1
 10
152.3897
 20
-246.963
  0
VERTEX
  8
LAYER_1
 10
152.3759
 20
-246.963
  0
VERTEX
  8
LAYER_1
 10
152.1402
 20
-247.6414
  0
VERTEX
  8
LAYER_1
 10
151.682
 20
-248.7245
  0
SEQEND
  0
ENDBLK
  0
BLOCK
  8
LAYER_1
  2
AIGNBL01040009
 70
64
 10
0
 20
0
 30
0
  3
AIGNBL01040009
  0
POLYLINE
  8
LAYER_1
 40
0.05
 41
0.05
 66
1
 10
0
 20
0
 30
0
 70
1
  0
VERTEX
  8
LAYER_1
 10
155.3969
 20
-246.58
 42
-0.03256094069
  0
VERTEX
  8
LAYER_1
 10
156.5576
 20
-246.5072
 42
-0.08241612935
  0
VERTEX
  8
LAYER_1
 10
157.5173
 20
-246.6416
 42
-0.07669938049
  0
VERTEX
  8
LAYER_1
 10
157.8691
 20
-246.8184
 42
-0.2484913661
  0
VERTEX
  8
LAYER_1
 10
158.279
 20
-247.6018
 42
-0.2263535337
  0
VERTEX
  8
LAYER_1
 10
157.9177
 20
-248.4014
 42
-0.1098394792
  0
VERTEX
  8
LAYER_1
 10
157.2932
 20
-248.7128
 42
-0.0656406839
  0
VERTEX
  8
LAYER_1
 10
156.4872
 20
-248.8127
 42
-0.06243203296
  0
VERTEX
  8
LAYER_1
 10
156.0015
 20
-248.7793
  0
VERTEX
  8
LAYER_1
 10
156.0015
 20
-250.2793
  0
VERTEX
  8
LAYER_1
 10
155.3969
 20
-250.2793
  0
SEQEND
  0
POLYLINE
  8
LAYER_1
 40
0.05
 41
0.05
 66
1
 10
0
 20
0
 30
0
 70
1
  0
VERTEX
  8
LAYER_1
 10
156.0015
 20
-248.3852
 42
0.04167858666
  0
VERTEX
  8
LAYER_1
 10
156.501
 20
-248.4245
 42
0.1033682296
  0
VERTEX
  8
LAYER_1
 10
157.216
 20
-248.2977
 42
0.300261568
  0
VERTEX
  8
LAYER_1
 10
157.6751
 20
-247.6242
 42
0.1736095203
  0
VERTEX
  8
LAYER_1
 10
157.5412
 20
-247.2193
 42
0.1518049397
  0
VERTEX
  8
LAYER_1
 10
157.1227
 20
-246.9614
 42
0.06878721899
  0
VERTEX
  8
LAYER_1
 10
156.5713
 20
-246.891
 42
0.0640598863
  0
VERTEX
  8
LAYER_1
 10
156.0015
 20
-246.93
  0
SEQEND
  0
ENDBLK
  0
BLOCK
  8
LAYER_1
  2
AIGNBL0104000A
 70
64
 10
0
 20
0
 30
0
  3
AIGNBL0104000A
  0
POLYLINE
  8
LAYER_1
 40
0.05
 41
0.05
 66
1
 10
0
 20
0
 30
0
 70
1
  0
VERTEX
  8
LAYER_1
 10
159.8218
 20
-246.8352
 42
-0.2759870412
  0
VERTEX
  8
LAYER_1
 10
159.6829
 20
-247.0742
 42
-0.1267055018
  0
VERTEX
  8
LAYER_1
 10
159.4325
 20
-247.1356
 42
-0.2239956238
  0
VERTEX
  8
LAYER_1
 10
159.1241
 20
-247.0039
 42
-0.1705452753
  0
VERTEX
  8
LAYER_1
 10
159.0645
 20
-246.8352
 42
-0.2641883957
  0
VERTEX
  8
LAYER_1
 10
159.2127
 20
-246.5896
 42
-0.1291792354
  0
VERTEX
  8
LAYER_1
 10
159.4459
 20
-246.53
 42
-0.2251681707
  0
VERTEX
  8
LAYER_1
 10
159.761
 20
-246.6599
 42
-0.1693099844
  0
SEQEND
  0
POLYLINE
  8
LAYER_1
 40
0.05
 41
0.05
 66
1
 10
0
 20
0
 30
0
 70
1
  0
VERTEX
  8
LAYER_1
 10
159.1407
 20
-250.2793
  0
VERTEX
  8
LAYER_1
 10
159.1407
 20
-247.5907
  0
VERTEX
  8
LAYER_1
 10
159.7515
 20
-247.5907
  0
VERTEX
  8
LAYER_1
 10
159.7515
 20
-250.2793
  0
SEQEND
  0
ENDBLK
  0
BLOCK
  8
LAYER_1
  2
AIGNBL0104000B
 70
64
 10
0
 20
0
 30
0
  3
AIGNBL0104000B
  0
POLYLINE
  8
LAYER_1
 40
0.05
 41
0.05
 66
1
 10
0
 20
0
 30
0
 70
1
  0
VERTEX
  8
LAYER_1
 10
161.6118
 20
-249.1011
  0
VERTEX
  8
LAYER_1
 10
161.1271
 20
-250.2793
  0
VERTEX
  8
LAYER_1
 10
160.5015
 20
-250.2793
  0
VERTEX
  8
LAYER_1
 10
162.0918
 20
-246.5355
  0
VERTEX
  8
LAYER_1
 10
162.8211
 20
-246.5355
  0
VERTEX
  8
LAYER_1
 10
164.4186
 20
-250.2793
  0
VERTEX
  8
LAYER_1
 10
163.7719
 20
-250.2793
  0
VERTEX
  8
LAYER_1
 10
163.2727
 20
-249.1011
  0
SEQEND
  0
POLYLINE
  8
LAYER_1
 40
0.05
 41
0.05
 66
1
 10
0
 20
0
 30
0
 70
1
  0
VERTEX
  8
LAYER_1
 10
163.1473
 20
-248.7245
  0
VERTEX
  8
LAYER_1
 10
162.6891
 20
-247.6459
  0
VERTEX
  8
LAYER_1
 10
162.4466
 20
-246.963
  0
VERTEX
  8
LAYER_1
 10
162.4321
 20
-246.963
  0
VERTEX
  8
LAYER_1
 10
162.1961
 20
-247.6414
  0
VERTEX
  8
LAYER_1
 10
161.7379
 20
-248.7245
  0
SEQEND
  0
ENDBLK
  0
BLOCK
  8
LAYER_1
  2
AIGNBL01030004
 70
64
 10
0
 20
0
 30
0
  3
AIGNBL01030004
  0
INSERT
  8
LAYER_1
  2
AIGNBL01040005
 10
0
 20
0
 30
0
  0
INSERT
  8
LAYER_1
  2
AIGNBL01040006
 10
0
 20
0
 30
0
  0
INSERT
  8
LAYER_1
  2
AIGNBL01040007
 10
0
 20
0
 30
0
  0
INSERT
  8
LAYER_1
  2
AIGNBL01040008
 10
0
 20
0
 30
0
  0
INSERT
  8
LAYER_1
  2
AIGNBL01040009
 10
0
 20
0
 30
0
  0
INSERT
  8
LAYER_1
  2
AIGNBL0104000A
 10
0
 20
0
 30
0
  0
INSERT
  8
LAYER_1
  2
AIGNBL0104000B
 10
0
 20
0
 30
0
  0
ENDBLK
  0
BLOCK
  8
LAYER_1
  2
AIGNBL0103000D
 70
64
 10
0
 20
0
 30
0
  3
AIGNBL0103000D
  0
POLYLINE
  8
LAYER_1
 40
0.05
 41
0.05
 66
1
 10
0
 20
0
 30
0
 70
1
  0
VERTEX
  8
LAYER_1
 10
137.3756
 20
-252.1676
  0
VERTEX
  8
LAYER_1
 10
137.9258
 20
-252.1676
  0
VERTEX
  8
LAYER_1
 10
137.9258
 20
-252.2609
  0
VERTEX
  8
LAYER_1
 10
137.2715
 20
-252.2609
  0
VERTEX
  8
LAYER_1
 10
137.2715
 20
-251.2339
  0
VERTEX
  8
LAYER_1
 10
137.9082
 20
-251.2339
  0
VERTEX
  8
LAYER_1
 10
137.9082
 20
-251.3266
  0
VERTEX
  8
LAYER_1
 10
137.3756
 20
-251.3266
  0
VERTEX
  8
LAYER_1
 10
137.3756
 20
-251.6787
  0
VERTEX
  8
LAYER_1
 10
137.8734
 20
-251.6787
  0
VERTEX
  8
LAYER_1
 10
137.8734
 20
-251.7717
  0
VERTEX
  8
LAYER_1
 10
137.3756
 20
-251.7717
  0
SEQEND
  0
ENDBLK
  0
BLOCK
  8
LAYER_1
  2
AIGNBL0103000E
 70
64
 10
0
 20
0
 30
0
  3
AIGNBL0103000E
  0
POLYLINE
  8
LAYER_1
 40
0.05
 41
0.05
 66
1
 10
0
 20
0
 30
0
 70
1
  0
VERTEX
  8
LAYER_1
 10
139.0589
 20
-252.1079
  0
VERTEX
  8
LAYER_1
 10
139.0613
 20
-252.1079
  0
VERTEX
  8
LAYER_1
 10
139.0613
 20
-251.2339
  0
VERTEX
  8
LAYER_1
 10
139.1663
 20
-251.2339
  0
VERTEX
  8
LAYER_1
 10
139.1663
 20
-252.2609
  0
VERTEX
  8
LAYER_1
 10
139.0365
 20
-252.2609
  0
VERTEX
  8
LAYER_1
 10
138.4384
 20
-251.3772
  0
VERTEX
  8
LAYER_1
 10
138.435
 20
-251.3772
  0
VERTEX
  8
LAYER_1
 10
138.435
 20
-252.2609
  0
VERTEX
  8
LAYER_1
 10
138.3306
 20
-252.2609
  0
VERTEX
  8
LAYER_1
 10
138.3306
 20
-251.2339
  0
VERTEX
  8
LAYER_1
 10
138.4611
 20
-251.2339
  0
SEQEND
  0
ENDBLK
  0
BLOCK
  8
LAYER_1
  2
AIGNBL0103000F
 70
64
 10
0
 20
0
 30
0
  3
AIGNBL0103000F
  0
POLYLINE
  8
LAYER_1
 40
0.05
 41
0.05
 66
1
 10
0
 20
0
 30
0
 70
1
  0
VERTEX
  8
LAYER_1
 10
139.637
 20
-252.0501
  0
VERTEX
  8
LAYER_1
 10
139.691
 20
-252.1527
 42
0.1791739205
  0
VERTEX
  8
LAYER_1
 10
139.8034
 20
-252.1937
  0
VERTEX
  8
LAYER_1
 10
139.8922
 20
-252.1744
  0
VERTEX
  8
LAYER_1
 10
139.948
 20
-252.1214
  0
VERTEX
  8
LAYER_1
 10
139.9763
 20
-252.0453
  0
VERTEX
  8
LAYER_1
 10
139.9853
 20
-251.956
  0
VERTEX
  8
LAYER_1
 10
139.9853
 20
-251.2339
  0
VERTEX
  8
LAYER_1
 10
140.0893
 20
-251.2339
  0
VERTEX
  8
LAYER_1
 10
140.0893
 20
-251.965
  0
VERTEX
  8
LAYER_1
 10
140.0783
 20
-252.0718
  0
VERTEX
  8
LAYER_1
 10
140.0369
 20
-252.1765
  0
VERTEX
  8
LAYER_1
 10
139.9529
 20
-252.2554
  0
VERTEX
  8
LAYER_1
 10
139.8147
 20
-252.2868
 42
-0.18823279
  0
VERTEX
  8
LAYER_1
 10
139.6311
 20
-252.2268
 42
-0.1779708983
  0
VERTEX
  8
LAYER_1
 10
139.5391
 20
-252.0769
  0
SEQEND
  0
ENDBLK
  0
BLOCK
  8
LAYER_1
  2
AIGNBL01030010
 70
64
 10
0
 20
0
 30
0
  3
AIGNBL01030010
  0
POLYLINE
  8
LAYER_1
 40
0.05
 41
0.05
 66
1
 10
0
 20
0
 30
0
 70
1
  0
VERTEX
  8
LAYER_1
 10
141.5693
 20
-251.7469
 42
-0.104348301
  0
VERTEX
  8
LAYER_1
 10
141.5279
 20
-251.9629
 42
-0.1013865216
  0
VERTEX
  8
LAYER_1
 10
141.4163
 20
-252.1338
  0
VERTEX
  8
LAYER_1
 10
141.2458
 20
-252.2461
 42
-0.09497960855
  0
VERTEX
  8
LAYER_1
 10
141.0332
 20
-252.2868
 42
-0.1003676177
  0
VERTEX
  8
LAYER_1
 10
140.8207
 20
-252.2461
  0
VERTEX
  8
LAYER_1
 10
140.6512
 20
-252.1338
 42
-0.09474436642
  0
VERTEX
  8
LAYER_1
 10
140.5389
 20
-251.9629
 42
-0.09317427323
  0
VERTEX
  8
LAYER_1
 10
140.4986
 20
-251.7469
 42
-0.1052531491
  0
VERTEX
  8
LAYER_1
 10
140.5389
 20
-251.5306
 42
-0.1000138279
  0
VERTEX
  8
LAYER_1
 10
140.6512
 20
-251.3604
 42
-0.09581503346
  0
VERTEX
  8
LAYER_1
 10
140.8207
 20
-251.2481
 42
-0.09561956468
  0
VERTEX
  8
LAYER_1
 10
141.0332
 20
-251.2071
 42
-0.1024782491
  0
VERTEX
  8
LAYER_1
 10
141.2458
 20
-251.2481
 42
-0.1014786584
  0
VERTEX
  8
LAYER_1
 10
141.4163
 20
-251.3604
 42
-0.09815577957
  0
VERTEX
  8
LAYER_1
 10
141.5279
 20
-251.5306
 42
-0.09523735002
  0
SEQEND
  0
POLYLINE
  8
LAYER_1
 40
0.05
 41
0.05
 66
1
 10
0
 20
0
 30
0
 70
1
  0
VERTEX
  8
LAYER_1
 10
141.4584
 20
-251.7476
  0
VERTEX
  8
LAYER_1
 10
141.4301
 20
-251.5767
  0
VERTEX
  8
LAYER_1
 10
141.3454
 20
-251.4344
  0
VERTEX
  8
LAYER_1
 10
141.211
 20
-251.337
 42
0.1026237584
  0
VERTEX
  8
LAYER_1
 10
141.0332
 20
-251.3001
 42
0.1147987019
  0
VERTEX
  8
LAYER_1
 10
140.8558
 20
-251.337
  0
VERTEX
  8
LAYER_1
 10
140.7225
 20
-251.4344
  0
VERTEX
  8
LAYER_1
 10
140.6374
 20
-251.5767
  0
VERTEX
  8
LAYER_1
 10
140.6081
 20
-251.7476
  0
VERTEX
  8
LAYER_1
 10
140.6374
 20
-251.9188
  0
VERTEX
  8
LAYER_1
 10
140.7225
 20
-252.0607
  0
VERTEX
  8
LAYER_1
 10
140.8558
 20
-252.1575
  0
VERTEX
  8
LAYER_1
 10
141.0332
 20
-252.1937
 42
0.1185100977
  0
VERTEX
  8
LAYER_1
 10
141.211
 20
-252.1575
  0
VERTEX
  8
LAYER_1
 10
141.3454
 20
-252.0607
  0
VERTEX
  8
LAYER_1
 10
141.4301
 20
-251.9188
  0
SEQEND
  0
ENDBLK
  0
BLOCK
  8
LAYER_1
  2
AIGNBL01030011
 70
64
 10
0
 20
0
 30
0
  3
AIGNBL01030011
  0
POLYLINE
  8
LAYER_1
 40
0.05
 41
0.05
 66
1
 10
0
 20
0
 30
0
 70
1
  0
VERTEX
  8
LAYER_1
 10
142.3393
 20
-252.2609
  0
VERTEX
  8
LAYER_1
 10
142.2349
 20
-252.2609
  0
VERTEX
  8
LAYER_1
 10
142.2349
 20
-251.8182
  0
VERTEX
  8
LAYER_1
 10
141.8504
 20
-251.2339
  0
VERTEX
  8
LAYER_1
 10
141.9813
 20
-251.2339
  0
VERTEX
  8
LAYER_1
 10
142.2904
 20
-251.7311
  0
VERTEX
  8
LAYER_1
 10
142.6022
 20
-251.2339
  0
VERTEX
  8
LAYER_1
 10
142.7234
 20
-251.2339
  0
VERTEX
  8
LAYER_1
 10
142.3393
 20
-251.8182
  0
SEQEND
  0
ENDBLK
  0
BLOCK
  8
LAYER_1
  2
AIGNBL01030012
 70
64
 10
0
 20
0
 30
0
  3
AIGNBL01030012
  0
POLYLINE
  8
LAYER_1
 40
0.05
 41
0.05
 66
1
 10
0
 20
0
 30
0
 70
1
  0
VERTEX
  8
LAYER_1
 10
143.6236
 20
-251.2339
  0
VERTEX
  8
LAYER_1
 10
143.9288
 20
-251.2339
  0
VERTEX
  8
LAYER_1
 10
144.047
 20
-251.2457
  0
VERTEX
  8
LAYER_1
 10
144.1528
 20
-251.288
  0
VERTEX
  8
LAYER_1
 10
144.2307
 20
-251.3686
  0
VERTEX
  8
LAYER_1
 10
144.2603
 20
-251.4961
 42
-0.1778951175
  0
VERTEX
  8
LAYER_1
 10
144.2103
 20
-251.6373
 42
-0.1614829203
  0
VERTEX
  8
LAYER_1
 10
144.078
 20
-251.7166
  0
VERTEX
  8
LAYER_1
 10
144.078
 20
-251.7194
 42
-0.1736511409
  0
VERTEX
  8
LAYER_1
 10
144.2434
 20
-251.7969
 42
-0.1925337955
  0
VERTEX
  8
LAYER_1
 10
144.3099
 20
-251.9764
  0
VERTEX
  8
LAYER_1
 10
144.2823
 20
-252.0928
  0
VERTEX
  8
LAYER_1
 10
144.2062
 20
-252.1831
  0
VERTEX
  8
LAYER_1
 10
144.0866
 20
-252.2402
  0
VERTEX
  8
LAYER_1
 10
143.9275
 20
-252.2609
  0
VERTEX
  8
LAYER_1
 10
143.6236
 20
-252.2609
  0
SEQEND
  0
POLYLINE
  8
LAYER_1
 40
0.05
 41
0.05
 66
1
 10
0
 20
0
 30
0
 70
1
  0
VERTEX
  8
LAYER_1
 10
143.7277
 20
-251.6832
  0
VERTEX
  8
LAYER_1
 10
143.9382
 20
-251.6832
  0
VERTEX
  8
LAYER_1
 10
144.0146
 20
-251.6742
  0
VERTEX
  8
LAYER_1
 10
144.0842
 20
-251.6453
  0
VERTEX
  8
LAYER_1
 10
144.1362
 20
-251.5888
  0
VERTEX
  8
LAYER_1
 10
144.1552
 20
-251.5034
  0
VERTEX
  8
LAYER_1
 10
144.1362
 20
-251.4203
  0
VERTEX
  8
LAYER_1
 10
144.0835
 20
-251.3638
  0
VERTEX
  8
LAYER_1
 10
144.005
 20
-251.3328
  0
VERTEX
  8
LAYER_1
 10
143.9089
 20
-251.3235
  0
VERTEX
  8
LAYER_1
 10
143.7277
 20
-251.3235
  0
SEQEND
  0
POLYLINE
  8
LAYER_1
 40
0.05
 41
0.05
 66
1
 10
0
 20
0
 30
0
 70
1
  0
VERTEX
  8
LAYER_1
 10
143.7277
 20
-252.171
  0
VERTEX
  8
LAYER_1
 10
143.9223
 20
-252.171
  0
VERTEX
  8
LAYER_1
 10
144.0301
 20
-252.1596
  0
VERTEX
  8
LAYER_1
 10
144.1204
 20
-252.1252
  0
VERTEX
  8
LAYER_1
 10
144.181
 20
-252.0625
  0
VERTEX
  8
LAYER_1
 10
144.2048
 20
-251.9705
 42
0.2546661425
  0
VERTEX
  8
LAYER_1
 10
144.1362
 20
-251.8189
 42
0.138509597
  0
VERTEX
  8
LAYER_1
 10
143.9413
 20
-251.7686
  0
VERTEX
  8
LAYER_1
 10
143.7277
 20
-251.7686
  0
SEQEND
  0
ENDBLK
  0
BLOCK
  8
LAYER_1
  2
AIGNBL01030013
 70
64
 10
0
 20
0
 30
0
  3
AIGNBL01030013
  0
POLYLINE
  8
LAYER_1
 40
0.05
 41
0.05
 66
1
 10
0
 20
0
 30
0
 70
1
  0
VERTEX
  8
LAYER_1
 10
144.7388
 20
-252.2609
  0
VERTEX
  8
LAYER_1
 10
144.6241
 20
-252.2609
  0
VERTEX
  8
LAYER_1
 10
145.0685
 20
-251.2339
  0
VERTEX
  8
LAYER_1
 10
145.1705
 20
-251.2339
  0
VERTEX
  8
LAYER_1
 10
145.6111
 20
-252.2609
  0
VERTEX
  8
LAYER_1
 10
145.4943
 20
-252.2609
  0
VERTEX
  8
LAYER_1
 10
145.3813
 20
-251.9912
  0
VERTEX
  8
LAYER_1
 10
144.8504
 20
-251.9912
  0
SEQEND
  0
POLYLINE
  8
LAYER_1
 40
0.05
 41
0.05
 66
1
 10
0
 20
0
 30
0
 70
1
  0
VERTEX
  8
LAYER_1
 10
144.8894
 20
-251.8947
  0
VERTEX
  8
LAYER_1
 10
145.3424
 20
-251.8947
  0
VERTEX
  8
LAYER_1
 10
145.1164
 20
-251.3493
  0
SEQEND
  0
ENDBLK
  0
BLOCK
  8
LAYER_1
  2
AIGNBL01030014
 70
64
 10
0
 20
0
 30
0
  3
AIGNBL01030014
  0
POLYLINE
  8
LAYER_1
 40
0.05
 41
0.05
 66
1
 10
0
 20
0
 30
0
 70
1
  0
VERTEX
  8
LAYER_1
 10
146.2915
 20
-252.2609
  0
VERTEX
  8
LAYER_1
 10
146.1871
 20
-252.2609
  0
VERTEX
  8
LAYER_1
 10
146.1871
 20
-251.3266
  0
VERTEX
  8
LAYER_1
 10
145.8426
 20
-251.3266
  0
VERTEX
  8
LAYER_1
 10
145.8426
 20
-251.2339
  0
VERTEX
  8
LAYER_1
 10
146.635
 20
-251.2339
  0
VERTEX
  8
LAYER_1
 10
146.635
 20
-251.3266
  0
VERTEX
  8
LAYER_1
 10
146.2915
 20
-251.3266
  0
SEQEND
  0
ENDBLK
  0
BLOCK
  8
LAYER_1
  2
AIGNBL01030015
 70
64
 10
0
 20
0
 30
0
  3
AIGNBL01030015
  0
POLYLINE
  8
LAYER_1
 40
0.05
 41
0.05
 66
1
 10
0
 20
0
 30
0
 70
1
  0
VERTEX
  8
LAYER_1
 10
146.9888
 20
-251.2339
  0
VERTEX
  8
LAYER_1
 10
147.0932
 20
-251.2339
  0
VERTEX
  8
LAYER_1
 10
147.0932
 20
-251.6787
  0
VERTEX
  8
LAYER_1
 10
147.654
 20
-251.6787
  0
VERTEX
  8
LAYER_1
 10
147.654
 20
-251.2339
  0
VERTEX
  8
LAYER_1
 10
147.7581
 20
-251.2339
  0
VERTEX
  8
LAYER_1
 10
147.7581
 20
-252.2609
  0
VERTEX
  8
LAYER_1
 10
147.654
 20
-252.2609
  0
VERTEX
  8
LAYER_1
 10
147.654
 20
-251.7745
  0
VERTEX
  8
LAYER_1
 10
147.0932
 20
-251.7745
  0
VERTEX
  8
LAYER_1
 10
147.0932
 20
-252.2609
  0
VERTEX
  8
LAYER_1
 10
146.9888
 20
-252.2609
  0
SEQEND
  0
ENDBLK
  0
BLOCK
  8
LAYER_1
  2
AIGNBL01030016
 70
64
 10
0
 20
0
 30
0
  3
AIGNBL01030016
  0
POLYLINE
  8
LAYER_1
 40
0.05
 41
0.05
 66
1
 10
0
 20
0
 30
0
 70
1
  0
VERTEX
  8
LAYER_1
 10
148.3351
 20
-252.2609
  0
VERTEX
  8
LAYER_1
 10
148.2311
 20
-252.2609
  0
VERTEX
  8
LAYER_1
 10
148.2311
 20
-251.2339
  0
VERTEX
  8
LAYER_1
 10
148.5322
 20
-251.2339
  0
VERTEX
  8
LAYER_1
 10
148.6724
 20
-251.2481
  0
VERTEX
  8
LAYER_1
 10
148.7844
 20
-251.2953
  0
VERTEX
  8
LAYER_1
 10
148.8571
 20
-251.38
  0
VERTEX
  8
LAYER_1
 10
148.8829
 20
-251.5078
  0
VERTEX
  8
LAYER_1
 10
148.8636
 20
-251.6108
  0
VERTEX
  8
LAYER_1
 10
148.8088
 20
-251.6911
  0
VERTEX
  8
LAYER_1
 10
148.7258
 20
-251.7459
  0
VERTEX
  8
LAYER_1
 10
148.6214
 20
-251.7717
  0
VERTEX
  8
LAYER_1
 10
148.9211
 20
-252.2609
  0
VERTEX
  8
LAYER_1
 10
148.7937
 20
-252.2609
  0
VERTEX
  8
LAYER_1
 10
148.5098
 20
-251.7807
  0
VERTEX
  8
LAYER_1
 10
148.3351
 20
-251.7807
  0
SEQEND
  0
POLYLINE
  8
LAYER_1
 40
0.05
 41
0.05
 66
1
 10
0
 20
0
 30
0
 70
1
  0
VERTEX
  8
LAYER_1
 10
148.3351
 20
-251.6904
  0
VERTEX
  8
LAYER_1
 10
148.517
 20
-251.6904
 42
0.1622417858
  0
VERTEX
  8
LAYER_1
 10
148.711
 20
-251.6453
 42
0.2500476248
  0
VERTEX
  8
LAYER_1
 10
148.7799
 20
-251.5078
  0
VERTEX
  8
LAYER_1
 10
148.7602
 20
-251.4224
  0
VERTEX
  8
LAYER_1
 10
148.7079
 20
-251.3652
  0
VERTEX
  8
LAYER_1
 10
148.6269
 20
-251.3338
  0
VERTEX
  8
LAYER_1
 10
148.5212
 20
-251.3235
  0
VERTEX
  8
LAYER_1
 10
148.3351
 20
-251.3235
  0
SEQEND
  0
ENDBLK
  0
BLOCK
  8
LAYER_1
  2
AIGNBL01030017
 70
64
 10
0
 20
0
 30
0
  3
AIGNBL01030017
  0
POLYLINE
  8
LAYER_1
 40
0.05
 41
0.05
 66
1
 10
0
 20
0
 30
0
 70
1
  0
VERTEX
  8
LAYER_1
 10
150.3154
 20
-251.7469
 42
-0.1015060182
  0
VERTEX
  8
LAYER_1
 10
150.2747
 20
-251.9629
 42
-0.09993540575
  0
VERTEX
  8
LAYER_1
 10
150.1624
 20
-252.1338
 42
-0.09525489566
  0
VERTEX
  8
LAYER_1
 10
149.9926
 20
-252.2461
 42
-0.09491251156
  0
VERTEX
  8
LAYER_1
 10
149.78
 20
-252.2868
 42
-0.1002015795
  0
VERTEX
  8
LAYER_1
 10
149.5674
 20
-252.2461
 42
-0.1016690689
  0
VERTEX
  8
LAYER_1
 10
149.3979
 20
-252.1338
 42
-0.09667300425
  0
VERTEX
  8
LAYER_1
 10
149.2856
 20
-251.9629
 42
-0.09262920428
  0
VERTEX
  8
LAYER_1
 10
149.2453
 20
-251.7469
 42
-0.09846568495
  0
VERTEX
  8
LAYER_1
 10
149.2856
 20
-251.5306
 42
-0.09950302227
  0
VERTEX
  8
LAYER_1
 10
149.3979
 20
-251.3604
 42
-0.09832237419
  0
VERTEX
  8
LAYER_1
 10
149.5674
 20
-251.2481
 42
-0.09564774702
  0
VERTEX
  8
LAYER_1
 10
149.78
 20
-251.2071
 42
-0.1014301699
  0
VERTEX
  8
LAYER_1
 10
149.9926
 20
-251.2481
 42
-0.1041253763
  0
VERTEX
  8
LAYER_1
 10
150.1624
 20
-251.3604
 42
-0.09489987116
  0
VERTEX
  8
LAYER_1
 10
150.2747
 20
-251.5306
 42
-0.09342113907
  0
SEQEND
  0
POLYLINE
  8
LAYER_1
 40
0.05
 41
0.05
 66
1
 10
0
 20
0
 30
0
 70
1
  0
VERTEX
  8
LAYER_1
 10
150.2051
 20
-251.7476
  0
VERTEX
  8
LAYER_1
 10
150.1762
 20
-251.5767
  0
VERTEX
  8
LAYER_1
 10
150.0921
 20
-251.4344
  0
VERTEX
  8
LAYER_1
 10
149.9581
 20
-251.337
 42
0.1022827687
  0
VERTEX
  8
LAYER_1
 10
149.78
 20
-251.3001
 42
0.1183846388
  0
VERTEX
  8
LAYER_1
 10
149.6026
 20
-251.337
  0
VERTEX
  8
LAYER_1
 10
149.4682
 20
-251.4344
  0
VERTEX
  8
LAYER_1
 10
149.3842
 20
-251.5767
  0
VERTEX
  8
LAYER_1
 10
149.3549
 20
-251.7476
  0
VERTEX
  8
LAYER_1
 10
149.3842
 20
-251.9188
  0
VERTEX
  8
LAYER_1
 10
149.4682
 20
-252.0607
  0
VERTEX
  8
LAYER_1
 10
149.6026
 20
-252.1575
 42
0.1007973502
  0
VERTEX
  8
LAYER_1
 10
149.78
 20
-252.1937
  0
VERTEX
  8
LAYER_1
 10
149.9581
 20
-252.1575
  0
VERTEX
  8
LAYER_1
 10
150.0921
 20
-252.0607
  0
VERTEX
  8
LAYER_1
 10
150.1762
 20
-251.9188
  0
SEQEND
  0
ENDBLK
  0
BLOCK
  8
LAYER_1
  2
AIGNBL01030018
 70
64
 10
0
 20
0
 30
0
  3
AIGNBL01030018
  0
POLYLINE
  8
LAYER_1
 40
0.05
 41
0.05
 66
1
 10
0
 20
0
 30
0
 70
1
  0
VERTEX
  8
LAYER_1
 10
151.7489
 20
-251.7469
 42
-0.1017020442
  0
VERTEX
  8
LAYER_1
 10
151.7086
 20
-251.9629
  0
VERTEX
  8
LAYER_1
 10
151.5963
 20
-252.1338
  0
VERTEX
  8
LAYER_1
 10
151.4264
 20
-252.2461
 42
-0.09495021158
  0
VERTEX
  8
LAYER_1
 10
151.2139
 20
-252.2868
 42
-0.1019502388
  0
VERTEX
  8
LAYER_1
 10
151.0013
 20
-252.2461
 42
-0.1021914323
  0
VERTEX
  8
LAYER_1
 10
150.8318
 20
-252.1338
 42
-0.09636018285
  0
VERTEX
  8
LAYER_1
 10
150.7188
 20
-251.9629
 42
-0.09364604827
  0
VERTEX
  8
LAYER_1
 10
150.6781
 20
-251.7469
 42
-0.1001287453
  0
VERTEX
  8
LAYER_1
 10
150.7188
 20
-251.5306
 42
-0.1037227634
  0
VERTEX
  8
LAYER_1
 10
150.8318
 20
-251.3604
 42
-0.0985967677
  0
VERTEX
  8
LAYER_1
 10
151.0013
 20
-251.2481
 42
-0.0957287822
  0
VERTEX
  8
LAYER_1
 10
151.2139
 20
-251.2071
 42
-0.1016365741
  0
VERTEX
  8
LAYER_1
 10
151.4264
 20
-251.2481
 42
-0.09861864621
  0
VERTEX
  8
LAYER_1
 10
151.5963
 20
-251.3604
 42
-0.09487953686
  0
VERTEX
  8
LAYER_1
 10
151.7086
 20
-251.5306
 42
-0.09256741039
  0
SEQEND
  0
POLYLINE
  8
LAYER_1
 40
0.05
 41
0.05
 66
1
 10
0
 20
0
 30
0
 70
1
  0
VERTEX
  8
LAYER_1
 10
151.639
 20
-251.7476
  0
VERTEX
  8
LAYER_1
 10
151.61
 20
-251.5767
  0
VERTEX
  8
LAYER_1
 10
151.526
 20
-251.4344
  0
VERTEX
  8
LAYER_1
 10
151.3916
 20
-251.337
 42
0.1025075331
  0
VERTEX
  8
LAYER_1
 10
151.2139
 20
-251.3001
 42
0.118884027
  0
VERTEX
  8
LAYER_1
 10
151.0361
 20
-251.337
  0
VERTEX
  8
LAYER_1
 10
150.9017
 20
-251.4344
  0
VERTEX
  8
LAYER_1
 10
150.818
 20
-251.5767
  0
VERTEX
  8
LAYER_1
 10
150.7887
 20
-251.7476
  0
VERTEX
  8
LAYER_1
 10
150.818
 20
-251.9188
  0
VERTEX
  8
LAYER_1
 10
150.9017
 20
-252.0607
  0
VERTEX
  8
LAYER_1
 10
151.0361
 20
-252.1575
 42
0.100589677
  0
VERTEX
  8
LAYER_1
 10
151.2139
 20
-252.1937
  0
VERTEX
  8
LAYER_1
 10
151.3916
 20
-252.1575
  0
VERTEX
  8
LAYER_1
 10
151.526
 20
-252.0607
  0
VERTEX
  8
LAYER_1
 10
151.61
 20
-251.9188
  0
SEQEND
  0
ENDBLK
  0
BLOCK
  8
LAYER_1
  2
AIGNBL01030019
 70
64
 10
0
 20
0
 30
0
  3
AIGNBL01030019
  0
POLYLINE
  8
LAYER_1
 40
0.05
 41
0.05
 66
1
 10
0
 20
0
 30
0
 70
1
  0
VERTEX
  8
LAYER_1
 10
152.6742
 20
-252.0839
  0
VERTEX
  8
LAYER_1
 10
152.6756
 20
-252.0839
  0
VERTEX
  8
LAYER_1
 10
153.0194
 20
-251.2339
  0
VERTEX
  8
LAYER_1
 10
153.1793
 20
-251.2339
  0
VERTEX
  8
LAYER_1
 10
153.1793
 20
-252.2609
  0
VERTEX
  8
LAYER_1
 10
153.0749
 20
-252.2609
  0
VERTEX
  8
LAYER_1
 10
153.0749
 20
-251.3686
  0
VERTEX
  8
LAYER_1
 10
153.0718
 20
-251.3686
  0
VERTEX
  8
LAYER_1
 10
152.7007
 20
-252.2609
  0
VERTEX
  8
LAYER_1
 10
152.646
 20
-252.2609
  0
VERTEX
  8
LAYER_1
 10
152.2743
 20
-251.3686
  0
VERTEX
  8
LAYER_1
 10
152.2708
 20
-251.3686
  0
VERTEX
  8
LAYER_1
 10
152.2708
 20
-252.2609
  0
VERTEX
  8
LAYER_1
 10
152.1668
 20
-252.2609
  0
VERTEX
  8
LAYER_1
 10
152.1668
 20
-251.2339
  0
VERTEX
  8
LAYER_1
 10
152.327
 20
-251.2339
  0
SEQEND
  0
ENDBLK
  0
BLOCK
  8
LAYER_1
  2
AIGNBL0103001A
 70
64
 10
0
 20
0
 30
0
  3
AIGNBL0103001A
  0
POLYLINE
  8
LAYER_1
 40
0.05
 41
0.05
 66
1
 10
0
 20
0
 30
0
 70
1
  0
VERTEX
  8
LAYER_1
 10
154.3196
 20
-252.1676
  0
VERTEX
  8
LAYER_1
 10
154.8694
 20
-252.1676
  0
VERTEX
  8
LAYER_1
 10
154.8694
 20
-252.2609
  0
VERTEX
  8
LAYER_1
 10
154.2145
 20
-252.2609
  0
VERTEX
  8
LAYER_1
 10
154.2145
 20
-251.2339
  0
VERTEX
  8
LAYER_1
 10
154.8522
 20
-251.2339
  0
VERTEX
  8
LAYER_1
 10
154.8522
 20
-251.3263
  0
VERTEX
  8
LAYER_1
 10
154.3196
 20
-251.3263
  0
VERTEX
  8
LAYER_1
 10
154.3196
 20
-251.6787
  0
VERTEX
  8
LAYER_1
 10
154.8167
 20
-251.6787
  0
VERTEX
  8
LAYER_1
 10
154.8167
 20
-251.7717
  0
VERTEX
  8
LAYER_1
 10
154.3196
 20
-251.7717
  0
SEQEND
  0
ENDBLK
  0
BLOCK
  8
LAYER_1
  2
AIGNBL0103001B
 70
64
 10
0
 20
0
 30
0
  3
AIGNBL0103001B
  0
POLYLINE
  8
LAYER_1
 40
0.05
 41
0.05
 66
1
 10
0
 20
0
 30
0
 70
1
  0
VERTEX
  8
LAYER_1
 10
155.6101
 20
-251.6484
  0
VERTEX
  8
LAYER_1
 10
155.8906
 20
-251.2339
  0
VERTEX
  8
LAYER_1
 10
156.0153
 20
-251.2339
  0
VERTEX
  8
LAYER_1
 10
155.6749
 20
-251.7221
  0
VERTEX
  8
LAYER_1
 10
156.0518
 20
-252.2609
  0
VERTEX
  8
LAYER_1
 10
155.9216
 20
-252.2609
  0
VERTEX
  8
LAYER_1
 10
155.6081
 20
-251.7979
  0
VERTEX
  8
LAYER_1
 10
155.296
 20
-252.2609
  0
VERTEX
  8
LAYER_1
 10
155.165
 20
-252.2609
  0
VERTEX
  8
LAYER_1
 10
155.5426
 20
-251.7211
  0
VERTEX
  8
LAYER_1
 10
155.1988
 20
-251.2339
  0
VERTEX
  8
LAYER_1
 10
155.329
 20
-251.2339
  0
SEQEND
  0
ENDBLK
  0
BLOCK
  8
LAYER_1
  2
AIGNBL0103001C
 70
64
 10
0
 20
0
 30
0
  3
AIGNBL0103001C
  0
POLYLINE
  8
LAYER_1
 40
0.05
 41
0.05
 66
1
 10
0
 20
0
 30
0
 70
1
  0
VERTEX
  8
LAYER_1
 10
156.4159
 20
-251.2339
  0
VERTEX
  8
LAYER_1
 10
156.706
 20
-251.2339
  0
VERTEX
  8
LAYER_1
 10
156.8487
 20
-251.2498
  0
VERTEX
  8
LAYER_1
 10
156.9575
 20
-251.3015
  0
VERTEX
  8
LAYER_1
 10
157.0288
 20
-251.3866
  0
VERTEX
  8
LAYER_1
 10
157.053
 20
-251.5078
  0
VERTEX
  8
LAYER_1
 10
157.0281
 20
-251.6291
  0
VERTEX
  8
LAYER_1
 10
156.9568
 20
-251.7145
  0
VERTEX
  8
LAYER_1
 10
156.8459
 20
-251.7659
  0
VERTEX
  8
LAYER_1
 10
156.7032
 20
-251.7831
  0
VERTEX
  8
LAYER_1
 10
156.5203
 20
-251.7831
  0
VERTEX
  8
LAYER_1
 10
156.5203
 20
-252.2609
  0
VERTEX
  8
LAYER_1
 10
156.4159
 20
-252.2609
  0
SEQEND
  0
POLYLINE
  8
LAYER_1
 40
0.05
 41
0.05
 66
1
 10
0
 20
0
 30
0
 70
1
  0
VERTEX
  8
LAYER_1
 10
156.5203
 20
-251.6949
  0
VERTEX
  8
LAYER_1
 10
156.6974
 20
-251.6949
 42
0.179800284
  0
VERTEX
  8
LAYER_1
 10
156.8848
 20
-251.6474
 42
0.2343125845
  0
VERTEX
  8
LAYER_1
 10
156.9489
 20
-251.5078
 42
0.2635647854
  0
VERTEX
  8
LAYER_1
 10
156.8824
 20
-251.3676
 42
0.1265134521
  0
VERTEX
  8
LAYER_1
 10
156.6974
 20
-251.3235
  0
VERTEX
  8
LAYER_1
 10
156.5203
 20
-251.3235
  0
SEQEND
  0
ENDBLK
  0
BLOCK
  8
LAYER_1
  2
AIGNBL0103001D
 70
64
 10
0
 20
0
 30
0
  3
AIGNBL0103001D
  0
POLYLINE
  8
LAYER_1
 40
0.05
 41
0.05
 66
1
 10
0
 20
0
 30
0
 70
1
  0
VERTEX
  8
LAYER_1
 10
157.5621
 20
-252.1676
  0
VERTEX
  8
LAYER_1
 10
158.1116
 20
-252.1676
  0
VERTEX
  8
LAYER_1
 10
158.1116
 20
-252.2609
  0
VERTEX
  8
LAYER_1
 10
157.4577
 20
-252.2609
  0
VERTEX
  8
LAYER_1
 10
157.4577
 20
-251.2339
  0
VERTEX
  8
LAYER_1
 10
158.0947
 20
-251.2339
  0
VERTEX
  8
LAYER_1
 10
158.0947
 20
-251.3263
  0
VERTEX
  8
LAYER_1
 10
157.5621
 20
-251.3263
  0
VERTEX
  8
LAYER_1
 10
157.5621
 20
-251.6787
  0
VERTEX
  8
LAYER_1
 10
158.0599
 20
-251.6787
  0
VERTEX
  8
LAYER_1
 10
158.0599
 20
-251.7717
  0
VERTEX
  8
LAYER_1
 10
157.5621
 20
-251.7717
  0
SEQEND
  0
ENDBLK
  0
BLOCK
  8
LAYER_1
  2
AIGNBL0103001E
 70
64
 10
0
 20
0
 30
0
  3
AIGNBL0103001E
  0
POLYLINE
  8
LAYER_1
 40
0.05
 41
0.05
 66
1
 10
0
 20
0
 30
0
 70
1
  0
VERTEX
  8
LAYER_1
 10
158.6208
 20
-252.2609
  0
VERTEX
  8
LAYER_1
 10
158.5168
 20
-252.2609
  0
VERTEX
  8
LAYER_1
 10
158.5168
 20
-251.2339
  0
VERTEX
  8
LAYER_1
 10
158.8185
 20
-251.2339
  0
VERTEX
  8
LAYER_1
 10
158.9584
 20
-251.2481
  0
VERTEX
  8
LAYER_1
 10
159.07
 20
-251.2953
  0
VERTEX
  8
LAYER_1
 10
159.1438
 20
-251.38
  0
VERTEX
  8
LAYER_1
 10
159.1696
 20
-251.5078
  0
VERTEX
  8
LAYER_1
 10
159.1493
 20
-251.6105
  0
VERTEX
  8
LAYER_1
 10
159.0945
 20
-251.6915
  0
VERTEX
  8
LAYER_1
 10
159.0111
 20
-251.7459
  0
VERTEX
  8
LAYER_1
 10
158.9067
 20
-251.7717
  0
VERTEX
  8
LAYER_1
 10
159.2075
 20
-252.2609
  0
VERTEX
  8
LAYER_1
 10
159.08
 20
-252.2609
  0
VERTEX
  8
LAYER_1
 10
158.7955
 20
-251.7803
  0
VERTEX
  8
LAYER_1
 10
158.6208
 20
-251.7803
  0
SEQEND
  0
POLYLINE
  8
LAYER_1
 40
0.05
 41
0.05
 66
1
 10
0
 20
0
 30
0
 70
1
  0
VERTEX
  8
LAYER_1
 10
158.6208
 20
-251.69
  0
VERTEX
  8
LAYER_1
 10
158.8027
 20
-251.69
 42
0.1625850216
  0
VERTEX
  8
LAYER_1
 10
158.9974
 20
-251.6453
 42
0.2500143464
  0
VERTEX
  8
LAYER_1
 10
159.0652
 20
-251.5078
  0
VERTEX
  8
LAYER_1
 10
159.047
 20
-251.4224
  0
VERTEX
  8
LAYER_1
 10
158.9943
 20
-251.3652
  0
VERTEX
  8
LAYER_1
 10
158.9123
 20
-251.3338
  0
VERTEX
  8
LAYER_1
 10
158.8065
 20
-251.3235
  0
VERTEX
  8
LAYER_1
 10
158.6208
 20
-251.3235
  0
SEQEND
  0
ENDBLK
  0
BLOCK
  8
LAYER_1
  2
AIGNBL0103001F
 70
64
 10
0
 20
0
 30
0
  3
AIGNBL0103001F
  0
POLYLINE
  8
LAYER_1
 40
0.05
 41
0.05
 66
1
 10
0
 20
0
 30
0
 70
1
  0
VERTEX
  8
LAYER_1
 10
159.6898
 20
-252.2609
  0
VERTEX
  8
LAYER_1
 10
159.5865
 20
-252.2609
  0
VERTEX
  8
LAYER_1
 10
159.5865
 20
-251.2339
  0
VERTEX
  8
LAYER_1
 10
159.6898
 20
-251.2339
  0
SEQEND
  0
ENDBLK
  0
BLOCK
  8
LAYER_1
  2
AIGNBL01030020
 70
64
 10
0
 20
0
 30
0
  3
AIGNBL01030020
  0
POLYLINE
  8
LAYER_1
 40
0.05
 41
0.05
 66
1
 10
0
 20
0
 30
0
 70
1
  0
VERTEX
  8
LAYER_1
 10
160.2676
 20
-252.1676
  0
VERTEX
  8
LAYER_1
 10
160.8174
 20
-252.1676
  0
VERTEX
  8
LAYER_1
 10
160.8174
 20
-252.2609
  0
VERTEX
  8
LAYER_1
 10
160.1639
 20
-252.2609
  0
VERTEX
  8
LAYER_1
 10
160.1639
 20
-251.2339
  0
VERTEX
  8
LAYER_1
 10
160.8005
 20
-251.2339
  0
VERTEX
  8
LAYER_1
 10
160.8005
 20
-251.3263
  0
VERTEX
  8
LAYER_1
 10
160.2676
 20
-251.3263
  0
VERTEX
  8
LAYER_1
 10
160.2676
 20
-251.6787
  0
VERTEX
  8
LAYER_1
 10
160.7654
 20
-251.6787
  0
VERTEX
  8
LAYER_1
 10
160.7654
 20
-251.7717
  0
VERTEX
  8
LAYER_1
 10
160.2676
 20
-251.7717
  0
SEQEND
  0
ENDBLK
  0
BLOCK
  8
LAYER_1
  2
AIGNBL01030021
 70
64
 10
0
 20
0
 30
0
  3
AIGNBL01030021
  0
POLYLINE
  8
LAYER_1
 40
0.05
 41
0.05
 66
1
 10
0
 20
0
 30
0
 70
1
  0
VERTEX
  8
LAYER_1
 10
161.9505
 20
-252.1079
  0
VERTEX
  8
LAYER_1
 10
161.9536
 20
-252.1079
  0
VERTEX
  8
LAYER_1
 10
161.9536
 20
-251.2339
  0
VERTEX
  8
LAYER_1
 10
162.058
 20
-251.2339
  0
VERTEX
  8
LAYER_1
 10
162.058
 20
-252.2609
  0
VERTEX
  8
LAYER_1
 10
161.9277
 20
-252.2609
  0
VERTEX
  8
LAYER_1
 10
161.3297
 20
-251.3772
  0
VERTEX
  8
LAYER_1
 10
161.3266
 20
-251.3772
  0
VERTEX
  8
LAYER_1
 10
161.3266
 20
-252.2609
  0
VERTEX
  8
LAYER_1
 10
161.2222
 20
-252.2609
  0
VERTEX
  8
LAYER_1
 10
161.2222
 20
-251.2339
  0
VERTEX
  8
LAYER_1
 10
161.3535
 20
-251.2339
  0
SEQEND
  0
ENDBLK
  0
BLOCK
  8
LAYER_1
  2
AIGNBL01030022
 70
64
 10
0
 20
0
 30
0
  3
AIGNBL01030022
  0
POLYLINE
  8
LAYER_1
 40
0.05
 41
0.05
 66
1
 10
0
 20
0
 30
0
 70
1
  0
VERTEX
  8
LAYER_1
 10
163.396
 20
-252.0942
  0
VERTEX
  8
LAYER_1
 10
163.3323
 20
-252.1679
  0
VERTEX
  8
LAYER_1
 10
163.2469
 20
-252.2295
  0
VERTEX
  8
LAYER_1
 10
163.1394
 20
-252.2716
  0
VERTEX
  8
LAYER_1
 10
163.0112
 20
-252.2868
 42
-0.1009164681
  0
VERTEX
  8
LAYER_1
 10
162.7966
 20
-252.2461
 42
-0.1027581013
  0
VERTEX
  8
LAYER_1
 10
162.6271
 20
-252.1335
 42
-0.1010578842
  0
VERTEX
  8
LAYER_1
 10
162.5162
 20
-251.9633
 42
-0.09298732079
  0
VERTEX
  8
LAYER_1
 10
162.4759
 20
-251.7469
 42
-0.1023262951
  0
VERTEX
  8
LAYER_1
 10
162.5169
 20
-251.5306
 42
-0.1009138363
  0
VERTEX
  8
LAYER_1
 10
162.6285
 20
-251.3604
  0
VERTEX
  8
LAYER_1
 10
162.798
 20
-251.2481
 42
-0.09535690024
  0
VERTEX
  8
LAYER_1
 10
163.0112
 20
-251.2071
  0
VERTEX
  8
LAYER_1
 10
163.1222
 20
-251.2191
  0
VERTEX
  8
LAYER_1
 10
163.2252
 20
-251.2522
  0
VERTEX
  8
LAYER_1
 10
163.3117
 20
-251.3035
  0
VERTEX
  8
LAYER_1
 10
163.3767
 20
-251.3711
  0
VERTEX
  8
LAYER_1
 10
163.2906
 20
-251.4355
  0
VERTEX
  8
LAYER_1
 10
163.2469
 20
-251.3858
  0
VERTEX
  8
LAYER_1
 10
163.1835
 20
-251.3421
  0
VERTEX
  8
LAYER_1
 10
163.1043
 20
-251.3114
  0
VERTEX
  8
LAYER_1
 10
163.0126
 20
-251.3001
  0
VERTEX
  8
LAYER_1
 10
162.8338
 20
-251.3362
  0
VERTEX
  8
LAYER_1
 10
162.6998
 20
-251.4338
  0
VERTEX
  8
LAYER_1
 10
162.6147
 20
-251.5764
  0
VERTEX
  8
LAYER_1
 10
162.5868
 20
-251.7469
  0
VERTEX
  8
LAYER_1
 10
162.6164
 20
-251.9178
  0
VERTEX
  8
LAYER_1
 10
162.7012
 20
-252.0601
  0
VERTEX
  8
LAYER_1
 10
162.8356
 20
-252.1575
 42
0.1012189446
  0
VERTEX
  8
LAYER_1
 10
163.0126
 20
-252.1937
  0
VERTEX
  8
LAYER_1
 10
163.1804
 20
-252.1575
 42
0.1297589768
  0
VERTEX
  8
LAYER_1
 10
163.3148
 20
-252.0414
  0
SEQEND
  0
ENDBLK
  0
BLOCK
  8
LAYER_1
  2
AIGNBL01030023
 70
64
 10
0
 20
0
 30
0
  3
AIGNBL01030023
  0
POLYLINE
  8
LAYER_1
 40
0.05
 41
0.05
 66
1
 10
0
 20
0
 30
0
 70
1
  0
VERTEX
  8
LAYER_1
 10
163.8801
 20
-252.1676
  0
VERTEX
  8
LAYER_1
 10
164.4299
 20
-252.1676
  0
VERTEX
  8
LAYER_1
 10
164.4299
 20
-252.2609
  0
VERTEX
  8
LAYER_1
 10
163.7764
 20
-252.2609
  0
VERTEX
  8
LAYER_1
 10
163.7764
 20
-251.2339
  0
VERTEX
  8
LAYER_1
 10
164.4127
 20
-251.2339
  0
VERTEX
  8
LAYER_1
 10
164.4127
 20
-251.3263
  0
VERTEX
  8
LAYER_1
 10
163.8801
 20
-251.3263
  0
VERTEX
  8
LAYER_1
 10
163.8801
 20
-251.6787
  0
VERTEX
  8
LAYER_1
 10
164.3782
 20
-251.6787
  0
VERTEX
  8
LAYER_1
 10
164.3782
 20
-251.7717
  0
VERTEX
  8
LAYER_1
 10
163.8801
 20
-251.7717
  0
SEQEND
  0
ENDBLK
  0
BLOCK
  8
LAYER_1
  2
AIGNBL01020003
 70
64
 10
0
 20
0
 30
0
  3
AIGNBL01020003
  0
INSERT
  8
LAYER_1
  2
AIGNBL01030004
 10
0
 20
0
 30
0
  0
ENDBLK
  0
BLOCK
  8
LAYER_1
  2
AIGNBL0102000C
 70
64
 10
0
 20
0
 30
0
  3
AIGNBL0102000C
  0
INSERT
  8
LAYER_1
  2
AIGNBL0103000D
 10
0
 20
0
 30
0
  0
INSERT
  8
LAYER_1
  2
AIGNBL0103000E
 10
0
 20
0
 30
0
  0
INSERT
  8
LAYER_1
  2
AIGNBL0103000F
 10
0
 20
0
 30
0
  0
INSERT
  8
LAYER_1
  2
AIGNBL01030010
 10
0
 20
0
 30
0
  0
INSERT
  8
LAYER_1
  2
AIGNBL01030011
 10
0
 20
0
 30
0
  0
INSERT
  8
LAYER_1
  2
AIGNBL01030012
 10
0
 20
0
 30
0
  0
INSERT
  8
LAYER_1
  2
AIGNBL01030013
 10
0
 20
0
 30
0
  0
INSERT
  8
LAYER_1
  2
AIGNBL01030014
 10
0
 20
0
 30
0
  0
INSERT
  8
LAYER_1
  2
AIGNBL01030015
 10
0
 20
0
 30
0
  0
INSERT
  8
LAYER_1
  2
AIGNBL01030016
 10
0
 20
0
 30
0
  0
INSERT
  8
LAYER_1
  2
AIGNBL01030017
 10
0
 20
0
 30
0
  0
INSERT
  8
LAYER_1
  2
AIGNBL01030018
 10
0
 20
0
 30
0
  0
INSERT
  8
LAYER_1
  2
AIGNBL01030019
 10
0
 20
0
 30
0
  0
INSERT
  8
LAYER_1
  2
AIGNBL0103001A
 10
0
 20
0
 30
0
  0
INSERT
  8
LAYER_1
  2
AIGNBL0103001B
 10
0
 20
0
 30
0
  0
INSERT
  8
LAYER_1
  2
AIGNBL0103001C
 10
0
 20
0
 30
0
  0
INSERT
  8
LAYER_1
  2
AIGNBL0103001D
 10
0
 20
0
 30
0
  0
INSERT
  8
LAYER_1
  2
AIGNBL0103001E
 10
0
 20
0
 30
0
  0
INSERT
  8
LAYER_1
  2
AIGNBL0103001F
 10
0
 20
0
 30
0
  0
INSERT
  8
LAYER_1
  2
AIGNBL01030020
 10
0
 20
0
 30
0
  0
INSERT
  8
LAYER_1
  2
AIGNBL01030021
 10
0
 20
0
 30
0
  0
INSERT
  8
LAYER_1
  2
AIGNBL01030022
 10
0
 20
0
 30
0
  0
INSERT
  8
LAYER_1
  2
AIGNBL01030023
 10
0
 20
0
 30
0
  0
ENDBLK
  0
BLOCK
  8
LAYER_1
  2
AIGNBL01010002
 70
64
 10
0
 20
0
 30
0
  3
AIGNBL01010002
  0
INSERT
  8
LAYER_1
  2
AIGNBL01020003
 10
0
 20
0
 30
0
  0
INSERT
  8
LAYER_1
  2
AIGNBL0102000C
 10
0
 20
0
 30
0
  0
ENDBLK
  0
BLOCK
  8
LAYER_6
  2
AIGNBL06010002
 70
64
 10
0
 20
0
 30
0
  3
AIGNBL06010002
  0
POLYLINE
  8
LAYER_6
 40
0.7056
 41
0.7056
 66
1
 10
0
 20
0
 30
0
 70
1
  0
VERTEX
  8
LAYER_6
 10
33.7873
 20
22.6587
  0
VERTEX
  8
LAYER_6
 10
230.7955
 20
22.6587
  0
VERTEX
  8
LAYER_6
 10
230.7955
 20
-259.334
  0
VERTEX
  8
LAYER_6
 10
33.7873
 20
-259.334
  0
SEQEND
  0
ENDBLK
  0
BLOCK
  8
LAYER_6
  2
AIGNBL06010003
 70
64
 10
0
 20
0
 30
0
  3
AIGNBL06010003
  0
POLYLINE
  8
LAYER_6
 40
0.1058
 41
0.1058
 66
1
 10
0
 20
0
 30
0
  0
VERTEX
  8
LAYER_6
 10
81.4388
 20
-61.4462
  0
VERTEX
  8
LAYER_6
 10
81.2672
 20
-61.4462
  0
SEQEND
  0
POLYLINE
  8
LAYER_6
 40
0.1058
 41
0.1058
 66
1
 10
0
 20
0
 30
0
  0
VERTEX
  8
LAYER_6
 10
88.328
 20
-190.1191
 42
0.2902793831
  0
VERTEX
  8
LAYER_6
 10
87.2964
 20
-191.6191
  0
SEQEND
  0
POLYLINE
  8
LAYER_6
 40
0.1058
 41
0.1058
 66
1
 10
0
 20
0
 30
0
  0
VERTEX
  8
LAYER_6
 10
103.294
 20
-191.6191
 42
0.2902753108
  0
VERTEX
  8
LAYER_6
 10
102.2625
 20
-190.1191
  0
SEQEND
  0
POLYLINE
  8
LAYER_6
 40
0.1058
 41
0.1058
 66
1
 10
0
 20
0
 30
0
  0
VERTEX
  8
LAYER_6
 10
88.328
 20
-185.1191
 42
0.3004345149
  0
VERTEX
  8
LAYER_6
 10
87.2952
 20
-186.6826
 42
0.3004491079
  0
VERTEX
  8
LAYER_6
 10
88.328
 20
-188.2462
  0
SEQEND
  0
POLYLINE
  8
LAYER_6
 40
0.1058
 41
0.1058
 66
1
 10
0
 20
0
 30
0
  0
VERTEX
  8
LAYER_6
 10
102.2625
 20
-185.1191
 42
-0.300430871
  0
VERTEX
  8
LAYER_6
 10
103.2952
 20
-186.6826
 42
-0.3004454642
  0
VERTEX
  8
LAYER_6
 10
102.2625
 20
-188.2462
  0
SEQEND
  0
POLYLINE
  8
LAYER_6
 40
0.1058
 41
0.1058
 66
1
 10
0
 20
0
 30
0
  0
VERTEX
  8
LAYER_6
 10
102.2625
 20
-180.1191
 42
-0.300430871
  0
VERTEX
  8
LAYER_6
 10
103.2952
 20
-181.6826
 42
-0.3004454642
  0
VERTEX
  8
LAYER_6
 10
102.2625
 20
-183.2462
  0
SEQEND
  0
POLYLINE
  8
LAYER_6
 40
0.1058
 41
0.1058
 66
1
 10
0
 20
0
 30
0
  0
VERTEX
  8
LAYER_6
 10
88.328
 20
-180.1191
 42
0.3004345149
  0
VERTEX
  8
LAYER_6
 10
87.2952
 20
-181.6826
 42
0.3004491079
  0
VERTEX
  8
LAYER_6
 10
88.328
 20
-183.2462
  0
SEQEND
  0
POLYLINE
  8
LAYER_6
 40
0.1058
 41
0.1058
 66
1
 10
0
 20
0
 30
0
  0
VERTEX
  8
LAYER_6
 10
102.2625
 20
-175.1191
 42
-0.300430871
  0
VERTEX
  8
LAYER_6
 10
103.2952
 20
-176.6826
 42
-0.3004454642
  0
VERTEX
  8
LAYER_6
 10
102.2625
 20
-178.2462
  0
SEQEND
  0
POLYLINE
  8
LAYER_6
 40
0.1058
 41
0.1058
 66
1
 10
0
 20
0
 30
0
  0
VERTEX
  8
LAYER_6
 10
88.328
 20
-175.1191
 42
0.3004345149
  0
VERTEX
  8
LAYER_6
 10
87.2952
 20
-176.6826
 42
0.3004491079
  0
VERTEX
  8
LAYER_6
 10
88.328
 20
-178.2462
  0
SEQEND
  0
POLYLINE
  8
LAYER_6
 40
0.1058
 41
0.1058
 66
1
 10
0
 20
0
 30
0
  0
VERTEX
  8
LAYER_6
 10
102.2625
 20
-170.1191
 42
-0.300430871
  0
VERTEX
  8
LAYER_6
 10
103.2952
 20
-171.6826
 42
-0.3004454642
  0
VERTEX
  8
LAYER_6
 10
102.2625
 20
-173.2462
  0
SEQEND
  0
POLYLINE
  8
LAYER_6
 40
0.1058
 41
0.1058
 66
1
 10
0
 20
0
 30
0
  0
VERTEX
  8
LAYER_6
 10
102.2625
 20
-68.2462
 42
0.2902738799
  0
VERTEX
  8
LAYER_6
 10
103.294
 20
-66.7462
  0
SEQEND
  0
POLYLINE
  8
LAYER_6
 40
0.1058
 41
0.1058
 66
1
 10
0
 20
0
 30
0
  0
VERTEX
  8
LAYER_6
 10
102.2625
 20
-73.2462
 42
0.300440558
  0
VERTEX
  8
LAYER_6
 10
101.644
 20
-74.1826
 42
0.3004649257
  0
VERTEX
  8
LAYER_6
 10
102.2625
 20
-75.1191
  0
SEQEND
  0
POLYLINE
  8
LAYER_6
 40
0.1058
 41
0.1058
 66
1
 10
0
 20
0
 30
0
  0
VERTEX
  8
LAYER_6
 10
102.2625
 20
-78.2462
 42
0.300440558
  0
VERTEX
  8
LAYER_6
 10
101.644
 20
-79.1826
 42
0.3004649257
  0
VERTEX
  8
LAYER_6
 10
102.2625
 20
-80.1191
  0
SEQEND
  0
POLYLINE
  8
LAYER_6
 40
0.1058
 41
0.1058
 66
1
 10
0
 20
0
 30
0
  0
VERTEX
  8
LAYER_6
 10
102.2625
 20
-83.2462
 42
0.300440558
  0
VERTEX
  8
LAYER_6
 10
101.644
 20
-84.1826
 42
0.3004649257
  0
VERTEX
  8
LAYER_6
 10
102.2625
 20
-85.1191
  0
SEQEND
  0
POLYLINE
  8
LAYER_6
 40
0.1058
 41
0.1058
 66
1
 10
0
 20
0
 30
0
  0
VERTEX
  8
LAYER_6
 10
102.2625
 20
-88.2462
 42
0.300440558
  0
VERTEX
  8
LAYER_6
 10
101.644
 20
-89.1826
 42
0.3004649257
  0
VERTEX
  8
LAYER_6
 10
102.2625
 20
-90.1191
  0
SEQEND
  0
POLYLINE
  8
LAYER_6
 40
0.1058
 41
0.1058
 66
1
 10
0
 20
0
 30
0
  0
VERTEX
  8
LAYER_6
 10
102.2625
 20
-93.2462
 42
0.300440558
  0
VERTEX
  8
LAYER_6
 10
101.644
 20
-94.1826
 42
0.3004649257
  0
VERTEX
  8
LAYER_6
 10
102.2625
 20
-95.1191
  0
SEQEND
  0
POLYLINE
  8
LAYER_6
 40
0.1058
 41
0.1058
 66
1
 10
0
 20
0
 30
0
  0
VERTEX
  8
LAYER_6
 10
102.2625
 20
-98.2462
 42
0.300440558
  0
VERTEX
  8
LAYER_6
 10
101.644
 20
-99.1826
 42
0.3004649257
  0
VERTEX
  8
LAYER_6
 10
102.2625
 20
-100.1191
  0
SEQEND
  0
POLYLINE
  8
LAYER_6
 40
0.1058
 41
0.1058
 66
1
 10
0
 20
0
 30
0
  0
VERTEX
  8
LAYER_6
 10
102.2625
 20
-103.2462
 42
0.300440558
  0
VERTEX
  8
LAYER_6
 10
101.644
 20
-104.1826
 42
0.3004649257
  0
VERTEX
  8
LAYER_6
 10
102.2625
 20
-105.1191
  0
SEQEND
  0
POLYLINE
  8
LAYER_6
 40
0.1058
 41
0.1058
 66
1
 10
0
 20
0
 30
0
  0
VERTEX
  8
LAYER_6
 10
102.2625
 20
-108.2462
 42
0.300440558
  0
VERTEX
  8
LAYER_6
 10
101.644
 20
-109.1826
 42
0.3004649257
  0
VERTEX
  8
LAYER_6
 10
102.2625
 20
-110.1191
  0
SEQEND
  0
POLYLINE
  8
LAYER_6
 40
0.1058
 41
0.1058
 66
1
 10
0
 20
0
 30
0
  0
VERTEX
  8
LAYER_6
 10
102.2625
 20
-118.2462
 42
0.3004454642
  0
VERTEX
  8
LAYER_6
 10
103.2952
 20
-116.6826
 42
0.300430871
  0
VERTEX
  8
LAYER_6
 10
102.2625
 20
-115.1191
  0
SEQEND
  0
POLYLINE
  8
LAYER_6
 40
0.1058
 41
0.1058
 66
1
 10
0
 20
0
 30
0
  0
VERTEX
  8
LAYER_6
 10
88.328
 20
-120.1191
 42
0.3004588412
  0
VERTEX
  8
LAYER_6
 10
88.9465
 20
-119.1826
 42
0.3004344746
  0
VERTEX
  8
LAYER_6
 10
88.328
 20
-118.2462
  0
SEQEND
  0
POLYLINE
  8
LAYER_6
 40
0.1058
 41
0.1058
 66
1
 10
0
 20
0
 30
0
  0
VERTEX
  8
LAYER_6
 10
88.328
 20
-115.1191
 42
0.3004588412
  0
VERTEX
  8
LAYER_6
 10
88.9465
 20
-114.1826
 42
0.3004344746
  0
VERTEX
  8
LAYER_6
 10
88.328
 20
-113.2462
 42
-0.3004491081
  0
VERTEX
  8
LAYER_6
 10
87.2952
 20
-111.6826
  0
SEQEND
  0
POLYLINE
  8
LAYER_6
 40
0.1058
 41
0.1058
 66
1
 10
0
 20
0
 30
0
  0
VERTEX
  8
LAYER_6
 10
88.328
 20
-108.2462
 42
-0.3004344746
  0
VERTEX
  8
LAYER_6
 10
88.9465
 20
-109.1826
 42
-0.3004588412
  0
VERTEX
  8
LAYER_6
 10
88.328
 20
-110.1191
  0
VERTEX
  8
LAYER_6
 10
102.2625
 20
-110.1191
 42
-0.3004308711
  0
VERTEX
  8
LAYER_6
 10
103.2952
 20
-111.6826
 42
-0.3004454642
  0
VERTEX
  8
LAYER_6
 10
102.2625
 20
-113.2462
  0
VERTEX
  8
LAYER_6
 10
88.328
 20
-113.2462
  0
VERTEX
  8
LAYER_6
 10
102.2625
 20
-113.2462
 42
0.3004405579
  0
VERTEX
  8
LAYER_6
 10
101.644
 20
-114.1826
 42
0.3004649257
  0
VERTEX
  8
LAYER_6
 10
102.2625
 20
-115.1191
  0
VERTEX
  8
LAYER_6
 10
88.328
 20
-115.1191
 42
0.3004345148
  0
VERTEX
  8
LAYER_6
 10
87.2952
 20
-116.6826
 42
0.3004491079
  0
VERTEX
  8
LAYER_6
 10
88.328
 20
-118.2462
  0
VERTEX
  8
LAYER_6
 10
102.2625
 20
-118.2462
 42
0.3004405579
  0
VERTEX
  8
LAYER_6
 10
101.644
 20
-119.1826
 42
0.3004649257
  0
VERTEX
  8
LAYER_6
 10
102.2625
 20
-120.1191
  0
VERTEX
  8
LAYER_6
 10
88.328
 20
-120.1191
 42
0.3004345148
  0
VERTEX
  8
LAYER_6
 10
87.2952
 20
-121.6826
  0
SEQEND
  0
POLYLINE
  8
LAYER_6
 40
0.1058
 41
0.1058
 66
1
 10
0
 20
0
 30
0
 70
1
  0
VERTEX
  8
LAYER_6
 10
87.2952
 20
-111.6826
 42
-0.3004345149
  0
VERTEX
  8
LAYER_6
 10
88.328
 20
-110.1191
 42
0.3004345149
  0
SEQEND
  0
POLYLINE
  8
LAYER_6
 40
0.1058
 41
0.1058
 66
1
 10
0
 20
0
 30
0
  0
VERTEX
  8
LAYER_6
 10
88.328
 20
-105.1191
 42
0.3004588412
  0
VERTEX
  8
LAYER_6
 10
88.9465
 20
-104.1826
 42
0.3004344746
  0
VERTEX
  8
LAYER_6
 10
88.328
 20
-103.2462
  0
SEQEND
  0
POLYLINE
  8
LAYER_6
 40
0.1058
 41
0.1058
 66
1
 10
0
 20
0
 30
0
 70
1
  0
VERTEX
  8
LAYER_6
 10
102.2625
 20
-108.2462
 42
0.3004454642
  0
VERTEX
  8
LAYER_6
 10
103.2952
 20
-106.6826
 42
0.3004308711
  0
VERTEX
  8
LAYER_6
 10
102.2625
 20
-105.1191
  0
VERTEX
  8
LAYER_6
 10
88.328
 20
-105.1191
 42
0.3004345149
  0
VERTEX
  8
LAYER_6
 10
87.2952
 20
-106.6826
 42
0.3004491079
  0
VERTEX
  8
LAYER_6
 10
88.328
 20
-108.2462
  0
SEQEND
  0
POLYLINE
  8
LAYER_6
 40
0.1058
 41
0.1058
 66
1
 10
0
 20
0
 30
0
  0
VERTEX
  8
LAYER_6
 10
88.328
 20
-100.1191
 42
0.3004588412
  0
VERTEX
  8
LAYER_6
 10
88.9465
 20
-99.1826
 42
0.3004344746
  0
VERTEX
  8
LAYER_6
 10
88.328
 20
-98.2462
  0
SEQEND
  0
POLYLINE
  8
LAYER_6
 40
0.1058
 41
0.1058
 66
1
 10
0
 20
0
 30
0
 70
1
  0
VERTEX
  8
LAYER_6
 10
102.2625
 20
-103.2462
 42
0.3004454642
  0
VERTEX
  8
LAYER_6
 10
103.2952
 20
-101.6826
 42
0.3004308711
  0
VERTEX
  8
LAYER_6
 10
102.2625
 20
-100.1191
  0
VERTEX
  8
LAYER_6
 10
88.328
 20
-100.1191
 42
0.3004345149
  0
VERTEX
  8
LAYER_6
 10
87.2952
 20
-101.6826
 42
0.3004491079
  0
VERTEX
  8
LAYER_6
 10
88.328
 20
-103.2462
  0
SEQEND
  0
POLYLINE
  8
LAYER_6
 40
0.1058
 41
0.1058
 66
1
 10
0
 20
0
 30
0
  0
VERTEX
  8
LAYER_6
 10
88.328
 20
-95.1191
 42
0.3004588412
  0
VERTEX
  8
LAYER_6
 10
88.9465
 20
-94.1826
 42
0.3004344746
  0
VERTEX
  8
LAYER_6
 10
88.328
 20
-93.2462
  0
SEQEND
  0
POLYLINE
  8
LAYER_6
 40
0.1058
 41
0.1058
 66
1
 10
0
 20
0
 30
0
 70
1
  0
VERTEX
  8
LAYER_6
 10
102.2625
 20
-98.2462
 42
0.3004454642
  0
VERTEX
  8
LAYER_6
 10
103.2952
 20
-96.6826
 42
0.3004308711
  0
VERTEX
  8
LAYER_6
 10
102.2625
 20
-95.1191
  0
VERTEX
  8
LAYER_6
 10
88.328
 20
-95.1191
 42
0.3004345149
  0
VERTEX
  8
LAYER_6
 10
87.2952
 20
-96.6826
 42
0.3004491079
  0
VERTEX
  8
LAYER_6
 10
88.328
 20
-98.2462
  0
SEQEND
  0
POLYLINE
  8
LAYER_6
 40
0.1058
 41
0.1058
 66
1
 10
0
 20
0
 30
0
  0
VERTEX
  8
LAYER_6
 10
88.328
 20
-90.1191
 42
0.3004588412
  0
VERTEX
  8
LAYER_6
 10
88.9465
 20
-89.1826
 42
0.3004344746
  0
VERTEX
  8
LAYER_6
 10
88.328
 20
-88.2462
  0
SEQEND
  0
POLYLINE
  8
LAYER_6
 40
0.1058
 41
0.1058
 66
1
 10
0
 20
0
 30
0
 70
1
  0
VERTEX
  8
LAYER_6
 10
102.2625
 20
-93.2462
 42
0.3004454642
  0
VERTEX
  8
LAYER_6
 10
103.2952
 20
-91.6826
 42
0.3004308711
  0
VERTEX
  8
LAYER_6
 10
102.2625
 20
-90.1191
  0
VERTEX
  8
LAYER_6
 10
88.328
 20
-90.1191
 42
0.3004345149
  0
VERTEX
  8
LAYER_6
 10
87.2952
 20
-91.6826
 42
0.3004491079
  0
VERTEX
  8
LAYER_6
 10
88.328
 20
-93.2462
  0
SEQEND
  0
POLYLINE
  8
LAYER_6
 40
0.1058
 41
0.1058
 66
1
 10
0
 20
0
 30
0
  0
VERTEX
  8
LAYER_6
 10
88.328
 20
-85.1191
 42
0.3004588412
  0
VERTEX
  8
LAYER_6
 10
88.9465
 20
-84.1826
 42
0.3004344746
  0
VERTEX
  8
LAYER_6
 10
88.328
 20
-83.2462
  0
SEQEND
  0
POLYLINE
  8
LAYER_6
 40
0.1058
 41
0.1058
 66
1
 10
0
 20
0
 30
0
 70
1
  0
VERTEX
  8
LAYER_6
 10
102.2625
 20
-88.2462
 42
0.3004454642
  0
VERTEX
  8
LAYER_6
 10
103.2952
 20
-86.6826
 42
0.3004308711
  0
VERTEX
  8
LAYER_6
 10
102.2625
 20
-85.1191
  0
VERTEX
  8
LAYER_6
 10
88.328
 20
-85.1191
 42
0.3004345149
  0
VERTEX
  8
LAYER_6
 10
87.2952
 20
-86.6826
 42
0.3004491079
  0
VERTEX
  8
LAYER_6
 10
88.328
 20
-88.2462
  0
SEQEND
  0
POLYLINE
  8
LAYER_6
 40
0.1058
 41
0.1058
 66
1
 10
0
 20
0
 30
0
  0
VERTEX
  8
LAYER_6
 10
88.328
 20
-80.1191
 42
0.3004588412
  0
VERTEX
  8
LAYER_6
 10
88.9465
 20
-79.1826
 42
0.3004344746
  0
VERTEX
  8
LAYER_6
 10
88.328
 20
-78.2462
  0
SEQEND
  0
POLYLINE
  8
LAYER_6
 40
0.1058
 41
0.1058
 66
1
 10
0
 20
0
 30
0
 70
1
  0
VERTEX
  8
LAYER_6
 10
102.2625
 20
-83.2462
 42
0.3004454642
  0
VERTEX
  8
LAYER_6
 10
103.2952
 20
-81.6826
 42
0.3004308711
  0
VERTEX
  8
LAYER_6
 10
102.2625
 20
-80.1191
  0
VERTEX
  8
LAYER_6
 10
88.328
 20
-80.1191
 42
0.3004345149
  0
VERTEX
  8
LAYER_6
 10
87.2952
 20
-81.6826
 42
0.3004491079
  0
VERTEX
  8
LAYER_6
 10
88.328
 20
-83.2462
  0
SEQEND
  0
POLYLINE
  8
LAYER_6
 40
0.1058
 41
0.1058
 66
1
 10
0
 20
0
 30
0
  0
VERTEX
  8
LAYER_6
 10
88.328
 20
-75.1191
 42
0.3004588412
  0
VERTEX
  8
LAYER_6
 10
88.9465
 20
-74.1826
 42
0.3004344746
  0
VERTEX
  8
LAYER_6
 10
88.328
 20
-73.2462
  0
SEQEND
  0
POLYLINE
  8
LAYER_6
 40
0.1058
 41
0.1058
 66
1
 10
0
 20
0
 30
0
 70
1
  0
VERTEX
  8
LAYER_6
 10
102.2625
 20
-78.2462
 42
0.3004454642
  0
VERTEX
  8
LAYER_6
 10
103.2952
 20
-76.6826
 42
0.3004308711
  0
VERTEX
  8
LAYER_6
 10
102.2625
 20
-75.1191
  0
VERTEX
  8
LAYER_6
 10
88.328
 20
-75.1191
 42
0.3004345149
  0
VERTEX
  8
LAYER_6
 10
87.2952
 20
-76.6826
 42
0.3004491079
  0
VERTEX
  8
LAYER_6
 10
88.328
 20
-78.2462
  0
SEQEND
  0
POLYLINE
  8
LAYER_6
 40
0.1058
 41
0.1058
 66
1
 10
0
 20
0
 30
0
  0
VERTEX
  8
LAYER_6
 10
87.2964
 20
-66.7462
 42
0.2902779523
  0
VERTEX
  8
LAYER_6
 10
88.328
 20
-68.2462
  0
SEQEND
  0
POLYLINE
  8
LAYER_6
 40
0.1058
 41
0.1058
 66
1
 10
0
 20
0
 30
0
  0
VERTEX
  8
LAYER_6
 10
88.328
 20
-70.1191
 42
0.3004588412
  0
VERTEX
  8
LAYER_6
 10
88.9465
 20
-69.1826
 42
0.3004344746
  0
VERTEX
  8
LAYER_6
 10
88.328
 20
-68.2462
  0
VERTEX
  8
LAYER_6
 10
102.2625
 20
-68.2462
 42
0.3004405579
  0
VERTEX
  8
LAYER_6
 10
101.644
 20
-69.1826
 42
0.3004649257
  0
VERTEX
  8
LAYER_6
 10
102.2625
 20
-70.1191
  0
SEQEND
  0
POLYLINE
  8
LAYER_6
 40
0.1058
 41
0.1058
 66
1
 10
0
 20
0
 30
0
 70
1
  0
VERTEX
  8
LAYER_6
 10
102.2625
 20
-73.2462
 42
0.3004454642
  0
VERTEX
  8
LAYER_6
 10
103.2952
 20
-71.6826
 42
0.3004308711
  0
VERTEX
  8
LAYER_6
 10
102.2625
 20
-70.1191
  0
VERTEX
  8
LAYER_6
 10
88.328
 20
-70.1191
 42
0.3004345149
  0
VERTEX
  8
LAYER_6
 10
87.2952
 20
-71.6826
 42
0.3004491079
  0
VERTEX
  8
LAYER_6
 10
88.328
 20
-73.2462
  0
SEQEND
  0
POLYLINE
  8
LAYER_6
 40
0.1058
 41
0.1058
 66
1
 10
0
 20
0
 30
0
  0
VERTEX
  8
LAYER_6
 10
88.328
 20
-170.1191
 42
0.3004588412
  0
VERTEX
  8
LAYER_6
 10
88.9465
 20
-169.1826
 42
0.3004344746
  0
VERTEX
  8
LAYER_6
 10
88.328
 20
-168.2462
  0
SEQEND
  0
POLYLINE
  8
LAYER_6
 40
0.1058
 41
0.1058
 66
1
 10
0
 20
0
 30
0
  0
VERTEX
  8
LAYER_6
 10
88.328
 20
-165.1191
 42
0.3004588412
  0
VERTEX
  8
LAYER_6
 10
88.9465
 20
-164.1826
 42
0.3004344746
  0
VERTEX
  8
LAYER_6
 10
88.328
 20
-163.2462
  0
SEQEND
  0
POLYLINE
  8
LAYER_6
 40
0.1058
 41
0.1058
 66
1
 10
0
 20
0
 30
0
  0
VERTEX
  8
LAYER_6
 10
88.328
 20
-160.1191
 42
0.3004588412
  0
VERTEX
  8
LAYER_6
 10
88.9465
 20
-159.1826
 42
0.3004344746
  0
VERTEX
  8
LAYER_6
 10
88.328
 20
-158.2462
  0
SEQEND
  0
POLYLINE
  8
LAYER_6
 40
0.1058
 41
0.1058
 66
1
 10
0
 20
0
 30
0
  0
VERTEX
  8
LAYER_6
 10
88.328
 20
-155.1191
 42
0.3004588412
  0
VERTEX
  8
LAYER_6
 10
88.9465
 20
-154.1826
 42
0.3004344746
  0
VERTEX
  8
LAYER_6
 10
88.328
 20
-153.2462
  0
SEQEND
  0
POLYLINE
  8
LAYER_6
 40
0.1058
 41
0.1058
 66
1
 10
0
 20
0
 30
0
  0
VERTEX
  8
LAYER_6
 10
88.328
 20
-150.1191
 42
0.3004588412
  0
VERTEX
  8
LAYER_6
 10
88.9465
 20
-149.1826
 42
0.3004344746
  0
VERTEX
  8
LAYER_6
 10
88.328
 20
-148.2462
  0
SEQEND
  0
POLYLINE
  8
LAYER_6
 40
0.1058
 41
0.1058
 66
1
 10
0
 20
0
 30
0
  0
VERTEX
  8
LAYER_6
 10
88.328
 20
-145.1191
 42
0.3004588412
  0
VERTEX
  8
LAYER_6
 10
88.9465
 20
-144.1826
 42
0.3004344746
  0
VERTEX
  8
LAYER_6
 10
88.328
 20
-143.2462
  0
SEQEND
  0
POLYLINE
  8
LAYER_6
 40
0.1058
 41
0.1058
 66
1
 10
0
 20
0
 30
0
  0
VERTEX
  8
LAYER_6
 10
88.328
 20
-140.1191
 42
0.3004588412
  0
VERTEX
  8
LAYER_6
 10
88.9465
 20
-139.1826
 42
0.3004344746
  0
VERTEX
  8
LAYER_6
 10
88.328
 20
-138.2462
  0
SEQEND
  0
POLYLINE
  8
LAYER_6
 40
0.1058
 41
0.1058
 66
1
 10
0
 20
0
 30
0
  0
VERTEX
  8
LAYER_6
 10
88.328
 20
-135.1191
 42
0.3004588412
  0
VERTEX
  8
LAYER_6
 10
88.9465
 20
-134.1826
 42
0.3004344746
  0
VERTEX
  8
LAYER_6
 10
88.328
 20
-133.2462
  0
SEQEND
  0
POLYLINE
  8
LAYER_6
 40
0.1058
 41
0.1058
 66
1
 10
0
 20
0
 30
0
  0
VERTEX
  8
LAYER_6
 10
88.328
 20
-130.1191
 42
0.3004588412
  0
VERTEX
  8
LAYER_6
 10
88.9465
 20
-129.1826
 42
0.3004344746
  0
VERTEX
  8
LAYER_6
 10
88.328
 20
-128.2462
  0
SEQEND
  0
POLYLINE
  8
LAYER_6
 40
0.1058
 41
0.1058
 66
1
 10
0
 20
0
 30
0
  0
VERTEX
  8
LAYER_6
 10
87.6635
 20
-122.7393
 42
0.1248223484
  0
VERTEX
  8
LAYER_6
 10
88.328
 20
-123.2462
  0
SEQEND
  0
POLYLINE
  8
LAYER_6
 40
0.1058
 41
0.1058
 66
1
 10
0
 20
0
 30
0
  0
VERTEX
  8
LAYER_6
 10
88.328
 20
-125.1191
 42
0.3004588412
  0
VERTEX
  8
LAYER_6
 10
88.9465
 20
-124.1826
 42
0.3004344746
  0
VERTEX
  8
LAYER_6
 10
88.328
 20
-123.2462
  0
VERTEX
  8
LAYER_6
 10
93.9683
 20
-123.2462
  0
SEQEND
  0
POLYLINE
  8
LAYER_6
 40
0.1058
 41
0.1058
 66
1
 10
0
 20
0
 30
0
  0
VERTEX
  8
LAYER_6
 10
102.2625
 20
-123.2462
 42
0.300440558
  0
VERTEX
  8
LAYER_6
 10
101.644
 20
-124.1826
 42
0.3004649257
  0
VERTEX
  8
LAYER_6
 10
102.2625
 20
-125.1191
  0
SEQEND
  0
POLYLINE
  8
LAYER_6
 40
0.1058
 41
0.1058
 66
1
 10
0
 20
0
 30
0
  0
VERTEX
  8
LAYER_6
 10
103.2952
 20
-121.6826
 42
-0.3004454642
  0
VERTEX
  8
LAYER_6
 10
102.2625
 20
-123.2462
  0
VERTEX
  8
LAYER_6
 10
98.9051
 20
-123.2462
  0
SEQEND
  0
POLYLINE
  8
LAYER_6
 40
0.1058
 41
0.1058
 66
1
 10
0
 20
0
 30
0
  0
VERTEX
  8
LAYER_6
 10
102.2625
 20
-128.2462
 42
0.300440558
  0
VERTEX
  8
LAYER_6
 10
101.644
 20
-129.1826
 42
0.3004649257
  0
VERTEX
  8
LAYER_6
 10
102.2625
 20
-130.1191
  0
SEQEND
  0
POLYLINE
  8
LAYER_6
 40
0.1058
 41
0.1058
 66
1
 10
0
 20
0
 30
0
 70
1
  0
VERTEX
  8
LAYER_6
 10
102.2625
 20
-128.2462
 42
0.3004454642
  0
VERTEX
  8
LAYER_6
 10
103.2952
 20
-126.6826
 42
0.300430871
  0
VERTEX
  8
LAYER_6
 10
102.2625
 20
-125.1191
  0
VERTEX
  8
LAYER_6
 10
88.328
 20
-125.1191
 42
0.3004345148
  0
VERTEX
  8
LAYER_6
 10
87.2952
 20
-126.6826
 42
0.3004491079
  0
VERTEX
  8
LAYER_6
 10
88.328
 20
-128.2462
  0
SEQEND
  0
POLYLINE
  8
LAYER_6
 40
0.1058
 41
0.1058
 66
1
 10
0
 20
0
 30
0
  0
VERTEX
  8
LAYER_6
 10
102.2625
 20
-133.2462
 42
0.300440558
  0
VERTEX
  8
LAYER_6
 10
101.644
 20
-134.1826
 42
0.3004649257
  0
VERTEX
  8
LAYER_6
 10
102.2625
 20
-135.1191
  0
SEQEND
  0
POLYLINE
  8
LAYER_6
 40
0.1058
 41
0.1058
 66
1
 10
0
 20
0
 30
0
 70
1
  0
VERTEX
  8
LAYER_6
 10
102.2625
 20
-133.2462
 42
0.3004454642
  0
VERTEX
  8
LAYER_6
 10
103.2952
 20
-131.6826
 42
0.300430871
  0
VERTEX
  8
LAYER_6
 10
102.2625
 20
-130.1191
  0
VERTEX
  8
LAYER_6
 10
88.328
 20
-130.1191
 42
0.3004345148
  0
VERTEX
  8
LAYER_6
 10
87.2952
 20
-131.6826
 42
0.3004491079
  0
VERTEX
  8
LAYER_6
 10
88.328
 20
-133.2462
  0
SEQEND
  0
POLYLINE
  8
LAYER_6
 40
0.1058
 41
0.1058
 66
1
 10
0
 20
0
 30
0
  0
VERTEX
  8
LAYER_6
 10
102.2625
 20
-138.2462
 42
0.300440558
  0
VERTEX
  8
LAYER_6
 10
101.644
 20
-139.1826
 42
0.3004649257
  0
VERTEX
  8
LAYER_6
 10
102.2625
 20
-140.1191
  0
SEQEND
  0
POLYLINE
  8
LAYER_6
 40
0.1058
 41
0.1058
 66
1
 10
0
 20
0
 30
0
 70
1
  0
VERTEX
  8
LAYER_6
 10
102.2625
 20
-138.2462
 42
0.3004454642
  0
VERTEX
  8
LAYER_6
 10
103.2952
 20
-136.6826
 42
0.300430871
  0
VERTEX
  8
LAYER_6
 10
102.2625
 20
-135.1191
  0
VERTEX
  8
LAYER_6
 10
88.328
 20
-135.1191
 42
0.3004345148
  0
VERTEX
  8
LAYER_6
 10
87.2952
 20
-136.6826
 42
0.3004491079
  0
VERTEX
  8
LAYER_6
 10
88.328
 20
-138.2462
  0
SEQEND
  0
POLYLINE
  8
LAYER_6
 40
0.1058
 41
0.1058
 66
1
 10
0
 20
0
 30
0
  0
VERTEX
  8
LAYER_6
 10
102.2625
 20
-143.2462
 42
0.300440558
  0
VERTEX
  8
LAYER_6
 10
101.644
 20
-144.1826
 42
0.3004649257
  0
VERTEX
  8
LAYER_6
 10
102.2625
 20
-145.1191
  0
SEQEND
  0
POLYLINE
  8
LAYER_6
 40
0.1058
 41
0.1058
 66
1
 10
0
 20
0
 30
0
 70
1
  0
VERTEX
  8
LAYER_6
 10
102.2625
 20
-143.2462
 42
0.3004454642
  0
VERTEX
  8
LAYER_6
 10
103.2952
 20
-141.6826
 42
0.300430871
  0
VERTEX
  8
LAYER_6
 10
102.2625
 20
-140.1191
  0
VERTEX
  8
LAYER_6
 10
88.328
 20
-140.1191
 42
0.3004345148
  0
VERTEX
  8
LAYER_6
 10
87.2952
 20
-141.6826
 42
0.3004491079
  0
VERTEX
  8
LAYER_6
 10
88.328
 20
-143.2462
  0
SEQEND
  0
POLYLINE
  8
LAYER_6
 40
0.1058
 41
0.1058
 66
1
 10
0
 20
0
 30
0
  0
VERTEX
  8
LAYER_6
 10
102.2625
 20
-148.2462
 42
0.300440558
  0
VERTEX
  8
LAYER_6
 10
101.644
 20
-149.1826
 42
0.3004649257
  0
VERTEX
  8
LAYER_6
 10
102.2625
 20
-150.1191
  0
SEQEND
  0
POLYLINE
  8
LAYER_6
 40
0.1058
 41
0.1058
 66
1
 10
0
 20
0
 30
0
 70
1
  0
VERTEX
  8
LAYER_6
 10
102.2625
 20
-148.2462
 42
0.3004454642
  0
VERTEX
  8
LAYER_6
 10
103.2952
 20
-146.6826
 42
0.300430871
  0
VERTEX
  8
LAYER_6
 10
102.2625
 20
-145.1191
  0
VERTEX
  8
LAYER_6
 10
88.328
 20
-145.1191
 42
0.3004345148
  0
VERTEX
  8
LAYER_6
 10
87.2952
 20
-146.6826
 42
0.3004491079
  0
VERTEX
  8
LAYER_6
 10
88.328
 20
-148.2462
  0
SEQEND
  0
POLYLINE
  8
LAYER_6
 40
0.1058
 41
0.1058
 66
1
 10
0
 20
0
 30
0
  0
VERTEX
  8
LAYER_6
 10
102.2625
 20
-153.2462
 42
0.300440558
  0
VERTEX
  8
LAYER_6
 10
101.644
 20
-154.1826
 42
0.3004649257
  0
VERTEX
  8
LAYER_6
 10
102.2625
 20
-155.1191
  0
SEQEND
  0
POLYLINE
  8
LAYER_6
 40
0.1058
 41
0.1058
 66
1
 10
0
 20
0
 30
0
 70
1
  0
VERTEX
  8
LAYER_6
 10
102.2625
 20
-153.2462
 42
0.3004454642
  0
VERTEX
  8
LAYER_6
 10
103.2952
 20
-151.6826
 42
0.300430871
  0
VERTEX
  8
LAYER_6
 10
102.2625
 20
-150.1191
  0
VERTEX
  8
LAYER_6
 10
88.328
 20
-150.1191
 42
0.3004345148
  0
VERTEX
  8
LAYER_6
 10
87.2952
 20
-151.6826
 42
0.3004491079
  0
VERTEX
  8
LAYER_6
 10
88.328
 20
-153.2462
  0
SEQEND
  0
POLYLINE
  8
LAYER_6
 40
0.1058
 41
0.1058
 66
1
 10
0
 20
0
 30
0
  0
VERTEX
  8
LAYER_6
 10
102.2625
 20
-158.2462
 42
0.300440558
  0
VERTEX
  8
LAYER_6
 10
101.644
 20
-159.1826
 42
0.3004649257
  0
VERTEX
  8
LAYER_6
 10
102.2625
 20
-160.1191
  0
SEQEND
  0
POLYLINE
  8
LAYER_6
 40
0.1058
 41
0.1058
 66
1
 10
0
 20
0
 30
0
 70
1
  0
VERTEX
  8
LAYER_6
 10
102.2625
 20
-158.2462
 42
0.3004454642
  0
VERTEX
  8
LAYER_6
 10
103.2952
 20
-156.6826
 42
0.300430871
  0
VERTEX
  8
LAYER_6
 10
102.2625
 20
-155.1191
  0
VERTEX
  8
LAYER_6
 10
88.328
 20
-155.1191
 42
0.3004345148
  0
VERTEX
  8
LAYER_6
 10
87.2952
 20
-156.6826
 42
0.3004491079
  0
VERTEX
  8
LAYER_6
 10
88.328
 20
-158.2462
  0
SEQEND
  0
POLYLINE
  8
LAYER_6
 40
0.1058
 41
0.1058
 66
1
 10
0
 20
0
 30
0
  0
VERTEX
  8
LAYER_6
 10
102.2625
 20
-163.2462
 42
0.300440558
  0
VERTEX
  8
LAYER_6
 10
101.644
 20
-164.1826
 42
0.3004649257
  0
VERTEX
  8
LAYER_6
 10
102.2625
 20
-165.1191
  0
SEQEND
  0
POLYLINE
  8
LAYER_6
 40
0.1058
 41
0.1058
 66
1
 10
0
 20
0
 30
0
 70
1
  0
VERTEX
  8
LAYER_6
 10
102.2625
 20
-163.2462
 42
0.3004454642
  0
VERTEX
  8
LAYER_6
 10
103.2952
 20
-161.6826
 42
0.300430871
  0
VERTEX
  8
LAYER_6
 10
102.2625
 20
-160.1191
  0
VERTEX
  8
LAYER_6
 10
88.328
 20
-160.1191
 42
0.3004345148
  0
VERTEX
  8
LAYER_6
 10
87.2952
 20
-161.6826
 42
0.3004491079
  0
VERTEX
  8
LAYER_6
 10
88.328
 20
-163.2462
  0
SEQEND
  0
POLYLINE
  8
LAYER_6
 40
0.1058
 41
0.1058
 66
1
 10
0
 20
0
 30
0
  0
VERTEX
  8
LAYER_6
 10
102.2625
 20
-168.2462
 42
0.300440558
  0
VERTEX
  8
LAYER_6
 10
101.644
 20
-169.1826
 42
0.3004649257
  0
VERTEX
  8
LAYER_6
 10
102.2625
 20
-170.1191
  0
VERTEX
  8
LAYER_6
 10
88.328
 20
-170.1191
 42
0.3004345148
  0
VERTEX
  8
LAYER_6
 10
87.2952
 20
-171.6826
 42
0.3004491079
  0
VERTEX
  8
LAYER_6
 10
88.328
 20
-173.2462
  0
SEQEND
  0
POLYLINE
  8
LAYER_6
 40
0.1058
 41
0.1058
 66
1
 10
0
 20
0
 30
0
 70
1
  0
VERTEX
  8
LAYER_6
 10
102.2625
 20
-168.2462
 42
0.3004454642
  0
VERTEX
  8
LAYER_6
 10
103.2952
 20
-166.6826
 42
0.300430871
  0
VERTEX
  8
LAYER_6
 10
102.2625
 20
-165.1191
  0
VERTEX
  8
LAYER_6
 10
88.328
 20
-165.1191
 42
0.3004345148
  0
VERTEX
  8
LAYER_6
 10
87.2952
 20
-166.6826
 42
0.3004491079
  0
VERTEX
  8
LAYER_6
 10
88.328
 20
-168.2462
  0
SEQEND
  0
POLYLINE
  8
LAYER_6
 40
0.1058
 41
0.1058
 66
1
 10
0
 20
0
 30
0
 70
1
  0
VERTEX
  8
LAYER_6
 10
88.328
 20
-175.1191
 42
0.3004588412
  0
VERTEX
  8
LAYER_6
 10
88.9465
 20
-174.1826
 42
0.3004344746
  0
VERTEX
  8
LAYER_6
 10
88.328
 20
-173.2462
  0
VERTEX
  8
LAYER_6
 10
102.2625
 20
-173.2462
 42
0.300440558
  0
VERTEX
  8
LAYER_6
 10
101.644
 20
-174.1826
 42
0.3004649257
  0
VERTEX
  8
LAYER_6
 10
102.2625
 20
-175.1191
  0
SEQEND
  0
POLYLINE
  8
LAYER_6
 40
0.1058
 41
0.1058
 66
1
 10
0
 20
0
 30
0
 70
1
  0
VERTEX
  8
LAYER_6
 10
88.328
 20
-180.1191
 42
0.3004588412
  0
VERTEX
  8
LAYER_6
 10
88.9465
 20
-179.1826
 42
0.3004344746
  0
VERTEX
  8
LAYER_6
 10
88.328
 20
-178.2462
  0
VERTEX
  8
LAYER_6
 10
102.2625
 20
-178.2462
 42
0.300440558
  0
VERTEX
  8
LAYER_6
 10
101.644
 20
-179.1826
 42
0.3004649257
  0
VERTEX
  8
LAYER_6
 10
102.2625
 20
-180.1191
  0
SEQEND
  0
POLYLINE
  8
LAYER_6
 40
0.1058
 41
0.1058
 66
1
 10
0
 20
0
 30
0
 70
1
  0
VERTEX
  8
LAYER_6
 10
88.328
 20
-185.1191
 42
0.3004588412
  0
VERTEX
  8
LAYER_6
 10
88.9465
 20
-184.1826
 42
0.3004344746
  0
VERTEX
  8
LAYER_6
 10
88.328
 20
-183.2462
  0
VERTEX
  8
LAYER_6
 10
102.2625
 20
-183.2462
 42
0.300440558
  0
VERTEX
  8
LAYER_6
 10
101.644
 20
-184.1826
 42
0.3004649257
  0
VERTEX
  8
LAYER_6
 10
102.2625
 20
-185.1191
  0
SEQEND
  0
POLYLINE
  8
LAYER_6
 40
0.1058
 41
0.1058
 66
1
 10
0
 20
0
 30
0
 70
1
  0
VERTEX
  8
LAYER_6
 10
88.328
 20
-190.1191
 42
0.3004588412
  0
VERTEX
  8
LAYER_6
 10
88.9465
 20
-189.1826
 42
0.3004344746
  0
VERTEX
  8
LAYER_6
 10
88.328
 20
-188.2462
  0
VERTEX
  8
LAYER_6
 10
102.2625
 20
-188.2462
 42
0.300440558
  0
VERTEX
  8
LAYER_6
 10
101.644
 20
-189.1826
 42
0.3004649257
  0
VERTEX
  8
LAYER_6
 10
102.2625
 20
-190.1191
  0
SEQEND
  0
CIRCLE
  8
LAYER_6
 10
95.2952
 20
-30.2196
 40
5
  0
POLYLINE
  8
LAYER_6
 40
0.1058
 41
0.1058
 66
1
 10
0
 20
0
 30
0
  0
VERTEX
  8
LAYER_6
 10
87.6635
 20
-122.7393
  0
VERTEX
  8
LAYER_6
 10
87.6913
 20
-122.6969
 42
-0.2554024894
  0
VERTEX
  8
LAYER_6
 10
89.6673
 20
-121.4387
 42
-0.1377984803
  0
VERTEX
  8
LAYER_6
 10
91.6746
 20
-122.0634
 42
0.02781652848
  0
VERTEX
  8
LAYER_6
 10
94.5815
 20
-123.4999
 42
0.1922327788
  0
VERTEX
  8
LAYER_6
 10
98.5195
 20
-123.4813
 42
0.07218054412
  0
VERTEX
  8
LAYER_6
 10
100.0779
 20
-122.2271
 42
-0.2870033129
  0
VERTEX
  8
LAYER_6
 10
103.2952
 20
-121.6826
  0
SEQEND
  0
POLYLINE
  8
LAYER_6
 40
0.1058
 41
0.1058
 66
1
 10
0
 20
0
 30
0
  0
VERTEX
  8
LAYER_6
 10
87.2952
 20
-121.6826
  0
VERTEX
  8
LAYER_6
 10
87.3401
 20
-121.6307
 42
-0.2053302043
  0
VERTEX
  8
LAYER_6
 10
89.931
 20
-120.1807
 42
-0.1593559556
  0
VERTEX
  8
LAYER_6
 10
92.5093
 20
-120.9832
 42
0.06427617982
  0
VERTEX
  8
LAYER_6
 10
95.1183
 20
-122.2408
 42
0.07096312417
  0
VERTEX
  8
LAYER_6
 10
96.9916
 20
-122.4918
 42
0.1293139259
  0
VERTEX
  8
LAYER_6
 10
98.8664
 20
-121.561
 42
-0.1061890472
  0
VERTEX
  8
LAYER_6
 10
102.2625
 20
-120.1191
  0
SEQEND
  0
ENDBLK
  0
BLOCK
  8
LAYER_6
  2
AIGNBL06010004
 70
64
 10
0
 20
0
 30
0
  3
AIGNBL06010004
  0
CIRCLE
  8
LAYER_6
 10
95.2952
 20
-30.1937
 40
9.25
  0
CIRCLE
  8
LAYER_6
 10
95.2952
 20
-30.1937
 40
5.75
  0
ENDBLK
  0
BLOCK
  8
LAYER_6
  2
AIGNBL06010005
 70
64
 10
0
 20
0
 30
0
  3
AIGNBL06010005
  0
POLYLINE
  8
LAYER_6
 40
0.1058
 41
0.1058
 66
1
 10
0
 20
0
 30
0
 70
1
  0
VERTEX
  8
LAYER_6
 10
108.7799
 20
-30.8377
  0
VERTEX
  8
LAYER_6
 10
108.7952
 20
-30.1937
  0
VERTEX
  8
LAYER_6
 10
108.7799
 20
-29.5498
  0
VERTEX
  8
LAYER_6
 10
102.5952
 20
-18.8377
 42
0.02408618584
  0
VERTEX
  8
LAYER_6
 10
101.4799
 20
-18.1937
  0
VERTEX
  8
LAYER_6
 10
89.1106
 20
-18.1937
 42
0.02411175043
  0
VERTEX
  8
LAYER_6
 10
87.9953
 20
-18.8377
  0
VERTEX
  8
LAYER_6
 10
81.8106
 20
-29.5498
  0
VERTEX
  8
LAYER_6
 10
81.7952
 20
-30.1937
  0
VERTEX
  8
LAYER_6
 10
81.8106
 20
-30.8377
  0
VERTEX
  8
LAYER_6
 10
87.9953
 20
-41.5498
 42
0.02415895514
  0
VERTEX
  8
LAYER_6
 10
89.1106
 20
-42.1937
  0
VERTEX
  8
LAYER_6
 10
101.4799
 20
-42.1937
 42
0.02410416977
  0
VERTEX
  8
LAYER_6
 10
102.5952
 20
-41.5498
  0
SEQEND
  0
POLYLINE
  8
LAYER_6
 40
0.1058
 41
0.1058
 66
1
 10
0
 20
0
 30
0
 70
1
  0
VERTEX
  8
LAYER_6
 10
107.2952
 20
-66.9462
 42
0.1059608321
  0
VERTEX
  8
LAYER_6
 10
108.7955
 20
-59.9462
 42
0.1059607657
  0
VERTEX
  8
LAYER_6
 10
107.2952
 20
-52.9462
  0
VERTEX
  8
LAYER_6
 10
83.2952
 20
-52.9462
 42
0.1059603088
  0
VERTEX
  8
LAYER_6
 10
81.7949
 20
-59.9462
 42
0.02218143474
  0
VERTEX
  8
LAYER_6
 10
81.8609
 20
-61.4462
 42
0.08377825166
  0
VERTEX
  8
LAYER_6
 10
83.2952
 20
-66.9462
  0
SEQEND
  0
CIRCLE
  8
LAYER_6
 10
95.2952
 20
-30.1937
 40
11
  0
CIRCLE
  8
LAYER_6
 10
95.2952
 20
-30.1937
 40
10.5
  0
CIRCLE
  8
LAYER_6
 10
95.2952
 20
-30.1937
 40
9.5
  0
CIRCLE
  8
LAYER_6
 10
95.2952
 20
-30.1937
 40
12
  0
POLYLINE
  8
LAYER_6
 40
0.1058
 41
0.1058
 66
1
 10
0
 20
0
 30
0
 70
1
  0
VERTEX
  8
LAYER_6
 10
105.6952
 20
-53.0462
  0
VERTEX
  8
LAYER_6
 10
105.6908
 20
-53.0463
 42
0.2378938285
  0
VERTEX
  8
LAYER_6
 10
104.1011
 20
-54.029
 42
0.1195780258
  0
VERTEX
  8
LAYER_6
 10
102.7424
 20
-57.8462
 42
0.1247345195
  0
VERTEX
  8
LAYER_6
 10
103.3958
 20
-64.5751
 42
0.1584392809
  0
VERTEX
  8
LAYER_6
 10
104.9045
 20
-66.618
 42
0.3661499861
  0
VERTEX
  8
LAYER_6
 10
106.9237
 20
-66.2805
 42
0.1334824994
  0
VERTEX
  8
LAYER_6
 10
108.3945
 20
-63.339
 42
0.1418697089
  0
VERTEX
  8
LAYER_6
 10
108.0646
 20
-55.4967
 42
0.1541303453
  0
VERTEX
  8
LAYER_6
 10
106.5506
 20
-53.3135
 42
0.15148088
  0
VERTEX
  8
LAYER_6
 10
105.6552
 20
-53.0433
  0
SEQEND
  0
POLYLINE
  8
LAYER_6
 40
0.1058
 41
0.1058
 66
1
 10
0
 20
0
 30
0
 70
1
  0
VERTEX
  8
LAYER_6
 10
95.2952
 20
-53.0462
  0
VERTEX
  8
LAYER_6
 10
95.2868
 20
-53.0466
 42
0.2853474475
  0
VERTEX
  8
LAYER_6
 10
89.8934
 20
-56.5863
 42
0.3234925803
  0
VERTEX
  8
LAYER_6
 10
91.3005
 20
-65.2137
 42
0.1503392519
  0
VERTEX
  8
LAYER_6
 10
94.371
 20
-66.7579
  0
VERTEX
  8
LAYER_6
 10
95.2952
 20
-66.7462
  0
VERTEX
  8
LAYER_6
 10
96.2194
 20
-66.7579
 42
0.1503432789
  0
VERTEX
  8
LAYER_6
 10
99.29
 20
-65.2137
 42
0.3234915229
  0
VERTEX
  8
LAYER_6
 10
100.6971
 20
-56.5863
 42
0.2853468146
  0
VERTEX
  8
LAYER_6
 10
95.3037
 20
-53.0466
 42
-0.4083417164
  0
VERTEX
  8
LAYER_6
 10
95.3985
 20
-53.1561
 42
-0.4081245916
  0
VERTEX
  8
LAYER_6
 10
95.291
 20
-53.2531
 42
-0.4082032913
  0
VERTEX
  8
LAYER_6
 10
95.1918
 20
-53.1476
 42
-0.4081448981
  0
SEQEND
  0
POLYLINE
  8
LAYER_6
 40
0.1058
 41
0.1058
 66
1
 10
0
 20
0
 30
0
 70
1
  0
VERTEX
  8
LAYER_6
 10
84.8952
 20
-53.0462
 42
0.4121097018
  0
VERTEX
  8
LAYER_6
 10
84.7293
 20
-53.211
 42
0.4124358855
  0
VERTEX
  8
LAYER_6
 10
84.8931
 20
-53.378
 42
0.4122601752
  0
VERTEX
  8
LAYER_6
 10
85.0611
 20
-53.2154
 42
0.4122848643
  0
VERTEX
  8
LAYER_6
 10
84.8996
 20
-53.0463
 42
-0.237898367
  0
VERTEX
  8
LAYER_6
 10
86.4893
 20
-54.029
 42
-0.1195793191
  0
VERTEX
  8
LAYER_6
 10
87.8481
 20
-57.8462
 42
-0.1247349201
  0
VERTEX
  8
LAYER_6
 10
87.1946
 20
-64.5751
 42
-0.1584416166
  0
VERTEX
  8
LAYER_6
 10
85.6859
 20
-66.618
 42
-0.3661471208
  0
VERTEX
  8
LAYER_6
 10
83.6667
 20
-66.2805
 42
-0.1334802663
  0
VERTEX
  8
LAYER_6
 10
82.196
 20
-63.339
 42
-0.1418699576
  0
VERTEX
  8
LAYER_6
 10
82.5259
 20
-55.4967
 42
-0.1541264667
  0
VERTEX
  8
LAYER_6
 10
84.0398
 20
-53.3135
 42
-0.1514720257
  0
VERTEX
  8
LAYER_6
 10
84.9356
 20
-53.0433
  0
SEQEND
  0
ENDBLK
  0
BLOCK
  8
LAYER_6
  2
AIGNBL06010006
 70
64
 10
0
 20
0
 30
0
  3
AIGNBL06010006
  0
POLYLINE
  8
LAYER_6
 40
0.1058
 41
0.1058
 66
1
 10
0
 20
0
 30
0
  0
VERTEX
  8
LAYER_6
 10
71.7952
 20
-196.9439
  0
VERTEX
  8
LAYER_6
 10
71.7952
 20
-61.4462
  0
SEQEND
  0
POLYLINE
  8
LAYER_6
 40
0.1058
 41
0.1058
 66
1
 10
0
 20
0
 30
0
  0
VERTEX
  8
LAYER_6
 10
81.8609
 20
-61.4462
  0
VERTEX
  8
LAYER_6
 10
70.7952
 20
-61.4462
  0
SEQEND
  0
POLYLINE
  8
LAYER_6
 40
0.1058
 41
0.1058
 66
1
 10
0
 20
0
 30
0
  0
VERTEX
  8
LAYER_6
 10
81.8773
 20
-196.9439
  0
VERTEX
  8
LAYER_6
 10
70.7952
 20
-196.9439
  0
SEQEND
  0
POLYLINE
  8
LAYER_6
 40
0.05
 41
0.05
 66
1
 10
0
 20
0
 30
0
 70
1
  0
VERTEX
  8
LAYER_6
 10
71.3345
 20
-193.4439
  0
VERTEX
  8
LAYER_6
 10
72.256
 20
-193.4439
  0
VERTEX
  8
LAYER_6
 10
71.7952
 20
-196.9439
  0
SEQEND
  0
POLYLINE
  8
LAYER_6
 40
0.05
 41
0.05
 66
1
 10
0
 20
0
 30
0
 70
1
  0
VERTEX
  8
LAYER_6
 10
72.256
 20
-64.9462
  0
VERTEX
  8
LAYER_6
 10
71.3345
 20
-64.9462
  0
VERTEX
  8
LAYER_6
 10
71.7952
 20
-61.4462
  0
SEQEND
  0
TEXT
  8
LAYER_6
 10
69.4441
 20
-130.2446
 11
69.4441
 21
-130.2446
 40
3.5
 41
0.5
 50
89.99999999
  1
L
  0
ENDBLK
  0
BLOCK
  8
LAYER_6
  2
AIGNBL06010007
 70
64
 10
0
 20
0
 30
0
  3
AIGNBL06010007
  0
POLYLINE
  8
LAYER_6
 40
0.1058
 41
0.1058
 66
1
 10
0
 20
0
 30
0
  0
VERTEX
  8
LAYER_6
 10
71.7952
 20
-42.1937
  0
VERTEX
  8
LAYER_6
 10
71.7952
 20
-18.1937
  0
SEQEND
  0
POLYLINE
  8
LAYER_6
 40
0.1058
 41
0.1058
 66
1
 10
0
 20
0
 30
0
  0
VERTEX
  8
LAYER_6
 10
89.1106
 20
-18.1937
  0
VERTEX
  8
LAYER_6
 10
70.7952
 20
-18.1937
  0
SEQEND
  0
POLYLINE
  8
LAYER_6
 40
0.1058
 41
0.1058
 66
1
 10
0
 20
0
 30
0
  0
VERTEX
  8
LAYER_6
 10
89.1106
 20
-42.1937
  0
VERTEX
  8
LAYER_6
 10
70.7952
 20
-42.1937
  0
SEQEND
  0
POLYLINE
  8
LAYER_6
 40
0.05
 41
0.05
 66
1
 10
0
 20
0
 30
0
 70
1
  0
VERTEX
  8
LAYER_6
 10
71.3345
 20
-38.6937
  0
VERTEX
  8
LAYER_6
 10
72.256
 20
-38.6937
  0
VERTEX
  8
LAYER_6
 10
71.7952
 20
-42.1937
  0
SEQEND
  0
POLYLINE
  8
LAYER_6
 40
0.05
 41
0.05
 66
1
 10
0
 20
0
 30
0
 70
1
  0
VERTEX
  8
LAYER_6
 10
72.256
 20
-21.6937
  0
VERTEX
  8
LAYER_6
 10
71.3345
 20
-21.6937
  0
VERTEX
  8
LAYER_6
 10
71.7952
 20
-18.1937
  0
SEQEND
  0
TEXT
  8
LAYER_6
 10
69.4441
 20
-32.8183
 11
69.4441
 21
-32.8183
 40
3.5
 41
0.5
 50
89.99999999
  1
24
  0
ENDBLK
  0
BLOCK
  8
LAYER_6
  2
AIGNBL06010008
 70
64
 10
0
 20
0
 30
0
  3
AIGNBL06010008
  0
POLYLINE
  8
LAYER_6
 40
0.1058
 41
0.1058
 66
1
 10
0
 20
0
 30
0
  0
VERTEX
  8
LAYER_6
 10
81.8106
 20
-8.1937
  0
VERTEX
  8
LAYER_6
 10
108.7799
 20
-8.1937
  0
SEQEND
  0
POLYLINE
  8
LAYER_6
 40
0.1058
 41
0.1058
 66
1
 10
0
 20
0
 30
0
  0
VERTEX
  8
LAYER_6
 10
108.7799
 20
-29.5498
  0
VERTEX
  8
LAYER_6
 10
108.7799
 20
-7.1937
  0
SEQEND
  0
POLYLINE
  8
LAYER_6
 40
0.1058
 41
0.1058
 66
1
 10
0
 20
0
 30
0
  0
VERTEX
  8
LAYER_6
 10
81.8106
 20
-29.5498
  0
VERTEX
  8
LAYER_6
 10
81.8106
 20
-7.1937
  0
SEQEND
  0
POLYLINE
  8
LAYER_6
 40
0.05
 41
0.05
 66
1
 10
0
 20
0
 30
0
 70
1
  0
VERTEX
  8
LAYER_6
 10
85.3106
 20
-7.733
  0
VERTEX
  8
LAYER_6
 10
85.3106
 20
-8.6545
  0
VERTEX
  8
LAYER_6
 10
81.8106
 20
-8.1937
  0
SEQEND
  0
POLYLINE
  8
LAYER_6
 40
0.05
 41
0.05
 66
1
 10
0
 20
0
 30
0
 70
1
  0
VERTEX
  8
LAYER_6
 10
105.2799
 20
-8.6545
  0
VERTEX
  8
LAYER_6
 10
105.2799
 20
-7.733
  0
VERTEX
  8
LAYER_6
 10
108.7799
 20
-8.1937
  0
SEQEND
  0
TEXT
  8
LAYER_6
 10
91.8929
 20
-5.8493
 11
91.8929
 21
-5.8493
 40
3.5
 41
0.5
  1
n27
  0
ENDBLK
  0
BLOCK
  8
LAYER_6
  2
AIGNBL06010009
 70
64
 10
0
 20
0
 30
0
  3
AIGNBL06010009
  0
POLYLINE
  8
LAYER_6
 40
0.1058
 41
0.1058
 66
1
 10
0
 20
0
 30
0
  0
VERTEX
  8
LAYER_6
 10
118.7955
 20
-205.6191
  0
VERTEX
  8
LAYER_6
 10
118.7955
 20
-191.6191
  0
SEQEND
  0
POLYLINE
  8
LAYER_6
 40
0.1058
 41
0.1058
 66
1
 10
0
 20
0
 30
0
  0
VERTEX
  8
LAYER_6
 10
107.2952
 20
-205.6191
  0
VERTEX
  8
LAYER_6
 10
119.7955
 20
-205.6191
  0
SEQEND
  0
POLYLINE
  8
LAYER_6
 40
0.1058
 41
0.1058
 66
1
 10
0
 20
0
 30
0
  0
VERTEX
  8
LAYER_6
 10
107.2952
 20
-191.6191
  0
VERTEX
  8
LAYER_6
 10
119.7955
 20
-191.6191
  0
SEQEND
  0
POLYLINE
  8
LAYER_6
 40
0.05
 41
0.05
 66
1
 10
0
 20
0
 30
0
 70
1
  0
VERTEX
  8
LAYER_6
 10
118.3347
 20
-202.1191
  0
VERTEX
  8
LAYER_6
 10
119.2563
 20
-202.1191
  0
VERTEX
  8
LAYER_6
 10
118.7955
 20
-205.6191
  0
SEQEND
  0
POLYLINE
  8
LAYER_6
 40
0.05
 41
0.05
 66
1
 10
0
 20
0
 30
0
 70
1
  0
VERTEX
  8
LAYER_6
 10
119.2563
 20
-195.1191
  0
VERTEX
  8
LAYER_6
 10
118.3347
 20
-195.1191
  0
VERTEX
  8
LAYER_6
 10
118.7955
 20
-191.6191
  0
SEQEND
  0
TEXT
  8
LAYER_6
 10
116.4444
 20
-200.7188
 11
116.4444
 21
-200.7188
 40
3.5
 41
0.5
 50
89.99999999
  1
14
  0
ENDBLK
  0
BLOCK
  8
LAYER_6
  2
AIGNBL0601000A
 70
64
 10
0
 20
0
 30
0
  3
AIGNBL0601000A
  0
POLYLINE
  8
LAYER_6
 40
0.1058
 41
0.1058
 66
1
 10
0
 20
0
 30
0
 70
1
  0
VERTEX
  8
LAYER_6
 10
107.2952
 20
-205.6191
 42
0.1059607464
  0
VERTEX
  8
LAYER_6
 10
108.7955
 20
-198.6191
 42
0.1059608513
  0
VERTEX
  8
LAYER_6
 10
107.2952
 20
-191.6191
  0
VERTEX
  8
LAYER_6
 10
103.6452
 20
-191.6191
  0
VERTEX
  8
LAYER_6
 10
83.2952
 20
-191.6191
 42
0.08118516754
  0
VERTEX
  8
LAYER_6
 10
81.8773
 20
-196.9439
 42
0.02456391819
  0
VERTEX
  8
LAYER_6
 10
81.7949
 20
-198.6191
 42
0.1059602898
  0
VERTEX
  8
LAYER_6
 10
83.2952
 20
-205.6191
  0
SEQEND
  0
POLYLINE
  8
LAYER_6
 40
0.1058
 41
0.1058
 66
1
 10
0
 20
0
 30
0
 70
1
  0
VERTEX
  8
LAYER_6
 10
84.8952
 20
-191.7191
 42
0.4122257544
  0
VERTEX
  8
LAYER_6
 10
84.7293
 20
-191.8839
 42
0.4123212858
  0
VERTEX
  8
LAYER_6
 10
84.8931
 20
-192.0509
 42
0.4121425509
  0
VERTEX
  8
LAYER_6
 10
85.0611
 20
-191.8883
 42
0.4124025729
  0
VERTEX
  8
LAYER_6
 10
84.8996
 20
-191.7191
 42
-0.2378950389
  0
VERTEX
  8
LAYER_6
 10
86.4893
 20
-192.7018
 42
-0.1195791599
  0
VERTEX
  8
LAYER_6
 10
87.8481
 20
-196.519
 42
-0.12473495
  0
VERTEX
  8
LAYER_6
 10
87.1946
 20
-203.2479
 42
-0.1584423987
  0
VERTEX
  8
LAYER_6
 10
85.6859
 20
-205.2908
 42
-0.3661548962
  0
VERTEX
  8
LAYER_6
 10
83.6667
 20
-204.9533
 42
-0.133476612
  0
VERTEX
  8
LAYER_6
 10
82.196
 20
-202.0119
 42
-0.1418716988
  0
VERTEX
  8
LAYER_6
 10
82.5259
 20
-194.1695
 42
-0.1541257872
  0
VERTEX
  8
LAYER_6
 10
84.0398
 20
-191.9863
 42
-0.1514688928
  0
VERTEX
  8
LAYER_6
 10
84.9356
 20
-191.7161
  0
SEQEND
  0
POLYLINE
  8
LAYER_6
 40
0.1058
 41
0.1058
 66
1
 10
0
 20
0
 30
0
 70
1
  0
VERTEX
  8
LAYER_6
 10
95.2952
 20
-191.7191
 42
0.4080486459
  0
VERTEX
  8
LAYER_6
 10
95.1918
 20
-191.8204
 42
0.4082955451
  0
VERTEX
  8
LAYER_6
 10
95.291
 20
-191.9259
 42
0.4082245603
  0
VERTEX
  8
LAYER_6
 10
95.3985
 20
-191.8289
 42
0.4082535479
  0
VERTEX
  8
LAYER_6
 10
95.3037
 20
-191.7194
 42
-0.2853454826
  0
VERTEX
  8
LAYER_6
 10
100.6971
 20
-195.2591
 42
-0.323491761
  0
VERTEX
  8
LAYER_6
 10
99.29
 20
-203.8865
 42
-0.1503440632
  0
VERTEX
  8
LAYER_6
 10
96.2194
 20
-205.4307
  0
VERTEX
  8
LAYER_6
 10
95.2952
 20
-205.4191
  0
VERTEX
  8
LAYER_6
 10
94.371
 20
-205.4307
 42
-0.1503400362
  0
VERTEX
  8
LAYER_6
 10
91.3005
 20
-203.8865
 42
-0.3234928185
  0
VERTEX
  8
LAYER_6
 10
89.8934
 20
-195.2591
 42
-0.2853461155
  0
VERTEX
  8
LAYER_6
 10
95.2868
 20
-191.7194
  0
SEQEND
  0
POLYLINE
  8
LAYER_6
 40
0.1058
 41
0.1058
 66
1
 10
0
 20
0
 30
0
 70
1
  0
VERTEX
  8
LAYER_6
 10
105.6952
 20
-191.7191
  0
VERTEX
  8
LAYER_6
 10
105.6908
 20
-191.7191
 42
0.2378905006
  0
VERTEX
  8
LAYER_6
 10
104.1011
 20
-192.7018
 42
0.1195778665
  0
VERTEX
  8
LAYER_6
 10
102.7424
 20
-196.519
 42
0.1247345494
  0
VERTEX
  8
LAYER_6
 10
103.3958
 20
-203.2479
 42
0.1584400629
  0
VERTEX
  8
LAYER_6
 10
104.9045
 20
-205.2908
 42
0.3661577616
  0
VERTEX
  8
LAYER_6
 10
106.9237
 20
-204.9533
 42
0.1334788451
  0
VERTEX
  8
LAYER_6
 10
108.3945
 20
-202.0119
 42
0.1418714502
  0
VERTEX
  8
LAYER_6
 10
108.0646
 20
-194.1695
 42
0.1541296658
  0
VERTEX
  8
LAYER_6
 10
106.5506
 20
-191.9863
 42
0.1514547899
  0
VERTEX
  8
LAYER_6
 10
105.6549
 20
-191.7161
  0
SEQEND
  0
ENDBLK
  0
ENDSEC
  0
SECTION
  2
ENTITIES
  0
INSERT
  8
LAYER_1
  2
AIGNBL01010002
 10
0
 20
0
 30
0
  0
INSERT
  8
LAYER_6
  2
AIGNBL06010002
 10
0
 20
0
 30
0
  0
POLYLINE
  8
LAYER_6
 40
0.3528
 41
0.3528
 66
1
 10
0
 20
0
 30
0
  0
VERTEX
  8
LAYER_6
 10
34.7876
 20
-258.3332
  0
VERTEX
  8
LAYER_6
 10
229.7955
 20
-258.3332
  0
VERTEX
  8
LAYER_6
 10
229.7955
 20
21.6583
  0
VERTEX
  8
LAYER_6
 10
34.7876
 20
21.6583
  0
VERTEX
  8
LAYER_6
 10
34.7876
 20
-258.3332
  0
SEQEND
  0
TEXT
  8
LAYER_6
 10
166.4505
 20
-248.7955
 11
166.4505
 21
-248.7955
 40
3.3853
 41
0.5
  1
●TEL 0120-65-1232●FAX 06-6532-1580
  0
TEXT
  8
LAYER_6
 10
166.4505
 20
-252.3102
 11
166.4505
 21
-252.3102
 40
3.3853
 41
0.5
  1
hits@hiratatile.co.jp
  0
TEXT
  8
LAYER_6
 10
218.9756
 20
18.4461
 11
218.9756
 21
18.4461
 40
2.0732
 41
0.5
  1
210311RT
  0
TEXT
  8
LAYER_6
 10
37.8495
 20
-250.3797
 11
37.8495
 21
-250.3797
 40
3.2995
 41
0.5
  1
仕様
  0
POLYLINE
  8
LAYER_6
 40
0.3528
 41
0.3528
 66
1
 10
0
 20
0
 30
0
  0
VERTEX
  8
LAYER_6
 10
229.7955
 20
-241.6001
  0
VERTEX
  8
LAYER_6
 10
34.7874
 20
-241.6001
  0
SEQEND
  0
POLYLINE
  8
LAYER_6
 40
0.3528
 41
0.3528
 66
1
 10
0
 20
0
 30
0
  0
VERTEX
  8
LAYER_6
 10
229.7955
 20
-233.091
  0
VERTEX
  8
LAYER_6
 10
34.7874
 20
-233.091
  0
SEQEND
  0
TEXT
  8
LAYER_6
 10
35.9444
 20
-235.5675
 11
35.9444
 21
-235.5675
 40
2.1997
 41
0.5
  1
品名
  0
TEXT
  8
LAYER_6
 10
48.715
 20
-238.6599
 11
48.715
 21
-238.6599
 40
3.6373
 41
0.5
  1
フレキホース
  0
TEXT
  8
LAYER_6
 10
48.4217
 20
-250.3883
 11
48.4217
 21
-250.3883
 40
3.5541
 41
0.5
  1
●SUS316L　●JIS　●クロム
  0
TEXT
  8
LAYER_6
 10
151.5017
 20
-235.5677
 11
151.5017
 21
-235.5677
 40
2.1997
 41
0.5
  1
品番
  0
TEXT
  8
LAYER_6
 10
157.5237
 20
-239.8443
 11
157.5237
 21
-239.8443
 40
5.9385
 41
0.5
  1
T14-13-300／T14-13-400
  0
INSERT
  8
LAYER_6
  2
AIGNBL06010003
 10
0
 20
0
 30
0
  0
INSERT
  8
LAYER_6
  2
AIGNBL06010004
 10
0
 20
0
 30
0
  0
INSERT
  8
LAYER_6
  2
AIGNBL06010005
 10
0
 20
0
 30
0
  0
POLYLINE
  8
LAYER_6
 40
0.1058
 41
0.1058
 66
1
 10
0
 20
0
 30
0
  0
VERTEX
  8
LAYER_6
 10
165.8082
 20
-6.3063
  0
VERTEX
  8
LAYER_6
 10
215.8082
 20
-6.3063
  0
SEQEND
  0
POLYLINE
  8
LAYER_6
 40
0.1058
 41
0.1058
 66
1
 10
0
 20
0
 30
0
  0
VERTEX
  8
LAYER_6
 10
165.8082
 20
-13.3063
  0
VERTEX
  8
LAYER_6
 10
215.8082
 20
-13.3063
  0
SEQEND
  0
POLYLINE
  8
LAYER_6
 40
0.1058
 41
0.1058
 66
1
 10
0
 20
0
 30
0
  0
VERTEX
  8
LAYER_6
 10
165.8082
 20
-20.3063
  0
VERTEX
  8
LAYER_6
 10
215.8082
 20
-20.3063
  0
SEQEND
  0
TEXT
  8
LAYER_6
 10
184.8167
 20
-3.7375
 11
184.8167
 21
-3.7375
 40
4.1553
 41
0.5
 72
1
  1
品番
  0
TEXT
  8
LAYER_6
 10
209.5451
 20
-3.6881
 11
209.5451
 21
-3.6881
 40
4.9033
 41
0.5
 72
1
  1
L
  0
TEXT
  8
LAYER_6
 10
213.642
 20
-11.4674
 11
213.642
 21
-11.4674
 40
4.9033
 41
0.5
 72
1
  1
300
  0
TEXT
  8
LAYER_6
 10
213.642
 20
-18.5894
 11
213.642
 21
-18.5894
 40
4.9033
 41
0.5
 72
1
  1
400
  0
TEXT
  8
LAYER_6
 10
190.5805
 20
-11.4674
 11
190.5805
 21
-11.4674
 40
4.9033
 41
0.5
 72
1
  1
T14-13X300
  0
TEXT
  8
LAYER_6
 10
190.5805
 20
-18.5894
 11
190.5805
 21
-18.5894
 40
4.9033
 41
0.5
 72
1
  1
T14-13X400
  0
INSERT
  8
LAYER_6
  2
AIGNBL06010006
 10
0
 20
0
 30
0
  0
INSERT
  8
LAYER_6
  2
AIGNBL06010007
 10
0
 20
0
 30
0
  0
INSERT
  8
LAYER_6
  2
AIGNBL06010008
 10
0
 20
0
 30
0
  0
INSERT
  8
LAYER_6
  2
AIGNBL06010009
 10
0
 20
0
 30
0
  0
INSERT
  8
LAYER_6
  2
AIGNBL0601000A
 10
0
 20
0
 30
0
  0
POLYLINE
  8
LAYER_6
  6
AIGENLINE001
 40
0.1058
 41
0.1058
 66
1
 10
0
 20
0
 30
0
 70
128
  0
VERTEX
  8
LAYER_6
 10
78.7952
 20
-30.1937
  0
VERTEX
  8
LAYER_6
 10
111.7952
 20
-30.1937
  0
SEQEND
  0
POLYLINE
  8
LAYER_6
  6
AIGENLINE001
 40
0.1058
 41
0.1058
 66
1
 10
0
 20
0
 30
0
 70
128
  0
VERTEX
  8
LAYER_6
 10
95.2952
 20
-15.1937
  0
VERTEX
  8
LAYER_6
 10
95.2952
 20
-45.1937
  0
SEQEND
  0
POLYLINE
  8
LAYER_6
  6
AIGENLINE001
 40
0.1058
 41
0.1058
 66
1
 10
0
 20
0
 30
0
 70
128
  0
VERTEX
  8
LAYER_6
 10
95.2952
 20
-208.6191
  0
VERTEX
  8
LAYER_6
 10
95.2952
 20
-49.9462
  0
SEQEND
  0
POLYLINE
  8
LAYER_6
 40
0.1058
 41
0.1058
 66
1
 10
0
 20
0
 30
0
  0
VERTEX
  8
LAYER_6
 10
199.8082
 20
0.6937
  0
VERTEX
  8
LAYER_6
 10
199.8082
 20
-20.3063
  0
SEQEND
  0
POLYLINE
  8
LAYER_6
 40
0.05
 41
0.05
 66
1
 10
0
 20
0
 30
0
 70
1
  0
VERTEX
  8
LAYER_6
 10
107.4461
 20
-208.4198
  0
VERTEX
  8
LAYER_6
 10
106.648
 20
-208.8805
  0
VERTEX
  8
LAYER_6
 10
105.297
 20
-205.6191
  0
SEQEND
  0
TEXT
  8
LAYER_6
 10
111.6362
 20
-215.098
 11
111.6362
 21
-215.098
 40
3.5
 41
0.5
 72
1
  1
G1/2
  0
POLYLINE
  8
LAYER_6
 40
0.1058
 41
0.1058
 66
1
 10
0
 20
0
 30
0
 70
1
  0
VERTEX
  8
LAYER_6
 10
199.8082
 20
0.6937
  0
VERTEX
  8
LAYER_6
 10
215.8082
 20
0.6937
  0
VERTEX
  8
LAYER_6
 10
215.8082
 20
-20.3063
  0
VERTEX
  8
LAYER_6
 10
199.8082
 20
-20.3063
  0
VERTEX
  8
LAYER_6
 10
165.8082
 20
-20.3063
  0
VERTEX
  8
LAYER_6
 10
165.8082
 20
0.6937
  0
SEQEND
  0
ENDSEC
  0
EOF
