  0
SECTION
  2
HEADER
  9
$ACADVER
  1
AC1009
  9
$LUNITS
 70
2
  9
$LUPREC
 70
4
  9
$LTSCALE
 40
1.0
  9
$EXTMIN
 10
33.7873
 20
-259.334
 30
0
  9
$EXTMAX
 10
230.7955
 20
22.6587
 30
0
  0
ENDSEC
  0
SECTION
  2
TABLES
  0
TABLE
  2
LTYPE
 70
256
  0
LTYPE
  2
AIGENLINE001
 70
64
  3
generate AI->DXF Converter
 72
65
 73
4
 40
14
 49
11
 49
-1
 49
1
 49
-1
  0
ENDTAB
  0
TABLE
  2
LAYER
 70
6
  0
LAYER
  2
LAYER_1
 70
64
 62
7
  6
CONTINUOUS
  0
LAYER
  2
LAYER_2
 70
64
 62
7
  6
CONTINUOUS
  0
LAYER
  2
LAYER_3
 70
64
 62
7
  6
CONTINUOUS
  0
LAYER
  2
LAYER_4
 70
64
 62
7
  6
CONTINUOUS
  0
LAYER
  2
LAYER_5
 70
64
 62
7
  6
CONTINUOUS
  0
LAYER
  2
LAYER_6
 70
64
 62
7
  6
CONTINUOUS
  0
ENDTAB
  0
TABLE
  2
STYLE
 70
6
  0
STYLE
  2
STANDARD
 70
0
 40
0
 50
0
 71
0
 41
0
 42
0
  3
TXT
  4
BIGFONT
  0
ENDTAB
  0
ENDSEC
  0
SECTION
  2
BLOCKS
  0
BLOCK
  8
LAYER_1
  2
AIGNBL01040005
 70
64
 10
0
 20
0
 30
0
  3
AIGNBL01040005
  0
POLYLINE
  8
LAYER_1
 40
0.05
 41
0.05
 66
1
 10
0
 20
0
 30
0
 70
1
  0
VERTEX
  8
LAYER_1
 10
138.3767
 20
-249.1011
  0
VERTEX
  8
LAYER_1
 10
137.891
 20
-250.2793
  0
VERTEX
  8
LAYER_1
 10
137.2664
 20
-250.2793
  0
VERTEX
  8
LAYER_1
 10
138.857
 20
-246.5355
  0
VERTEX
  8
LAYER_1
 10
139.586
 20
-246.5355
  0
VERTEX
  8
LAYER_1
 10
141.1828
 20
-250.2793
  0
VERTEX
  8
LAYER_1
 10
140.5365
 20
-250.2793
  0
VERTEX
  8
LAYER_1
 10
140.0369
 20
-249.1011
  0
SEQEND
  0
POLYLINE
  8
LAYER_1
 40
0.05
 41
0.05
 66
1
 10
0
 20
0
 30
0
 70
1
  0
VERTEX
  8
LAYER_1
 10
139.9115
 20
-248.7245
  0
VERTEX
  8
LAYER_1
 10
139.4533
 20
-247.6459
  0
VERTEX
  8
LAYER_1
 10
139.2101
 20
-246.963
  0
VERTEX
  8
LAYER_1
 10
139.1967
 20
-246.963
  0
VERTEX
  8
LAYER_1
 10
138.9603
 20
-247.6414
  0
VERTEX
  8
LAYER_1
 10
138.5021
 20
-248.7245
  0
SEQEND
  0
ENDBLK
  0
BLOCK
  8
LAYER_1
  2
AIGNBL01040006
 70
64
 10
0
 20
0
 30
0
  3
AIGNBL01040006
  0
POLYLINE
  8
LAYER_1
 40
0.05
 41
0.05
 66
1
 10
0
 20
0
 30
0
 70
1
  0
VERTEX
  8
LAYER_1
 10
145.5226
 20
-250.8295
 42
-0.01588995579
  0
VERTEX
  8
LAYER_1
 10
143.7311
 20
-250.3954
  0
VERTEX
  8
LAYER_1
 10
143.4465
 20
-250.3406
 42
-0.08603985201
  0
VERTEX
  8
LAYER_1
 10
142.5648
 20
-250.1665
 42
-0.09807603942
  0
VERTEX
  8
LAYER_1
 10
141.9131
 20
-249.7557
 42
-0.2094886647
  0
VERTEX
  8
LAYER_1
 10
141.3839
 20
-248.4469
 42
-0.09686882676
  0
VERTEX
  8
LAYER_1
 10
141.5276
 20
-247.6779
 42
-0.2046492491
  0
VERTEX
  8
LAYER_1
 10
142.5693
 20
-246.6597
 42
-0.09822810302
  0
VERTEX
  8
LAYER_1
 10
143.5644
 20
-246.4745
 42
-0.08551091506
  0
VERTEX
  8
LAYER_1
 10
144.4282
 20
-246.615
 42
-0.1004264881
  0
VERTEX
  8
LAYER_1
 10
145.0896
 20
-247.0069
 42
-0.2141381959
  0
VERTEX
  8
LAYER_1
 10
145.6617
 20
-248.3686
 42
-0.09538251124
  0
VERTEX
  8
LAYER_1
 10
145.5236
 20
-249.1322
 42
-0.2145004706
  0
VERTEX
  8
LAYER_1
 10
144.5063
 20
-250.1049
 42
-0.02339472194
  0
VERTEX
  8
LAYER_1
 10
144.3281
 20
-250.1628
  0
VERTEX
  8
LAYER_1
 10
144.3281
 20
-250.1852
  0
VERTEX
  8
LAYER_1
 10
145.6965
 20
-250.424
  0
SEQEND
  0
POLYLINE
  8
LAYER_1
 40
0.05
 41
0.05
 66
1
 10
0
 20
0
 30
0
 70
1
  0
VERTEX
  8
LAYER_1
 10
145.0233
 20
-248.39
 42
0.1071465477
  0
VERTEX
  8
LAYER_1
 10
144.8729
 20
-247.6894
 42
0.2977221891
  0
VERTEX
  8
LAYER_1
 10
143.5433
 20
-246.8687
 42
0.1072160189
  0
VERTEX
  8
LAYER_1
 10
142.8575
 20
-247.0073
 42
0.2385375056
  0
VERTEX
  8
LAYER_1
 10
142.0749
 20
-248.007
 42
0.05759145292
  0
VERTEX
  8
LAYER_1
 10
142.0296
 20
-248.4344
 42
0.2182236294
  0
VERTEX
  8
LAYER_1
 10
142.5575
 20
-249.6231
 42
0.1771891839
  0
VERTEX
  8
LAYER_1
 10
143.5161
 20
-249.9468
 42
0.1075696895
  0
VERTEX
  8
LAYER_1
 10
144.1932
 20
-249.8086
 42
0.236982977
  0
VERTEX
  8
LAYER_1
 10
144.9758
 20
-248.8146
 42
0.05604944619
  0
SEQEND
  0
ENDBLK
  0
BLOCK
  8
LAYER_1
  2
AIGNBL01040007
 70
64
 10
0
 20
0
 30
0
  3
AIGNBL01040007
  0
POLYLINE
  8
LAYER_1
 40
0.05
 41
0.05
 66
1
 10
0
 20
0
 30
0
 70
1
  0
VERTEX
  8
LAYER_1
 10
146.9815
 20
-246.5355
  0
VERTEX
  8
LAYER_1
 10
146.9815
 20
-248.7517
 42
0.114472655
  0
VERTEX
  8
LAYER_1
 10
147.1146
 20
-249.4136
 42
0.1464766
  0
VERTEX
  8
LAYER_1
 10
147.4628
 20
-249.7966
 42
0.1363197034
  0
VERTEX
  8
LAYER_1
 10
148.0716
 20
-249.9468
 42
0.1219363095
  0
VERTEX
  8
LAYER_1
 10
148.6913
 20
-249.8128
 42
0.1503291203
  0
VERTEX
  8
LAYER_1
 10
149.0609
 20
-249.446
 42
0.1255921242
  0
VERTEX
  8
LAYER_1
 10
149.2105
 20
-248.7517
  0
VERTEX
  8
LAYER_1
 10
149.2105
 20
-246.5355
  0
VERTEX
  8
LAYER_1
 10
149.8217
 20
-246.5355
  0
VERTEX
  8
LAYER_1
 10
149.8217
 20
-248.7187
 42
-0.1000186514
  0
VERTEX
  8
LAYER_1
 10
149.6875
 20
-249.4569
 42
-0.1214826848
  0
VERTEX
  8
LAYER_1
 10
149.3164
 20
-249.9606
 42
-0.1105884685
  0
VERTEX
  8
LAYER_1
 10
148.6945
 20
-250.2654
 42
-0.06129767201
  0
VERTEX
  8
LAYER_1
 10
148.0509
 20
-250.3406
 42
-0.09420892198
  0
VERTEX
  8
LAYER_1
 10
147.2365
 20
-250.2032
 42
-0.2431575096
  0
VERTEX
  8
LAYER_1
 10
146.4378
 20
-249.2978
 42
-0.06319469768
  0
VERTEX
  8
LAYER_1
 10
146.3707
 20
-248.7404
  0
VERTEX
  8
LAYER_1
 10
146.3707
 20
-246.5355
  0
SEQEND
  0
ENDBLK
  0
BLOCK
  8
LAYER_1
  2
AIGNBL01040008
 70
64
 10
0
 20
0
 30
0
  3
AIGNBL01040008
  0
POLYLINE
  8
LAYER_1
 40
0.05
 41
0.05
 66
1
 10
0
 20
0
 30
0
 70
1
  0
VERTEX
  8
LAYER_1
 10
151.5573
 20
-249.1011
  0
VERTEX
  8
LAYER_1
 10
151.0709
 20
-250.2793
  0
VERTEX
  8
LAYER_1
 10
150.447
 20
-250.2793
  0
VERTEX
  8
LAYER_1
 10
152.0365
 20
-246.5355
  0
VERTEX
  8
LAYER_1
 10
152.7655
 20
-246.5355
  0
VERTEX
  8
LAYER_1
 10
154.3623
 20
-250.2793
  0
VERTEX
  8
LAYER_1
 10
153.7167
 20
-250.2793
  0
VERTEX
  8
LAYER_1
 10
153.2175
 20
-249.1011
  0
SEQEND
  0
POLYLINE
  8
LAYER_1
 40
0.05
 41
0.05
 66
1
 10
0
 20
0
 30
0
 70
1
  0
VERTEX
  8
LAYER_1
 10
153.0921
 20
-248.7245
  0
VERTEX
  8
LAYER_1
 10
152.6332
 20
-247.6459
  0
VERTEX
  8
LAYER_1
 10
152.3897
 20
-246.963
  0
VERTEX
  8
LAYER_1
 10
152.3759
 20
-246.963
  0
VERTEX
  8
LAYER_1
 10
152.1402
 20
-247.6414
  0
VERTEX
  8
LAYER_1
 10
151.682
 20
-248.7245
  0
SEQEND
  0
ENDBLK
  0
BLOCK
  8
LAYER_1
  2
AIGNBL01040009
 70
64
 10
0
 20
0
 30
0
  3
AIGNBL01040009
  0
POLYLINE
  8
LAYER_1
 40
0.05
 41
0.05
 66
1
 10
0
 20
0
 30
0
 70
1
  0
VERTEX
  8
LAYER_1
 10
155.3969
 20
-246.58
 42
-0.03256094069
  0
VERTEX
  8
LAYER_1
 10
156.5576
 20
-246.5072
 42
-0.08241612935
  0
VERTEX
  8
LAYER_1
 10
157.5173
 20
-246.6416
 42
-0.07669938049
  0
VERTEX
  8
LAYER_1
 10
157.8691
 20
-246.8184
 42
-0.2484913661
  0
VERTEX
  8
LAYER_1
 10
158.279
 20
-247.6018
 42
-0.2263535337
  0
VERTEX
  8
LAYER_1
 10
157.9177
 20
-248.4014
 42
-0.1098394792
  0
VERTEX
  8
LAYER_1
 10
157.2932
 20
-248.7128
 42
-0.0656406839
  0
VERTEX
  8
LAYER_1
 10
156.4872
 20
-248.8127
 42
-0.06243203296
  0
VERTEX
  8
LAYER_1
 10
156.0015
 20
-248.7793
  0
VERTEX
  8
LAYER_1
 10
156.0015
 20
-250.2793
  0
VERTEX
  8
LAYER_1
 10
155.3969
 20
-250.2793
  0
SEQEND
  0
POLYLINE
  8
LAYER_1
 40
0.05
 41
0.05
 66
1
 10
0
 20
0
 30
0
 70
1
  0
VERTEX
  8
LAYER_1
 10
156.0015
 20
-248.3852
 42
0.04167858666
  0
VERTEX
  8
LAYER_1
 10
156.501
 20
-248.4245
 42
0.1033682296
  0
VERTEX
  8
LAYER_1
 10
157.216
 20
-248.2977
 42
0.300261568
  0
VERTEX
  8
LAYER_1
 10
157.6751
 20
-247.6242
 42
0.1736095203
  0
VERTEX
  8
LAYER_1
 10
157.5412
 20
-247.2193
 42
0.1518049397
  0
VERTEX
  8
LAYER_1
 10
157.1227
 20
-246.9614
 42
0.06878721899
  0
VERTEX
  8
LAYER_1
 10
156.5713
 20
-246.891
 42
0.0640598863
  0
VERTEX
  8
LAYER_1
 10
156.0015
 20
-246.93
  0
SEQEND
  0
ENDBLK
  0
BLOCK
  8
LAYER_1
  2
AIGNBL0104000A
 70
64
 10
0
 20
0
 30
0
  3
AIGNBL0104000A
  0
POLYLINE
  8
LAYER_1
 40
0.05
 41
0.05
 66
1
 10
0
 20
0
 30
0
 70
1
  0
VERTEX
  8
LAYER_1
 10
159.8218
 20
-246.8352
 42
-0.2759870412
  0
VERTEX
  8
LAYER_1
 10
159.6829
 20
-247.0742
 42
-0.1267055018
  0
VERTEX
  8
LAYER_1
 10
159.4325
 20
-247.1356
 42
-0.2239956238
  0
VERTEX
  8
LAYER_1
 10
159.1241
 20
-247.0039
 42
-0.1705452753
  0
VERTEX
  8
LAYER_1
 10
159.0645
 20
-246.8352
 42
-0.2641883957
  0
VERTEX
  8
LAYER_1
 10
159.2127
 20
-246.5896
 42
-0.1291792354
  0
VERTEX
  8
LAYER_1
 10
159.4459
 20
-246.53
 42
-0.2251681707
  0
VERTEX
  8
LAYER_1
 10
159.761
 20
-246.6599
 42
-0.1693099844
  0
SEQEND
  0
POLYLINE
  8
LAYER_1
 40
0.05
 41
0.05
 66
1
 10
0
 20
0
 30
0
 70
1
  0
VERTEX
  8
LAYER_1
 10
159.1407
 20
-250.2793
  0
VERTEX
  8
LAYER_1
 10
159.1407
 20
-247.5907
  0
VERTEX
  8
LAYER_1
 10
159.7515
 20
-247.5907
  0
VERTEX
  8
LAYER_1
 10
159.7515
 20
-250.2793
  0
SEQEND
  0
ENDBLK
  0
BLOCK
  8
LAYER_1
  2
AIGNBL0104000B
 70
64
 10
0
 20
0
 30
0
  3
AIGNBL0104000B
  0
POLYLINE
  8
LAYER_1
 40
0.05
 41
0.05
 66
1
 10
0
 20
0
 30
0
 70
1
  0
VERTEX
  8
LAYER_1
 10
161.6118
 20
-249.1011
  0
VERTEX
  8
LAYER_1
 10
161.1271
 20
-250.2793
  0
VERTEX
  8
LAYER_1
 10
160.5015
 20
-250.2793
  0
VERTEX
  8
LAYER_1
 10
162.0918
 20
-246.5355
  0
VERTEX
  8
LAYER_1
 10
162.8211
 20
-246.5355
  0
VERTEX
  8
LAYER_1
 10
164.4186
 20
-250.2793
  0
VERTEX
  8
LAYER_1
 10
163.7719
 20
-250.2793
  0
VERTEX
  8
LAYER_1
 10
163.2727
 20
-249.1011
  0
SEQEND
  0
POLYLINE
  8
LAYER_1
 40
0.05
 41
0.05
 66
1
 10
0
 20
0
 30
0
 70
1
  0
VERTEX
  8
LAYER_1
 10
163.1473
 20
-248.7245
  0
VERTEX
  8
LAYER_1
 10
162.6891
 20
-247.6459
  0
VERTEX
  8
LAYER_1
 10
162.4466
 20
-246.963
  0
VERTEX
  8
LAYER_1
 10
162.4321
 20
-246.963
  0
VERTEX
  8
LAYER_1
 10
162.1961
 20
-247.6414
  0
VERTEX
  8
LAYER_1
 10
161.7379
 20
-248.7245
  0
SEQEND
  0
ENDBLK
  0
BLOCK
  8
LAYER_1
  2
AIGNBL01030004
 70
64
 10
0
 20
0
 30
0
  3
AIGNBL01030004
  0
INSERT
  8
LAYER_1
  2
AIGNBL01040005
 10
0
 20
0
 30
0
  0
INSERT
  8
LAYER_1
  2
AIGNBL01040006
 10
0
 20
0
 30
0
  0
INSERT
  8
LAYER_1
  2
AIGNBL01040007
 10
0
 20
0
 30
0
  0
INSERT
  8
LAYER_1
  2
AIGNBL01040008
 10
0
 20
0
 30
0
  0
INSERT
  8
LAYER_1
  2
AIGNBL01040009
 10
0
 20
0
 30
0
  0
INSERT
  8
LAYER_1
  2
AIGNBL0104000A
 10
0
 20
0
 30
0
  0
INSERT
  8
LAYER_1
  2
AIGNBL0104000B
 10
0
 20
0
 30
0
  0
ENDBLK
  0
BLOCK
  8
LAYER_1
  2
AIGNBL0103000D
 70
64
 10
0
 20
0
 30
0
  3
AIGNBL0103000D
  0
POLYLINE
  8
LAYER_1
 40
0.05
 41
0.05
 66
1
 10
0
 20
0
 30
0
 70
1
  0
VERTEX
  8
LAYER_1
 10
137.3756
 20
-252.1676
  0
VERTEX
  8
LAYER_1
 10
137.9258
 20
-252.1676
  0
VERTEX
  8
LAYER_1
 10
137.9258
 20
-252.2609
  0
VERTEX
  8
LAYER_1
 10
137.2715
 20
-252.2609
  0
VERTEX
  8
LAYER_1
 10
137.2715
 20
-251.2339
  0
VERTEX
  8
LAYER_1
 10
137.9082
 20
-251.2339
  0
VERTEX
  8
LAYER_1
 10
137.9082
 20
-251.3266
  0
VERTEX
  8
LAYER_1
 10
137.3756
 20
-251.3266
  0
VERTEX
  8
LAYER_1
 10
137.3756
 20
-251.6787
  0
VERTEX
  8
LAYER_1
 10
137.8734
 20
-251.6787
  0
VERTEX
  8
LAYER_1
 10
137.8734
 20
-251.7717
  0
VERTEX
  8
LAYER_1
 10
137.3756
 20
-251.7717
  0
SEQEND
  0
ENDBLK
  0
BLOCK
  8
LAYER_1
  2
AIGNBL0103000E
 70
64
 10
0
 20
0
 30
0
  3
AIGNBL0103000E
  0
POLYLINE
  8
LAYER_1
 40
0.05
 41
0.05
 66
1
 10
0
 20
0
 30
0
 70
1
  0
VERTEX
  8
LAYER_1
 10
139.0589
 20
-252.1079
  0
VERTEX
  8
LAYER_1
 10
139.0613
 20
-252.1079
  0
VERTEX
  8
LAYER_1
 10
139.0613
 20
-251.2339
  0
VERTEX
  8
LAYER_1
 10
139.1663
 20
-251.2339
  0
VERTEX
  8
LAYER_1
 10
139.1663
 20
-252.2609
  0
VERTEX
  8
LAYER_1
 10
139.0365
 20
-252.2609
  0
VERTEX
  8
LAYER_1
 10
138.4384
 20
-251.3772
  0
VERTEX
  8
LAYER_1
 10
138.435
 20
-251.3772
  0
VERTEX
  8
LAYER_1
 10
138.435
 20
-252.2609
  0
VERTEX
  8
LAYER_1
 10
138.3306
 20
-252.2609
  0
VERTEX
  8
LAYER_1
 10
138.3306
 20
-251.2339
  0
VERTEX
  8
LAYER_1
 10
138.4611
 20
-251.2339
  0
SEQEND
  0
ENDBLK
  0
BLOCK
  8
LAYER_1
  2
AIGNBL0103000F
 70
64
 10
0
 20
0
 30
0
  3
AIGNBL0103000F
  0
POLYLINE
  8
LAYER_1
 40
0.05
 41
0.05
 66
1
 10
0
 20
0
 30
0
 70
1
  0
VERTEX
  8
LAYER_1
 10
139.637
 20
-252.0501
  0
VERTEX
  8
LAYER_1
 10
139.691
 20
-252.1527
 42
0.1791739205
  0
VERTEX
  8
LAYER_1
 10
139.8034
 20
-252.1937
  0
VERTEX
  8
LAYER_1
 10
139.8922
 20
-252.1744
  0
VERTEX
  8
LAYER_1
 10
139.948
 20
-252.1214
  0
VERTEX
  8
LAYER_1
 10
139.9763
 20
-252.0453
  0
VERTEX
  8
LAYER_1
 10
139.9853
 20
-251.956
  0
VERTEX
  8
LAYER_1
 10
139.9853
 20
-251.2339
  0
VERTEX
  8
LAYER_1
 10
140.0893
 20
-251.2339
  0
VERTEX
  8
LAYER_1
 10
140.0893
 20
-251.965
  0
VERTEX
  8
LAYER_1
 10
140.0783
 20
-252.0718
  0
VERTEX
  8
LAYER_1
 10
140.0369
 20
-252.1765
  0
VERTEX
  8
LAYER_1
 10
139.9529
 20
-252.2554
  0
VERTEX
  8
LAYER_1
 10
139.8147
 20
-252.2868
 42
-0.18823279
  0
VERTEX
  8
LAYER_1
 10
139.6311
 20
-252.2268
 42
-0.1779708983
  0
VERTEX
  8
LAYER_1
 10
139.5391
 20
-252.0769
  0
SEQEND
  0
ENDBLK
  0
BLOCK
  8
LAYER_1
  2
AIGNBL01030010
 70
64
 10
0
 20
0
 30
0
  3
AIGNBL01030010
  0
POLYLINE
  8
LAYER_1
 40
0.05
 41
0.05
 66
1
 10
0
 20
0
 30
0
 70
1
  0
VERTEX
  8
LAYER_1
 10
141.5693
 20
-251.7469
 42
-0.104348301
  0
VERTEX
  8
LAYER_1
 10
141.5279
 20
-251.9629
 42
-0.1013865216
  0
VERTEX
  8
LAYER_1
 10
141.4163
 20
-252.1338
  0
VERTEX
  8
LAYER_1
 10
141.2458
 20
-252.2461
 42
-0.09497960855
  0
VERTEX
  8
LAYER_1
 10
141.0332
 20
-252.2868
 42
-0.1003676177
  0
VERTEX
  8
LAYER_1
 10
140.8207
 20
-252.2461
  0
VERTEX
  8
LAYER_1
 10
140.6512
 20
-252.1338
 42
-0.09474436642
  0
VERTEX
  8
LAYER_1
 10
140.5389
 20
-251.9629
 42
-0.09317427323
  0
VERTEX
  8
LAYER_1
 10
140.4986
 20
-251.7469
 42
-0.1052531491
  0
VERTEX
  8
LAYER_1
 10
140.5389
 20
-251.5306
 42
-0.1000138279
  0
VERTEX
  8
LAYER_1
 10
140.6512
 20
-251.3604
 42
-0.09581503346
  0
VERTEX
  8
LAYER_1
 10
140.8207
 20
-251.2481
 42
-0.09561956468
  0
VERTEX
  8
LAYER_1
 10
141.0332
 20
-251.2071
 42
-0.1024782491
  0
VERTEX
  8
LAYER_1
 10
141.2458
 20
-251.2481
 42
-0.1014786584
  0
VERTEX
  8
LAYER_1
 10
141.4163
 20
-251.3604
 42
-0.09815577957
  0
VERTEX
  8
LAYER_1
 10
141.5279
 20
-251.5306
 42
-0.09523735002
  0
SEQEND
  0
POLYLINE
  8
LAYER_1
 40
0.05
 41
0.05
 66
1
 10
0
 20
0
 30
0
 70
1
  0
VERTEX
  8
LAYER_1
 10
141.4584
 20
-251.7476
  0
VERTEX
  8
LAYER_1
 10
141.4301
 20
-251.5767
  0
VERTEX
  8
LAYER_1
 10
141.3454
 20
-251.4344
  0
VERTEX
  8
LAYER_1
 10
141.211
 20
-251.337
 42
0.1026237584
  0
VERTEX
  8
LAYER_1
 10
141.0332
 20
-251.3001
 42
0.1147987019
  0
VERTEX
  8
LAYER_1
 10
140.8558
 20
-251.337
  0
VERTEX
  8
LAYER_1
 10
140.7225
 20
-251.4344
  0
VERTEX
  8
LAYER_1
 10
140.6374
 20
-251.5767
  0
VERTEX
  8
LAYER_1
 10
140.6081
 20
-251.7476
  0
VERTEX
  8
LAYER_1
 10
140.6374
 20
-251.9188
  0
VERTEX
  8
LAYER_1
 10
140.7225
 20
-252.0607
  0
VERTEX
  8
LAYER_1
 10
140.8558
 20
-252.1575
  0
VERTEX
  8
LAYER_1
 10
141.0332
 20
-252.1937
 42
0.1185100977
  0
VERTEX
  8
LAYER_1
 10
141.211
 20
-252.1575
  0
VERTEX
  8
LAYER_1
 10
141.3454
 20
-252.0607
  0
VERTEX
  8
LAYER_1
 10
141.4301
 20
-251.9188
  0
SEQEND
  0
ENDBLK
  0
BLOCK
  8
LAYER_1
  2
AIGNBL01030011
 70
64
 10
0
 20
0
 30
0
  3
AIGNBL01030011
  0
POLYLINE
  8
LAYER_1
 40
0.05
 41
0.05
 66
1
 10
0
 20
0
 30
0
 70
1
  0
VERTEX
  8
LAYER_1
 10
142.3393
 20
-252.2609
  0
VERTEX
  8
LAYER_1
 10
142.2349
 20
-252.2609
  0
VERTEX
  8
LAYER_1
 10
142.2349
 20
-251.8182
  0
VERTEX
  8
LAYER_1
 10
141.8504
 20
-251.2339
  0
VERTEX
  8
LAYER_1
 10
141.9813
 20
-251.2339
  0
VERTEX
  8
LAYER_1
 10
142.2904
 20
-251.7311
  0
VERTEX
  8
LAYER_1
 10
142.6022
 20
-251.2339
  0
VERTEX
  8
LAYER_1
 10
142.7234
 20
-251.2339
  0
VERTEX
  8
LAYER_1
 10
142.3393
 20
-251.8182
  0
SEQEND
  0
ENDBLK
  0
BLOCK
  8
LAYER_1
  2
AIGNBL01030012
 70
64
 10
0
 20
0
 30
0
  3
AIGNBL01030012
  0
POLYLINE
  8
LAYER_1
 40
0.05
 41
0.05
 66
1
 10
0
 20
0
 30
0
 70
1
  0
VERTEX
  8
LAYER_1
 10
143.6236
 20
-251.2339
  0
VERTEX
  8
LAYER_1
 10
143.9288
 20
-251.2339
  0
VERTEX
  8
LAYER_1
 10
144.047
 20
-251.2457
  0
VERTEX
  8
LAYER_1
 10
144.1528
 20
-251.288
  0
VERTEX
  8
LAYER_1
 10
144.2307
 20
-251.3686
  0
VERTEX
  8
LAYER_1
 10
144.2603
 20
-251.4961
 42
-0.1778951175
  0
VERTEX
  8
LAYER_1
 10
144.2103
 20
-251.6373
 42
-0.1614829203
  0
VERTEX
  8
LAYER_1
 10
144.078
 20
-251.7166
  0
VERTEX
  8
LAYER_1
 10
144.078
 20
-251.7194
 42
-0.1736511409
  0
VERTEX
  8
LAYER_1
 10
144.2434
 20
-251.7969
 42
-0.1925337955
  0
VERTEX
  8
LAYER_1
 10
144.3099
 20
-251.9764
  0
VERTEX
  8
LAYER_1
 10
144.2823
 20
-252.0928
  0
VERTEX
  8
LAYER_1
 10
144.2062
 20
-252.1831
  0
VERTEX
  8
LAYER_1
 10
144.0866
 20
-252.2402
  0
VERTEX
  8
LAYER_1
 10
143.9275
 20
-252.2609
  0
VERTEX
  8
LAYER_1
 10
143.6236
 20
-252.2609
  0
SEQEND
  0
POLYLINE
  8
LAYER_1
 40
0.05
 41
0.05
 66
1
 10
0
 20
0
 30
0
 70
1
  0
VERTEX
  8
LAYER_1
 10
143.7277
 20
-251.6832
  0
VERTEX
  8
LAYER_1
 10
143.9382
 20
-251.6832
  0
VERTEX
  8
LAYER_1
 10
144.0146
 20
-251.6742
  0
VERTEX
  8
LAYER_1
 10
144.0842
 20
-251.6453
  0
VERTEX
  8
LAYER_1
 10
144.1362
 20
-251.5888
  0
VERTEX
  8
LAYER_1
 10
144.1552
 20
-251.5034
  0
VERTEX
  8
LAYER_1
 10
144.1362
 20
-251.4203
  0
VERTEX
  8
LAYER_1
 10
144.0835
 20
-251.3638
  0
VERTEX
  8
LAYER_1
 10
144.005
 20
-251.3328
  0
VERTEX
  8
LAYER_1
 10
143.9089
 20
-251.3235
  0
VERTEX
  8
LAYER_1
 10
143.7277
 20
-251.3235
  0
SEQEND
  0
POLYLINE
  8
LAYER_1
 40
0.05
 41
0.05
 66
1
 10
0
 20
0
 30
0
 70
1
  0
VERTEX
  8
LAYER_1
 10
143.7277
 20
-252.171
  0
VERTEX
  8
LAYER_1
 10
143.9223
 20
-252.171
  0
VERTEX
  8
LAYER_1
 10
144.0301
 20
-252.1596
  0
VERTEX
  8
LAYER_1
 10
144.1204
 20
-252.1252
  0
VERTEX
  8
LAYER_1
 10
144.181
 20
-252.0625
  0
VERTEX
  8
LAYER_1
 10
144.2048
 20
-251.9705
 42
0.2546661425
  0
VERTEX
  8
LAYER_1
 10
144.1362
 20
-251.8189
 42
0.138509597
  0
VERTEX
  8
LAYER_1
 10
143.9413
 20
-251.7686
  0
VERTEX
  8
LAYER_1
 10
143.7277
 20
-251.7686
  0
SEQEND
  0
ENDBLK
  0
BLOCK
  8
LAYER_1
  2
AIGNBL01030013
 70
64
 10
0
 20
0
 30
0
  3
AIGNBL01030013
  0
POLYLINE
  8
LAYER_1
 40
0.05
 41
0.05
 66
1
 10
0
 20
0
 30
0
 70
1
  0
VERTEX
  8
LAYER_1
 10
144.7388
 20
-252.2609
  0
VERTEX
  8
LAYER_1
 10
144.6241
 20
-252.2609
  0
VERTEX
  8
LAYER_1
 10
145.0685
 20
-251.2339
  0
VERTEX
  8
LAYER_1
 10
145.1705
 20
-251.2339
  0
VERTEX
  8
LAYER_1
 10
145.6111
 20
-252.2609
  0
VERTEX
  8
LAYER_1
 10
145.4943
 20
-252.2609
  0
VERTEX
  8
LAYER_1
 10
145.3813
 20
-251.9912
  0
VERTEX
  8
LAYER_1
 10
144.8504
 20
-251.9912
  0
SEQEND
  0
POLYLINE
  8
LAYER_1
 40
0.05
 41
0.05
 66
1
 10
0
 20
0
 30
0
 70
1
  0
VERTEX
  8
LAYER_1
 10
144.8894
 20
-251.8947
  0
VERTEX
  8
LAYER_1
 10
145.3424
 20
-251.8947
  0
VERTEX
  8
LAYER_1
 10
145.1164
 20
-251.3493
  0
SEQEND
  0
ENDBLK
  0
BLOCK
  8
LAYER_1
  2
AIGNBL01030014
 70
64
 10
0
 20
0
 30
0
  3
AIGNBL01030014
  0
POLYLINE
  8
LAYER_1
 40
0.05
 41
0.05
 66
1
 10
0
 20
0
 30
0
 70
1
  0
VERTEX
  8
LAYER_1
 10
146.2915
 20
-252.2609
  0
VERTEX
  8
LAYER_1
 10
146.1871
 20
-252.2609
  0
VERTEX
  8
LAYER_1
 10
146.1871
 20
-251.3266
  0
VERTEX
  8
LAYER_1
 10
145.8426
 20
-251.3266
  0
VERTEX
  8
LAYER_1
 10
145.8426
 20
-251.2339
  0
VERTEX
  8
LAYER_1
 10
146.635
 20
-251.2339
  0
VERTEX
  8
LAYER_1
 10
146.635
 20
-251.3266
  0
VERTEX
  8
LAYER_1
 10
146.2915
 20
-251.3266
  0
SEQEND
  0
ENDBLK
  0
BLOCK
  8
LAYER_1
  2
AIGNBL01030015
 70
64
 10
0
 20
0
 30
0
  3
AIGNBL01030015
  0
POLYLINE
  8
LAYER_1
 40
0.05
 41
0.05
 66
1
 10
0
 20
0
 30
0
 70
1
  0
VERTEX
  8
LAYER_1
 10
146.9888
 20
-251.2339
  0
VERTEX
  8
LAYER_1
 10
147.0932
 20
-251.2339
  0
VERTEX
  8
LAYER_1
 10
147.0932
 20
-251.6787
  0
VERTEX
  8
LAYER_1
 10
147.654
 20
-251.6787
  0
VERTEX
  8
LAYER_1
 10
147.654
 20
-251.2339
  0
VERTEX
  8
LAYER_1
 10
147.7581
 20
-251.2339
  0
VERTEX
  8
LAYER_1
 10
147.7581
 20
-252.2609
  0
VERTEX
  8
LAYER_1
 10
147.654
 20
-252.2609
  0
VERTEX
  8
LAYER_1
 10
147.654
 20
-251.7745
  0
VERTEX
  8
LAYER_1
 10
147.0932
 20
-251.7745
  0
VERTEX
  8
LAYER_1
 10
147.0932
 20
-252.2609
  0
VERTEX
  8
LAYER_1
 10
146.9888
 20
-252.2609
  0
SEQEND
  0
ENDBLK
  0
BLOCK
  8
LAYER_1
  2
AIGNBL01030016
 70
64
 10
0
 20
0
 30
0
  3
AIGNBL01030016
  0
POLYLINE
  8
LAYER_1
 40
0.05
 41
0.05
 66
1
 10
0
 20
0
 30
0
 70
1
  0
VERTEX
  8
LAYER_1
 10
148.3351
 20
-252.2609
  0
VERTEX
  8
LAYER_1
 10
148.2311
 20
-252.2609
  0
VERTEX
  8
LAYER_1
 10
148.2311
 20
-251.2339
  0
VERTEX
  8
LAYER_1
 10
148.5322
 20
-251.2339
  0
VERTEX
  8
LAYER_1
 10
148.6724
 20
-251.2481
  0
VERTEX
  8
LAYER_1
 10
148.7844
 20
-251.2953
  0
VERTEX
  8
LAYER_1
 10
148.8571
 20
-251.38
  0
VERTEX
  8
LAYER_1
 10
148.8829
 20
-251.5078
  0
VERTEX
  8
LAYER_1
 10
148.8636
 20
-251.6108
  0
VERTEX
  8
LAYER_1
 10
148.8088
 20
-251.6911
  0
VERTEX
  8
LAYER_1
 10
148.7258
 20
-251.7459
  0
VERTEX
  8
LAYER_1
 10
148.6214
 20
-251.7717
  0
VERTEX
  8
LAYER_1
 10
148.9211
 20
-252.2609
  0
VERTEX
  8
LAYER_1
 10
148.7937
 20
-252.2609
  0
VERTEX
  8
LAYER_1
 10
148.5098
 20
-251.7807
  0
VERTEX
  8
LAYER_1
 10
148.3351
 20
-251.7807
  0
SEQEND
  0
POLYLINE
  8
LAYER_1
 40
0.05
 41
0.05
 66
1
 10
0
 20
0
 30
0
 70
1
  0
VERTEX
  8
LAYER_1
 10
148.3351
 20
-251.6904
  0
VERTEX
  8
LAYER_1
 10
148.517
 20
-251.6904
 42
0.1622417858
  0
VERTEX
  8
LAYER_1
 10
148.711
 20
-251.6453
 42
0.2500476248
  0
VERTEX
  8
LAYER_1
 10
148.7799
 20
-251.5078
  0
VERTEX
  8
LAYER_1
 10
148.7602
 20
-251.4224
  0
VERTEX
  8
LAYER_1
 10
148.7079
 20
-251.3652
  0
VERTEX
  8
LAYER_1
 10
148.6269
 20
-251.3338
  0
VERTEX
  8
LAYER_1
 10
148.5212
 20
-251.3235
  0
VERTEX
  8
LAYER_1
 10
148.3351
 20
-251.3235
  0
SEQEND
  0
ENDBLK
  0
BLOCK
  8
LAYER_1
  2
AIGNBL01030017
 70
64
 10
0
 20
0
 30
0
  3
AIGNBL01030017
  0
POLYLINE
  8
LAYER_1
 40
0.05
 41
0.05
 66
1
 10
0
 20
0
 30
0
 70
1
  0
VERTEX
  8
LAYER_1
 10
150.3154
 20
-251.7469
 42
-0.1015060182
  0
VERTEX
  8
LAYER_1
 10
150.2747
 20
-251.9629
 42
-0.09993540575
  0
VERTEX
  8
LAYER_1
 10
150.1624
 20
-252.1338
 42
-0.09525489566
  0
VERTEX
  8
LAYER_1
 10
149.9926
 20
-252.2461
 42
-0.09491251156
  0
VERTEX
  8
LAYER_1
 10
149.78
 20
-252.2868
 42
-0.1002015795
  0
VERTEX
  8
LAYER_1
 10
149.5674
 20
-252.2461
 42
-0.1016690689
  0
VERTEX
  8
LAYER_1
 10
149.3979
 20
-252.1338
 42
-0.09667300425
  0
VERTEX
  8
LAYER_1
 10
149.2856
 20
-251.9629
 42
-0.09262920428
  0
VERTEX
  8
LAYER_1
 10
149.2453
 20
-251.7469
 42
-0.09846568495
  0
VERTEX
  8
LAYER_1
 10
149.2856
 20
-251.5306
 42
-0.09950302227
  0
VERTEX
  8
LAYER_1
 10
149.3979
 20
-251.3604
 42
-0.09832237419
  0
VERTEX
  8
LAYER_1
 10
149.5674
 20
-251.2481
 42
-0.09564774702
  0
VERTEX
  8
LAYER_1
 10
149.78
 20
-251.2071
 42
-0.1014301699
  0
VERTEX
  8
LAYER_1
 10
149.9926
 20
-251.2481
 42
-0.1041253763
  0
VERTEX
  8
LAYER_1
 10
150.1624
 20
-251.3604
 42
-0.09489987116
  0
VERTEX
  8
LAYER_1
 10
150.2747
 20
-251.5306
 42
-0.09342113907
  0
SEQEND
  0
POLYLINE
  8
LAYER_1
 40
0.05
 41
0.05
 66
1
 10
0
 20
0
 30
0
 70
1
  0
VERTEX
  8
LAYER_1
 10
150.2051
 20
-251.7476
  0
VERTEX
  8
LAYER_1
 10
150.1762
 20
-251.5767
  0
VERTEX
  8
LAYER_1
 10
150.0921
 20
-251.4344
  0
VERTEX
  8
LAYER_1
 10
149.9581
 20
-251.337
 42
0.1022827687
  0
VERTEX
  8
LAYER_1
 10
149.78
 20
-251.3001
 42
0.1183846388
  0
VERTEX
  8
LAYER_1
 10
149.6026
 20
-251.337
  0
VERTEX
  8
LAYER_1
 10
149.4682
 20
-251.4344
  0
VERTEX
  8
LAYER_1
 10
149.3842
 20
-251.5767
  0
VERTEX
  8
LAYER_1
 10
149.3549
 20
-251.7476
  0
VERTEX
  8
LAYER_1
 10
149.3842
 20
-251.9188
  0
VERTEX
  8
LAYER_1
 10
149.4682
 20
-252.0607
  0
VERTEX
  8
LAYER_1
 10
149.6026
 20
-252.1575
 42
0.1007973502
  0
VERTEX
  8
LAYER_1
 10
149.78
 20
-252.1937
  0
VERTEX
  8
LAYER_1
 10
149.9581
 20
-252.1575
  0
VERTEX
  8
LAYER_1
 10
150.0921
 20
-252.0607
  0
VERTEX
  8
LAYER_1
 10
150.1762
 20
-251.9188
  0
SEQEND
  0
ENDBLK
  0
BLOCK
  8
LAYER_1
  2
AIGNBL01030018
 70
64
 10
0
 20
0
 30
0
  3
AIGNBL01030018
  0
POLYLINE
  8
LAYER_1
 40
0.05
 41
0.05
 66
1
 10
0
 20
0
 30
0
 70
1
  0
VERTEX
  8
LAYER_1
 10
151.7489
 20
-251.7469
 42
-0.1017020442
  0
VERTEX
  8
LAYER_1
 10
151.7086
 20
-251.9629
  0
VERTEX
  8
LAYER_1
 10
151.5963
 20
-252.1338
  0
VERTEX
  8
LAYER_1
 10
151.4264
 20
-252.2461
 42
-0.09495021158
  0
VERTEX
  8
LAYER_1
 10
151.2139
 20
-252.2868
 42
-0.1019502388
  0
VERTEX
  8
LAYER_1
 10
151.0013
 20
-252.2461
 42
-0.1021914323
  0
VERTEX
  8
LAYER_1
 10
150.8318
 20
-252.1338
 42
-0.09636018285
  0
VERTEX
  8
LAYER_1
 10
150.7188
 20
-251.9629
 42
-0.09364604827
  0
VERTEX
  8
LAYER_1
 10
150.6781
 20
-251.7469
 42
-0.1001287453
  0
VERTEX
  8
LAYER_1
 10
150.7188
 20
-251.5306
 42
-0.1037227634
  0
VERTEX
  8
LAYER_1
 10
150.8318
 20
-251.3604
 42
-0.0985967677
  0
VERTEX
  8
LAYER_1
 10
151.0013
 20
-251.2481
 42
-0.0957287822
  0
VERTEX
  8
LAYER_1
 10
151.2139
 20
-251.2071
 42
-0.1016365741
  0
VERTEX
  8
LAYER_1
 10
151.4264
 20
-251.2481
 42
-0.09861864621
  0
VERTEX
  8
LAYER_1
 10
151.5963
 20
-251.3604
 42
-0.09487953686
  0
VERTEX
  8
LAYER_1
 10
151.7086
 20
-251.5306
 42
-0.09256741039
  0
SEQEND
  0
POLYLINE
  8
LAYER_1
 40
0.05
 41
0.05
 66
1
 10
0
 20
0
 30
0
 70
1
  0
VERTEX
  8
LAYER_1
 10
151.639
 20
-251.7476
  0
VERTEX
  8
LAYER_1
 10
151.61
 20
-251.5767
  0
VERTEX
  8
LAYER_1
 10
151.526
 20
-251.4344
  0
VERTEX
  8
LAYER_1
 10
151.3916
 20
-251.337
 42
0.1025075331
  0
VERTEX
  8
LAYER_1
 10
151.2139
 20
-251.3001
 42
0.118884027
  0
VERTEX
  8
LAYER_1
 10
151.0361
 20
-251.337
  0
VERTEX
  8
LAYER_1
 10
150.9017
 20
-251.4344
  0
VERTEX
  8
LAYER_1
 10
150.818
 20
-251.5767
  0
VERTEX
  8
LAYER_1
 10
150.7887
 20
-251.7476
  0
VERTEX
  8
LAYER_1
 10
150.818
 20
-251.9188
  0
VERTEX
  8
LAYER_1
 10
150.9017
 20
-252.0607
  0
VERTEX
  8
LAYER_1
 10
151.0361
 20
-252.1575
 42
0.100589677
  0
VERTEX
  8
LAYER_1
 10
151.2139
 20
-252.1937
  0
VERTEX
  8
LAYER_1
 10
151.3916
 20
-252.1575
  0
VERTEX
  8
LAYER_1
 10
151.526
 20
-252.0607
  0
VERTEX
  8
LAYER_1
 10
151.61
 20
-251.9188
  0
SEQEND
  0
ENDBLK
  0
BLOCK
  8
LAYER_1
  2
AIGNBL01030019
 70
64
 10
0
 20
0
 30
0
  3
AIGNBL01030019
  0
POLYLINE
  8
LAYER_1
 40
0.05
 41
0.05
 66
1
 10
0
 20
0
 30
0
 70
1
  0
VERTEX
  8
LAYER_1
 10
152.6742
 20
-252.0839
  0
VERTEX
  8
LAYER_1
 10
152.6756
 20
-252.0839
  0
VERTEX
  8
LAYER_1
 10
153.0194
 20
-251.2339
  0
VERTEX
  8
LAYER_1
 10
153.1793
 20
-251.2339
  0
VERTEX
  8
LAYER_1
 10
153.1793
 20
-252.2609
  0
VERTEX
  8
LAYER_1
 10
153.0749
 20
-252.2609
  0
VERTEX
  8
LAYER_1
 10
153.0749
 20
-251.3686
  0
VERTEX
  8
LAYER_1
 10
153.0718
 20
-251.3686
  0
VERTEX
  8
LAYER_1
 10
152.7007
 20
-252.2609
  0
VERTEX
  8
LAYER_1
 10
152.646
 20
-252.2609
  0
VERTEX
  8
LAYER_1
 10
152.2743
 20
-251.3686
  0
VERTEX
  8
LAYER_1
 10
152.2708
 20
-251.3686
  0
VERTEX
  8
LAYER_1
 10
152.2708
 20
-252.2609
  0
VERTEX
  8
LAYER_1
 10
152.1668
 20
-252.2609
  0
VERTEX
  8
LAYER_1
 10
152.1668
 20
-251.2339
  0
VERTEX
  8
LAYER_1
 10
152.327
 20
-251.2339
  0
SEQEND
  0
ENDBLK
  0
BLOCK
  8
LAYER_1
  2
AIGNBL0103001A
 70
64
 10
0
 20
0
 30
0
  3
AIGNBL0103001A
  0
POLYLINE
  8
LAYER_1
 40
0.05
 41
0.05
 66
1
 10
0
 20
0
 30
0
 70
1
  0
VERTEX
  8
LAYER_1
 10
154.3196
 20
-252.1676
  0
VERTEX
  8
LAYER_1
 10
154.8694
 20
-252.1676
  0
VERTEX
  8
LAYER_1
 10
154.8694
 20
-252.2609
  0
VERTEX
  8
LAYER_1
 10
154.2145
 20
-252.2609
  0
VERTEX
  8
LAYER_1
 10
154.2145
 20
-251.2339
  0
VERTEX
  8
LAYER_1
 10
154.8522
 20
-251.2339
  0
VERTEX
  8
LAYER_1
 10
154.8522
 20
-251.3263
  0
VERTEX
  8
LAYER_1
 10
154.3196
 20
-251.3263
  0
VERTEX
  8
LAYER_1
 10
154.3196
 20
-251.6787
  0
VERTEX
  8
LAYER_1
 10
154.8167
 20
-251.6787
  0
VERTEX
  8
LAYER_1
 10
154.8167
 20
-251.7717
  0
VERTEX
  8
LAYER_1
 10
154.3196
 20
-251.7717
  0
SEQEND
  0
ENDBLK
  0
BLOCK
  8
LAYER_1
  2
AIGNBL0103001B
 70
64
 10
0
 20
0
 30
0
  3
AIGNBL0103001B
  0
POLYLINE
  8
LAYER_1
 40
0.05
 41
0.05
 66
1
 10
0
 20
0
 30
0
 70
1
  0
VERTEX
  8
LAYER_1
 10
155.6101
 20
-251.6484
  0
VERTEX
  8
LAYER_1
 10
155.8906
 20
-251.2339
  0
VERTEX
  8
LAYER_1
 10
156.0153
 20
-251.2339
  0
VERTEX
  8
LAYER_1
 10
155.6749
 20
-251.7221
  0
VERTEX
  8
LAYER_1
 10
156.0518
 20
-252.2609
  0
VERTEX
  8
LAYER_1
 10
155.9216
 20
-252.2609
  0
VERTEX
  8
LAYER_1
 10
155.6081
 20
-251.7979
  0
VERTEX
  8
LAYER_1
 10
155.296
 20
-252.2609
  0
VERTEX
  8
LAYER_1
 10
155.165
 20
-252.2609
  0
VERTEX
  8
LAYER_1
 10
155.5426
 20
-251.7211
  0
VERTEX
  8
LAYER_1
 10
155.1988
 20
-251.2339
  0
VERTEX
  8
LAYER_1
 10
155.329
 20
-251.2339
  0
SEQEND
  0
ENDBLK
  0
BLOCK
  8
LAYER_1
  2
AIGNBL0103001C
 70
64
 10
0
 20
0
 30
0
  3
AIGNBL0103001C
  0
POLYLINE
  8
LAYER_1
 40
0.05
 41
0.05
 66
1
 10
0
 20
0
 30
0
 70
1
  0
VERTEX
  8
LAYER_1
 10
156.4159
 20
-251.2339
  0
VERTEX
  8
LAYER_1
 10
156.706
 20
-251.2339
  0
VERTEX
  8
LAYER_1
 10
156.8487
 20
-251.2498
  0
VERTEX
  8
LAYER_1
 10
156.9575
 20
-251.3015
  0
VERTEX
  8
LAYER_1
 10
157.0288
 20
-251.3866
  0
VERTEX
  8
LAYER_1
 10
157.053
 20
-251.5078
  0
VERTEX
  8
LAYER_1
 10
157.0281
 20
-251.6291
  0
VERTEX
  8
LAYER_1
 10
156.9568
 20
-251.7145
  0
VERTEX
  8
LAYER_1
 10
156.8459
 20
-251.7659
  0
VERTEX
  8
LAYER_1
 10
156.7032
 20
-251.7831
  0
VERTEX
  8
LAYER_1
 10
156.5203
 20
-251.7831
  0
VERTEX
  8
LAYER_1
 10
156.5203
 20
-252.2609
  0
VERTEX
  8
LAYER_1
 10
156.4159
 20
-252.2609
  0
SEQEND
  0
POLYLINE
  8
LAYER_1
 40
0.05
 41
0.05
 66
1
 10
0
 20
0
 30
0
 70
1
  0
VERTEX
  8
LAYER_1
 10
156.5203
 20
-251.6949
  0
VERTEX
  8
LAYER_1
 10
156.6974
 20
-251.6949
 42
0.179800284
  0
VERTEX
  8
LAYER_1
 10
156.8848
 20
-251.6474
 42
0.2343125845
  0
VERTEX
  8
LAYER_1
 10
156.9489
 20
-251.5078
 42
0.2635647854
  0
VERTEX
  8
LAYER_1
 10
156.8824
 20
-251.3676
 42
0.1265134521
  0
VERTEX
  8
LAYER_1
 10
156.6974
 20
-251.3235
  0
VERTEX
  8
LAYER_1
 10
156.5203
 20
-251.3235
  0
SEQEND
  0
ENDBLK
  0
BLOCK
  8
LAYER_1
  2
AIGNBL0103001D
 70
64
 10
0
 20
0
 30
0
  3
AIGNBL0103001D
  0
POLYLINE
  8
LAYER_1
 40
0.05
 41
0.05
 66
1
 10
0
 20
0
 30
0
 70
1
  0
VERTEX
  8
LAYER_1
 10
157.5621
 20
-252.1676
  0
VERTEX
  8
LAYER_1
 10
158.1116
 20
-252.1676
  0
VERTEX
  8
LAYER_1
 10
158.1116
 20
-252.2609
  0
VERTEX
  8
LAYER_1
 10
157.4577
 20
-252.2609
  0
VERTEX
  8
LAYER_1
 10
157.4577
 20
-251.2339
  0
VERTEX
  8
LAYER_1
 10
158.0947
 20
-251.2339
  0
VERTEX
  8
LAYER_1
 10
158.0947
 20
-251.3263
  0
VERTEX
  8
LAYER_1
 10
157.5621
 20
-251.3263
  0
VERTEX
  8
LAYER_1
 10
157.5621
 20
-251.6787
  0
VERTEX
  8
LAYER_1
 10
158.0599
 20
-251.6787
  0
VERTEX
  8
LAYER_1
 10
158.0599
 20
-251.7717
  0
VERTEX
  8
LAYER_1
 10
157.5621
 20
-251.7717
  0
SEQEND
  0
ENDBLK
  0
BLOCK
  8
LAYER_1
  2
AIGNBL0103001E
 70
64
 10
0
 20
0
 30
0
  3
AIGNBL0103001E
  0
POLYLINE
  8
LAYER_1
 40
0.05
 41
0.05
 66
1
 10
0
 20
0
 30
0
 70
1
  0
VERTEX
  8
LAYER_1
 10
158.6208
 20
-252.2609
  0
VERTEX
  8
LAYER_1
 10
158.5168
 20
-252.2609
  0
VERTEX
  8
LAYER_1
 10
158.5168
 20
-251.2339
  0
VERTEX
  8
LAYER_1
 10
158.8185
 20
-251.2339
  0
VERTEX
  8
LAYER_1
 10
158.9584
 20
-251.2481
  0
VERTEX
  8
LAYER_1
 10
159.07
 20
-251.2953
  0
VERTEX
  8
LAYER_1
 10
159.1438
 20
-251.38
  0
VERTEX
  8
LAYER_1
 10
159.1696
 20
-251.5078
  0
VERTEX
  8
LAYER_1
 10
159.1493
 20
-251.6105
  0
VERTEX
  8
LAYER_1
 10
159.0945
 20
-251.6915
  0
VERTEX
  8
LAYER_1
 10
159.0111
 20
-251.7459
  0
VERTEX
  8
LAYER_1
 10
158.9067
 20
-251.7717
  0
VERTEX
  8
LAYER_1
 10
159.2075
 20
-252.2609
  0
VERTEX
  8
LAYER_1
 10
159.08
 20
-252.2609
  0
VERTEX
  8
LAYER_1
 10
158.7955
 20
-251.7803
  0
VERTEX
  8
LAYER_1
 10
158.6208
 20
-251.7803
  0
SEQEND
  0
POLYLINE
  8
LAYER_1
 40
0.05
 41
0.05
 66
1
 10
0
 20
0
 30
0
 70
1
  0
VERTEX
  8
LAYER_1
 10
158.6208
 20
-251.69
  0
VERTEX
  8
LAYER_1
 10
158.8027
 20
-251.69
 42
0.1625850216
  0
VERTEX
  8
LAYER_1
 10
158.9974
 20
-251.6453
 42
0.2500143464
  0
VERTEX
  8
LAYER_1
 10
159.0652
 20
-251.5078
  0
VERTEX
  8
LAYER_1
 10
159.047
 20
-251.4224
  0
VERTEX
  8
LAYER_1
 10
158.9943
 20
-251.3652
  0
VERTEX
  8
LAYER_1
 10
158.9123
 20
-251.3338
  0
VERTEX
  8
LAYER_1
 10
158.8065
 20
-251.3235
  0
VERTEX
  8
LAYER_1
 10
158.6208
 20
-251.3235
  0
SEQEND
  0
ENDBLK
  0
BLOCK
  8
LAYER_1
  2
AIGNBL0103001F
 70
64
 10
0
 20
0
 30
0
  3
AIGNBL0103001F
  0
POLYLINE
  8
LAYER_1
 40
0.05
 41
0.05
 66
1
 10
0
 20
0
 30
0
 70
1
  0
VERTEX
  8
LAYER_1
 10
159.6898
 20
-252.2609
  0
VERTEX
  8
LAYER_1
 10
159.5865
 20
-252.2609
  0
VERTEX
  8
LAYER_1
 10
159.5865
 20
-251.2339
  0
VERTEX
  8
LAYER_1
 10
159.6898
 20
-251.2339
  0
SEQEND
  0
ENDBLK
  0
BLOCK
  8
LAYER_1
  2
AIGNBL01030020
 70
64
 10
0
 20
0
 30
0
  3
AIGNBL01030020
  0
POLYLINE
  8
LAYER_1
 40
0.05
 41
0.05
 66
1
 10
0
 20
0
 30
0
 70
1
  0
VERTEX
  8
LAYER_1
 10
160.2676
 20
-252.1676
  0
VERTEX
  8
LAYER_1
 10
160.8174
 20
-252.1676
  0
VERTEX
  8
LAYER_1
 10
160.8174
 20
-252.2609
  0
VERTEX
  8
LAYER_1
 10
160.1639
 20
-252.2609
  0
VERTEX
  8
LAYER_1
 10
160.1639
 20
-251.2339
  0
VERTEX
  8
LAYER_1
 10
160.8005
 20
-251.2339
  0
VERTEX
  8
LAYER_1
 10
160.8005
 20
-251.3263
  0
VERTEX
  8
LAYER_1
 10
160.2676
 20
-251.3263
  0
VERTEX
  8
LAYER_1
 10
160.2676
 20
-251.6787
  0
VERTEX
  8
LAYER_1
 10
160.7654
 20
-251.6787
  0
VERTEX
  8
LAYER_1
 10
160.7654
 20
-251.7717
  0
VERTEX
  8
LAYER_1
 10
160.2676
 20
-251.7717
  0
SEQEND
  0
ENDBLK
  0
BLOCK
  8
LAYER_1
  2
AIGNBL01030021
 70
64
 10
0
 20
0
 30
0
  3
AIGNBL01030021
  0
POLYLINE
  8
LAYER_1
 40
0.05
 41
0.05
 66
1
 10
0
 20
0
 30
0
 70
1
  0
VERTEX
  8
LAYER_1
 10
161.9505
 20
-252.1079
  0
VERTEX
  8
LAYER_1
 10
161.9536
 20
-252.1079
  0
VERTEX
  8
LAYER_1
 10
161.9536
 20
-251.2339
  0
VERTEX
  8
LAYER_1
 10
162.058
 20
-251.2339
  0
VERTEX
  8
LAYER_1
 10
162.058
 20
-252.2609
  0
VERTEX
  8
LAYER_1
 10
161.9277
 20
-252.2609
  0
VERTEX
  8
LAYER_1
 10
161.3297
 20
-251.3772
  0
VERTEX
  8
LAYER_1
 10
161.3266
 20
-251.3772
  0
VERTEX
  8
LAYER_1
 10
161.3266
 20
-252.2609
  0
VERTEX
  8
LAYER_1
 10
161.2222
 20
-252.2609
  0
VERTEX
  8
LAYER_1
 10
161.2222
 20
-251.2339
  0
VERTEX
  8
LAYER_1
 10
161.3535
 20
-251.2339
  0
SEQEND
  0
ENDBLK
  0
BLOCK
  8
LAYER_1
  2
AIGNBL01030022
 70
64
 10
0
 20
0
 30
0
  3
AIGNBL01030022
  0
POLYLINE
  8
LAYER_1
 40
0.05
 41
0.05
 66
1
 10
0
 20
0
 30
0
 70
1
  0
VERTEX
  8
LAYER_1
 10
163.396
 20
-252.0942
  0
VERTEX
  8
LAYER_1
 10
163.3323
 20
-252.1679
  0
VERTEX
  8
LAYER_1
 10
163.2469
 20
-252.2295
  0
VERTEX
  8
LAYER_1
 10
163.1394
 20
-252.2716
  0
VERTEX
  8
LAYER_1
 10
163.0112
 20
-252.2868
 42
-0.1009164681
  0
VERTEX
  8
LAYER_1
 10
162.7966
 20
-252.2461
 42
-0.1027581013
  0
VERTEX
  8
LAYER_1
 10
162.6271
 20
-252.1335
 42
-0.1010578842
  0
VERTEX
  8
LAYER_1
 10
162.5162
 20
-251.9633
 42
-0.09298732079
  0
VERTEX
  8
LAYER_1
 10
162.4759
 20
-251.7469
 42
-0.1023262951
  0
VERTEX
  8
LAYER_1
 10
162.5169
 20
-251.5306
 42
-0.1009138363
  0
VERTEX
  8
LAYER_1
 10
162.6285
 20
-251.3604
  0
VERTEX
  8
LAYER_1
 10
162.798
 20
-251.2481
 42
-0.09535690024
  0
VERTEX
  8
LAYER_1
 10
163.0112
 20
-251.2071
  0
VERTEX
  8
LAYER_1
 10
163.1222
 20
-251.2191
  0
VERTEX
  8
LAYER_1
 10
163.2252
 20
-251.2522
  0
VERTEX
  8
LAYER_1
 10
163.3117
 20
-251.3035
  0
VERTEX
  8
LAYER_1
 10
163.3767
 20
-251.3711
  0
VERTEX
  8
LAYER_1
 10
163.2906
 20
-251.4355
  0
VERTEX
  8
LAYER_1
 10
163.2469
 20
-251.3858
  0
VERTEX
  8
LAYER_1
 10
163.1835
 20
-251.3421
  0
VERTEX
  8
LAYER_1
 10
163.1043
 20
-251.3114
  0
VERTEX
  8
LAYER_1
 10
163.0126
 20
-251.3001
  0
VERTEX
  8
LAYER_1
 10
162.8338
 20
-251.3362
  0
VERTEX
  8
LAYER_1
 10
162.6998
 20
-251.4338
  0
VERTEX
  8
LAYER_1
 10
162.6147
 20
-251.5764
  0
VERTEX
  8
LAYER_1
 10
162.5868
 20
-251.7469
  0
VERTEX
  8
LAYER_1
 10
162.6164
 20
-251.9178
  0
VERTEX
  8
LAYER_1
 10
162.7012
 20
-252.0601
  0
VERTEX
  8
LAYER_1
 10
162.8356
 20
-252.1575
 42
0.1012189446
  0
VERTEX
  8
LAYER_1
 10
163.0126
 20
-252.1937
  0
VERTEX
  8
LAYER_1
 10
163.1804
 20
-252.1575
 42
0.1297589768
  0
VERTEX
  8
LAYER_1
 10
163.3148
 20
-252.0414
  0
SEQEND
  0
ENDBLK
  0
BLOCK
  8
LAYER_1
  2
AIGNBL01030023
 70
64
 10
0
 20
0
 30
0
  3
AIGNBL01030023
  0
POLYLINE
  8
LAYER_1
 40
0.05
 41
0.05
 66
1
 10
0
 20
0
 30
0
 70
1
  0
VERTEX
  8
LAYER_1
 10
163.8801
 20
-252.1676
  0
VERTEX
  8
LAYER_1
 10
164.4299
 20
-252.1676
  0
VERTEX
  8
LAYER_1
 10
164.4299
 20
-252.2609
  0
VERTEX
  8
LAYER_1
 10
163.7764
 20
-252.2609
  0
VERTEX
  8
LAYER_1
 10
163.7764
 20
-251.2339
  0
VERTEX
  8
LAYER_1
 10
164.4127
 20
-251.2339
  0
VERTEX
  8
LAYER_1
 10
164.4127
 20
-251.3263
  0
VERTEX
  8
LAYER_1
 10
163.8801
 20
-251.3263
  0
VERTEX
  8
LAYER_1
 10
163.8801
 20
-251.6787
  0
VERTEX
  8
LAYER_1
 10
164.3782
 20
-251.6787
  0
VERTEX
  8
LAYER_1
 10
164.3782
 20
-251.7717
  0
VERTEX
  8
LAYER_1
 10
163.8801
 20
-251.7717
  0
SEQEND
  0
ENDBLK
  0
BLOCK
  8
LAYER_1
  2
AIGNBL01020003
 70
64
 10
0
 20
0
 30
0
  3
AIGNBL01020003
  0
INSERT
  8
LAYER_1
  2
AIGNBL01030004
 10
0
 20
0
 30
0
  0
ENDBLK
  0
BLOCK
  8
LAYER_1
  2
AIGNBL0102000C
 70
64
 10
0
 20
0
 30
0
  3
AIGNBL0102000C
  0
INSERT
  8
LAYER_1
  2
AIGNBL0103000D
 10
0
 20
0
 30
0
  0
INSERT
  8
LAYER_1
  2
AIGNBL0103000E
 10
0
 20
0
 30
0
  0
INSERT
  8
LAYER_1
  2
AIGNBL0103000F
 10
0
 20
0
 30
0
  0
INSERT
  8
LAYER_1
  2
AIGNBL01030010
 10
0
 20
0
 30
0
  0
INSERT
  8
LAYER_1
  2
AIGNBL01030011
 10
0
 20
0
 30
0
  0
INSERT
  8
LAYER_1
  2
AIGNBL01030012
 10
0
 20
0
 30
0
  0
INSERT
  8
LAYER_1
  2
AIGNBL01030013
 10
0
 20
0
 30
0
  0
INSERT
  8
LAYER_1
  2
AIGNBL01030014
 10
0
 20
0
 30
0
  0
INSERT
  8
LAYER_1
  2
AIGNBL01030015
 10
0
 20
0
 30
0
  0
INSERT
  8
LAYER_1
  2
AIGNBL01030016
 10
0
 20
0
 30
0
  0
INSERT
  8
LAYER_1
  2
AIGNBL01030017
 10
0
 20
0
 30
0
  0
INSERT
  8
LAYER_1
  2
AIGNBL01030018
 10
0
 20
0
 30
0
  0
INSERT
  8
LAYER_1
  2
AIGNBL01030019
 10
0
 20
0
 30
0
  0
INSERT
  8
LAYER_1
  2
AIGNBL0103001A
 10
0
 20
0
 30
0
  0
INSERT
  8
LAYER_1
  2
AIGNBL0103001B
 10
0
 20
0
 30
0
  0
INSERT
  8
LAYER_1
  2
AIGNBL0103001C
 10
0
 20
0
 30
0
  0
INSERT
  8
LAYER_1
  2
AIGNBL0103001D
 10
0
 20
0
 30
0
  0
INSERT
  8
LAYER_1
  2
AIGNBL0103001E
 10
0
 20
0
 30
0
  0
INSERT
  8
LAYER_1
  2
AIGNBL0103001F
 10
0
 20
0
 30
0
  0
INSERT
  8
LAYER_1
  2
AIGNBL01030020
 10
0
 20
0
 30
0
  0
INSERT
  8
LAYER_1
  2
AIGNBL01030021
 10
0
 20
0
 30
0
  0
INSERT
  8
LAYER_1
  2
AIGNBL01030022
 10
0
 20
0
 30
0
  0
INSERT
  8
LAYER_1
  2
AIGNBL01030023
 10
0
 20
0
 30
0
  0
ENDBLK
  0
BLOCK
  8
LAYER_1
  2
AIGNBL01010002
 70
64
 10
0
 20
0
 30
0
  3
AIGNBL01010002
  0
INSERT
  8
LAYER_1
  2
AIGNBL01020003
 10
0
 20
0
 30
0
  0
INSERT
  8
LAYER_1
  2
AIGNBL0102000C
 10
0
 20
0
 30
0
  0
ENDBLK
  0
BLOCK
  8
LAYER_6
  2
AIGNBL06010002
 70
64
 10
0
 20
0
 30
0
  3
AIGNBL06010002
  0
POLYLINE
  8
LAYER_6
 40
0.7056
 41
0.7056
 66
1
 10
0
 20
0
 30
0
 70
1
  0
VERTEX
  8
LAYER_6
 10
33.7873
 20
22.6587
  0
VERTEX
  8
LAYER_6
 10
230.7955
 20
22.6587
  0
VERTEX
  8
LAYER_6
 10
230.7955
 20
-259.334
  0
VERTEX
  8
LAYER_6
 10
33.7873
 20
-259.334
  0
SEQEND
  0
ENDBLK
  0
BLOCK
  8
LAYER_6
  2
AIGNBL06010003
 70
64
 10
0
 20
0
 30
0
  3
AIGNBL06010003
  0
POLYLINE
  8
LAYER_6
 40
0.1058
 41
0.1058
 66
1
 10
0
 20
0
 30
0
  0
VERTEX
  8
LAYER_6
 10
113.9892
 20
-66.0281
  0
VERTEX
  8
LAYER_6
 10
97.9223
 20
-66.0281
  0
VERTEX
  8
LAYER_6
 10
74.2223
 20
-66.0281
  0
SEQEND
  0
POLYLINE
  8
LAYER_6
 40
0.1058
 41
0.1058
 66
1
 10
0
 20
0
 30
0
  0
VERTEX
  8
LAYER_6
 10
74.2223
 20
-67.0414
  0
VERTEX
  8
LAYER_6
 10
74.2223
 20
-65.0281
  0
SEQEND
  0
POLYLINE
  8
LAYER_6
 40
0.1058
 41
0.1058
 66
1
 10
0
 20
0
 30
0
  0
VERTEX
  8
LAYER_6
 10
97.9223
 20
-67.0414
  0
VERTEX
  8
LAYER_6
 10
97.9223
 20
-65.0281
  0
SEQEND
  0
POLYLINE
  8
LAYER_6
 40
0.05
 41
0.05
 66
1
 10
0
 20
0
 30
0
 70
1
  0
VERTEX
  8
LAYER_6
 10
77.7223
 20
-65.5673
  0
VERTEX
  8
LAYER_6
 10
77.7223
 20
-66.4889
  0
VERTEX
  8
LAYER_6
 10
74.2223
 20
-66.0281
  0
SEQEND
  0
POLYLINE
  8
LAYER_6
 40
0.05
 41
0.05
 66
1
 10
0
 20
0
 30
0
 70
1
  0
VERTEX
  8
LAYER_6
 10
94.4223
 20
-66.4889
  0
VERTEX
  8
LAYER_6
 10
94.4223
 20
-65.5673
  0
VERTEX
  8
LAYER_6
 10
97.9223
 20
-66.0281
  0
SEQEND
  0
TEXT
  8
LAYER_6
 10
101.4943
 20
-63.4729
 11
101.4943
 21
-63.4729
 40
4.9033
 41
0.5
  1
23,7
  0
ENDBLK
  0
BLOCK
  8
LAYER_6
  2
AIGNBL06010004
 70
64
 10
0
 20
0
 30
0
  3
AIGNBL06010004
  0
POLYLINE
  8
LAYER_6
 40
0.1058
 41
0.1058
 66
1
 10
0
 20
0
 30
0
  0
VERTEX
  8
LAYER_6
 10
117.0723
 20
-45.9147
  0
VERTEX
  8
LAYER_6
 10
117.0723
 20
-207.1664
  0
SEQEND
  0
POLYLINE
  8
LAYER_6
 40
0.1058
 41
0.1058
 66
1
 10
0
 20
0
 30
0
  0
VERTEX
  8
LAYER_6
 10
98.9287
 20
-45.9147
  0
VERTEX
  8
LAYER_6
 10
118.0723
 20
-45.9147
  0
SEQEND
  0
POLYLINE
  8
LAYER_6
 40
0.1058
 41
0.1058
 66
1
 10
0
 20
0
 30
0
  0
VERTEX
  8
LAYER_6
 10
98.9287
 20
-207.1664
  0
VERTEX
  8
LAYER_6
 10
118.0723
 20
-207.1664
  0
SEQEND
  0
POLYLINE
  8
LAYER_6
 40
0.05
 41
0.05
 66
1
 10
0
 20
0
 30
0
 70
1
  0
VERTEX
  8
LAYER_6
 10
117.5331
 20
-49.4147
  0
VERTEX
  8
LAYER_6
 10
116.6115
 20
-49.4147
  0
VERTEX
  8
LAYER_6
 10
117.0723
 20
-45.9147
  0
SEQEND
  0
POLYLINE
  8
LAYER_6
 40
0.05
 41
0.05
 66
1
 10
0
 20
0
 30
0
 70
1
  0
VERTEX
  8
LAYER_6
 10
116.6115
 20
-203.6664
  0
VERTEX
  8
LAYER_6
 10
117.5331
 20
-203.6664
  0
VERTEX
  8
LAYER_6
 10
117.0723
 20
-207.1664
  0
SEQEND
  0
TEXT
  8
LAYER_6
 10
111.7871
 20
-134.7878
 11
111.7871
 21
-134.7878
 40
4.9033
 41
0.5
 50
89.99999999
  1
L
  0
ENDBLK
  0
BLOCK
  8
LAYER_6
  2
AIGNBL06010005
 70
64
 10
0
 20
0
 30
0
  3
AIGNBL06010005
  0
POLYLINE
  8
LAYER_6
 40
0.1058
 41
0.1058
 66
1
 10
0
 20
0
 30
0
  0
VERTEX
  8
LAYER_6
 10
109.5723
 20
11.2071
  0
VERTEX
  8
LAYER_6
 10
109.5723
 20
-12.7929
  0
SEQEND
  0
POLYLINE
  8
LAYER_6
 40
0.1058
 41
0.1058
 66
1
 10
0
 20
0
 30
0
  0
VERTEX
  8
LAYER_6
 10
92.257
 20
-12.7929
  0
VERTEX
  8
LAYER_6
 10
110.5723
 20
-12.7929
  0
SEQEND
  0
POLYLINE
  8
LAYER_6
 40
0.1058
 41
0.1058
 66
1
 10
0
 20
0
 30
0
  0
VERTEX
  8
LAYER_6
 10
92.257
 20
11.2071
  0
VERTEX
  8
LAYER_6
 10
110.5723
 20
11.2071
  0
SEQEND
  0
POLYLINE
  8
LAYER_6
 40
0.05
 41
0.05
 66
1
 10
0
 20
0
 30
0
 70
1
  0
VERTEX
  8
LAYER_6
 10
110.0331
 20
7.7071
  0
VERTEX
  8
LAYER_6
 10
109.1115
 20
7.7071
  0
VERTEX
  8
LAYER_6
 10
109.5723
 20
11.2071
  0
SEQEND
  0
POLYLINE
  8
LAYER_6
 40
0.05
 41
0.05
 66
1
 10
0
 20
0
 30
0
 70
1
  0
VERTEX
  8
LAYER_6
 10
109.1115
 20
-9.2929
  0
VERTEX
  8
LAYER_6
 10
110.0331
 20
-9.2929
  0
VERTEX
  8
LAYER_6
 10
109.5723
 20
-12.7929
  0
SEQEND
  0
TEXT
  8
LAYER_6
 10
107.3672
 20
-3.4179
 11
107.3672
 21
-3.4179
 40
4.9033
 41
0.5
 50
89.99999999
  1
24
  0
ENDBLK
  0
BLOCK
  8
LAYER_6
  2
AIGNBL06010006
 70
64
 10
0
 20
0
 30
0
  3
AIGNBL06010006
  0
POLYLINE
  8
LAYER_6
 40
0.1058
 41
0.1058
 66
1
 10
0
 20
0
 30
0
  0
VERTEX
  8
LAYER_6
 10
72.5723
 20
-22.7929
  0
VERTEX
  8
LAYER_6
 10
99.5723
 20
-22.7929
  0
SEQEND
  0
POLYLINE
  8
LAYER_6
 40
0.1058
 41
0.1058
 66
1
 10
0
 20
0
 30
0
  0
VERTEX
  8
LAYER_6
 10
72.5723
 20
-0.7929
  0
VERTEX
  8
LAYER_6
 10
72.5723
 20
-23.7929
  0
SEQEND
  0
POLYLINE
  8
LAYER_6
 40
0.1058
 41
0.1058
 66
1
 10
0
 20
0
 30
0
  0
VERTEX
  8
LAYER_6
 10
99.5723
 20
-0.7929
  0
VERTEX
  8
LAYER_6
 10
99.5723
 20
-23.7929
  0
SEQEND
  0
POLYLINE
  8
LAYER_6
 40
0.05
 41
0.05
 66
1
 10
0
 20
0
 30
0
 70
1
  0
VERTEX
  8
LAYER_6
 10
76.0723
 20
-22.3321
  0
VERTEX
  8
LAYER_6
 10
76.0723
 20
-23.2537
  0
VERTEX
  8
LAYER_6
 10
72.5723
 20
-22.7929
  0
SEQEND
  0
POLYLINE
  8
LAYER_6
 40
0.05
 41
0.05
 66
1
 10
0
 20
0
 30
0
 70
1
  0
VERTEX
  8
LAYER_6
 10
96.0723
 20
-23.2537
  0
VERTEX
  8
LAYER_6
 10
96.0723
 20
-22.3321
  0
VERTEX
  8
LAYER_6
 10
99.5723
 20
-22.7929
  0
SEQEND
  0
TEXT
  8
LAYER_6
 10
82.6773
 20
-20.5877
 11
82.6773
 21
-20.5877
 40
4.9033
 41
0.5
  1
27
  0
ENDBLK
  0
BLOCK
  8
LAYER_6
  2
AIGNBL06010007
 70
64
 10
0
 20
0
 30
0
  3
AIGNBL06010007
  0
POLYLINE
  8
LAYER_6
 40
0.1058
 41
0.1058
 66
1
 10
0
 20
0
 30
0
  0
VERTEX
  8
LAYER_6
 10
63.0723
 20
-50.9164
  0
VERTEX
  8
LAYER_6
 10
63.0723
 20
-36.9147
  0
SEQEND
  0
POLYLINE
  8
LAYER_6
 40
0.1058
 41
0.1058
 66
1
 10
0
 20
0
 30
0
  0
VERTEX
  8
LAYER_6
 10
74.5647
 20
-50.9164
  0
VERTEX
  8
LAYER_6
 10
62.0723
 20
-50.9164
  0
SEQEND
  0
POLYLINE
  8
LAYER_6
 40
0.1058
 41
0.1058
 66
1
 10
0
 20
0
 30
0
  0
VERTEX
  8
LAYER_6
 10
74.9479
 20
-36.9147
  0
VERTEX
  8
LAYER_6
 10
62.0723
 20
-36.9147
  0
SEQEND
  0
POLYLINE
  8
LAYER_6
 40
0.05
 41
0.05
 66
1
 10
0
 20
0
 30
0
 70
1
  0
VERTEX
  8
LAYER_6
 10
62.6115
 20
-47.4164
  0
VERTEX
  8
LAYER_6
 10
63.5331
 20
-47.4164
  0
VERTEX
  8
LAYER_6
 10
63.0723
 20
-50.9164
  0
SEQEND
  0
POLYLINE
  8
LAYER_6
 40
0.05
 41
0.05
 66
1
 10
0
 20
0
 30
0
 70
1
  0
VERTEX
  8
LAYER_6
 10
63.5331
 20
-40.4147
  0
VERTEX
  8
LAYER_6
 10
62.6115
 20
-40.4147
  0
VERTEX
  8
LAYER_6
 10
63.0723
 20
-36.9147
  0
SEQEND
  0
TEXT
  8
LAYER_6
 10
60.8672
 20
-46.3172
 11
60.8672
 21
-46.3172
 40
4.9033
 41
0.5
 50
89.99999999
  1
14
  0
ENDBLK
  0
BLOCK
  8
LAYER_6
  2
AIGNBL06010008
 70
64
 10
0
 20
0
 30
0
  3
AIGNBL06010008
  0
POLYLINE
  8
LAYER_6
 40
0.1058
 41
0.1058
 66
1
 10
0
 20
0
 30
0
  0
VERTEX
  8
LAYER_6
 10
63.0723
 20
-216.1664
  0
VERTEX
  8
LAYER_6
 10
63.0723
 20
-202.1664
  0
SEQEND
  0
POLYLINE
  8
LAYER_6
 40
0.1058
 41
0.1058
 66
1
 10
0
 20
0
 30
0
  0
VERTEX
  8
LAYER_6
 10
75.0723
 20
-216.1664
  0
VERTEX
  8
LAYER_6
 10
62.0723
 20
-216.1664
  0
SEQEND
  0
POLYLINE
  8
LAYER_6
 40
0.1058
 41
0.1058
 66
1
 10
0
 20
0
 30
0
  0
VERTEX
  8
LAYER_6
 10
74.9479
 20
-202.1664
  0
VERTEX
  8
LAYER_6
 10
62.0723
 20
-202.1664
  0
SEQEND
  0
POLYLINE
  8
LAYER_6
 40
0.05
 41
0.05
 66
1
 10
0
 20
0
 30
0
 70
1
  0
VERTEX
  8
LAYER_6
 10
62.6115
 20
-212.6664
  0
VERTEX
  8
LAYER_6
 10
63.5331
 20
-212.6664
  0
VERTEX
  8
LAYER_6
 10
63.0723
 20
-216.1664
  0
SEQEND
  0
POLYLINE
  8
LAYER_6
 40
0.05
 41
0.05
 66
1
 10
0
 20
0
 30
0
 70
1
  0
VERTEX
  8
LAYER_6
 10
63.5331
 20
-205.6664
  0
VERTEX
  8
LAYER_6
 10
62.6115
 20
-205.6664
  0
VERTEX
  8
LAYER_6
 10
63.0723
 20
-202.1664
  0
SEQEND
  0
TEXT
  8
LAYER_6
 10
60.8672
 20
-211.0786
 11
60.8672
 21
-211.0786
 40
4.9033
 41
0.5
 50
89.99999999
  1
14
  0
ENDBLK
  0
BLOCK
  8
LAYER_6
  2
AIGNBL06010009
 70
64
 10
0
 20
0
 30
0
  3
AIGNBL06010009
  0
POLYLINE
  8
LAYER_6
 40
0.7056
 41
0.7056
 66
1
 10
0
 20
0
 30
0
  0
VERTEX
  8
LAYER_6
 10
86.0723
 20
-0.7929
  0
SEQEND
  0
ENDBLK
  0
BLOCK
  8
LAYER_6
  2
AIGNBL0601000A
 70
64
 10
0
 20
0
 30
0
  3
AIGNBL0601000A
  0
POLYLINE
  8
LAYER_6
 40
0.7056
 41
0.7056
 66
1
 10
0
 20
0
 30
0
  0
VERTEX
  8
LAYER_6
 10
92.6723
 20
-216.1664
  0
SEQEND
  0
ENDBLK
  0
BLOCK
  8
LAYER_6
  2
AIGNBL0601000B
 70
64
 10
0
 20
0
 30
0
  3
AIGNBL0601000B
  0
POLYLINE
  8
LAYER_6
 40
0.7056
 41
0.7056
 66
1
 10
0
 20
0
 30
0
  0
VERTEX
  8
LAYER_6
 10
94.3848
 20
-202.1664
  0
SEQEND
  0
ENDBLK
  0
BLOCK
  8
LAYER_6
  2
AIGNBL0601000C
 70
64
 10
0
 20
0
 30
0
  3
AIGNBL0601000C
  0
POLYLINE
  8
LAYER_6
 40
0.7056
 41
0.7056
 66
1
 10
0
 20
0
 30
0
  0
VERTEX
  8
LAYER_6
 10
99.5723
 20
-0.7929
  0
SEQEND
  0
ENDBLK
  0
BLOCK
  8
LAYER_6
  2
AIGNBL0601000D
 70
64
 10
0
 20
0
 30
0
  3
AIGNBL0601000D
  0
POLYLINE
  8
LAYER_6
 40
0.7056
 41
0.7056
 66
1
 10
0
 20
0
 30
0
  0
VERTEX
  8
LAYER_6
 10
72.5723
 20
-0.7929
  0
SEQEND
  0
ENDBLK
  0
BLOCK
  8
LAYER_6
  2
AIGNBL0601000E
 70
64
 10
0
 20
0
 30
0
  3
AIGNBL0601000E
  0
POLYLINE
  8
LAYER_6
 40
0.7056
 41
0.7056
 66
1
 10
0
 20
0
 30
0
  0
VERTEX
  8
LAYER_6
 10
77.7597
 20
-202.1664
  0
SEQEND
  0
ENDBLK
  0
BLOCK
  8
LAYER_6
  2
AIGNBL0601000F
 70
64
 10
0
 20
0
 30
0
  3
AIGNBL0601000F
  0
POLYLINE
  8
LAYER_6
 40
0.7056
 41
0.7056
 66
1
 10
0
 20
0
 30
0
  0
VERTEX
  8
LAYER_6
 10
79.4723
 20
-216.1664
  0
SEQEND
  0
ENDBLK
  0
BLOCK
  8
LAYER_6
  2
AIGNBL06010010
 70
64
 10
0
 20
0
 30
0
  3
AIGNBL06010010
  0
POLYLINE
  8
LAYER_6
 40
0.7056
 41
0.7056
 66
1
 10
0
 20
0
 30
0
  0
VERTEX
  8
LAYER_6
 10
90.9798
 20
11.2071
  0
SEQEND
  0
ENDBLK
  0
BLOCK
  8
LAYER_6
  2
AIGNBL06010011
 70
64
 10
0
 20
0
 30
0
  3
AIGNBL06010011
  0
POLYLINE
  8
LAYER_6
 40
0.7056
 41
0.7056
 66
1
 10
0
 20
0
 30
0
  0
VERTEX
  8
LAYER_6
 10
90.9798
 20
-12.7929
  0
SEQEND
  0
ENDBLK
  0
ENDSEC
  0
SECTION
  2
ENTITIES
  0
INSERT
  8
LAYER_1
  2
AIGNBL01010002
 10
0
 20
0
 30
0
  0
INSERT
  8
LAYER_6
  2
AIGNBL06010002
 10
0
 20
0
 30
0
  0
POLYLINE
  8
LAYER_6
 40
0.3528
 41
0.3528
 66
1
 10
0
 20
0
 30
0
  0
VERTEX
  8
LAYER_6
 10
34.7876
 20
-258.3332
  0
VERTEX
  8
LAYER_6
 10
229.7955
 20
-258.3332
  0
VERTEX
  8
LAYER_6
 10
229.7955
 20
21.6583
  0
VERTEX
  8
LAYER_6
 10
34.7876
 20
21.6583
  0
VERTEX
  8
LAYER_6
 10
34.7876
 20
-258.3332
  0
SEQEND
  0
TEXT
  8
LAYER_6
 10
166.4505
 20
-248.7955
 11
166.4505
 21
-248.7955
 40
3.3853
 41
0.5
  1
●TEL 0120-65-1232●FAX 06-6532-1580
  0
TEXT
  8
LAYER_6
 10
166.4505
 20
-252.3102
 11
166.4505
 21
-252.3102
 40
3.3853
 41
0.5
  1
hits@hiratatile.co.jp
  0
TEXT
  8
LAYER_6
 10
218.9756
 20
18.4461
 11
218.9756
 21
18.4461
 40
2.0732
 41
0.5
  1
210311RT
  0
TEXT
  8
LAYER_6
 10
37.8495
 20
-250.3797
 11
37.8495
 21
-250.3797
 40
3.2995
 41
0.5
  1
仕様
  0
POLYLINE
  8
LAYER_6
 40
0.3528
 41
0.3528
 66
1
 10
0
 20
0
 30
0
  0
VERTEX
  8
LAYER_6
 10
229.7955
 20
-241.6001
  0
VERTEX
  8
LAYER_6
 10
34.7874
 20
-241.6001
  0
SEQEND
  0
POLYLINE
  8
LAYER_6
 40
0.3528
 41
0.3528
 66
1
 10
0
 20
0
 30
0
  0
VERTEX
  8
LAYER_6
 10
229.7955
 20
-233.091
  0
VERTEX
  8
LAYER_6
 10
34.7874
 20
-233.091
  0
SEQEND
  0
TEXT
  8
LAYER_6
 10
35.9444
 20
-235.5675
 11
35.9444
 21
-235.5675
 40
2.1997
 41
0.5
  1
品名
  0
TEXT
  8
LAYER_6
 10
48.715
 20
-238.6599
 11
48.715
 21
-238.6599
 40
3.6373
 41
0.5
  1
フレキホース
  0
TEXT
  8
LAYER_6
 10
48.4217
 20
-250.3883
 11
48.4217
 21
-250.3883
 40
3.5541
 41
0.5
  1
●JIS　●ブラック
  0
TEXT
  8
LAYER_6
 10
133.5233
 20
-235.5677
 11
133.5233
 21
-235.5677
 40
2.1997
 41
0.5
  1
品番
  0
TEXT
  8
LAYER_6
 10
139.5453
 20
-239.8443
 11
139.5453
 21
-239.8443
 40
5.9385
 41
0.5
  1
T156D-13-300A／T156D-13-400A
  0
POLYLINE
  8
LAYER_6
 40
0.1058
 41
0.1058
 66
1
 10
0
 20
0
 30
0
  0
VERTEX
  8
LAYER_6
 10
101.3532
 20
14.6815
  0
VERTEX
  8
LAYER_6
 10
101.3532
 20
19.6815
  0
SEQEND
  0
POLYLINE
  8
LAYER_6
 40
0.1058
 41
0.1058
 66
1
 10
0
 20
0
 30
0
  0
VERTEX
  8
LAYER_6
 10
94.3223
 20
-50.9147
  0
VERTEX
  8
LAYER_6
 10
97.9223
 20
-50.9147
  0
SEQEND
  0
POLYLINE
  8
LAYER_6
 40
0.1058
 41
0.1058
 66
1
 10
0
 20
0
 30
0
  0
VERTEX
  8
LAYER_6
 10
97.1967
 20
-36.9147
  0
VERTEX
  8
LAYER_6
 10
97.0723
 20
-36.9147
  0
SEQEND
  0
POLYLINE
  8
LAYER_6
 40
0.1058
 41
0.1058
 66
1
 10
0
 20
0
 30
0
  0
VERTEX
  8
LAYER_6
 10
97.1967
 20
-216.1664
  0
VERTEX
  8
LAYER_6
 10
97.0723
 20
-216.1664
  0
SEQEND
  0
POLYLINE
  8
LAYER_6
 40
0.1058
 41
0.1058
 66
1
 10
0
 20
0
 30
0
  0
VERTEX
  8
LAYER_6
 10
122.5765
 20
-10.3185
  0
VERTEX
  8
LAYER_6
 10
187.3532
 20
-10.3185
  0
SEQEND
  0
POLYLINE
  8
LAYER_6
 40
0.1058
 41
0.1058
 66
1
 10
0
 20
0
 30
0
  0
VERTEX
  8
LAYER_6
 10
171.3532
 20
-18.3185
  0
VERTEX
  8
LAYER_6
 10
171.3532
 20
5.6815
  0
SEQEND
  0
POLYLINE
  8
LAYER_6
 40
0.1058
 41
0.1058
 66
1
 10
0
 20
0
 30
0
  0
VERTEX
  8
LAYER_6
 10
187.3532
 20
-2.3185
  0
VERTEX
  8
LAYER_6
 10
122.5765
 20
-2.3185
  0
SEQEND
  0
POLYLINE
  8
LAYER_6
 40
0.1058
 41
0.1058
 66
1
 10
0
 20
0
 30
0
 70
1
  0
VERTEX
  8
LAYER_6
 10
122.5765
 20
-10.3185
  0
VERTEX
  8
LAYER_6
 10
122.5765
 20
-18.3185
  0
VERTEX
  8
LAYER_6
 10
159.3532
 20
-18.3185
  0
VERTEX
  8
LAYER_6
 10
187.3532
 20
-18.3185
  0
VERTEX
  8
LAYER_6
 10
187.3532
 20
-10.3185
  0
VERTEX
  8
LAYER_6
 10
187.3532
 20
-2.3185
  0
VERTEX
  8
LAYER_6
 10
187.3532
 20
5.6815
  0
VERTEX
  8
LAYER_6
 10
159.3532
 20
5.6815
  0
VERTEX
  8
LAYER_6
 10
122.5765
 20
5.6815
  0
SEQEND
  0
POLYLINE
  8
LAYER_6
 40
0.1058
 41
0.1058
 66
1
 10
0
 20
0
 30
0
  0
VERTEX
  8
LAYER_6
 10
86.0723
 20
-50.9147
  0
VERTEX
  8
LAYER_6
 10
74.5647
 20
-50.9164
  0
SEQEND
  0
POLYLINE
  8
LAYER_6
 40
0.1058
 41
0.1058
 66
1
 10
0
 20
0
 30
0
 70
1
  0
VERTEX
  8
LAYER_6
 10
77.9987
 20
-45.8574
  0
VERTEX
  8
LAYER_6
 10
77.9651
 20
-46.0224
  0
VERTEX
  8
LAYER_6
 10
77.9284
 20
-46.1866
  0
VERTEX
  8
LAYER_6
 10
77.8884
 20
-46.3501
  0
VERTEX
  8
LAYER_6
 10
77.8451
 20
-46.5128
  0
VERTEX
  8
LAYER_6
 10
77.8016
 20
-46.6633
  0
VERTEX
  8
LAYER_6
 10
77.755
 20
-46.8129
  0
VERTEX
  8
LAYER_6
 10
77.7052
 20
-46.9614
  0
VERTEX
  8
LAYER_6
 10
77.6519
 20
-47.1087
  0
VERTEX
  8
LAYER_6
 10
77.5951
 20
-47.2547
  0
VERTEX
  8
LAYER_6
 10
77.5403
 20
-47.386
  0
VERTEX
  8
LAYER_6
 10
77.4823
 20
-47.5159
  0
VERTEX
  8
LAYER_6
 10
77.4208
 20
-47.6442
  0
VERTEX
  8
LAYER_6
 10
77.3558
 20
-47.7707
  0
VERTEX
  8
LAYER_6
 10
77.287
 20
-47.8952
  0
VERTEX
  8
LAYER_6
 10
77.2226
 20
-48.0038
  0
VERTEX
  8
LAYER_6
 10
77.1549
 20
-48.1103
  0
VERTEX
  8
LAYER_6
 10
77.0837
 20
-48.2145
  0
VERTEX
  8
LAYER_6
 10
77.0088
 20
-48.3161
  0
VERTEX
  8
LAYER_6
 10
76.93
 20
-48.4147
  0
VERTEX
  8
LAYER_6
 10
76.8579
 20
-48.4981
  0
VERTEX
  8
LAYER_6
 10
76.7824
 20
-48.5785
  0
VERTEX
  8
LAYER_6
 10
76.7036
 20
-48.6555
  0
VERTEX
  8
LAYER_6
 10
76.6212
 20
-48.7286
  0
VERTEX
  8
LAYER_6
 10
76.535
 20
-48.7975
  0
VERTEX
  8
LAYER_6
 10
76.4565
 20
-48.8539
  0
VERTEX
  8
LAYER_6
 10
76.375
 20
-48.9061
  0
VERTEX
  8
LAYER_6
 10
76.2907
 20
-48.9535
  0
VERTEX
  8
LAYER_6
 10
76.2037
 20
-48.9956
  0
VERTEX
  8
LAYER_6
 10
76.1141
 20
-49.0319
  0
VERTEX
  8
LAYER_6
 10
75.9439
 20
-49.0816
  0
VERTEX
  8
LAYER_6
 10
75.8566
 20
-49.0977
  0
VERTEX
  8
LAYER_6
 10
75.7685
 20
-49.1075
  0
VERTEX
  8
LAYER_6
 10
75.68
 20
-49.1109
  0
VERTEX
  8
LAYER_6
 10
75.5915
 20
-49.1075
  0
VERTEX
  8
LAYER_6
 10
75.5033
 20
-49.0977
  0
VERTEX
  8
LAYER_6
 10
75.4161
 20
-49.0816
  0
VERTEX
  8
LAYER_6
 10
75.2459
 20
-49.0319
  0
VERTEX
  8
LAYER_6
 10
75.1562
 20
-48.9956
  0
VERTEX
  8
LAYER_6
 10
75.0693
 20
-48.9535
  0
VERTEX
  8
LAYER_6
 10
74.985
 20
-48.9061
  0
VERTEX
  8
LAYER_6
 10
74.9035
 20
-48.8539
  0
VERTEX
  8
LAYER_6
 10
74.8249
 20
-48.7975
  0
VERTEX
  8
LAYER_6
 10
74.7388
 20
-48.7286
  0
VERTEX
  8
LAYER_6
 10
74.6564
 20
-48.6555
  0
VERTEX
  8
LAYER_6
 10
74.5775
 20
-48.5785
  0
VERTEX
  8
LAYER_6
 10
74.5021
 20
-48.4981
  0
VERTEX
  8
LAYER_6
 10
74.43
 20
-48.4147
  0
VERTEX
  8
LAYER_6
 10
74.3512
 20
-48.3161
  0
VERTEX
  8
LAYER_6
 10
74.2763
 20
-48.2145
  0
VERTEX
  8
LAYER_6
 10
74.2051
 20
-48.1103
  0
VERTEX
  8
LAYER_6
 10
74.1374
 20
-48.0038
  0
VERTEX
  8
LAYER_6
 10
74.073
 20
-47.8952
  0
VERTEX
  8
LAYER_6
 10
74.0042
 20
-47.7707
  0
VERTEX
  8
LAYER_6
 10
73.9392
 20
-47.6442
  0
VERTEX
  8
LAYER_6
 10
73.8777
 20
-47.5159
  0
VERTEX
  8
LAYER_6
 10
73.8197
 20
-47.386
  0
VERTEX
  8
LAYER_6
 10
73.7649
 20
-47.2547
  0
VERTEX
  8
LAYER_6
 10
73.7081
 20
-47.1087
  0
VERTEX
  8
LAYER_6
 10
73.6548
 20
-46.9614
  0
VERTEX
  8
LAYER_6
 10
73.6049
 20
-46.8129
  0
VERTEX
  8
LAYER_6
 10
73.5584
 20
-46.6633
  0
VERTEX
  8
LAYER_6
 10
73.5149
 20
-46.5128
  0
VERTEX
  8
LAYER_6
 10
73.4716
 20
-46.3501
  0
VERTEX
  8
LAYER_6
 10
73.4316
 20
-46.1866
  0
VERTEX
  8
LAYER_6
 10
73.3949
 20
-46.0224
  0
VERTEX
  8
LAYER_6
 10
73.3613
 20
-45.8574
  0
VERTEX
  8
LAYER_6
 10
73.3308
 20
-45.6919
  0
VERTEX
  8
LAYER_6
 10
73.2763
 20
-45.3432
  0
VERTEX
  8
LAYER_6
 10
73.2344
 20
-44.9927
  0
VERTEX
  8
LAYER_6
 10
73.1936
 20
-44.4565
  0
VERTEX
  8
LAYER_6
 10
73.1801
 20
-43.9225
 42
-0.04633885606
  0
VERTEX
  8
LAYER_6
 10
73.3613
 20
-41.972
  0
VERTEX
  8
LAYER_6
 10
73.3949
 20
-41.807
  0
VERTEX
  8
LAYER_6
 10
73.4316
 20
-41.6428
  0
VERTEX
  8
LAYER_6
 10
73.4716
 20
-41.4793
  0
VERTEX
  8
LAYER_6
 10
73.5149
 20
-41.3166
  0
VERTEX
  8
LAYER_6
 10
73.5584
 20
-41.1661
  0
VERTEX
  8
LAYER_6
 10
73.6049
 20
-41.0165
  0
VERTEX
  8
LAYER_6
 10
73.6548
 20
-40.868
  0
VERTEX
  8
LAYER_6
 10
73.7081
 20
-40.7207
  0
VERTEX
  8
LAYER_6
 10
73.7649
 20
-40.5747
  0
VERTEX
  8
LAYER_6
 10
73.8197
 20
-40.4434
  0
VERTEX
  8
LAYER_6
 10
73.8777
 20
-40.3135
  0
VERTEX
  8
LAYER_6
 10
73.9392
 20
-40.1852
  0
VERTEX
  8
LAYER_6
 10
74.0042
 20
-40.0587
  0
VERTEX
  8
LAYER_6
 10
74.073
 20
-39.9342
  0
VERTEX
  8
LAYER_6
 10
74.1374
 20
-39.8256
  0
VERTEX
  8
LAYER_6
 10
74.2051
 20
-39.7191
  0
VERTEX
  8
LAYER_6
 10
74.2763
 20
-39.6149
  0
VERTEX
  8
LAYER_6
 10
74.3512
 20
-39.5133
  0
VERTEX
  8
LAYER_6
 10
74.43
 20
-39.4147
  0
VERTEX
  8
LAYER_6
 10
74.5021
 20
-39.3314
  0
VERTEX
  8
LAYER_6
 10
74.5775
 20
-39.251
  0
VERTEX
  8
LAYER_6
 10
74.6564
 20
-39.1739
  0
VERTEX
  8
LAYER_6
 10
74.7388
 20
-39.1008
  0
VERTEX
  8
LAYER_6
 10
74.8249
 20
-39.0319
  0
VERTEX
  8
LAYER_6
 10
74.9035
 20
-38.9755
  0
VERTEX
  8
LAYER_6
 10
74.985
 20
-38.9234
  0
VERTEX
  8
LAYER_6
 10
75.0693
 20
-38.8759
  0
VERTEX
  8
LAYER_6
 10
75.1562
 20
-38.8338
  0
VERTEX
  8
LAYER_6
 10
75.2459
 20
-38.7975
  0
VERTEX
  8
LAYER_6
 10
75.4161
 20
-38.7478
  0
VERTEX
  8
LAYER_6
 10
75.5033
 20
-38.7318
  0
VERTEX
  8
LAYER_6
 10
75.5915
 20
-38.7219
  0
VERTEX
  8
LAYER_6
 10
75.6804
 20
-38.7186
  0
VERTEX
  8
LAYER_6
 10
75.8566
 20
-38.7318
  0
VERTEX
  8
LAYER_6
 10
75.9439
 20
-38.7478
  0
VERTEX
  8
LAYER_6
 10
76.1141
 20
-38.7975
  0
VERTEX
  8
LAYER_6
 10
76.2037
 20
-38.8338
  0
VERTEX
  8
LAYER_6
 10
76.2907
 20
-38.8759
  0
VERTEX
  8
LAYER_6
 10
76.375
 20
-38.9234
  0
VERTEX
  8
LAYER_6
 10
76.4565
 20
-38.9755
  0
VERTEX
  8
LAYER_6
 10
76.535
 20
-39.0319
  0
VERTEX
  8
LAYER_6
 10
76.6212
 20
-39.1008
  0
VERTEX
  8
LAYER_6
 10
76.7036
 20
-39.1739
  0
VERTEX
  8
LAYER_6
 10
76.7824
 20
-39.251
  0
VERTEX
  8
LAYER_6
 10
76.8579
 20
-39.3314
  0
VERTEX
  8
LAYER_6
 10
76.93
 20
-39.4147
  0
VERTEX
  8
LAYER_6
 10
77.0088
 20
-39.5133
  0
VERTEX
  8
LAYER_6
 10
77.0837
 20
-39.6149
  0
VERTEX
  8
LAYER_6
 10
77.1549
 20
-39.7191
  0
VERTEX
  8
LAYER_6
 10
77.2226
 20
-39.8256
  0
VERTEX
  8
LAYER_6
 10
77.287
 20
-39.9342
  0
VERTEX
  8
LAYER_6
 10
77.3558
 20
-40.0587
  0
VERTEX
  8
LAYER_6
 10
77.4208
 20
-40.1852
  0
VERTEX
  8
LAYER_6
 10
77.4823
 20
-40.3135
  0
VERTEX
  8
LAYER_6
 10
77.5403
 20
-40.4434
  0
VERTEX
  8
LAYER_6
 10
77.5951
 20
-40.5747
  0
VERTEX
  8
LAYER_6
 10
77.6519
 20
-40.7207
  0
VERTEX
  8
LAYER_6
 10
77.7052
 20
-40.868
  0
VERTEX
  8
LAYER_6
 10
77.755
 20
-41.0165
  0
VERTEX
  8
LAYER_6
 10
77.8016
 20
-41.1661
  0
VERTEX
  8
LAYER_6
 10
77.8451
 20
-41.3166
  0
VERTEX
  8
LAYER_6
 10
77.8884
 20
-41.4793
  0
VERTEX
  8
LAYER_6
 10
77.9284
 20
-41.6428
  0
VERTEX
  8
LAYER_6
 10
77.9651
 20
-41.807
  0
VERTEX
  8
LAYER_6
 10
77.9987
 20
-41.972
  0
VERTEX
  8
LAYER_6
 10
78.0292
 20
-42.1375
  0
VERTEX
  8
LAYER_6
 10
78.0837
 20
-42.4862
  0
VERTEX
  8
LAYER_6
 10
78.1256
 20
-42.8367
  0
VERTEX
  8
LAYER_6
 10
78.1664
 20
-43.3729
  0
VERTEX
  8
LAYER_6
 10
78.1798
 20
-43.907
 42
-0.04633641141
  0
SEQEND
  0
POLYLINE
  8
LAYER_6
 40
0.1058
 41
0.1058
 66
1
 10
0
 20
0
 30
0
 70
1
  0
VERTEX
  8
LAYER_6
 10
94.1459
 20
-45.8574
  0
VERTEX
  8
LAYER_6
 10
94.1795
 20
-46.0224
  0
VERTEX
  8
LAYER_6
 10
94.2162
 20
-46.1866
  0
VERTEX
  8
LAYER_6
 10
94.2562
 20
-46.3501
  0
VERTEX
  8
LAYER_6
 10
94.2995
 20
-46.5128
  0
VERTEX
  8
LAYER_6
 10
94.343
 20
-46.6633
  0
VERTEX
  8
LAYER_6
 10
94.3896
 20
-46.8129
  0
VERTEX
  8
LAYER_6
 10
94.4394
 20
-46.9614
  0
VERTEX
  8
LAYER_6
 10
94.4927
 20
-47.1087
  0
VERTEX
  8
LAYER_6
 10
94.5495
 20
-47.2547
  0
VERTEX
  8
LAYER_6
 10
94.6043
 20
-47.386
  0
VERTEX
  8
LAYER_6
 10
94.6623
 20
-47.5159
  0
VERTEX
  8
LAYER_6
 10
94.7238
 20
-47.6442
  0
VERTEX
  8
LAYER_6
 10
94.7888
 20
-47.7707
  0
VERTEX
  8
LAYER_6
 10
94.8576
 20
-47.8952
  0
VERTEX
  8
LAYER_6
 10
94.922
 20
-48.0038
  0
VERTEX
  8
LAYER_6
 10
94.9897
 20
-48.1103
  0
VERTEX
  8
LAYER_6
 10
95.0609
 20
-48.2145
  0
VERTEX
  8
LAYER_6
 10
95.1358
 20
-48.3161
  0
VERTEX
  8
LAYER_6
 10
95.2146
 20
-48.4147
  0
VERTEX
  8
LAYER_6
 10
95.2867
 20
-48.4981
  0
VERTEX
  8
LAYER_6
 10
95.3622
 20
-48.5785
  0
VERTEX
  8
LAYER_6
 10
95.441
 20
-48.6555
  0
VERTEX
  8
LAYER_6
 10
95.5234
 20
-48.7286
  0
VERTEX
  8
LAYER_6
 10
95.6095
 20
-48.7975
  0
VERTEX
  8
LAYER_6
 10
95.6881
 20
-48.8539
  0
VERTEX
  8
LAYER_6
 10
95.7696
 20
-48.9061
  0
VERTEX
  8
LAYER_6
 10
95.8539
 20
-48.9535
  0
VERTEX
  8
LAYER_6
 10
95.9409
 20
-48.9956
  0
VERTEX
  8
LAYER_6
 10
96.0305
 20
-49.0319
  0
VERTEX
  8
LAYER_6
 10
96.2007
 20
-49.0816
  0
VERTEX
  8
LAYER_6
 10
96.288
 20
-49.0977
  0
VERTEX
  8
LAYER_6
 10
96.3761
 20
-49.1075
  0
VERTEX
  8
LAYER_6
 10
96.4646
 20
-49.1109
  0
VERTEX
  8
LAYER_6
 10
96.5531
 20
-49.1075
  0
VERTEX
  8
LAYER_6
 10
96.6412
 20
-49.0977
  0
VERTEX
  8
LAYER_6
 10
96.7285
 20
-49.0816
  0
VERTEX
  8
LAYER_6
 10
96.8987
 20
-49.0319
  0
VERTEX
  8
LAYER_6
 10
96.9883
 20
-48.9956
  0
VERTEX
  8
LAYER_6
 10
97.0753
 20
-48.9535
  0
VERTEX
  8
LAYER_6
 10
97.1596
 20
-48.9061
  0
VERTEX
  8
LAYER_6
 10
97.2411
 20
-48.8539
  0
VERTEX
  8
LAYER_6
 10
97.3197
 20
-48.7975
  0
VERTEX
  8
LAYER_6
 10
97.4058
 20
-48.7286
  0
VERTEX
  8
LAYER_6
 10
97.4882
 20
-48.6555
  0
VERTEX
  8
LAYER_6
 10
97.567
 20
-48.5785
  0
VERTEX
  8
LAYER_6
 10
97.6425
 20
-48.4981
  0
VERTEX
  8
LAYER_6
 10
97.7146
 20
-48.4147
  0
VERTEX
  8
LAYER_6
 10
97.7934
 20
-48.3161
  0
VERTEX
  8
LAYER_6
 10
97.8683
 20
-48.2145
  0
VERTEX
  8
LAYER_6
 10
97.9395
 20
-48.1103
  0
VERTEX
  8
LAYER_6
 10
98.0072
 20
-48.0038
  0
VERTEX
  8
LAYER_6
 10
98.0716
 20
-47.8952
  0
VERTEX
  8
LAYER_6
 10
98.1404
 20
-47.7707
  0
VERTEX
  8
LAYER_6
 10
98.2054
 20
-47.6442
  0
VERTEX
  8
LAYER_6
 10
98.2669
 20
-47.5159
  0
VERTEX
  8
LAYER_6
 10
98.3249
 20
-47.386
  0
VERTEX
  8
LAYER_6
 10
98.3797
 20
-47.2547
  0
VERTEX
  8
LAYER_6
 10
98.4365
 20
-47.1087
  0
VERTEX
  8
LAYER_6
 10
98.4898
 20
-46.9614
  0
VERTEX
  8
LAYER_6
 10
98.5396
 20
-46.8129
  0
VERTEX
  8
LAYER_6
 10
98.5862
 20
-46.6633
  0
VERTEX
  8
LAYER_6
 10
98.6297
 20
-46.5128
  0
VERTEX
  8
LAYER_6
 10
98.673
 20
-46.3501
  0
VERTEX
  8
LAYER_6
 10
98.713
 20
-46.1866
  0
VERTEX
  8
LAYER_6
 10
98.7497
 20
-46.0224
  0
VERTEX
  8
LAYER_6
 10
98.7833
 20
-45.8574
  0
VERTEX
  8
LAYER_6
 10
98.8138
 20
-45.6919
  0
VERTEX
  8
LAYER_6
 10
98.8683
 20
-45.3432
  0
VERTEX
  8
LAYER_6
 10
98.9102
 20
-44.9927
  0
VERTEX
  8
LAYER_6
 10
98.951
 20
-44.4565
  0
VERTEX
  8
LAYER_6
 10
98.9645
 20
-43.9225
 42
0.04633881312
  0
VERTEX
  8
LAYER_6
 10
98.7833
 20
-41.972
  0
VERTEX
  8
LAYER_6
 10
98.7497
 20
-41.807
  0
VERTEX
  8
LAYER_6
 10
98.713
 20
-41.6428
  0
VERTEX
  8
LAYER_6
 10
98.673
 20
-41.4793
  0
VERTEX
  8
LAYER_6
 10
98.6297
 20
-41.3166
  0
VERTEX
  8
LAYER_6
 10
98.5862
 20
-41.1661
  0
VERTEX
  8
LAYER_6
 10
98.5396
 20
-41.0165
  0
VERTEX
  8
LAYER_6
 10
98.4898
 20
-40.868
  0
VERTEX
  8
LAYER_6
 10
98.4365
 20
-40.7207
  0
VERTEX
  8
LAYER_6
 10
98.3797
 20
-40.5747
  0
VERTEX
  8
LAYER_6
 10
98.3249
 20
-40.4434
  0
VERTEX
  8
LAYER_6
 10
98.2669
 20
-40.3135
  0
VERTEX
  8
LAYER_6
 10
98.2054
 20
-40.1852
  0
VERTEX
  8
LAYER_6
 10
98.1404
 20
-40.0587
  0
VERTEX
  8
LAYER_6
 10
98.0716
 20
-39.9342
  0
VERTEX
  8
LAYER_6
 10
98.0072
 20
-39.8256
  0
VERTEX
  8
LAYER_6
 10
97.9395
 20
-39.7191
  0
VERTEX
  8
LAYER_6
 10
97.8683
 20
-39.6149
  0
VERTEX
  8
LAYER_6
 10
97.7934
 20
-39.5133
  0
VERTEX
  8
LAYER_6
 10
97.7146
 20
-39.4147
  0
VERTEX
  8
LAYER_6
 10
97.6425
 20
-39.3314
  0
VERTEX
  8
LAYER_6
 10
97.567
 20
-39.251
  0
VERTEX
  8
LAYER_6
 10
97.4882
 20
-39.1739
  0
VERTEX
  8
LAYER_6
 10
97.4058
 20
-39.1008
  0
VERTEX
  8
LAYER_6
 10
97.3197
 20
-39.0319
  0
VERTEX
  8
LAYER_6
 10
97.2411
 20
-38.9755
  0
VERTEX
  8
LAYER_6
 10
97.1596
 20
-38.9234
  0
VERTEX
  8
LAYER_6
 10
97.0753
 20
-38.8759
  0
VERTEX
  8
LAYER_6
 10
96.9883
 20
-38.8338
  0
VERTEX
  8
LAYER_6
 10
96.8987
 20
-38.7975
  0
VERTEX
  8
LAYER_6
 10
96.7285
 20
-38.7478
  0
VERTEX
  8
LAYER_6
 10
96.6412
 20
-38.7318
  0
VERTEX
  8
LAYER_6
 10
96.5531
 20
-38.7219
  0
VERTEX
  8
LAYER_6
 10
96.4642
 20
-38.7186
  0
VERTEX
  8
LAYER_6
 10
96.288
 20
-38.7318
  0
VERTEX
  8
LAYER_6
 10
96.2007
 20
-38.7478
  0
VERTEX
  8
LAYER_6
 10
96.0305
 20
-38.7975
  0
VERTEX
  8
LAYER_6
 10
95.9409
 20
-38.8338
  0
VERTEX
  8
LAYER_6
 10
95.8539
 20
-38.8759
  0
VERTEX
  8
LAYER_6
 10
95.7696
 20
-38.9234
  0
VERTEX
  8
LAYER_6
 10
95.6881
 20
-38.9755
  0
VERTEX
  8
LAYER_6
 10
95.6095
 20
-39.0319
  0
VERTEX
  8
LAYER_6
 10
95.5234
 20
-39.1008
  0
VERTEX
  8
LAYER_6
 10
95.441
 20
-39.1739
  0
VERTEX
  8
LAYER_6
 10
95.3622
 20
-39.251
  0
VERTEX
  8
LAYER_6
 10
95.2867
 20
-39.3314
  0
VERTEX
  8
LAYER_6
 10
95.2146
 20
-39.4147
  0
VERTEX
  8
LAYER_6
 10
95.1358
 20
-39.5133
  0
VERTEX
  8
LAYER_6
 10
95.0609
 20
-39.6149
  0
VERTEX
  8
LAYER_6
 10
94.9897
 20
-39.7191
  0
VERTEX
  8
LAYER_6
 10
94.922
 20
-39.8256
  0
VERTEX
  8
LAYER_6
 10
94.8576
 20
-39.9342
  0
VERTEX
  8
LAYER_6
 10
94.7888
 20
-40.0587
  0
VERTEX
  8
LAYER_6
 10
94.7238
 20
-40.1852
  0
VERTEX
  8
LAYER_6
 10
94.6623
 20
-40.3135
  0
VERTEX
  8
LAYER_6
 10
94.6043
 20
-40.4434
  0
VERTEX
  8
LAYER_6
 10
94.5495
 20
-40.5747
  0
VERTEX
  8
LAYER_6
 10
94.4927
 20
-40.7207
  0
VERTEX
  8
LAYER_6
 10
94.4394
 20
-40.868
  0
VERTEX
  8
LAYER_6
 10
94.3896
 20
-41.0165
  0
VERTEX
  8
LAYER_6
 10
94.343
 20
-41.1661
  0
VERTEX
  8
LAYER_6
 10
94.2995
 20
-41.3166
  0
VERTEX
  8
LAYER_6
 10
94.2562
 20
-41.4793
  0
VERTEX
  8
LAYER_6
 10
94.2162
 20
-41.6428
  0
VERTEX
  8
LAYER_6
 10
94.1795
 20
-41.807
  0
VERTEX
  8
LAYER_6
 10
94.1459
 20
-41.972
  0
VERTEX
  8
LAYER_6
 10
94.1154
 20
-42.1375
  0
VERTEX
  8
LAYER_6
 10
94.0609
 20
-42.4862
  0
VERTEX
  8
LAYER_6
 10
94.019
 20
-42.8367
  0
VERTEX
  8
LAYER_6
 10
93.9782
 20
-43.3729
  0
VERTEX
  8
LAYER_6
 10
93.9647
 20
-43.907
 42
0.0463364544
  0
SEQEND
  0
POLYLINE
  8
LAYER_6
 40
0.1058
 41
0.1058
 66
1
 10
0
 20
0
 30
0
 70
1
  0
VERTEX
  8
LAYER_6
 10
77.9987
 20
-207.2237
  0
VERTEX
  8
LAYER_6
 10
77.9651
 20
-207.0587
  0
VERTEX
  8
LAYER_6
 10
77.9284
 20
-206.8944
  0
VERTEX
  8
LAYER_6
 10
77.8884
 20
-206.7309
  0
VERTEX
  8
LAYER_6
 10
77.8451
 20
-206.5683
  0
VERTEX
  8
LAYER_6
 10
77.8016
 20
-206.4178
  0
VERTEX
  8
LAYER_6
 10
77.755
 20
-206.2682
  0
VERTEX
  8
LAYER_6
 10
77.7052
 20
-206.1197
  0
VERTEX
  8
LAYER_6
 10
77.6519
 20
-205.9724
  0
VERTEX
  8
LAYER_6
 10
77.5951
 20
-205.8263
  0
VERTEX
  8
LAYER_6
 10
77.5403
 20
-205.6951
  0
VERTEX
  8
LAYER_6
 10
77.4823
 20
-205.5652
  0
VERTEX
  8
LAYER_6
 10
77.4208
 20
-205.4369
  0
VERTEX
  8
LAYER_6
 10
77.3558
 20
-205.3104
  0
VERTEX
  8
LAYER_6
 10
77.287
 20
-205.1859
  0
VERTEX
  8
LAYER_6
 10
77.2226
 20
-205.0773
  0
VERTEX
  8
LAYER_6
 10
77.1549
 20
-204.9708
  0
VERTEX
  8
LAYER_6
 10
77.0837
 20
-204.8665
  0
VERTEX
  8
LAYER_6
 10
77.0088
 20
-204.765
  0
VERTEX
  8
LAYER_6
 10
76.93
 20
-204.6664
  0
VERTEX
  8
LAYER_6
 10
76.8579
 20
-204.583
  0
VERTEX
  8
LAYER_6
 10
76.7824
 20
-204.5026
  0
VERTEX
  8
LAYER_6
 10
76.7036
 20
-204.4256
  0
VERTEX
  8
LAYER_6
 10
76.6212
 20
-204.3524
  0
VERTEX
  8
LAYER_6
 10
76.535
 20
-204.2836
  0
VERTEX
  8
LAYER_6
 10
76.4565
 20
-204.2272
  0
VERTEX
  8
LAYER_6
 10
76.375
 20
-204.175
  0
VERTEX
  8
LAYER_6
 10
76.2907
 20
-204.1276
  0
VERTEX
  8
LAYER_6
 10
76.2037
 20
-204.0854
  0
VERTEX
  8
LAYER_6
 10
76.1141
 20
-204.0492
  0
VERTEX
  8
LAYER_6
 10
75.9439
 20
-203.9995
  0
VERTEX
  8
LAYER_6
 10
75.8566
 20
-203.9834
  0
VERTEX
  8
LAYER_6
 10
75.7685
 20
-203.9736
  0
VERTEX
  8
LAYER_6
 10
75.68
 20
-203.9702
  0
VERTEX
  8
LAYER_6
 10
75.5915
 20
-203.9736
  0
VERTEX
  8
LAYER_6
 10
75.5033
 20
-203.9834
  0
VERTEX
  8
LAYER_6
 10
75.4161
 20
-203.9995
  0
VERTEX
  8
LAYER_6
 10
75.2459
 20
-204.0492
  0
VERTEX
  8
LAYER_6
 10
75.1562
 20
-204.0854
  0
VERTEX
  8
LAYER_6
 10
75.0693
 20
-204.1276
  0
VERTEX
  8
LAYER_6
 10
74.985
 20
-204.175
  0
VERTEX
  8
LAYER_6
 10
74.9035
 20
-204.2272
  0
VERTEX
  8
LAYER_6
 10
74.8249
 20
-204.2836
  0
VERTEX
  8
LAYER_6
 10
74.7388
 20
-204.3524
  0
VERTEX
  8
LAYER_6
 10
74.6564
 20
-204.4256
  0
VERTEX
  8
LAYER_6
 10
74.5775
 20
-204.5026
  0
VERTEX
  8
LAYER_6
 10
74.5021
 20
-204.583
  0
VERTEX
  8
LAYER_6
 10
74.43
 20
-204.6664
  0
VERTEX
  8
LAYER_6
 10
74.3512
 20
-204.765
  0
VERTEX
  8
LAYER_6
 10
74.2763
 20
-204.8665
  0
VERTEX
  8
LAYER_6
 10
74.2051
 20
-204.9708
  0
VERTEX
  8
LAYER_6
 10
74.1374
 20
-205.0773
  0
VERTEX
  8
LAYER_6
 10
74.073
 20
-205.1859
  0
VERTEX
  8
LAYER_6
 10
74.0042
 20
-205.3104
  0
VERTEX
  8
LAYER_6
 10
73.9392
 20
-205.4369
  0
VERTEX
  8
LAYER_6
 10
73.8777
 20
-205.5652
  0
VERTEX
  8
LAYER_6
 10
73.8197
 20
-205.6951
  0
VERTEX
  8
LAYER_6
 10
73.7649
 20
-205.8263
  0
VERTEX
  8
LAYER_6
 10
73.7081
 20
-205.9724
  0
VERTEX
  8
LAYER_6
 10
73.6548
 20
-206.1197
  0
VERTEX
  8
LAYER_6
 10
73.6049
 20
-206.2682
  0
VERTEX
  8
LAYER_6
 10
73.5584
 20
-206.4178
  0
VERTEX
  8
LAYER_6
 10
73.5149
 20
-206.5683
  0
VERTEX
  8
LAYER_6
 10
73.4716
 20
-206.7309
  0
VERTEX
  8
LAYER_6
 10
73.4316
 20
-206.8944
  0
VERTEX
  8
LAYER_6
 10
73.3949
 20
-207.0587
  0
VERTEX
  8
LAYER_6
 10
73.3613
 20
-207.2236
  0
VERTEX
  8
LAYER_6
 10
73.3308
 20
-207.3892
  0
VERTEX
  8
LAYER_6
 10
73.2763
 20
-207.7379
  0
VERTEX
  8
LAYER_6
 10
73.2344
 20
-208.0884
  0
VERTEX
  8
LAYER_6
 10
73.1936
 20
-208.6246
  0
VERTEX
  8
LAYER_6
 10
73.1801
 20
-209.1586
 42
0.04633884816
  0
VERTEX
  8
LAYER_6
 10
73.3613
 20
-211.1091
  0
VERTEX
  8
LAYER_6
 10
73.3949
 20
-211.274
  0
VERTEX
  8
LAYER_6
 10
73.4316
 20
-211.4383
  0
VERTEX
  8
LAYER_6
 10
73.4716
 20
-211.6018
  0
VERTEX
  8
LAYER_6
 10
73.5149
 20
-211.7644
  0
VERTEX
  8
LAYER_6
 10
73.5584
 20
-211.915
  0
VERTEX
  8
LAYER_6
 10
73.6049
 20
-212.0645
  0
VERTEX
  8
LAYER_6
 10
73.6548
 20
-212.2131
  0
VERTEX
  8
LAYER_6
 10
73.7081
 20
-212.3604
  0
VERTEX
  8
LAYER_6
 10
73.7649
 20
-212.5064
  0
VERTEX
  8
LAYER_6
 10
73.8197
 20
-212.6377
  0
VERTEX
  8
LAYER_6
 10
73.8777
 20
-212.7675
  0
VERTEX
  8
LAYER_6
 10
73.9392
 20
-212.8958
  0
VERTEX
  8
LAYER_6
 10
74.0042
 20
-213.0223
  0
VERTEX
  8
LAYER_6
 10
74.073
 20
-213.1469
  0
VERTEX
  8
LAYER_6
 10
74.1374
 20
-213.2554
  0
VERTEX
  8
LAYER_6
 10
74.2051
 20
-213.362
  0
VERTEX
  8
LAYER_6
 10
74.2763
 20
-213.4662
  0
VERTEX
  8
LAYER_6
 10
74.3512
 20
-213.5678
  0
VERTEX
  8
LAYER_6
 10
74.43
 20
-213.6664
  0
VERTEX
  8
LAYER_6
 10
74.5021
 20
-213.7497
  0
VERTEX
  8
LAYER_6
 10
74.5775
 20
-213.8301
  0
VERTEX
  8
LAYER_6
 10
74.6564
 20
-213.9071
  0
VERTEX
  8
LAYER_6
 10
74.7388
 20
-213.9803
  0
VERTEX
  8
LAYER_6
 10
74.8249
 20
-214.0492
  0
VERTEX
  8
LAYER_6
 10
74.9035
 20
-214.1055
  0
VERTEX
  8
LAYER_6
 10
74.985
 20
-214.1577
  0
VERTEX
  8
LAYER_6
 10
75.0693
 20
-214.2052
  0
VERTEX
  8
LAYER_6
 10
75.1562
 20
-214.2473
  0
VERTEX
  8
LAYER_6
 10
75.2459
 20
-214.2836
  0
VERTEX
  8
LAYER_6
 10
75.4161
 20
-214.3332
  0
VERTEX
  8
LAYER_6
 10
75.5033
 20
-214.3493
  0
VERTEX
  8
LAYER_6
 10
75.5915
 20
-214.3592
  0
VERTEX
  8
LAYER_6
 10
75.6804
 20
-214.3625
  0
VERTEX
  8
LAYER_6
 10
75.8566
 20
-214.3493
  0
VERTEX
  8
LAYER_6
 10
75.9439
 20
-214.3332
  0
VERTEX
  8
LAYER_6
 10
76.1141
 20
-214.2836
  0
VERTEX
  8
LAYER_6
 10
76.2037
 20
-214.2473
  0
VERTEX
  8
LAYER_6
 10
76.2907
 20
-214.2052
  0
VERTEX
  8
LAYER_6
 10
76.375
 20
-214.1577
  0
VERTEX
  8
LAYER_6
 10
76.4565
 20
-214.1055
  0
VERTEX
  8
LAYER_6
 10
76.535
 20
-214.0492
  0
VERTEX
  8
LAYER_6
 10
76.6212
 20
-213.9803
  0
VERTEX
  8
LAYER_6
 10
76.7036
 20
-213.9071
  0
VERTEX
  8
LAYER_6
 10
76.7824
 20
-213.8301
  0
VERTEX
  8
LAYER_6
 10
76.8579
 20
-213.7497
  0
VERTEX
  8
LAYER_6
 10
76.93
 20
-213.6664
  0
VERTEX
  8
LAYER_6
 10
77.0088
 20
-213.5678
  0
VERTEX
  8
LAYER_6
 10
77.0837
 20
-213.4662
  0
VERTEX
  8
LAYER_6
 10
77.1549
 20
-213.362
  0
VERTEX
  8
LAYER_6
 10
77.2226
 20
-213.2554
  0
VERTEX
  8
LAYER_6
 10
77.287
 20
-213.1469
  0
VERTEX
  8
LAYER_6
 10
77.3558
 20
-213.0223
  0
VERTEX
  8
LAYER_6
 10
77.4208
 20
-212.8958
  0
VERTEX
  8
LAYER_6
 10
77.4823
 20
-212.7675
  0
VERTEX
  8
LAYER_6
 10
77.5403
 20
-212.6377
  0
VERTEX
  8
LAYER_6
 10
77.5951
 20
-212.5064
  0
VERTEX
  8
LAYER_6
 10
77.6519
 20
-212.3604
  0
VERTEX
  8
LAYER_6
 10
77.7052
 20
-212.2131
  0
VERTEX
  8
LAYER_6
 10
77.755
 20
-212.0645
  0
VERTEX
  8
LAYER_6
 10
77.8016
 20
-211.915
  0
VERTEX
  8
LAYER_6
 10
77.8451
 20
-211.7644
  0
VERTEX
  8
LAYER_6
 10
77.8884
 20
-211.6018
  0
VERTEX
  8
LAYER_6
 10
77.9284
 20
-211.4383
  0
VERTEX
  8
LAYER_6
 10
77.9651
 20
-211.274
  0
VERTEX
  8
LAYER_6
 10
77.9987
 20
-211.1091
  0
VERTEX
  8
LAYER_6
 10
78.0292
 20
-210.9436
  0
VERTEX
  8
LAYER_6
 10
78.0837
 20
-210.5948
  0
VERTEX
  8
LAYER_6
 10
78.1256
 20
-210.2444
  0
VERTEX
  8
LAYER_6
 10
78.1664
 20
-209.7082
  0
VERTEX
  8
LAYER_6
 10
78.1798
 20
-209.1741
 42
0.04633641954
  0
SEQEND
  0
POLYLINE
  8
LAYER_6
 40
0.1058
 41
0.1058
 66
1
 10
0
 20
0
 30
0
 70
1
  0
VERTEX
  8
LAYER_6
 10
94.1459
 20
-207.2237
  0
VERTEX
  8
LAYER_6
 10
94.1795
 20
-207.0587
  0
VERTEX
  8
LAYER_6
 10
94.2162
 20
-206.8944
  0
VERTEX
  8
LAYER_6
 10
94.2562
 20
-206.7309
  0
VERTEX
  8
LAYER_6
 10
94.2995
 20
-206.5683
  0
VERTEX
  8
LAYER_6
 10
94.343
 20
-206.4178
  0
VERTEX
  8
LAYER_6
 10
94.3896
 20
-206.2682
  0
VERTEX
  8
LAYER_6
 10
94.4394
 20
-206.1197
  0
VERTEX
  8
LAYER_6
 10
94.4927
 20
-205.9724
  0
VERTEX
  8
LAYER_6
 10
94.5495
 20
-205.8263
  0
VERTEX
  8
LAYER_6
 10
94.6043
 20
-205.6951
  0
VERTEX
  8
LAYER_6
 10
94.6623
 20
-205.5652
  0
VERTEX
  8
LAYER_6
 10
94.7238
 20
-205.4369
  0
VERTEX
  8
LAYER_6
 10
94.7888
 20
-205.3104
  0
VERTEX
  8
LAYER_6
 10
94.8576
 20
-205.1859
  0
VERTEX
  8
LAYER_6
 10
94.922
 20
-205.0773
  0
VERTEX
  8
LAYER_6
 10
94.9897
 20
-204.9708
  0
VERTEX
  8
LAYER_6
 10
95.0609
 20
-204.8665
  0
VERTEX
  8
LAYER_6
 10
95.1358
 20
-204.765
  0
VERTEX
  8
LAYER_6
 10
95.2146
 20
-204.6664
  0
VERTEX
  8
LAYER_6
 10
95.2867
 20
-204.583
  0
VERTEX
  8
LAYER_6
 10
95.3622
 20
-204.5026
  0
VERTEX
  8
LAYER_6
 10
95.441
 20
-204.4256
  0
VERTEX
  8
LAYER_6
 10
95.5234
 20
-204.3524
  0
VERTEX
  8
LAYER_6
 10
95.6095
 20
-204.2836
  0
VERTEX
  8
LAYER_6
 10
95.6881
 20
-204.2272
  0
VERTEX
  8
LAYER_6
 10
95.7696
 20
-204.175
  0
VERTEX
  8
LAYER_6
 10
95.8539
 20
-204.1276
  0
VERTEX
  8
LAYER_6
 10
95.9409
 20
-204.0854
  0
VERTEX
  8
LAYER_6
 10
96.0305
 20
-204.0492
  0
VERTEX
  8
LAYER_6
 10
96.2007
 20
-203.9995
  0
VERTEX
  8
LAYER_6
 10
96.288
 20
-203.9834
  0
VERTEX
  8
LAYER_6
 10
96.3761
 20
-203.9736
  0
VERTEX
  8
LAYER_6
 10
96.4646
 20
-203.9702
  0
VERTEX
  8
LAYER_6
 10
96.5531
 20
-203.9736
  0
VERTEX
  8
LAYER_6
 10
96.6412
 20
-203.9834
  0
VERTEX
  8
LAYER_6
 10
96.7285
 20
-203.9995
  0
VERTEX
  8
LAYER_6
 10
96.8987
 20
-204.0492
  0
VERTEX
  8
LAYER_6
 10
96.9883
 20
-204.0854
  0
VERTEX
  8
LAYER_6
 10
97.0753
 20
-204.1276
  0
VERTEX
  8
LAYER_6
 10
97.1596
 20
-204.175
  0
VERTEX
  8
LAYER_6
 10
97.2411
 20
-204.2272
  0
VERTEX
  8
LAYER_6
 10
97.3197
 20
-204.2836
  0
VERTEX
  8
LAYER_6
 10
97.4058
 20
-204.3524
  0
VERTEX
  8
LAYER_6
 10
97.4882
 20
-204.4256
  0
VERTEX
  8
LAYER_6
 10
97.567
 20
-204.5026
  0
VERTEX
  8
LAYER_6
 10
97.6425
 20
-204.583
  0
VERTEX
  8
LAYER_6
 10
97.7146
 20
-204.6664
  0
VERTEX
  8
LAYER_6
 10
97.7934
 20
-204.765
  0
VERTEX
  8
LAYER_6
 10
97.8683
 20
-204.8665
  0
VERTEX
  8
LAYER_6
 10
97.9395
 20
-204.9708
  0
VERTEX
  8
LAYER_6
 10
98.0072
 20
-205.0773
  0
VERTEX
  8
LAYER_6
 10
98.0716
 20
-205.1859
  0
VERTEX
  8
LAYER_6
 10
98.1404
 20
-205.3104
  0
VERTEX
  8
LAYER_6
 10
98.2054
 20
-205.4369
  0
VERTEX
  8
LAYER_6
 10
98.2669
 20
-205.5652
  0
VERTEX
  8
LAYER_6
 10
98.3249
 20
-205.6951
  0
VERTEX
  8
LAYER_6
 10
98.3797
 20
-205.8263
  0
VERTEX
  8
LAYER_6
 10
98.4365
 20
-205.9724
  0
VERTEX
  8
LAYER_6
 10
98.4898
 20
-206.1197
  0
VERTEX
  8
LAYER_6
 10
98.5396
 20
-206.2682
  0
VERTEX
  8
LAYER_6
 10
98.5862
 20
-206.4178
  0
VERTEX
  8
LAYER_6
 10
98.6297
 20
-206.5683
  0
VERTEX
  8
LAYER_6
 10
98.673
 20
-206.7309
  0
VERTEX
  8
LAYER_6
 10
98.713
 20
-206.8944
  0
VERTEX
  8
LAYER_6
 10
98.7497
 20
-207.0587
  0
VERTEX
  8
LAYER_6
 10
98.7833
 20
-207.2236
  0
VERTEX
  8
LAYER_6
 10
98.8138
 20
-207.3892
  0
VERTEX
  8
LAYER_6
 10
98.8683
 20
-207.7379
  0
VERTEX
  8
LAYER_6
 10
98.9102
 20
-208.0884
  0
VERTEX
  8
LAYER_6
 10
98.951
 20
-208.6246
  0
VERTEX
  8
LAYER_6
 10
98.9645
 20
-209.1586
 42
-0.04633880502
  0
VERTEX
  8
LAYER_6
 10
98.7833
 20
-211.1091
  0
VERTEX
  8
LAYER_6
 10
98.7497
 20
-211.274
  0
VERTEX
  8
LAYER_6
 10
98.713
 20
-211.4383
  0
VERTEX
  8
LAYER_6
 10
98.673
 20
-211.6018
  0
VERTEX
  8
LAYER_6
 10
98.6297
 20
-211.7644
  0
VERTEX
  8
LAYER_6
 10
98.5862
 20
-211.915
  0
VERTEX
  8
LAYER_6
 10
98.5396
 20
-212.0645
  0
VERTEX
  8
LAYER_6
 10
98.4898
 20
-212.2131
  0
VERTEX
  8
LAYER_6
 10
98.4365
 20
-212.3604
  0
VERTEX
  8
LAYER_6
 10
98.3797
 20
-212.5064
  0
VERTEX
  8
LAYER_6
 10
98.3249
 20
-212.6377
  0
VERTEX
  8
LAYER_6
 10
98.2669
 20
-212.7675
  0
VERTEX
  8
LAYER_6
 10
98.2054
 20
-212.8958
  0
VERTEX
  8
LAYER_6
 10
98.1404
 20
-213.0223
  0
VERTEX
  8
LAYER_6
 10
98.0716
 20
-213.1469
  0
VERTEX
  8
LAYER_6
 10
98.0072
 20
-213.2554
  0
VERTEX
  8
LAYER_6
 10
97.9395
 20
-213.362
  0
VERTEX
  8
LAYER_6
 10
97.8683
 20
-213.4662
  0
VERTEX
  8
LAYER_6
 10
97.7934
 20
-213.5678
  0
VERTEX
  8
LAYER_6
 10
97.7146
 20
-213.6664
  0
VERTEX
  8
LAYER_6
 10
97.6425
 20
-213.7497
  0
VERTEX
  8
LAYER_6
 10
97.567
 20
-213.8301
  0
VERTEX
  8
LAYER_6
 10
97.4882
 20
-213.9071
  0
VERTEX
  8
LAYER_6
 10
97.4058
 20
-213.9803
  0
VERTEX
  8
LAYER_6
 10
97.3197
 20
-214.0492
  0
VERTEX
  8
LAYER_6
 10
97.2411
 20
-214.1055
  0
VERTEX
  8
LAYER_6
 10
97.1596
 20
-214.1577
  0
VERTEX
  8
LAYER_6
 10
97.0753
 20
-214.2052
  0
VERTEX
  8
LAYER_6
 10
96.9883
 20
-214.2473
  0
VERTEX
  8
LAYER_6
 10
96.8987
 20
-214.2836
  0
VERTEX
  8
LAYER_6
 10
96.7285
 20
-214.3332
  0
VERTEX
  8
LAYER_6
 10
96.6412
 20
-214.3493
  0
VERTEX
  8
LAYER_6
 10
96.5531
 20
-214.3592
  0
VERTEX
  8
LAYER_6
 10
96.4642
 20
-214.3625
  0
VERTEX
  8
LAYER_6
 10
96.288
 20
-214.3493
  0
VERTEX
  8
LAYER_6
 10
96.2007
 20
-214.3332
  0
VERTEX
  8
LAYER_6
 10
96.0305
 20
-214.2836
  0
VERTEX
  8
LAYER_6
 10
95.9409
 20
-214.2473
  0
VERTEX
  8
LAYER_6
 10
95.8539
 20
-214.2052
  0
VERTEX
  8
LAYER_6
 10
95.7696
 20
-214.1577
  0
VERTEX
  8
LAYER_6
 10
95.6881
 20
-214.1055
  0
VERTEX
  8
LAYER_6
 10
95.6095
 20
-214.0492
  0
VERTEX
  8
LAYER_6
 10
95.5234
 20
-213.9803
  0
VERTEX
  8
LAYER_6
 10
95.441
 20
-213.9071
  0
VERTEX
  8
LAYER_6
 10
95.3622
 20
-213.8301
  0
VERTEX
  8
LAYER_6
 10
95.2867
 20
-213.7497
  0
VERTEX
  8
LAYER_6
 10
95.2146
 20
-213.6664
  0
VERTEX
  8
LAYER_6
 10
95.1358
 20
-213.5678
  0
VERTEX
  8
LAYER_6
 10
95.0609
 20
-213.4662
  0
VERTEX
  8
LAYER_6
 10
94.9897
 20
-213.362
  0
VERTEX
  8
LAYER_6
 10
94.922
 20
-213.2554
  0
VERTEX
  8
LAYER_6
 10
94.8576
 20
-213.1469
  0
VERTEX
  8
LAYER_6
 10
94.7888
 20
-213.0223
  0
VERTEX
  8
LAYER_6
 10
94.7238
 20
-212.8958
  0
VERTEX
  8
LAYER_6
 10
94.6623
 20
-212.7675
  0
VERTEX
  8
LAYER_6
 10
94.6043
 20
-212.6377
  0
VERTEX
  8
LAYER_6
 10
94.5495
 20
-212.5064
  0
VERTEX
  8
LAYER_6
 10
94.4927
 20
-212.3604
  0
VERTEX
  8
LAYER_6
 10
94.4394
 20
-212.2131
  0
VERTEX
  8
LAYER_6
 10
94.3896
 20
-212.0645
  0
VERTEX
  8
LAYER_6
 10
94.343
 20
-211.915
  0
VERTEX
  8
LAYER_6
 10
94.2995
 20
-211.7644
  0
VERTEX
  8
LAYER_6
 10
94.2562
 20
-211.6018
  0
VERTEX
  8
LAYER_6
 10
94.2162
 20
-211.4383
  0
VERTEX
  8
LAYER_6
 10
94.1795
 20
-211.274
  0
VERTEX
  8
LAYER_6
 10
94.1459
 20
-211.1091
  0
VERTEX
  8
LAYER_6
 10
94.1154
 20
-210.9436
  0
VERTEX
  8
LAYER_6
 10
94.0609
 20
-210.5948
  0
VERTEX
  8
LAYER_6
 10
94.019
 20
-210.2444
  0
VERTEX
  8
LAYER_6
 10
93.9782
 20
-209.7082
  0
VERTEX
  8
LAYER_6
 10
93.9647
 20
-209.1741
 42
-0.04633646226
  0
SEQEND
  0
POLYLINE
  8
LAYER_6
 40
0.1058
 41
0.1058
 66
1
 10
0
 20
0
 30
0
  0
VERTEX
  8
LAYER_6
 10
97.1967
 20
-50.9147
 42
0.06783279737
  0
VERTEX
  8
LAYER_6
 10
98.6277
 20
-47.4147
 42
0.02734014477
  0
VERTEX
  8
LAYER_6
 10
98.9287
 20
-45.9147
 42
0.03585224746
  0
VERTEX
  8
LAYER_6
 10
99.0723
 20
-43.9147
 42
0.1316520258
  0
VERTEX
  8
LAYER_6
 10
97.1967
 20
-36.9147
  0
VERTEX
  8
LAYER_6
 10
75.0723
 20
-36.9147
  0
VERTEX
  8
LAYER_6
 10
74.9479
 20
-36.9147
 42
0.1316521172
  0
VERTEX
  8
LAYER_6
 10
73.0723
 20
-43.9147
 42
0.06325443892
  0
VERTEX
  8
LAYER_6
 10
73.5169
 20
-47.4147
 42
0.06783284146
  0
VERTEX
  8
LAYER_6
 10
74.9479
 20
-50.9147
  0
SEQEND
  0
POLYLINE
  8
LAYER_6
 40
0.1058
 41
0.1058
 66
1
 10
0
 20
0
 30
0
  0
VERTEX
  8
LAYER_6
 10
95.5223
 20
-202.1664
  0
VERTEX
  8
LAYER_6
 10
97.1967
 20
-202.1664
 42
-0.06783283408
  0
VERTEX
  8
LAYER_6
 10
98.6277
 20
-205.6664
 42
-0.02734015246
  0
VERTEX
  8
LAYER_6
 10
98.9287
 20
-207.1664
 42
-0.03585225113
  0
VERTEX
  8
LAYER_6
 10
99.0723
 20
-209.1664
 42
-0.1316519771
  0
VERTEX
  8
LAYER_6
 10
97.1967
 20
-216.1664
  0
VERTEX
  8
LAYER_6
 10
75.0723
 20
-216.1664
  0
VERTEX
  8
LAYER_6
 10
74.9479
 20
-216.1664
 42
-0.1316520689
  0
VERTEX
  8
LAYER_6
 10
73.0723
 20
-209.1664
 42
-0.06325445011
  0
VERTEX
  8
LAYER_6
 10
73.5169
 20
-205.6664
 42
-0.06783287818
  0
VERTEX
  8
LAYER_6
 10
74.9479
 20
-202.1664
  0
VERTEX
  8
LAYER_6
 10
76.6223
 20
-202.1664
  0
SEQEND
  0
POLYLINE
  8
LAYER_6
 40
0.05
 41
0.05
 66
1
 10
0
 20
0
 30
0
 70
1
  0
VERTEX
  8
LAYER_6
 10
98.6214
 20
-218.9671
  0
VERTEX
  8
LAYER_6
 10
97.8233
 20
-219.4279
  0
VERTEX
  8
LAYER_6
 10
96.4723
 20
-216.1664
  0
SEQEND
  0
POLYLINE
  8
LAYER_6
 40
0.05
 41
0.05
 66
1
 10
0
 20
0
 30
0
 70
1
  0
VERTEX
  8
LAYER_6
 10
97.8233
 20
-33.6532
  0
VERTEX
  8
LAYER_6
 10
98.6214
 20
-34.114
  0
VERTEX
  8
LAYER_6
 10
96.4723
 20
-36.9147
  0
SEQEND
  0
TEXT
  8
LAYER_6
 10
106.9826
 20
-224.8552
 11
106.9826
 21
-224.8552
 40
4.9033
 41
0.5
 72
1
  1
G1/2
  0
TEXT
  8
LAYER_6
 10
107.647
 20
-32.0866
 11
107.647
 21
-32.0866
 40
4.9033
 41
0.5
 72
1
  1
G1/2
  0
TEXT
  8
LAYER_6
 10
148.9734
 20
0.7503
 11
148.9734
 21
0.7503
 40
4.1553
 41
0.5
 72
1
  1
品番
  0
TEXT
  8
LAYER_6
 10
154.0062
 20
-7.3958
 11
154.0062
 21
-7.3958
 40
4.9033
 41
0.5
 72
1
  1
T156-D-13X300-A
  0
TEXT
  8
LAYER_6
 10
154.0062
 20
-15.3958
 11
154.0062
 21
-15.3958
 40
4.9033
 41
0.5
 72
1
  1
T156-D-13X400-A
  0
TEXT
  8
LAYER_6
 10
181.5919
 20
0.6042
 11
181.5919
 21
0.6042
 40
4.9033
 41
0.5
 72
1
  1
L
  0
TEXT
  8
LAYER_6
 10
184.1872
 20
-7.3958
 11
184.1872
 21
-7.3958
 40
4.9033
 41
0.5
 72
1
  1
300
  0
TEXT
  8
LAYER_6
 10
184.1872
 20
-15.3958
 11
184.1872
 21
-15.3958
 40
4.9033
 41
0.5
 72
1
  1
400
  0
INSERT
  8
LAYER_6
  2
AIGNBL06010003
 10
0
 20
0
 30
0
  0
INSERT
  8
LAYER_6
  2
AIGNBL06010004
 10
0
 20
0
 30
0
  0
INSERT
  8
LAYER_6
  2
AIGNBL06010005
 10
0
 20
0
 30
0
  0
INSERT
  8
LAYER_6
  2
AIGNBL06010006
 10
0
 20
0
 30
0
  0
INSERT
  8
LAYER_6
  2
AIGNBL06010007
 10
0
 20
0
 30
0
  0
INSERT
  8
LAYER_6
  2
AIGNBL06010008
 10
0
 20
0
 30
0
  0
INSERT
  8
LAYER_6
  2
AIGNBL06010009
 10
0
 20
0
 30
0
  0
POLYLINE
  8
LAYER_6
 40
0.1058
 41
0.1058
 66
1
 10
0
 20
0
 30
0
  0
VERTEX
  8
LAYER_6
 10
86.0723
 20
-122.9164
  0
VERTEX
  8
LAYER_6
 10
95.8921
 20
-122.9164
  0
SEQEND
  0
POLYLINE
  8
LAYER_6
 40
0.1058
 41
0.1058
 66
1
 10
0
 20
0
 30
0
  0
VERTEX
  8
LAYER_6
 10
76.7332
 20
-112.7914
  0
VERTEX
  8
LAYER_6
 10
76.7332
 20
-113.5414
  0
SEQEND
  0
POLYLINE
  8
LAYER_6
 40
0.1058
 41
0.1058
 66
1
 10
0
 20
0
 30
0
  0
VERTEX
  8
LAYER_6
 10
76.7332
 20
-103.7914
  0
VERTEX
  8
LAYER_6
 10
76.7332
 20
-104.5414
  0
SEQEND
  0
POLYLINE
  8
LAYER_6
 40
0.1058
 41
0.1058
 66
1
 10
0
 20
0
 30
0
  0
VERTEX
  8
LAYER_6
 10
95.4114
 20
-122.5414
  0
VERTEX
  8
LAYER_6
 10
95.4114
 20
-121.7914
  0
SEQEND
  0
POLYLINE
  8
LAYER_6
 40
0.1058
 41
0.1058
 66
1
 10
0
 20
0
 30
0
  0
VERTEX
  8
LAYER_6
 10
95.4114
 20
-82.0414
  0
VERTEX
  8
LAYER_6
 10
95.4114
 20
-81.2914
  0
SEQEND
  0
POLYLINE
  8
LAYER_6
 40
0.1058
 41
0.1058
 66
1
 10
0
 20
0
 30
0
  0
VERTEX
  8
LAYER_6
 10
97.1967
 20
-50.9147
  0
VERTEX
  8
LAYER_6
 10
86.0723
 20
-50.9147
  0
SEQEND
  0
POLYLINE
  8
LAYER_6
 40
0.1058
 41
0.1058
 66
1
 10
0
 20
0
 30
0
  0
VERTEX
  8
LAYER_6
 10
86.0723
 20
-216.1664
  0
VERTEX
  8
LAYER_6
 10
95.5723
 20
-216.1664
  0
SEQEND
  0
POLYLINE
  8
LAYER_6
  6
AIGENLINE001
 40
0.1058
 41
0.1058
 66
1
 10
0
 20
0
 30
0
 70
128
  0
VERTEX
  8
LAYER_6
 10
86.0723
 20
-14.7929
  0
VERTEX
  8
LAYER_6
 10
86.0723
 20
13.2071
  0
SEQEND
  0
POLYLINE
  8
LAYER_6
  6
AIGENLINE001
 40
0.1058
 41
0.1058
 66
1
 10
0
 20
0
 30
0
 70
128
  0
VERTEX
  8
LAYER_6
 10
103.3723
 20
-0.7929
  0
VERTEX
  8
LAYER_6
 10
99.5723
 20
-0.7929
  0
VERTEX
  8
LAYER_6
 10
72.5723
 20
-0.7929
  0
VERTEX
  8
LAYER_6
 10
69.8638
 20
-0.7929
  0
SEQEND
  0
POLYLINE
  8
LAYER_6
 40
0.1058
 41
0.1058
 66
1
 10
0
 20
0
 30
0
  0
VERTEX
  8
LAYER_6
 10
86.0723
 20
-36.9147
  0
VERTEX
  8
LAYER_6
 10
95.5723
 20
-36.9147
  0
SEQEND
  0
POLYLINE
  8
LAYER_6
  6
AIGENLINE001
 40
0.1058
 41
0.1058
 66
1
 10
0
 20
0
 30
0
 70
128
  0
VERTEX
  8
LAYER_6
 10
86.0723
 20
-219.1664
  0
VERTEX
  8
LAYER_6
 10
86.0723
 20
-50.9147
  0
VERTEX
  8
LAYER_6
 10
86.0723
 20
-33.9147
  0
SEQEND
  0
POLYLINE
  8
LAYER_6
 40
0.1058
 41
0.1058
 66
1
 10
0
 20
0
 30
0
  0
VERTEX
  8
LAYER_6
 10
77.0882
 20
-125.6664
  0
VERTEX
  8
LAYER_6
 10
80.5815
 20
-125.6664
  0
SEQEND
  0
POLYLINE
  8
LAYER_6
 40
0.1058
 41
0.1058
 66
1
 10
0
 20
0
 30
0
 70
1
  0
VERTEX
  8
LAYER_6
 10
99.5569
 20
-1.4368
  0
VERTEX
  8
LAYER_6
 10
99.5723
 20
-0.7929
  0
VERTEX
  8
LAYER_6
 10
99.5569
 20
-0.149
  0
VERTEX
  8
LAYER_6
 10
93.3723
 20
10.5632
 42
0.02402276967
  0
VERTEX
  8
LAYER_6
 10
92.257
 20
11.2071
  0
VERTEX
  8
LAYER_6
 10
79.8876
 20
11.2071
 42
0.02407181611
  0
VERTEX
  8
LAYER_6
 10
78.7723
 20
10.5632
  0
VERTEX
  8
LAYER_6
 10
72.5877
 20
-0.149
  0
VERTEX
  8
LAYER_6
 10
72.5723
 20
-0.7929
  0
VERTEX
  8
LAYER_6
 10
72.5877
 20
-1.4368
  0
VERTEX
  8
LAYER_6
 10
78.7723
 20
-12.149
 42
0.02402276967
  0
VERTEX
  8
LAYER_6
 10
79.8876
 20
-12.7929
  0
VERTEX
  8
LAYER_6
 10
92.257
 20
-12.7929
 42
0.02407181611
  0
VERTEX
  8
LAYER_6
 10
93.3723
 20
-12.149
  0
SEQEND
  0
CIRCLE
  8
LAYER_6
 10
86.0723
 20
-0.7929
 40
8.1
  0
CIRCLE
  8
LAYER_6
 10
86.0723
 20
-0.7929
 40
12
  0
POLYLINE
  8
LAYER_6
 40
0.1058
 41
0.1058
 66
1
 10
0
 20
0
 30
0
  0
VERTEX
  8
LAYER_6
 10
76.3908
 20
-127.1664
 42
0.4141445623
  0
VERTEX
  8
LAYER_6
 10
75.1197
 20
-128.4371
 42
0.4141335502
  0
VERTEX
  8
LAYER_6
 10
76.3901
 20
-129.7085
 42
0.414121257
  0
VERTEX
  8
LAYER_6
 10
77.6618
 20
-128.4385
 42
0.4141322756
  0
VERTEX
  8
LAYER_6
 10
76.3922
 20
-127.1664
 42
0.4125252922
  0
VERTEX
  8
LAYER_6
 10
76.7332
 20
-126.7914
  0
VERTEX
  8
LAYER_6
 10
76.7332
 20
-126.0414
  0
VERTEX
  8
LAYER_6
 10
76.6583
 20
-125.8071
  0
SEQEND
  0
POLYLINE
  8
LAYER_6
 40
0.1058
 41
0.1058
 66
1
 10
0
 20
0
 30
0
  0
VERTEX
  8
LAYER_6
 10
76.3908
 20
-131.6664
 42
0.4141445624
  0
VERTEX
  8
LAYER_6
 10
75.1197
 20
-132.9371
 42
0.4141335502
  0
VERTEX
  8
LAYER_6
 10
76.3901
 20
-134.2085
 42
0.414121257
  0
VERTEX
  8
LAYER_6
 10
77.6618
 20
-132.9385
 42
0.4141322756
  0
VERTEX
  8
LAYER_6
 10
76.3922
 20
-131.6664
 42
0.4125252922
  0
VERTEX
  8
LAYER_6
 10
76.7332
 20
-131.2914
  0
VERTEX
  8
LAYER_6
 10
76.7332
 20
-130.5414
  0
SEQEND
  0
POLYLINE
  8
LAYER_6
 40
0.1058
 41
0.1058
 66
1
 10
0
 20
0
 30
0
  0
VERTEX
  8
LAYER_6
 10
95.7538
 20
-131.6664
  0
VERTEX
  8
LAYER_6
 10
95.7524
 20
-131.6664
 42
-0.4125336416
  0
VERTEX
  8
LAYER_6
 10
95.4114
 20
-131.2914
  0
VERTEX
  8
LAYER_6
 10
95.4114
 20
-130.5414
  0
SEQEND
  0
POLYLINE
  8
LAYER_6
 40
0.1058
 41
0.1058
 66
1
 10
0
 20
0
 30
0
  0
VERTEX
  8
LAYER_6
 10
84.723
 20
-127.1664
  0
VERTEX
  8
LAYER_6
 10
74.5647
 20
-127.1664
  0
VERTEX
  8
LAYER_6
 10
74.5633
 20
-127.1664
 42
0.4126058422
  0
VERTEX
  8
LAYER_6
 10
74.2223
 20
-127.5414
  0
VERTEX
  8
LAYER_6
 10
74.2223
 20
-129.7914
  0
VERTEX
  8
LAYER_6
 10
74.2223
 20
-129.7929
 42
0.4127456274
  0
VERTEX
  8
LAYER_6
 10
74.5647
 20
-130.1664
  0
VERTEX
  8
LAYER_6
 10
86.0723
 20
-130.1664
  0
VERTEX
  8
LAYER_6
 10
97.5799
 20
-130.1664
 42
0.4127372994
  0
VERTEX
  8
LAYER_6
 10
97.9223
 20
-129.7929
  0
VERTEX
  8
LAYER_6
 10
97.9223
 20
-129.7914
  0
VERTEX
  8
LAYER_6
 10
97.9223
 20
-127.5414
 42
0.4110829529
  0
VERTEX
  8
LAYER_6
 10
97.5828
 20
-127.1664
 42
-0.4139641854
  0
VERTEX
  8
LAYER_6
 10
98.454
 20
-128.0426
 42
-0.4139628678
  0
VERTEX
  8
LAYER_6
 10
97.5785
 20
-128.9145
 42
-0.4139937879
  0
VERTEX
  8
LAYER_6
 10
96.7058
 20
-128.0397
 42
-0.4139617064
  0
VERTEX
  8
LAYER_6
 10
97.5799
 20
-127.1664
  0
VERTEX
  8
LAYER_6
 10
96.4832
 20
-127.1664
  0
SEQEND
  0
POLYLINE
  8
LAYER_6
 40
0.1058
 41
0.1058
 66
1
 10
0
 20
0
 30
0
 70
1
  0
VERTEX
  8
LAYER_6
 10
95.7538
 20
-130.1664
 42
0.4126850687
  0
VERTEX
  8
LAYER_6
 10
95.4114
 20
-130.5398
  0
VERTEX
  8
LAYER_6
 10
95.4114
 20
-130.5414
  0
VERTEX
  8
LAYER_6
 10
95.4114
 20
-130.5398
 42
-0.4126850687
  0
SEQEND
  0
POLYLINE
  8
LAYER_6
 40
0.1058
 41
0.1058
 66
1
 10
0
 20
0
 30
0
 70
1
  0
VERTEX
  8
LAYER_6
 10
76.3908
 20
-130.1664
 42
-0.4126767407
  0
VERTEX
  8
LAYER_6
 10
76.7332
 20
-130.5398
  0
VERTEX
  8
LAYER_6
 10
76.7332
 20
-130.5414
  0
VERTEX
  8
LAYER_6
 10
76.7332
 20
-130.5398
 42
0.4126767407
  0
SEQEND
  0
POLYLINE
  8
LAYER_6
 40
0.1058
 41
0.1058
 66
1
 10
0
 20
0
 30
0
  0
VERTEX
  8
LAYER_6
 10
95.7538
 20
-136.1664
  0
VERTEX
  8
LAYER_6
 10
95.7524
 20
-136.1664
 42
-0.4125336416
  0
VERTEX
  8
LAYER_6
 10
95.4114
 20
-135.7914
  0
VERTEX
  8
LAYER_6
 10
95.4114
 20
-135.0414
  0
SEQEND
  0
POLYLINE
  8
LAYER_6
 40
0.1058
 41
0.1058
 66
1
 10
0
 20
0
 30
0
  0
VERTEX
  8
LAYER_6
 10
76.3908
 20
-136.1664
 42
0.4141443277
  0
VERTEX
  8
LAYER_6
 10
75.1197
 20
-137.4371
 42
0.4141337847
  0
VERTEX
  8
LAYER_6
 10
76.3901
 20
-138.7085
 42
0.4141214918
  0
VERTEX
  8
LAYER_6
 10
77.6618
 20
-137.4385
 42
0.4141320411
  0
VERTEX
  8
LAYER_6
 10
76.3922
 20
-136.1664
 42
0.4125252922
  0
VERTEX
  8
LAYER_6
 10
76.7332
 20
-135.7914
  0
VERTEX
  8
LAYER_6
 10
76.7332
 20
-135.0414
  0
SEQEND
  0
POLYLINE
  8
LAYER_6
 40
0.1058
 41
0.1058
 66
1
 10
0
 20
0
 30
0
 70
1
  0
VERTEX
  8
LAYER_6
 10
76.3908
 20
-134.6664
 42
-0.4126767407
  0
VERTEX
  8
LAYER_6
 10
76.7332
 20
-135.0398
  0
VERTEX
  8
LAYER_6
 10
76.7332
 20
-135.0414
  0
VERTEX
  8
LAYER_6
 10
76.7332
 20
-135.0398
 42
0.4126767407
  0
SEQEND
  0
POLYLINE
  8
LAYER_6
 40
0.1058
 41
0.1058
 66
1
 10
0
 20
0
 30
0
 70
1
  0
VERTEX
  8
LAYER_6
 10
97.5799
 20
-131.6664
 42
0.4139617064
  0
VERTEX
  8
LAYER_6
 10
96.7058
 20
-132.5397
 42
0.4139937879
  0
VERTEX
  8
LAYER_6
 10
97.5785
 20
-133.4145
 42
0.4139628678
  0
VERTEX
  8
LAYER_6
 10
98.454
 20
-132.5426
 42
0.4139641854
  0
VERTEX
  8
LAYER_6
 10
97.5828
 20
-131.6664
 42
-0.4110829529
  0
VERTEX
  8
LAYER_6
 10
97.9223
 20
-132.0414
  0
VERTEX
  8
LAYER_6
 10
97.9223
 20
-134.2914
  0
VERTEX
  8
LAYER_6
 10
97.9223
 20
-134.2929
 42
-0.4127372994
  0
VERTEX
  8
LAYER_6
 10
97.5799
 20
-134.6664
  0
VERTEX
  8
LAYER_6
 10
86.0723
 20
-134.6664
  0
VERTEX
  8
LAYER_6
 10
74.5647
 20
-134.6664
 42
-0.4127456277
  0
VERTEX
  8
LAYER_6
 10
74.2223
 20
-134.2929
  0
VERTEX
  8
LAYER_6
 10
74.2223
 20
-134.2914
  0
VERTEX
  8
LAYER_6
 10
74.2223
 20
-132.0414
 42
-0.4126058422
  0
VERTEX
  8
LAYER_6
 10
74.5633
 20
-131.6664
  0
VERTEX
  8
LAYER_6
 10
74.5647
 20
-131.6664
  0
VERTEX
  8
LAYER_6
 10
86.0723
 20
-131.6664
  0
SEQEND
  0
POLYLINE
  8
LAYER_6
 40
0.1058
 41
0.1058
 66
1
 10
0
 20
0
 30
0
 70
1
  0
VERTEX
  8
LAYER_6
 10
95.7538
 20
-134.6664
 42
0.4126850687
  0
VERTEX
  8
LAYER_6
 10
95.4114
 20
-135.0398
  0
VERTEX
  8
LAYER_6
 10
95.4114
 20
-135.0414
  0
VERTEX
  8
LAYER_6
 10
95.4114
 20
-135.0398
 42
-0.4126850687
  0
SEQEND
  0
POLYLINE
  8
LAYER_6
 40
0.1058
 41
0.1058
 66
1
 10
0
 20
0
 30
0
  0
VERTEX
  8
LAYER_6
 10
95.7538
 20
-140.6664
  0
VERTEX
  8
LAYER_6
 10
95.7524
 20
-140.6664
 42
-0.4125336416
  0
VERTEX
  8
LAYER_6
 10
95.4114
 20
-140.2914
  0
VERTEX
  8
LAYER_6
 10
95.4114
 20
-139.5414
  0
SEQEND
  0
POLYLINE
  8
LAYER_6
 40
0.1058
 41
0.1058
 66
1
 10
0
 20
0
 30
0
 70
1
  0
VERTEX
  8
LAYER_6
 10
97.5799
 20
-136.1664
 42
0.413961666
  0
VERTEX
  8
LAYER_6
 10
96.7058
 20
-137.0397
 42
0.4139938282
  0
VERTEX
  8
LAYER_6
 10
97.5785
 20
-137.9145
 42
0.4139629083
  0
VERTEX
  8
LAYER_6
 10
98.454
 20
-137.0426
 42
0.4139641451
  0
VERTEX
  8
LAYER_6
 10
97.5828
 20
-136.1664
 42
-0.4110829529
  0
VERTEX
  8
LAYER_6
 10
97.9223
 20
-136.5414
  0
VERTEX
  8
LAYER_6
 10
97.9223
 20
-138.7914
  0
VERTEX
  8
LAYER_6
 10
97.9223
 20
-138.7929
 42
-0.4127372994
  0
VERTEX
  8
LAYER_6
 10
97.5799
 20
-139.1664
  0
VERTEX
  8
LAYER_6
 10
86.0723
 20
-139.1664
  0
VERTEX
  8
LAYER_6
 10
74.5647
 20
-139.1664
 42
-0.4127456274
  0
VERTEX
  8
LAYER_6
 10
74.2223
 20
-138.7929
  0
VERTEX
  8
LAYER_6
 10
74.2223
 20
-138.7914
  0
VERTEX
  8
LAYER_6
 10
74.2223
 20
-136.5414
 42
-0.4126058422
  0
VERTEX
  8
LAYER_6
 10
74.5633
 20
-136.1664
  0
VERTEX
  8
LAYER_6
 10
74.5647
 20
-136.1664
  0
VERTEX
  8
LAYER_6
 10
86.0723
 20
-136.1664
  0
SEQEND
  0
POLYLINE
  8
LAYER_6
 40
0.1058
 41
0.1058
 66
1
 10
0
 20
0
 30
0
  0
VERTEX
  8
LAYER_6
 10
76.3908
 20
-139.1664
 42
-0.4126767407
  0
VERTEX
  8
LAYER_6
 10
76.7332
 20
-139.5398
  0
VERTEX
  8
LAYER_6
 10
76.7332
 20
-139.5414
  0
VERTEX
  8
LAYER_6
 10
76.7332
 20
-140.2914
 42
-0.4125252922
  0
VERTEX
  8
LAYER_6
 10
76.3922
 20
-140.6664
 42
-0.4141320411
  0
VERTEX
  8
LAYER_6
 10
77.6618
 20
-141.9385
 42
-0.4141214918
  0
VERTEX
  8
LAYER_6
 10
76.3901
 20
-143.2085
 42
-0.4141337847
  0
VERTEX
  8
LAYER_6
 10
75.1197
 20
-141.9371
 42
-0.4141443277
  0
VERTEX
  8
LAYER_6
 10
76.3908
 20
-140.6664
  0
SEQEND
  0
POLYLINE
  8
LAYER_6
 40
0.1058
 41
0.1058
 66
1
 10
0
 20
0
 30
0
 70
1
  0
VERTEX
  8
LAYER_6
 10
95.7538
 20
-139.1664
 42
0.4126850687
  0
VERTEX
  8
LAYER_6
 10
95.4114
 20
-139.5398
  0
VERTEX
  8
LAYER_6
 10
95.4114
 20
-139.5414
  0
VERTEX
  8
LAYER_6
 10
95.4114
 20
-139.5398
 42
-0.4126850687
  0
SEQEND
  0
POLYLINE
  8
LAYER_6
 40
0.1058
 41
0.1058
 66
1
 10
0
 20
0
 30
0
  0
VERTEX
  8
LAYER_6
 10
95.7538
 20
-145.1664
  0
VERTEX
  8
LAYER_6
 10
95.7524
 20
-145.1664
 42
-0.4125336416
  0
VERTEX
  8
LAYER_6
 10
95.4114
 20
-144.7914
  0
VERTEX
  8
LAYER_6
 10
95.4114
 20
-144.0414
  0
SEQEND
  0
POLYLINE
  8
LAYER_6
 40
0.1058
 41
0.1058
 66
1
 10
0
 20
0
 30
0
  0
VERTEX
  8
LAYER_6
 10
76.3908
 20
-143.6664
 42
-0.4126767407
  0
VERTEX
  8
LAYER_6
 10
76.7332
 20
-144.0398
  0
VERTEX
  8
LAYER_6
 10
76.7332
 20
-144.0414
  0
VERTEX
  8
LAYER_6
 10
76.7332
 20
-144.7914
 42
-0.4125252922
  0
VERTEX
  8
LAYER_6
 10
76.3922
 20
-145.1664
 42
-0.4141320411
  0
VERTEX
  8
LAYER_6
 10
77.6618
 20
-146.4385
 42
-0.4141214918
  0
VERTEX
  8
LAYER_6
 10
76.3901
 20
-147.7085
 42
-0.4141337847
  0
VERTEX
  8
LAYER_6
 10
75.1197
 20
-146.4371
 42
-0.4141443277
  0
VERTEX
  8
LAYER_6
 10
76.3908
 20
-145.1664
  0
SEQEND
  0
POLYLINE
  8
LAYER_6
 40
0.1058
 41
0.1058
 66
1
 10
0
 20
0
 30
0
 70
1
  0
VERTEX
  8
LAYER_6
 10
97.5799
 20
-140.6664
 42
0.4139616661
  0
VERTEX
  8
LAYER_6
 10
96.7058
 20
-141.5397
 42
0.4139938282
  0
VERTEX
  8
LAYER_6
 10
97.5785
 20
-142.4145
 42
0.4139629083
  0
VERTEX
  8
LAYER_6
 10
98.454
 20
-141.5426
 42
0.4139641451
  0
VERTEX
  8
LAYER_6
 10
97.5828
 20
-140.6664
 42
-0.4110829529
  0
VERTEX
  8
LAYER_6
 10
97.9223
 20
-141.0414
  0
VERTEX
  8
LAYER_6
 10
97.9223
 20
-143.2914
  0
VERTEX
  8
LAYER_6
 10
97.9223
 20
-143.2929
 42
-0.4127372994
  0
VERTEX
  8
LAYER_6
 10
97.5799
 20
-143.6664
  0
VERTEX
  8
LAYER_6
 10
86.0723
 20
-143.6664
  0
VERTEX
  8
LAYER_6
 10
74.5647
 20
-143.6664
 42
-0.4127456277
  0
VERTEX
  8
LAYER_6
 10
74.2223
 20
-143.2929
  0
VERTEX
  8
LAYER_6
 10
74.2223
 20
-143.2914
  0
VERTEX
  8
LAYER_6
 10
74.2223
 20
-141.0414
 42
-0.4126058422
  0
VERTEX
  8
LAYER_6
 10
74.5633
 20
-140.6664
  0
VERTEX
  8
LAYER_6
 10
74.5647
 20
-140.6664
  0
VERTEX
  8
LAYER_6
 10
86.0723
 20
-140.6664
  0
SEQEND
  0
POLYLINE
  8
LAYER_6
 40
0.1058
 41
0.1058
 66
1
 10
0
 20
0
 30
0
 70
1
  0
VERTEX
  8
LAYER_6
 10
95.7538
 20
-143.6664
 42
0.4126850687
  0
VERTEX
  8
LAYER_6
 10
95.4114
 20
-144.0398
  0
VERTEX
  8
LAYER_6
 10
95.4114
 20
-144.0414
  0
VERTEX
  8
LAYER_6
 10
95.4114
 20
-144.0398
 42
-0.4126850687
  0
SEQEND
  0
POLYLINE
  8
LAYER_6
 40
0.1058
 41
0.1058
 66
1
 10
0
 20
0
 30
0
  0
VERTEX
  8
LAYER_6
 10
95.7538
 20
-149.6664
  0
VERTEX
  8
LAYER_6
 10
95.7524
 20
-149.6664
 42
-0.4125336416
  0
VERTEX
  8
LAYER_6
 10
95.4114
 20
-149.2914
  0
VERTEX
  8
LAYER_6
 10
95.4114
 20
-148.5414
  0
SEQEND
  0
POLYLINE
  8
LAYER_6
 40
0.1058
 41
0.1058
 66
1
 10
0
 20
0
 30
0
 70
1
  0
VERTEX
  8
LAYER_6
 10
97.5799
 20
-145.1664
 42
0.4139616661
  0
VERTEX
  8
LAYER_6
 10
96.7058
 20
-146.0397
 42
0.4139938282
  0
VERTEX
  8
LAYER_6
 10
97.5785
 20
-146.9145
 42
0.4139629083
  0
VERTEX
  8
LAYER_6
 10
98.454
 20
-146.0426
 42
0.4139641451
  0
VERTEX
  8
LAYER_6
 10
97.5828
 20
-145.1664
 42
-0.4110829529
  0
VERTEX
  8
LAYER_6
 10
97.9223
 20
-145.5414
  0
VERTEX
  8
LAYER_6
 10
97.9223
 20
-147.7914
  0
VERTEX
  8
LAYER_6
 10
97.9223
 20
-147.7929
 42
-0.4127372994
  0
VERTEX
  8
LAYER_6
 10
97.5799
 20
-148.1664
  0
VERTEX
  8
LAYER_6
 10
86.0723
 20
-148.1664
  0
VERTEX
  8
LAYER_6
 10
74.5647
 20
-148.1664
 42
-0.4127456274
  0
VERTEX
  8
LAYER_6
 10
74.2223
 20
-147.7929
  0
VERTEX
  8
LAYER_6
 10
74.2223
 20
-147.7914
  0
VERTEX
  8
LAYER_6
 10
74.2223
 20
-145.5414
 42
-0.4126058422
  0
VERTEX
  8
LAYER_6
 10
74.5633
 20
-145.1664
  0
VERTEX
  8
LAYER_6
 10
74.5647
 20
-145.1664
  0
VERTEX
  8
LAYER_6
 10
86.0723
 20
-145.1664
  0
SEQEND
  0
POLYLINE
  8
LAYER_6
 40
0.1058
 41
0.1058
 66
1
 10
0
 20
0
 30
0
  0
VERTEX
  8
LAYER_6
 10
76.3908
 20
-148.1664
 42
-0.4126767407
  0
VERTEX
  8
LAYER_6
 10
76.7332
 20
-148.5398
  0
VERTEX
  8
LAYER_6
 10
76.7332
 20
-148.5414
  0
VERTEX
  8
LAYER_6
 10
76.7332
 20
-149.2914
 42
-0.4125252922
  0
VERTEX
  8
LAYER_6
 10
76.3922
 20
-149.6664
 42
-0.4141320411
  0
VERTEX
  8
LAYER_6
 10
77.6618
 20
-150.9385
 42
-0.4141214918
  0
VERTEX
  8
LAYER_6
 10
76.3901
 20
-152.2085
 42
-0.4141337847
  0
VERTEX
  8
LAYER_6
 10
75.1197
 20
-150.9371
 42
-0.4141443277
  0
VERTEX
  8
LAYER_6
 10
76.3908
 20
-149.6664
  0
SEQEND
  0
POLYLINE
  8
LAYER_6
 40
0.1058
 41
0.1058
 66
1
 10
0
 20
0
 30
0
 70
1
  0
VERTEX
  8
LAYER_6
 10
95.7538
 20
-148.1664
 42
0.4126850687
  0
VERTEX
  8
LAYER_6
 10
95.4114
 20
-148.5398
  0
VERTEX
  8
LAYER_6
 10
95.4114
 20
-148.5414
  0
VERTEX
  8
LAYER_6
 10
95.4114
 20
-148.5398
 42
-0.4126850687
  0
SEQEND
  0
POLYLINE
  8
LAYER_6
 40
0.1058
 41
0.1058
 66
1
 10
0
 20
0
 30
0
  0
VERTEX
  8
LAYER_6
 10
95.7538
 20
-154.1664
  0
VERTEX
  8
LAYER_6
 10
95.7524
 20
-154.1664
 42
-0.4125336416
  0
VERTEX
  8
LAYER_6
 10
95.4114
 20
-153.7914
  0
VERTEX
  8
LAYER_6
 10
95.4114
 20
-153.0414
  0
SEQEND
  0
POLYLINE
  8
LAYER_6
 40
0.1058
 41
0.1058
 66
1
 10
0
 20
0
 30
0
  0
VERTEX
  8
LAYER_6
 10
76.3908
 20
-152.6664
 42
-0.4126767407
  0
VERTEX
  8
LAYER_6
 10
76.7332
 20
-153.0398
  0
VERTEX
  8
LAYER_6
 10
76.7332
 20
-153.0414
  0
VERTEX
  8
LAYER_6
 10
76.7332
 20
-153.7914
 42
-0.4125252922
  0
VERTEX
  8
LAYER_6
 10
76.3922
 20
-154.1664
 42
-0.4141320411
  0
VERTEX
  8
LAYER_6
 10
77.6618
 20
-155.4385
 42
-0.4141214918
  0
VERTEX
  8
LAYER_6
 10
76.3901
 20
-156.7085
 42
-0.4141337847
  0
VERTEX
  8
LAYER_6
 10
75.1197
 20
-155.4371
 42
-0.4141443277
  0
VERTEX
  8
LAYER_6
 10
76.3908
 20
-154.1664
  0
SEQEND
  0
POLYLINE
  8
LAYER_6
 40
0.1058
 41
0.1058
 66
1
 10
0
 20
0
 30
0
 70
1
  0
VERTEX
  8
LAYER_6
 10
97.5799
 20
-149.6664
 42
0.413961666
  0
VERTEX
  8
LAYER_6
 10
96.7058
 20
-150.5397
 42
0.4139938282
  0
VERTEX
  8
LAYER_6
 10
97.5785
 20
-151.4145
 42
0.4139629083
  0
VERTEX
  8
LAYER_6
 10
98.454
 20
-150.5426
 42
0.4139641451
  0
VERTEX
  8
LAYER_6
 10
97.5828
 20
-149.6664
 42
-0.4110829529
  0
VERTEX
  8
LAYER_6
 10
97.9223
 20
-150.0414
  0
VERTEX
  8
LAYER_6
 10
97.9223
 20
-152.2914
  0
VERTEX
  8
LAYER_6
 10
97.9223
 20
-152.2929
 42
-0.4127372994
  0
VERTEX
  8
LAYER_6
 10
97.5799
 20
-152.6664
  0
VERTEX
  8
LAYER_6
 10
86.0723
 20
-152.6664
  0
VERTEX
  8
LAYER_6
 10
74.5647
 20
-152.6664
 42
-0.4127456277
  0
VERTEX
  8
LAYER_6
 10
74.2223
 20
-152.2929
  0
VERTEX
  8
LAYER_6
 10
74.2223
 20
-152.2914
  0
VERTEX
  8
LAYER_6
 10
74.2223
 20
-150.0414
 42
-0.4126058422
  0
VERTEX
  8
LAYER_6
 10
74.5633
 20
-149.6664
  0
VERTEX
  8
LAYER_6
 10
74.5647
 20
-149.6664
  0
VERTEX
  8
LAYER_6
 10
86.0723
 20
-149.6664
  0
SEQEND
  0
POLYLINE
  8
LAYER_6
 40
0.1058
 41
0.1058
 66
1
 10
0
 20
0
 30
0
 70
1
  0
VERTEX
  8
LAYER_6
 10
95.7538
 20
-152.6664
 42
0.4126850687
  0
VERTEX
  8
LAYER_6
 10
95.4114
 20
-153.0398
  0
VERTEX
  8
LAYER_6
 10
95.4114
 20
-153.0414
  0
VERTEX
  8
LAYER_6
 10
95.4114
 20
-153.0398
 42
-0.4126850687
  0
SEQEND
  0
POLYLINE
  8
LAYER_6
 40
0.1058
 41
0.1058
 66
1
 10
0
 20
0
 30
0
  0
VERTEX
  8
LAYER_6
 10
95.7538
 20
-158.6664
  0
VERTEX
  8
LAYER_6
 10
95.7524
 20
-158.6664
 42
-0.4125336416
  0
VERTEX
  8
LAYER_6
 10
95.4114
 20
-158.2914
  0
VERTEX
  8
LAYER_6
 10
95.4114
 20
-157.5414
  0
SEQEND
  0
POLYLINE
  8
LAYER_6
 40
0.1058
 41
0.1058
 66
1
 10
0
 20
0
 30
0
 70
1
  0
VERTEX
  8
LAYER_6
 10
97.5799
 20
-154.1664
 42
0.413961666
  0
VERTEX
  8
LAYER_6
 10
96.7058
 20
-155.0397
 42
0.4139938282
  0
VERTEX
  8
LAYER_6
 10
97.5785
 20
-155.9145
 42
0.4139629083
  0
VERTEX
  8
LAYER_6
 10
98.454
 20
-155.0426
 42
0.4139641451
  0
VERTEX
  8
LAYER_6
 10
97.5828
 20
-154.1664
 42
-0.4110829529
  0
VERTEX
  8
LAYER_6
 10
97.9223
 20
-154.5414
  0
VERTEX
  8
LAYER_6
 10
97.9223
 20
-156.7914
  0
VERTEX
  8
LAYER_6
 10
97.9223
 20
-156.7929
 42
-0.4127372994
  0
VERTEX
  8
LAYER_6
 10
97.5799
 20
-157.1664
  0
VERTEX
  8
LAYER_6
 10
86.0723
 20
-157.1664
  0
VERTEX
  8
LAYER_6
 10
74.5647
 20
-157.1664
 42
-0.4127456274
  0
VERTEX
  8
LAYER_6
 10
74.2223
 20
-156.7929
  0
VERTEX
  8
LAYER_6
 10
74.2223
 20
-156.7914
  0
VERTEX
  8
LAYER_6
 10
74.2223
 20
-154.5414
 42
-0.4126058422
  0
VERTEX
  8
LAYER_6
 10
74.5633
 20
-154.1664
  0
VERTEX
  8
LAYER_6
 10
74.5647
 20
-154.1664
  0
VERTEX
  8
LAYER_6
 10
86.0723
 20
-154.1664
  0
SEQEND
  0
POLYLINE
  8
LAYER_6
 40
0.1058
 41
0.1058
 66
1
 10
0
 20
0
 30
0
  0
VERTEX
  8
LAYER_6
 10
76.3908
 20
-157.1664
 42
-0.4126767407
  0
VERTEX
  8
LAYER_6
 10
76.7332
 20
-157.5398
  0
VERTEX
  8
LAYER_6
 10
76.7332
 20
-157.5414
  0
VERTEX
  8
LAYER_6
 10
76.7332
 20
-158.2914
 42
-0.4125252922
  0
VERTEX
  8
LAYER_6
 10
76.3922
 20
-158.6664
 42
-0.4141320411
  0
VERTEX
  8
LAYER_6
 10
77.6618
 20
-159.9385
 42
-0.4141214918
  0
VERTEX
  8
LAYER_6
 10
76.3901
 20
-161.2085
 42
-0.4141337847
  0
VERTEX
  8
LAYER_6
 10
75.1197
 20
-159.9371
 42
-0.4141443277
  0
VERTEX
  8
LAYER_6
 10
76.3908
 20
-158.6664
  0
SEQEND
  0
POLYLINE
  8
LAYER_6
 40
0.1058
 41
0.1058
 66
1
 10
0
 20
0
 30
0
 70
1
  0
VERTEX
  8
LAYER_6
 10
95.7538
 20
-157.1664
 42
0.4126850687
  0
VERTEX
  8
LAYER_6
 10
95.4114
 20
-157.5398
  0
VERTEX
  8
LAYER_6
 10
95.4114
 20
-157.5414
  0
VERTEX
  8
LAYER_6
 10
95.4114
 20
-157.5398
 42
-0.4126850687
  0
SEQEND
  0
POLYLINE
  8
LAYER_6
 40
0.1058
 41
0.1058
 66
1
 10
0
 20
0
 30
0
  0
VERTEX
  8
LAYER_6
 10
95.7538
 20
-163.1664
  0
VERTEX
  8
LAYER_6
 10
95.7524
 20
-163.1664
 42
-0.4125336416
  0
VERTEX
  8
LAYER_6
 10
95.4114
 20
-162.7914
  0
VERTEX
  8
LAYER_6
 10
95.4114
 20
-162.0414
  0
SEQEND
  0
POLYLINE
  8
LAYER_6
 40
0.1058
 41
0.1058
 66
1
 10
0
 20
0
 30
0
  0
VERTEX
  8
LAYER_6
 10
76.3908
 20
-161.6664
 42
-0.4126767407
  0
VERTEX
  8
LAYER_6
 10
76.7332
 20
-162.0398
  0
VERTEX
  8
LAYER_6
 10
76.7332
 20
-162.0414
  0
VERTEX
  8
LAYER_6
 10
76.7332
 20
-162.7914
 42
-0.4125252922
  0
VERTEX
  8
LAYER_6
 10
76.3922
 20
-163.1664
 42
-0.4141320411
  0
VERTEX
  8
LAYER_6
 10
77.6618
 20
-164.4385
 42
-0.4141214918
  0
VERTEX
  8
LAYER_6
 10
76.3901
 20
-165.7085
 42
-0.4141337847
  0
VERTEX
  8
LAYER_6
 10
75.1197
 20
-164.4371
 42
-0.4141443277
  0
VERTEX
  8
LAYER_6
 10
76.3908
 20
-163.1664
  0
SEQEND
  0
POLYLINE
  8
LAYER_6
 40
0.1058
 41
0.1058
 66
1
 10
0
 20
0
 30
0
 70
1
  0
VERTEX
  8
LAYER_6
 10
97.5799
 20
-158.6664
 42
0.413961666
  0
VERTEX
  8
LAYER_6
 10
96.7058
 20
-159.5397
 42
0.4139938282
  0
VERTEX
  8
LAYER_6
 10
97.5785
 20
-160.4145
 42
0.4139629083
  0
VERTEX
  8
LAYER_6
 10
98.454
 20
-159.5426
 42
0.4139641451
  0
VERTEX
  8
LAYER_6
 10
97.5828
 20
-158.6664
 42
-0.4110829529
  0
VERTEX
  8
LAYER_6
 10
97.9223
 20
-159.0414
  0
VERTEX
  8
LAYER_6
 10
97.9223
 20
-161.2914
  0
VERTEX
  8
LAYER_6
 10
97.9223
 20
-161.2929
 42
-0.4127372994
  0
VERTEX
  8
LAYER_6
 10
97.5799
 20
-161.6664
  0
VERTEX
  8
LAYER_6
 10
86.0723
 20
-161.6664
  0
VERTEX
  8
LAYER_6
 10
74.5647
 20
-161.6664
 42
-0.4127456277
  0
VERTEX
  8
LAYER_6
 10
74.2223
 20
-161.2929
  0
VERTEX
  8
LAYER_6
 10
74.2223
 20
-161.2914
  0
VERTEX
  8
LAYER_6
 10
74.2223
 20
-159.0414
 42
-0.4126058422
  0
VERTEX
  8
LAYER_6
 10
74.5633
 20
-158.6664
  0
VERTEX
  8
LAYER_6
 10
74.5647
 20
-158.6664
  0
VERTEX
  8
LAYER_6
 10
86.0723
 20
-158.6664
  0
SEQEND
  0
POLYLINE
  8
LAYER_6
 40
0.1058
 41
0.1058
 66
1
 10
0
 20
0
 30
0
 70
1
  0
VERTEX
  8
LAYER_6
 10
95.7538
 20
-161.6664
 42
0.4126850687
  0
VERTEX
  8
LAYER_6
 10
95.4114
 20
-162.0398
  0
VERTEX
  8
LAYER_6
 10
95.4114
 20
-162.0414
  0
VERTEX
  8
LAYER_6
 10
95.4114
 20
-162.0398
 42
-0.4126850687
  0
SEQEND
  0
POLYLINE
  8
LAYER_6
 40
0.1058
 41
0.1058
 66
1
 10
0
 20
0
 30
0
  0
VERTEX
  8
LAYER_6
 10
95.7538
 20
-167.6664
  0
VERTEX
  8
LAYER_6
 10
95.7524
 20
-167.6664
 42
-0.4125336416
  0
VERTEX
  8
LAYER_6
 10
95.4114
 20
-167.2914
  0
VERTEX
  8
LAYER_6
 10
95.4114
 20
-166.5414
  0
SEQEND
  0
POLYLINE
  8
LAYER_6
 40
0.1058
 41
0.1058
 66
1
 10
0
 20
0
 30
0
 70
1
  0
VERTEX
  8
LAYER_6
 10
97.5799
 20
-163.1664
 42
0.4139616661
  0
VERTEX
  8
LAYER_6
 10
96.7058
 20
-164.0397
 42
0.4139938282
  0
VERTEX
  8
LAYER_6
 10
97.5785
 20
-164.9145
 42
0.4139629083
  0
VERTEX
  8
LAYER_6
 10
98.454
 20
-164.0426
 42
0.4139641451
  0
VERTEX
  8
LAYER_6
 10
97.5828
 20
-163.1664
 42
-0.4110829529
  0
VERTEX
  8
LAYER_6
 10
97.9223
 20
-163.5414
  0
VERTEX
  8
LAYER_6
 10
97.9223
 20
-165.7914
  0
VERTEX
  8
LAYER_6
 10
97.9223
 20
-165.7929
 42
-0.4127372994
  0
VERTEX
  8
LAYER_6
 10
97.5799
 20
-166.1664
  0
VERTEX
  8
LAYER_6
 10
86.0723
 20
-166.1664
  0
VERTEX
  8
LAYER_6
 10
74.5647
 20
-166.1664
 42
-0.4127456274
  0
VERTEX
  8
LAYER_6
 10
74.2223
 20
-165.7929
  0
VERTEX
  8
LAYER_6
 10
74.2223
 20
-165.7914
  0
VERTEX
  8
LAYER_6
 10
74.2223
 20
-163.5414
 42
-0.4126058422
  0
VERTEX
  8
LAYER_6
 10
74.5633
 20
-163.1664
  0
VERTEX
  8
LAYER_6
 10
74.5647
 20
-163.1664
  0
VERTEX
  8
LAYER_6
 10
86.0723
 20
-163.1664
  0
SEQEND
  0
POLYLINE
  8
LAYER_6
 40
0.1058
 41
0.1058
 66
1
 10
0
 20
0
 30
0
  0
VERTEX
  8
LAYER_6
 10
76.3908
 20
-166.1664
 42
-0.4126767407
  0
VERTEX
  8
LAYER_6
 10
76.7332
 20
-166.5398
  0
VERTEX
  8
LAYER_6
 10
76.7332
 20
-166.5414
  0
VERTEX
  8
LAYER_6
 10
76.7332
 20
-167.2914
 42
-0.4125252922
  0
VERTEX
  8
LAYER_6
 10
76.3922
 20
-167.6664
 42
-0.4141320411
  0
VERTEX
  8
LAYER_6
 10
77.6618
 20
-168.9385
 42
-0.4141214918
  0
VERTEX
  8
LAYER_6
 10
76.3901
 20
-170.2085
 42
-0.4141337847
  0
VERTEX
  8
LAYER_6
 10
75.1197
 20
-168.9371
 42
-0.4141443277
  0
VERTEX
  8
LAYER_6
 10
76.3908
 20
-167.6664
  0
SEQEND
  0
POLYLINE
  8
LAYER_6
 40
0.1058
 41
0.1058
 66
1
 10
0
 20
0
 30
0
 70
1
  0
VERTEX
  8
LAYER_6
 10
95.7538
 20
-166.1664
 42
0.4126850687
  0
VERTEX
  8
LAYER_6
 10
95.4114
 20
-166.5398
  0
VERTEX
  8
LAYER_6
 10
95.4114
 20
-166.5414
  0
VERTEX
  8
LAYER_6
 10
95.4114
 20
-166.5398
 42
-0.4126850687
  0
SEQEND
  0
POLYLINE
  8
LAYER_6
 40
0.1058
 41
0.1058
 66
1
 10
0
 20
0
 30
0
  0
VERTEX
  8
LAYER_6
 10
95.7538
 20
-172.1664
  0
VERTEX
  8
LAYER_6
 10
95.7524
 20
-172.1664
 42
-0.4125336416
  0
VERTEX
  8
LAYER_6
 10
95.4114
 20
-171.7914
  0
VERTEX
  8
LAYER_6
 10
95.4114
 20
-171.0414
  0
SEQEND
  0
POLYLINE
  8
LAYER_6
 40
0.1058
 41
0.1058
 66
1
 10
0
 20
0
 30
0
  0
VERTEX
  8
LAYER_6
 10
76.3908
 20
-170.6664
 42
-0.4126767407
  0
VERTEX
  8
LAYER_6
 10
76.7332
 20
-171.0398
  0
VERTEX
  8
LAYER_6
 10
76.7332
 20
-171.0414
  0
VERTEX
  8
LAYER_6
 10
76.7332
 20
-171.7914
 42
-0.4125252922
  0
VERTEX
  8
LAYER_6
 10
76.3922
 20
-172.1664
 42
-0.4141322756
  0
VERTEX
  8
LAYER_6
 10
77.6618
 20
-173.4385
 42
-0.414121257
  0
VERTEX
  8
LAYER_6
 10
76.3901
 20
-174.7085
 42
-0.4141335502
  0
VERTEX
  8
LAYER_6
 10
75.1197
 20
-173.4371
 42
-0.4141445623
  0
VERTEX
  8
LAYER_6
 10
76.3908
 20
-172.1664
  0
SEQEND
  0
POLYLINE
  8
LAYER_6
 40
0.1058
 41
0.1058
 66
1
 10
0
 20
0
 30
0
 70
1
  0
VERTEX
  8
LAYER_6
 10
97.5799
 20
-167.6664
 42
0.413961666
  0
VERTEX
  8
LAYER_6
 10
96.7058
 20
-168.5397
 42
0.4139938282
  0
VERTEX
  8
LAYER_6
 10
97.5785
 20
-169.4145
 42
0.4139629083
  0
VERTEX
  8
LAYER_6
 10
98.454
 20
-168.5426
 42
0.4139641451
  0
VERTEX
  8
LAYER_6
 10
97.5828
 20
-167.6664
 42
-0.4110829529
  0
VERTEX
  8
LAYER_6
 10
97.9223
 20
-168.0414
  0
VERTEX
  8
LAYER_6
 10
97.9223
 20
-170.2914
  0
VERTEX
  8
LAYER_6
 10
97.9223
 20
-170.2929
 42
-0.4127372994
  0
VERTEX
  8
LAYER_6
 10
97.5799
 20
-170.6664
  0
VERTEX
  8
LAYER_6
 10
86.0723
 20
-170.6664
  0
VERTEX
  8
LAYER_6
 10
74.5647
 20
-170.6664
 42
-0.4127456277
  0
VERTEX
  8
LAYER_6
 10
74.2223
 20
-170.2929
  0
VERTEX
  8
LAYER_6
 10
74.2223
 20
-170.2914
  0
VERTEX
  8
LAYER_6
 10
74.2223
 20
-168.0414
 42
-0.4126058422
  0
VERTEX
  8
LAYER_6
 10
74.5633
 20
-167.6664
  0
VERTEX
  8
LAYER_6
 10
74.5647
 20
-167.6664
  0
VERTEX
  8
LAYER_6
 10
86.0723
 20
-167.6664
  0
SEQEND
  0
POLYLINE
  8
LAYER_6
 40
0.1058
 41
0.1058
 66
1
 10
0
 20
0
 30
0
 70
1
  0
VERTEX
  8
LAYER_6
 10
95.7538
 20
-170.6664
 42
0.4126850687
  0
VERTEX
  8
LAYER_6
 10
95.4114
 20
-171.0398
  0
VERTEX
  8
LAYER_6
 10
95.4114
 20
-171.0414
  0
VERTEX
  8
LAYER_6
 10
95.4114
 20
-171.0398
 42
-0.4126850687
  0
SEQEND
  0
POLYLINE
  8
LAYER_6
 40
0.1058
 41
0.1058
 66
1
 10
0
 20
0
 30
0
  0
VERTEX
  8
LAYER_6
 10
95.7538
 20
-176.6664
  0
VERTEX
  8
LAYER_6
 10
95.7524
 20
-176.6664
 42
-0.4125336416
  0
VERTEX
  8
LAYER_6
 10
95.4114
 20
-176.2914
  0
VERTEX
  8
LAYER_6
 10
95.4114
 20
-175.5414
  0
SEQEND
  0
POLYLINE
  8
LAYER_6
 40
0.1058
 41
0.1058
 66
1
 10
0
 20
0
 30
0
 70
1
  0
VERTEX
  8
LAYER_6
 10
97.5799
 20
-172.1664
 42
0.4139617064
  0
VERTEX
  8
LAYER_6
 10
96.7058
 20
-173.0397
 42
0.4139937879
  0
VERTEX
  8
LAYER_6
 10
97.5785
 20
-173.9145
 42
0.4139628678
  0
VERTEX
  8
LAYER_6
 10
98.454
 20
-173.0426
 42
0.4139641854
  0
VERTEX
  8
LAYER_6
 10
97.5828
 20
-172.1664
 42
-0.4110829529
  0
VERTEX
  8
LAYER_6
 10
97.9223
 20
-172.5414
  0
VERTEX
  8
LAYER_6
 10
97.9223
 20
-174.7914
  0
VERTEX
  8
LAYER_6
 10
97.9223
 20
-174.7929
 42
-0.4127372994
  0
VERTEX
  8
LAYER_6
 10
97.5799
 20
-175.1664
  0
VERTEX
  8
LAYER_6
 10
86.0723
 20
-175.1664
  0
VERTEX
  8
LAYER_6
 10
74.5647
 20
-175.1664
 42
-0.4127456274
  0
VERTEX
  8
LAYER_6
 10
74.2223
 20
-174.7929
  0
VERTEX
  8
LAYER_6
 10
74.2223
 20
-174.7914
  0
VERTEX
  8
LAYER_6
 10
74.2223
 20
-172.5414
 42
-0.4126058422
  0
VERTEX
  8
LAYER_6
 10
74.5633
 20
-172.1664
  0
VERTEX
  8
LAYER_6
 10
74.5647
 20
-172.1664
  0
VERTEX
  8
LAYER_6
 10
86.0723
 20
-172.1664
  0
SEQEND
  0
POLYLINE
  8
LAYER_6
 40
0.1058
 41
0.1058
 66
1
 10
0
 20
0
 30
0
  0
VERTEX
  8
LAYER_6
 10
76.3908
 20
-175.1664
 42
-0.4126767407
  0
VERTEX
  8
LAYER_6
 10
76.7332
 20
-175.5398
  0
VERTEX
  8
LAYER_6
 10
76.7332
 20
-175.5414
  0
VERTEX
  8
LAYER_6
 10
76.7332
 20
-176.2914
 42
-0.4125252922
  0
VERTEX
  8
LAYER_6
 10
76.3922
 20
-176.6664
 42
-0.4141322756
  0
VERTEX
  8
LAYER_6
 10
77.6618
 20
-177.9385
 42
-0.414121257
  0
VERTEX
  8
LAYER_6
 10
76.3901
 20
-179.2085
 42
-0.4141335502
  0
VERTEX
  8
LAYER_6
 10
75.1197
 20
-177.9371
 42
-0.4141445624
  0
VERTEX
  8
LAYER_6
 10
76.3908
 20
-176.6664
  0
SEQEND
  0
POLYLINE
  8
LAYER_6
 40
0.1058
 41
0.1058
 66
1
 10
0
 20
0
 30
0
 70
1
  0
VERTEX
  8
LAYER_6
 10
95.7538
 20
-175.1664
 42
0.4126850687
  0
VERTEX
  8
LAYER_6
 10
95.4114
 20
-175.5398
  0
VERTEX
  8
LAYER_6
 10
95.4114
 20
-175.5414
  0
VERTEX
  8
LAYER_6
 10
95.4114
 20
-175.5398
 42
-0.4126850687
  0
SEQEND
  0
POLYLINE
  8
LAYER_6
 40
0.1058
 41
0.1058
 66
1
 10
0
 20
0
 30
0
  0
VERTEX
  8
LAYER_6
 10
95.7538
 20
-181.1664
  0
VERTEX
  8
LAYER_6
 10
95.7524
 20
-181.1664
 42
-0.4125336416
  0
VERTEX
  8
LAYER_6
 10
95.4114
 20
-180.7914
  0
VERTEX
  8
LAYER_6
 10
95.4114
 20
-180.0414
  0
VERTEX
  8
LAYER_6
 10
95.4114
 20
-180.0398
 42
-0.4126850687
  0
VERTEX
  8
LAYER_6
 10
95.7538
 20
-179.6664
  0
SEQEND
  0
POLYLINE
  8
LAYER_6
 40
0.1058
 41
0.1058
 66
1
 10
0
 20
0
 30
0
  0
VERTEX
  8
LAYER_6
 10
76.3908
 20
-179.6664
 42
-0.4126767407
  0
VERTEX
  8
LAYER_6
 10
76.7332
 20
-180.0398
  0
VERTEX
  8
LAYER_6
 10
76.7332
 20
-180.0414
  0
VERTEX
  8
LAYER_6
 10
76.7332
 20
-180.7914
 42
-0.4125252922
  0
VERTEX
  8
LAYER_6
 10
76.3922
 20
-181.1664
 42
-0.4141322756
  0
VERTEX
  8
LAYER_6
 10
77.6618
 20
-182.4385
 42
-0.414121257
  0
VERTEX
  8
LAYER_6
 10
76.3901
 20
-183.7085
 42
-0.4141335502
  0
VERTEX
  8
LAYER_6
 10
75.1197
 20
-182.4371
 42
-0.4141445624
  0
VERTEX
  8
LAYER_6
 10
76.3908
 20
-181.1664
  0
SEQEND
  0
POLYLINE
  8
LAYER_6
 40
0.1058
 41
0.1058
 66
1
 10
0
 20
0
 30
0
 70
1
  0
VERTEX
  8
LAYER_6
 10
97.5799
 20
-176.6664
 42
0.4139617064
  0
VERTEX
  8
LAYER_6
 10
96.7058
 20
-177.5397
 42
0.4139937879
  0
VERTEX
  8
LAYER_6
 10
97.5785
 20
-178.4145
 42
0.4139628678
  0
VERTEX
  8
LAYER_6
 10
98.454
 20
-177.5426
 42
0.4139641854
  0
VERTEX
  8
LAYER_6
 10
97.5828
 20
-176.6664
 42
-0.4110829529
  0
VERTEX
  8
LAYER_6
 10
97.9223
 20
-177.0414
  0
VERTEX
  8
LAYER_6
 10
97.9223
 20
-179.2914
  0
VERTEX
  8
LAYER_6
 10
97.9223
 20
-179.2929
 42
-0.4127372994
  0
VERTEX
  8
LAYER_6
 10
97.5799
 20
-179.6664
  0
VERTEX
  8
LAYER_6
 10
86.0723
 20
-179.6664
  0
VERTEX
  8
LAYER_6
 10
74.5647
 20
-179.6664
 42
-0.4127456277
  0
VERTEX
  8
LAYER_6
 10
74.2223
 20
-179.2929
  0
VERTEX
  8
LAYER_6
 10
74.2223
 20
-179.2914
  0
VERTEX
  8
LAYER_6
 10
74.2223
 20
-177.0414
 42
-0.4126058422
  0
VERTEX
  8
LAYER_6
 10
74.5633
 20
-176.6664
  0
VERTEX
  8
LAYER_6
 10
74.5647
 20
-176.6664
  0
VERTEX
  8
LAYER_6
 10
86.0723
 20
-176.6664
  0
SEQEND
  0
POLYLINE
  8
LAYER_6
 40
0.1058
 41
0.1058
 66
1
 10
0
 20
0
 30
0
 70
1
  0
VERTEX
  8
LAYER_6
 10
95.4114
 20
-122.5414
 42
0.4125336416
  0
VERTEX
  8
LAYER_6
 10
95.7524
 20
-122.9164
  0
VERTEX
  8
LAYER_6
 10
95.7538
 20
-122.9164
  0
VERTEX
  8
LAYER_6
 10
95.7524
 20
-122.9164
 42
-0.4125336416
  0
SEQEND
  0
POLYLINE
  8
LAYER_6
 40
0.1058
 41
0.1058
 66
1
 10
0
 20
0
 30
0
 70
1
  0
VERTEX
  8
LAYER_6
 10
95.4114
 20
-122.5414
 42
0.4125336416
  0
VERTEX
  8
LAYER_6
 10
95.7524
 20
-122.9164
  0
VERTEX
  8
LAYER_6
 10
95.7538
 20
-122.9164
  0
VERTEX
  8
LAYER_6
 10
95.7524
 20
-122.9164
 42
-0.4125336416
  0
SEQEND
  0
POLYLINE
  8
LAYER_6
 40
0.1058
 41
0.1058
 66
1
 10
0
 20
0
 30
0
 70
1
  0
VERTEX
  8
LAYER_6
 10
95.4114
 20
-122.5414
 42
0.4125336416
  0
VERTEX
  8
LAYER_6
 10
95.7524
 20
-122.9164
  0
VERTEX
  8
LAYER_6
 10
95.7538
 20
-122.9164
  0
VERTEX
  8
LAYER_6
 10
95.7524
 20
-122.9164
 42
-0.4125336416
  0
SEQEND
  0
POLYLINE
  8
LAYER_6
 40
0.1058
 41
0.1058
 66
1
 10
0
 20
0
 30
0
 70
1
  0
VERTEX
  8
LAYER_6
 10
95.4114
 20
-122.5414
 42
0.4125336416
  0
VERTEX
  8
LAYER_6
 10
95.7524
 20
-122.9164
  0
VERTEX
  8
LAYER_6
 10
95.7538
 20
-122.9164
  0
VERTEX
  8
LAYER_6
 10
95.7524
 20
-122.9164
 42
-0.4125336416
  0
SEQEND
  0
POLYLINE
  8
LAYER_6
 40
0.1058
 41
0.1058
 66
1
 10
0
 20
0
 30
0
 70
1
  0
VERTEX
  8
LAYER_6
 10
95.7538
 20
-121.4164
 42
0.4126850687
  0
VERTEX
  8
LAYER_6
 10
95.4114
 20
-121.7898
  0
VERTEX
  8
LAYER_6
 10
95.4114
 20
-121.7914
  0
VERTEX
  8
LAYER_6
 10
95.4114
 20
-121.7898
 42
-0.4126850687
  0
SEQEND
  0
POLYLINE
  8
LAYER_6
 40
0.1058
 41
0.1058
 66
1
 10
0
 20
0
 30
0
  0
VERTEX
  8
LAYER_6
 10
95.7538
 20
-116.9164
 42
0.4126850687
  0
VERTEX
  8
LAYER_6
 10
95.4114
 20
-117.2898
  0
VERTEX
  8
LAYER_6
 10
95.4114
 20
-117.2914
  0
VERTEX
  8
LAYER_6
 10
95.4114
 20
-118.0414
 42
0.4125336416
  0
VERTEX
  8
LAYER_6
 10
95.7524
 20
-118.4164
  0
VERTEX
  8
LAYER_6
 10
95.7538
 20
-118.4164
  0
VERTEX
  8
LAYER_6
 10
95.7524
 20
-118.4164
 42
-0.4125336416
  0
VERTEX
  8
LAYER_6
 10
95.4114
 20
-118.0414
 42
0.4125336416
  0
VERTEX
  8
LAYER_6
 10
95.7524
 20
-118.4164
  0
VERTEX
  8
LAYER_6
 10
95.7538
 20
-118.4164
  0
VERTEX
  8
LAYER_6
 10
95.7524
 20
-118.4164
 42
-0.4125336416
  0
VERTEX
  8
LAYER_6
 10
95.4114
 20
-118.0414
 42
0.4125336416
  0
VERTEX
  8
LAYER_6
 10
95.7524
 20
-118.4164
  0
VERTEX
  8
LAYER_6
 10
95.7538
 20
-118.4164
  0
VERTEX
  8
LAYER_6
 10
95.7524
 20
-118.4164
 42
-0.4125336416
  0
VERTEX
  8
LAYER_6
 10
95.4114
 20
-118.0414
 42
0.4125336416
  0
VERTEX
  8
LAYER_6
 10
95.7524
 20
-118.4164
  0
VERTEX
  8
LAYER_6
 10
95.7538
 20
-118.4164
  0
VERTEX
  8
LAYER_6
 10
95.7524
 20
-118.4164
 42
-0.4125336416
  0
VERTEX
  8
LAYER_6
 10
95.4114
 20
-118.0414
  0
SEQEND
  0
POLYLINE
  8
LAYER_6
 40
0.1058
 41
0.1058
 66
1
 10
0
 20
0
 30
0
  0
VERTEX
  8
LAYER_6
 10
95.7538
 20
-112.4164
 42
0.4126850687
  0
VERTEX
  8
LAYER_6
 10
95.4114
 20
-112.7898
  0
VERTEX
  8
LAYER_6
 10
95.4114
 20
-112.7914
  0
VERTEX
  8
LAYER_6
 10
95.4114
 20
-113.5414
 42
0.4125336416
  0
VERTEX
  8
LAYER_6
 10
95.7524
 20
-113.9164
  0
VERTEX
  8
LAYER_6
 10
95.7538
 20
-113.9164
  0
VERTEX
  8
LAYER_6
 10
95.7524
 20
-113.9164
 42
-0.4125336416
  0
VERTEX
  8
LAYER_6
 10
95.4114
 20
-113.5414
 42
0.4125336416
  0
VERTEX
  8
LAYER_6
 10
95.7524
 20
-113.9164
  0
VERTEX
  8
LAYER_6
 10
95.7538
 20
-113.9164
  0
VERTEX
  8
LAYER_6
 10
95.7524
 20
-113.9164
 42
-0.4125336416
  0
VERTEX
  8
LAYER_6
 10
95.4114
 20
-113.5414
  0
SEQEND
  0
POLYLINE
  8
LAYER_6
 40
0.1058
 41
0.1058
 66
1
 10
0
 20
0
 30
0
  0
VERTEX
  8
LAYER_6
 10
95.7538
 20
-107.9164
 42
0.4126850687
  0
VERTEX
  8
LAYER_6
 10
95.4114
 20
-108.2898
  0
VERTEX
  8
LAYER_6
 10
95.4114
 20
-108.2914
  0
VERTEX
  8
LAYER_6
 10
95.4114
 20
-109.0414
 42
0.4125336416
  0
VERTEX
  8
LAYER_6
 10
95.7524
 20
-109.4164
  0
VERTEX
  8
LAYER_6
 10
95.7538
 20
-109.4164
  0
VERTEX
  8
LAYER_6
 10
95.7524
 20
-109.4164
 42
-0.4125336416
  0
VERTEX
  8
LAYER_6
 10
95.4114
 20
-109.0414
 42
0.4125336416
  0
VERTEX
  8
LAYER_6
 10
95.7524
 20
-109.4164
  0
VERTEX
  8
LAYER_6
 10
95.7538
 20
-109.4164
  0
VERTEX
  8
LAYER_6
 10
95.7524
 20
-109.4164
 42
-0.4125336416
  0
VERTEX
  8
LAYER_6
 10
95.4114
 20
-109.0414
  0
SEQEND
  0
POLYLINE
  8
LAYER_6
 40
0.1058
 41
0.1058
 66
1
 10
0
 20
0
 30
0
  0
VERTEX
  8
LAYER_6
 10
95.7538
 20
-103.4164
 42
0.4126850687
  0
VERTEX
  8
LAYER_6
 10
95.4114
 20
-103.7898
  0
VERTEX
  8
LAYER_6
 10
95.4114
 20
-103.7914
  0
VERTEX
  8
LAYER_6
 10
95.4114
 20
-104.5414
 42
0.4125336416
  0
VERTEX
  8
LAYER_6
 10
95.7524
 20
-104.9164
  0
VERTEX
  8
LAYER_6
 10
95.7538
 20
-104.9164
  0
VERTEX
  8
LAYER_6
 10
95.7524
 20
-104.9164
 42
-0.4125336416
  0
VERTEX
  8
LAYER_6
 10
95.4114
 20
-104.5414
 42
0.4125336416
  0
VERTEX
  8
LAYER_6
 10
95.7524
 20
-104.9164
  0
VERTEX
  8
LAYER_6
 10
95.7538
 20
-104.9164
  0
VERTEX
  8
LAYER_6
 10
95.7524
 20
-104.9164
 42
-0.4125336416
  0
VERTEX
  8
LAYER_6
 10
95.4114
 20
-104.5414
  0
SEQEND
  0
POLYLINE
  8
LAYER_6
 40
0.1058
 41
0.1058
 66
1
 10
0
 20
0
 30
0
  0
VERTEX
  8
LAYER_6
 10
95.7538
 20
-98.9164
 42
0.4126850687
  0
VERTEX
  8
LAYER_6
 10
95.4114
 20
-99.2898
  0
VERTEX
  8
LAYER_6
 10
95.4114
 20
-99.2914
  0
VERTEX
  8
LAYER_6
 10
95.4114
 20
-100.0414
 42
0.4125336416
  0
VERTEX
  8
LAYER_6
 10
95.7524
 20
-100.4164
  0
VERTEX
  8
LAYER_6
 10
95.7538
 20
-100.4164
  0
VERTEX
  8
LAYER_6
 10
95.7524
 20
-100.4164
 42
-0.4125336416
  0
VERTEX
  8
LAYER_6
 10
95.4114
 20
-100.0414
 42
0.4125336416
  0
VERTEX
  8
LAYER_6
 10
95.7524
 20
-100.4164
  0
VERTEX
  8
LAYER_6
 10
95.7538
 20
-100.4164
  0
VERTEX
  8
LAYER_6
 10
95.7524
 20
-100.4164
 42
-0.4125336416
  0
VERTEX
  8
LAYER_6
 10
95.4114
 20
-100.0414
  0
SEQEND
  0
POLYLINE
  8
LAYER_6
 40
0.1058
 41
0.1058
 66
1
 10
0
 20
0
 30
0
  0
VERTEX
  8
LAYER_6
 10
95.7538
 20
-94.4164
 42
0.4126850687
  0
VERTEX
  8
LAYER_6
 10
95.4114
 20
-94.7898
  0
VERTEX
  8
LAYER_6
 10
95.4114
 20
-94.7914
  0
VERTEX
  8
LAYER_6
 10
95.4114
 20
-95.5414
 42
0.4125336416
  0
VERTEX
  8
LAYER_6
 10
95.7524
 20
-95.9164
  0
VERTEX
  8
LAYER_6
 10
95.7538
 20
-95.9164
  0
VERTEX
  8
LAYER_6
 10
95.7524
 20
-95.9164
 42
-0.4125336416
  0
VERTEX
  8
LAYER_6
 10
95.4114
 20
-95.5414
 42
0.4125336416
  0
VERTEX
  8
LAYER_6
 10
95.7524
 20
-95.9164
  0
VERTEX
  8
LAYER_6
 10
95.7538
 20
-95.9164
  0
VERTEX
  8
LAYER_6
 10
95.7524
 20
-95.9164
 42
-0.4125336416
  0
VERTEX
  8
LAYER_6
 10
95.4114
 20
-95.5414
  0
SEQEND
  0
POLYLINE
  8
LAYER_6
 40
0.1058
 41
0.1058
 66
1
 10
0
 20
0
 30
0
  0
VERTEX
  8
LAYER_6
 10
95.7538
 20
-89.9164
 42
0.4126850687
  0
VERTEX
  8
LAYER_6
 10
95.4114
 20
-90.2898
  0
VERTEX
  8
LAYER_6
 10
95.4114
 20
-90.2914
  0
VERTEX
  8
LAYER_6
 10
95.4114
 20
-91.0414
 42
0.4125336416
  0
VERTEX
  8
LAYER_6
 10
95.7524
 20
-91.4164
  0
VERTEX
  8
LAYER_6
 10
95.7538
 20
-91.4164
  0
VERTEX
  8
LAYER_6
 10
95.7524
 20
-91.4164
 42
-0.4125336416
  0
VERTEX
  8
LAYER_6
 10
95.4114
 20
-91.0414
 42
0.4125336416
  0
VERTEX
  8
LAYER_6
 10
95.7524
 20
-91.4164
  0
VERTEX
  8
LAYER_6
 10
95.7538
 20
-91.4164
  0
VERTEX
  8
LAYER_6
 10
95.7524
 20
-91.4164
 42
-0.4125336416
  0
VERTEX
  8
LAYER_6
 10
95.4114
 20
-91.0414
 42
0.4125336416
  0
VERTEX
  8
LAYER_6
 10
95.7524
 20
-91.4164
  0
VERTEX
  8
LAYER_6
 10
95.7538
 20
-91.4164
  0
VERTEX
  8
LAYER_6
 10
95.7524
 20
-91.4164
 42
-0.4125336416
  0
VERTEX
  8
LAYER_6
 10
95.4114
 20
-91.0414
 42
0.4125336416
  0
VERTEX
  8
LAYER_6
 10
95.7524
 20
-91.4164
  0
VERTEX
  8
LAYER_6
 10
95.7538
 20
-91.4164
  0
VERTEX
  8
LAYER_6
 10
95.7524
 20
-91.4164
 42
-0.4125336416
  0
VERTEX
  8
LAYER_6
 10
95.4114
 20
-91.0414
  0
SEQEND
  0
POLYLINE
  8
LAYER_6
 40
0.1058
 41
0.1058
 66
1
 10
0
 20
0
 30
0
  0
VERTEX
  8
LAYER_6
 10
95.7538
 20
-85.4164
 42
0.4126850687
  0
VERTEX
  8
LAYER_6
 10
95.4114
 20
-85.7898
  0
VERTEX
  8
LAYER_6
 10
95.4114
 20
-85.7914
  0
VERTEX
  8
LAYER_6
 10
95.4114
 20
-86.5414
 42
0.4125336416
  0
VERTEX
  8
LAYER_6
 10
95.7524
 20
-86.9164
  0
VERTEX
  8
LAYER_6
 10
95.7538
 20
-86.9164
  0
VERTEX
  8
LAYER_6
 10
95.7524
 20
-86.9164
 42
-0.4125336416
  0
VERTEX
  8
LAYER_6
 10
95.4114
 20
-86.5414
 42
0.4125336416
  0
VERTEX
  8
LAYER_6
 10
95.7524
 20
-86.9164
  0
VERTEX
  8
LAYER_6
 10
95.7538
 20
-86.9164
  0
VERTEX
  8
LAYER_6
 10
95.7524
 20
-86.9164
 42
-0.4125336416
  0
VERTEX
  8
LAYER_6
 10
95.4114
 20
-86.5414
  0
SEQEND
  0
POLYLINE
  8
LAYER_6
 40
0.1058
 41
0.1058
 66
1
 10
0
 20
0
 30
0
 70
1
  0
VERTEX
  8
LAYER_6
 10
95.4114
 20
-82.0414
 42
0.4125336416
  0
VERTEX
  8
LAYER_6
 10
95.7524
 20
-82.4164
  0
VERTEX
  8
LAYER_6
 10
95.7538
 20
-82.4164
  0
VERTEX
  8
LAYER_6
 10
95.7524
 20
-82.4164
 42
-0.4125336416
  0
SEQEND
  0
POLYLINE
  8
LAYER_6
 40
0.1058
 41
0.1058
 66
1
 10
0
 20
0
 30
0
 70
1
  0
VERTEX
  8
LAYER_6
 10
95.7538
 20
-80.9164
 42
0.4126850687
  0
VERTEX
  8
LAYER_6
 10
95.4114
 20
-81.2898
  0
VERTEX
  8
LAYER_6
 10
95.4114
 20
-81.2914
  0
VERTEX
  8
LAYER_6
 10
95.4114
 20
-81.2898
 42
-0.4126850687
  0
SEQEND
  0
POLYLINE
  8
LAYER_6
 40
0.1058
 41
0.1058
 66
1
 10
0
 20
0
 30
0
  0
VERTEX
  8
LAYER_6
 10
95.7538
 20
-76.4164
 42
0.4126850687
  0
VERTEX
  8
LAYER_6
 10
95.4114
 20
-76.7898
  0
VERTEX
  8
LAYER_6
 10
95.4114
 20
-76.7914
  0
VERTEX
  8
LAYER_6
 10
95.4114
 20
-77.5414
 42
0.4125336416
  0
VERTEX
  8
LAYER_6
 10
95.7524
 20
-77.9164
  0
VERTEX
  8
LAYER_6
 10
95.7538
 20
-77.9164
  0
VERTEX
  8
LAYER_6
 10
95.7524
 20
-77.9164
 42
-0.4125336416
  0
VERTEX
  8
LAYER_6
 10
95.4114
 20
-77.5414
 42
0.4125336416
  0
VERTEX
  8
LAYER_6
 10
95.7524
 20
-77.9164
  0
VERTEX
  8
LAYER_6
 10
95.7538
 20
-77.9164
  0
VERTEX
  8
LAYER_6
 10
95.7524
 20
-77.9164
 42
-0.4125336416
  0
VERTEX
  8
LAYER_6
 10
95.4114
 20
-77.5414
  0
SEQEND
  0
POLYLINE
  8
LAYER_6
 40
0.1058
 41
0.1058
 66
1
 10
0
 20
0
 30
0
  0
VERTEX
  8
LAYER_6
 10
95.7538
 20
-71.9164
 42
0.4126850687
  0
VERTEX
  8
LAYER_6
 10
95.4114
 20
-72.2898
  0
VERTEX
  8
LAYER_6
 10
95.4114
 20
-72.2914
  0
VERTEX
  8
LAYER_6
 10
95.4114
 20
-73.0414
 42
0.4125336416
  0
VERTEX
  8
LAYER_6
 10
95.7524
 20
-73.4164
  0
VERTEX
  8
LAYER_6
 10
95.7538
 20
-73.4164
  0
VERTEX
  8
LAYER_6
 10
95.7524
 20
-73.4164
 42
-0.4125336416
  0
VERTEX
  8
LAYER_6
 10
95.4114
 20
-73.0414
  0
SEQEND
  0
POLYLINE
  8
LAYER_6
 40
0.1058
 41
0.1058
 66
1
 10
0
 20
0
 30
0
  0
VERTEX
  8
LAYER_6
 10
95.7538
 20
-55.4164
  0
VERTEX
  8
LAYER_6
 10
95.7524
 20
-55.4164
 42
-0.4125336416
  0
VERTEX
  8
LAYER_6
 10
95.4114
 20
-55.0414
  0
VERTEX
  8
LAYER_6
 10
95.4114
 20
-54.2914
  0
VERTEX
  8
LAYER_6
 10
95.4114
 20
-54.2898
 42
-0.4126850687
  0
VERTEX
  8
LAYER_6
 10
95.7538
 20
-53.9164
 42
0.4126850687
  0
VERTEX
  8
LAYER_6
 10
95.4114
 20
-54.2898
  0
VERTEX
  8
LAYER_6
 10
95.4114
 20
-54.2914
  0
SEQEND
  0
POLYLINE
  8
LAYER_6
 40
0.1058
 41
0.1058
 66
1
 10
0
 20
0
 30
0
  0
VERTEX
  8
LAYER_6
 10
95.7538
 20
-59.9164
  0
VERTEX
  8
LAYER_6
 10
95.7524
 20
-59.9164
 42
-0.4125336416
  0
VERTEX
  8
LAYER_6
 10
95.4114
 20
-59.5414
  0
VERTEX
  8
LAYER_6
 10
95.4114
 20
-58.7914
  0
VERTEX
  8
LAYER_6
 10
95.4114
 20
-58.7898
 42
-0.4126850687
  0
VERTEX
  8
LAYER_6
 10
95.7538
 20
-58.4164
  0
SEQEND
  0
POLYLINE
  8
LAYER_6
 40
0.1058
 41
0.1058
 66
1
 10
0
 20
0
 30
0
  0
VERTEX
  8
LAYER_6
 10
95.7538
 20
-64.4164
  0
VERTEX
  8
LAYER_6
 10
95.7524
 20
-64.4164
 42
-0.4125336416
  0
VERTEX
  8
LAYER_6
 10
95.4114
 20
-64.0414
  0
VERTEX
  8
LAYER_6
 10
95.4114
 20
-63.2914
  0
VERTEX
  8
LAYER_6
 10
95.4114
 20
-63.2898
 42
-0.4126850687
  0
VERTEX
  8
LAYER_6
 10
95.7538
 20
-62.9164
  0
SEQEND
  0
POLYLINE
  8
LAYER_6
 40
0.1058
 41
0.1058
 66
1
 10
0
 20
0
 30
0
  0
VERTEX
  8
LAYER_6
 10
95.7538
 20
-68.9164
  0
VERTEX
  8
LAYER_6
 10
95.7524
 20
-68.9164
 42
-0.4125336416
  0
VERTEX
  8
LAYER_6
 10
95.4114
 20
-68.5414
  0
VERTEX
  8
LAYER_6
 10
95.4114
 20
-67.7914
  0
VERTEX
  8
LAYER_6
 10
95.4114
 20
-67.7898
 42
-0.4126850687
  0
VERTEX
  8
LAYER_6
 10
95.7538
 20
-67.4164
  0
SEQEND
  0
POLYLINE
  8
LAYER_6
 40
0.1058
 41
0.1058
 66
1
 10
0
 20
0
 30
0
  0
VERTEX
  8
LAYER_6
 10
95.7538
 20
-197.6664
 42
0.4126850687
  0
VERTEX
  8
LAYER_6
 10
95.4114
 20
-198.0398
  0
VERTEX
  8
LAYER_6
 10
95.4114
 20
-198.0414
  0
VERTEX
  8
LAYER_6
 10
95.4114
 20
-198.7914
 42
0.4125336416
  0
VERTEX
  8
LAYER_6
 10
95.7524
 20
-199.1664
  0
VERTEX
  8
LAYER_6
 10
95.7538
 20
-199.1664
  0
VERTEX
  8
LAYER_6
 10
95.7524
 20
-199.1664
 42
-0.4125336416
  0
VERTEX
  8
LAYER_6
 10
95.4114
 20
-198.7914
  0
SEQEND
  0
POLYLINE
  8
LAYER_6
 40
0.1058
 41
0.1058
 66
1
 10
0
 20
0
 30
0
  0
VERTEX
  8
LAYER_6
 10
95.7538
 20
-193.1664
 42
0.4126850687
  0
VERTEX
  8
LAYER_6
 10
95.4114
 20
-193.5398
  0
VERTEX
  8
LAYER_6
 10
95.4114
 20
-193.5414
  0
VERTEX
  8
LAYER_6
 10
95.4114
 20
-194.2914
 42
0.4125336416
  0
VERTEX
  8
LAYER_6
 10
95.7524
 20
-194.6664
  0
VERTEX
  8
LAYER_6
 10
95.7538
 20
-194.6664
  0
SEQEND
  0
POLYLINE
  8
LAYER_6
 40
0.1058
 41
0.1058
 66
1
 10
0
 20
0
 30
0
  0
VERTEX
  8
LAYER_6
 10
95.7538
 20
-188.6664
 42
0.4126850687
  0
VERTEX
  8
LAYER_6
 10
95.4114
 20
-189.0398
  0
VERTEX
  8
LAYER_6
 10
95.4114
 20
-189.0414
  0
VERTEX
  8
LAYER_6
 10
95.4114
 20
-189.7914
 42
0.4125336416
  0
VERTEX
  8
LAYER_6
 10
95.7524
 20
-190.1664
  0
VERTEX
  8
LAYER_6
 10
95.7538
 20
-190.1664
  0
SEQEND
  0
POLYLINE
  8
LAYER_6
 40
0.1058
 41
0.1058
 66
1
 10
0
 20
0
 30
0
  0
VERTEX
  8
LAYER_6
 10
95.7538
 20
-184.1664
 42
0.4126850687
  0
VERTEX
  8
LAYER_6
 10
95.4114
 20
-184.5398
  0
VERTEX
  8
LAYER_6
 10
95.4114
 20
-184.5414
  0
VERTEX
  8
LAYER_6
 10
95.4114
 20
-185.2914
 42
0.4125336416
  0
VERTEX
  8
LAYER_6
 10
95.7524
 20
-185.6664
  0
VERTEX
  8
LAYER_6
 10
95.7538
 20
-185.6664
  0
SEQEND
  0
POLYLINE
  8
LAYER_6
 40
0.1058
 41
0.1058
 66
1
 10
0
 20
0
 30
0
  0
VERTEX
  8
LAYER_6
 10
86.0808
 20
-202.6664
 42
0.2131278503
  0
VERTEX
  8
LAYER_6
 10
82.3299
 20
-204.42
 42
0.3190399436
  0
VERTEX
  8
LAYER_6
 10
81.6208
 20
-212.9527
 42
0.2615993037
  0
VERTEX
  8
LAYER_6
 10
86.0465
 20
-215.6662
  0
VERTEX
  8
LAYER_6
 10
86.0693
 20
-215.6663
 42
0.2630632061
  0
VERTEX
  8
LAYER_6
 10
90.5238
 20
-212.9527
 42
0.3190395203
  0
VERTEX
  8
LAYER_6
 10
89.8147
 20
-204.42
 42
0.2131276755
  0
VERTEX
  8
LAYER_6
 10
86.0638
 20
-202.6664
  0
SEQEND
  0
POLYLINE
  8
LAYER_6
 40
0.1058
 41
0.1058
 66
1
 10
0
 20
0
 30
0
  0
VERTEX
  8
LAYER_6
 10
86.0808
 20
-50.4147
 42
-0.2131270889
  0
VERTEX
  8
LAYER_6
 10
82.3299
 20
-48.6611
 42
-0.3190398721
  0
VERTEX
  8
LAYER_6
 10
81.6208
 20
-40.1284
 42
-0.261600146
  0
VERTEX
  8
LAYER_6
 10
86.0465
 20
-37.4149
  0
VERTEX
  8
LAYER_6
 10
86.0693
 20
-37.4148
 42
0.3933091557
  0
VERTEX
  8
LAYER_6
 10
83.6122
 20
-39.8722
 42
0.4135286538
  0
VERTEX
  8
LAYER_6
 10
86.0639
 20
-42.3409
 42
0.4135428766
  0
VERTEX
  8
LAYER_6
 10
88.5383
 20
-39.8949
 42
0.4135431419
  0
VERTEX
  8
LAYER_6
 10
86.098
 20
-37.4149
 42
-0.2616049279
  0
VERTEX
  8
LAYER_6
 10
90.5238
 20
-40.1284
 42
-0.3190394489
  0
VERTEX
  8
LAYER_6
 10
89.8147
 20
-48.6611
 42
-0.2131269141
  0
VERTEX
  8
LAYER_6
 10
86.0638
 20
-50.4147
  0
SEQEND
  0
POLYLINE
  8
LAYER_6
 40
0.1058
 41
0.1058
 66
1
 10
0
 20
0
 30
0
  0
VERTEX
  8
LAYER_6
 10
76.3908
 20
-185.6664
 42
0.4141443277
  0
VERTEX
  8
LAYER_6
 10
75.1197
 20
-186.9371
 42
0.4141337847
  0
VERTEX
  8
LAYER_6
 10
76.3901
 20
-188.2085
 42
0.4141214918
  0
VERTEX
  8
LAYER_6
 10
77.6618
 20
-186.9385
 42
0.4141320411
  0
VERTEX
  8
LAYER_6
 10
76.3922
 20
-185.6664
 42
0.4125252922
  0
VERTEX
  8
LAYER_6
 10
76.7332
 20
-185.2914
  0
VERTEX
  8
LAYER_6
 10
76.7332
 20
-184.5414
  0
VERTEX
  8
LAYER_6
 10
76.7332
 20
-184.5398
 42
0.4126767407
  0
VERTEX
  8
LAYER_6
 10
76.3908
 20
-184.1664
  0
SEQEND
  0
POLYLINE
  8
LAYER_6
 40
0.1058
 41
0.1058
 66
1
 10
0
 20
0
 30
0
 70
1
  0
VERTEX
  8
LAYER_6
 10
97.5799
 20
-181.1664
 42
0.4139617064
  0
VERTEX
  8
LAYER_6
 10
96.7058
 20
-182.0397
 42
0.4139937879
  0
VERTEX
  8
LAYER_6
 10
97.5785
 20
-182.9145
 42
0.4139628678
  0
VERTEX
  8
LAYER_6
 10
98.454
 20
-182.0426
 42
0.4139641854
  0
VERTEX
  8
LAYER_6
 10
97.5828
 20
-181.1664
 42
-0.4110829529
  0
VERTEX
  8
LAYER_6
 10
97.9223
 20
-181.5414
  0
VERTEX
  8
LAYER_6
 10
97.9223
 20
-183.7914
  0
VERTEX
  8
LAYER_6
 10
97.9223
 20
-183.7929
 42
-0.4127372994
  0
VERTEX
  8
LAYER_6
 10
97.5799
 20
-184.1664
  0
VERTEX
  8
LAYER_6
 10
86.0723
 20
-184.1664
  0
VERTEX
  8
LAYER_6
 10
74.5647
 20
-184.1664
 42
-0.4127456274
  0
VERTEX
  8
LAYER_6
 10
74.2223
 20
-183.7929
  0
VERTEX
  8
LAYER_6
 10
74.2223
 20
-183.7914
  0
VERTEX
  8
LAYER_6
 10
74.2223
 20
-181.5414
 42
-0.4126058422
  0
VERTEX
  8
LAYER_6
 10
74.5633
 20
-181.1664
  0
VERTEX
  8
LAYER_6
 10
74.5647
 20
-181.1664
  0
VERTEX
  8
LAYER_6
 10
86.0723
 20
-181.1664
  0
SEQEND
  0
POLYLINE
  8
LAYER_6
 40
0.1058
 41
0.1058
 66
1
 10
0
 20
0
 30
0
 70
1
  0
VERTEX
  8
LAYER_6
 10
97.5799
 20
-185.6664
  0
VERTEX
  8
LAYER_6
 10
86.0723
 20
-185.6664
  0
VERTEX
  8
LAYER_6
 10
74.5647
 20
-185.6664
  0
VERTEX
  8
LAYER_6
 10
74.5633
 20
-185.6664
 42
0.412605842
  0
VERTEX
  8
LAYER_6
 10
74.2223
 20
-186.0414
  0
VERTEX
  8
LAYER_6
 10
74.2223
 20
-188.2914
  0
VERTEX
  8
LAYER_6
 10
74.2223
 20
-188.2929
 42
0.4127456274
  0
VERTEX
  8
LAYER_6
 10
74.5647
 20
-188.6664
  0
VERTEX
  8
LAYER_6
 10
86.0723
 20
-188.6664
  0
VERTEX
  8
LAYER_6
 10
97.5799
 20
-188.6664
 42
0.4127372994
  0
VERTEX
  8
LAYER_6
 10
97.9223
 20
-188.2929
  0
VERTEX
  8
LAYER_6
 10
97.9223
 20
-188.2914
  0
VERTEX
  8
LAYER_6
 10
97.9223
 20
-186.0414
 42
0.4110829529
  0
VERTEX
  8
LAYER_6
 10
97.5828
 20
-185.6664
 42
-0.4139641451
  0
VERTEX
  8
LAYER_6
 10
98.454
 20
-186.5426
 42
-0.4139629083
  0
VERTEX
  8
LAYER_6
 10
97.5785
 20
-187.4145
 42
-0.4139938282
  0
VERTEX
  8
LAYER_6
 10
96.7058
 20
-186.5397
 42
-0.4139616663
  0
SEQEND
  0
POLYLINE
  8
LAYER_6
 40
0.1058
 41
0.1058
 66
1
 10
0
 20
0
 30
0
  0
VERTEX
  8
LAYER_6
 10
76.3908
 20
-190.1664
 42
0.4141443277
  0
VERTEX
  8
LAYER_6
 10
75.1197
 20
-191.4371
 42
0.4141337847
  0
VERTEX
  8
LAYER_6
 10
76.3901
 20
-192.7085
 42
0.4141214918
  0
VERTEX
  8
LAYER_6
 10
77.6618
 20
-191.4385
 42
0.4141320411
  0
VERTEX
  8
LAYER_6
 10
76.3922
 20
-190.1664
 42
0.4125252922
  0
VERTEX
  8
LAYER_6
 10
76.7332
 20
-189.7914
  0
VERTEX
  8
LAYER_6
 10
76.7332
 20
-189.0414
  0
VERTEX
  8
LAYER_6
 10
76.7332
 20
-189.0398
 42
0.4126767407
  0
VERTEX
  8
LAYER_6
 10
76.3908
 20
-188.6664
  0
SEQEND
  0
POLYLINE
  8
LAYER_6
 40
0.1058
 41
0.1058
 66
1
 10
0
 20
0
 30
0
  0
VERTEX
  8
LAYER_6
 10
76.3908
 20
-194.6664
 42
0.4141443277
  0
VERTEX
  8
LAYER_6
 10
75.1197
 20
-195.9371
 42
0.4141337847
  0
VERTEX
  8
LAYER_6
 10
76.3901
 20
-197.2085
 42
0.4141214918
  0
VERTEX
  8
LAYER_6
 10
77.6618
 20
-195.9385
 42
0.4141320411
  0
VERTEX
  8
LAYER_6
 10
76.3922
 20
-194.6664
 42
0.4125252922
  0
VERTEX
  8
LAYER_6
 10
76.7332
 20
-194.2914
  0
VERTEX
  8
LAYER_6
 10
76.7332
 20
-193.5414
  0
VERTEX
  8
LAYER_6
 10
76.7332
 20
-193.5398
 42
0.4126767407
  0
VERTEX
  8
LAYER_6
 10
76.3908
 20
-193.1664
  0
SEQEND
  0
POLYLINE
  8
LAYER_6
 40
0.1058
 41
0.1058
 66
1
 10
0
 20
0
 30
0
 70
1
  0
VERTEX
  8
LAYER_6
 10
97.5799
 20
-190.1664
 42
0.413961666
  0
VERTEX
  8
LAYER_6
 10
96.7058
 20
-191.0397
 42
0.4139938282
  0
VERTEX
  8
LAYER_6
 10
97.5785
 20
-191.9145
 42
0.4139629083
  0
VERTEX
  8
LAYER_6
 10
98.454
 20
-191.0426
 42
0.4139641451
  0
VERTEX
  8
LAYER_6
 10
97.5828
 20
-190.1664
 42
-0.4110829529
  0
VERTEX
  8
LAYER_6
 10
97.9223
 20
-190.5414
  0
VERTEX
  8
LAYER_6
 10
97.9223
 20
-192.7914
  0
VERTEX
  8
LAYER_6
 10
97.9223
 20
-192.7929
 42
-0.4127372994
  0
VERTEX
  8
LAYER_6
 10
97.5799
 20
-193.1664
  0
VERTEX
  8
LAYER_6
 10
86.0723
 20
-193.1664
  0
VERTEX
  8
LAYER_6
 10
74.5647
 20
-193.1664
 42
-0.4127456274
  0
VERTEX
  8
LAYER_6
 10
74.2223
 20
-192.7929
  0
VERTEX
  8
LAYER_6
 10
74.2223
 20
-192.7914
  0
VERTEX
  8
LAYER_6
 10
74.2223
 20
-190.5414
 42
-0.4126058422
  0
VERTEX
  8
LAYER_6
 10
74.5633
 20
-190.1664
  0
VERTEX
  8
LAYER_6
 10
74.5647
 20
-190.1664
  0
VERTEX
  8
LAYER_6
 10
86.0723
 20
-190.1664
  0
SEQEND
  0
POLYLINE
  8
LAYER_6
 40
0.1058
 41
0.1058
 66
1
 10
0
 20
0
 30
0
 70
1
  0
VERTEX
  8
LAYER_6
 10
97.5799
 20
-194.6664
 42
0.413961666
  0
VERTEX
  8
LAYER_6
 10
96.7058
 20
-195.5397
 42
0.4139938282
  0
VERTEX
  8
LAYER_6
 10
97.5785
 20
-196.4145
 42
0.4139629083
  0
VERTEX
  8
LAYER_6
 10
98.454
 20
-195.5426
 42
0.4139641451
  0
VERTEX
  8
LAYER_6
 10
97.5828
 20
-194.6664
 42
-0.4110829529
  0
VERTEX
  8
LAYER_6
 10
97.9223
 20
-195.0414
  0
VERTEX
  8
LAYER_6
 10
97.9223
 20
-197.2914
  0
VERTEX
  8
LAYER_6
 10
97.9223
 20
-197.2929
 42
-0.4127372994
  0
VERTEX
  8
LAYER_6
 10
97.5799
 20
-197.6664
  0
VERTEX
  8
LAYER_6
 10
86.0723
 20
-197.6664
  0
VERTEX
  8
LAYER_6
 10
74.5647
 20
-197.6664
 42
-0.4127456274
  0
VERTEX
  8
LAYER_6
 10
74.2223
 20
-197.2929
  0
VERTEX
  8
LAYER_6
 10
74.2223
 20
-197.2914
  0
VERTEX
  8
LAYER_6
 10
74.2223
 20
-195.0414
 42
-0.4126058422
  0
VERTEX
  8
LAYER_6
 10
74.5633
 20
-194.6664
  0
VERTEX
  8
LAYER_6
 10
74.5647
 20
-194.6664
  0
VERTEX
  8
LAYER_6
 10
86.0723
 20
-194.6664
  0
SEQEND
  0
POLYLINE
  8
LAYER_6
 40
0.1058
 41
0.1058
 66
1
 10
0
 20
0
 30
0
  0
VERTEX
  8
LAYER_6
 10
76.3908
 20
-197.6664
 42
-0.4126767407
  0
VERTEX
  8
LAYER_6
 10
76.7332
 20
-198.0398
  0
VERTEX
  8
LAYER_6
 10
76.7332
 20
-198.0414
  0
VERTEX
  8
LAYER_6
 10
76.7332
 20
-198.7914
  0
SEQEND
  0
POLYLINE
  8
LAYER_6
 40
0.1058
 41
0.1058
 66
1
 10
0
 20
0
 30
0
 70
1
  0
VERTEX
  8
LAYER_6
 10
76.7332
 20
-198.7914
 42
-0.4125252922
  0
VERTEX
  8
LAYER_6
 10
76.3922
 20
-199.1664
 42
-0.4141320411
  0
VERTEX
  8
LAYER_6
 10
77.6618
 20
-200.4385
 42
-0.4141214918
  0
VERTEX
  8
LAYER_6
 10
76.3901
 20
-201.7085
 42
-0.4141337847
  0
VERTEX
  8
LAYER_6
 10
75.1197
 20
-200.4371
 42
-0.4141443277
  0
VERTEX
  8
LAYER_6
 10
76.3908
 20
-199.1664
 42
0.4141443277
  0
VERTEX
  8
LAYER_6
 10
75.1197
 20
-200.4371
 42
0.4141337847
  0
VERTEX
  8
LAYER_6
 10
76.3901
 20
-201.7085
 42
0.4141214918
  0
VERTEX
  8
LAYER_6
 10
77.6618
 20
-200.4385
 42
0.4141320411
  0
VERTEX
  8
LAYER_6
 10
76.3922
 20
-199.1664
 42
0.4125252922
  0
SEQEND
  0
POLYLINE
  8
LAYER_6
 40
0.1058
 41
0.1058
 66
1
 10
0
 20
0
 30
0
  0
VERTEX
  8
LAYER_6
 10
74.2223
 20
-201.7897
  0
VERTEX
  8
LAYER_6
 10
74.2223
 20
-199.5414
 42
-0.412605842
  0
VERTEX
  8
LAYER_6
 10
74.5633
 20
-199.1664
  0
VERTEX
  8
LAYER_6
 10
74.5647
 20
-199.1664
  0
VERTEX
  8
LAYER_6
 10
86.0723
 20
-199.1664
  0
VERTEX
  8
LAYER_6
 10
97.5799
 20
-199.1664
 42
0.4139616663
  0
VERTEX
  8
LAYER_6
 10
96.7058
 20
-200.0397
 42
0.4139938282
  0
VERTEX
  8
LAYER_6
 10
97.5785
 20
-200.9145
 42
0.4139629083
  0
VERTEX
  8
LAYER_6
 10
98.454
 20
-200.0426
 42
0.4139641451
  0
VERTEX
  8
LAYER_6
 10
97.5828
 20
-199.1664
 42
-0.4110829529
  0
VERTEX
  8
LAYER_6
 10
97.9223
 20
-199.5414
  0
VERTEX
  8
LAYER_6
 10
97.9223
 20
-201.7897
 42
-0.4125820263
  0
VERTEX
  8
LAYER_6
 10
97.5813
 20
-202.1647
 42
-0.4141300687
  0
VERTEX
  8
LAYER_6
 10
98.851
 20
-203.4368
 42
-0.4141375047
  0
VERTEX
  8
LAYER_6
 10
97.5792
 20
-204.7068
 42
-0.4141357469
  0
VERTEX
  8
LAYER_6
 10
96.3088
 20
-203.4354
 42
-0.4141283349
  0
VERTEX
  8
LAYER_6
 10
97.5799
 20
-202.1647
 42
0.3917130131
  0
VERTEX
  8
LAYER_6
 10
97.9223
 20
-201.7929
  0
VERTEX
  8
LAYER_6
 10
97.9223
 20
-201.7914
  0
SEQEND
  0
POLYLINE
  8
LAYER_6
 40
0.1058
 41
0.1058
 66
1
 10
0
 20
0
 30
0
  0
VERTEX
  8
LAYER_6
 10
97.1967
 20
-202.1664
  0
VERTEX
  8
LAYER_6
 10
86.0723
 20
-202.1664
  0
VERTEX
  8
LAYER_6
 10
74.5647
 20
-202.1664
 42
-0.4127456274
  0
VERTEX
  8
LAYER_6
 10
74.2223
 20
-201.7929
  0
VERTEX
  8
LAYER_6
 10
74.2223
 20
-201.7914
 42
0.3927216067
  0
VERTEX
  8
LAYER_6
 10
74.5633
 20
-202.1647
  0
VERTEX
  8
LAYER_6
 10
74.5647
 20
-202.1647
  0
SEQEND
  0
POLYLINE
  8
LAYER_6
 40
0.1058
 41
0.1058
 66
1
 10
0
 20
0
 30
0
  0
VERTEX
  8
LAYER_6
 10
76.3908
 20
-76.4164
 42
-0.4126767407
  0
VERTEX
  8
LAYER_6
 10
76.7332
 20
-76.7898
  0
VERTEX
  8
LAYER_6
 10
76.7332
 20
-76.7914
  0
VERTEX
  8
LAYER_6
 10
76.7332
 20
-77.5414
  0
SEQEND
  0
POLYLINE
  8
LAYER_6
 40
0.1058
 41
0.1058
 66
1
 10
0
 20
0
 30
0
 70
1
  0
VERTEX
  8
LAYER_6
 10
76.7332
 20
-77.5414
 42
-0.4125252922
  0
VERTEX
  8
LAYER_6
 10
76.3922
 20
-77.9164
 42
-0.4141321584
  0
VERTEX
  8
LAYER_6
 10
77.6618
 20
-79.1885
 42
-0.4141213744
  0
VERTEX
  8
LAYER_6
 10
76.3901
 20
-80.4585
 42
-0.4141336675
  0
VERTEX
  8
LAYER_6
 10
75.1197
 20
-79.1871
 42
-0.414144445
  0
VERTEX
  8
LAYER_6
 10
76.3908
 20
-77.9164
 42
0.414144445
  0
VERTEX
  8
LAYER_6
 10
75.1197
 20
-79.1871
 42
0.4141336675
  0
VERTEX
  8
LAYER_6
 10
76.3901
 20
-80.4585
 42
0.4141213744
  0
VERTEX
  8
LAYER_6
 10
77.6618
 20
-79.1885
 42
0.4141321584
  0
VERTEX
  8
LAYER_6
 10
76.3922
 20
-77.9164
 42
0.4125252922
  0
SEQEND
  0
POLYLINE
  8
LAYER_6
 40
0.1058
 41
0.1058
 66
1
 10
0
 20
0
 30
0
  0
VERTEX
  8
LAYER_6
 10
76.3908
 20
-85.4164
 42
-0.4126767407
  0
VERTEX
  8
LAYER_6
 10
76.7332
 20
-85.7898
  0
VERTEX
  8
LAYER_6
 10
76.7332
 20
-85.7914
  0
VERTEX
  8
LAYER_6
 10
76.7332
 20
-86.5414
  0
SEQEND
  0
POLYLINE
  8
LAYER_6
 40
0.1058
 41
0.1058
 66
1
 10
0
 20
0
 30
0
 70
1
  0
VERTEX
  8
LAYER_6
 10
76.7332
 20
-86.5414
 42
-0.4125252922
  0
VERTEX
  8
LAYER_6
 10
76.3922
 20
-86.9164
 42
-0.4141320411
  0
VERTEX
  8
LAYER_6
 10
77.6618
 20
-88.1885
 42
-0.4141214918
  0
VERTEX
  8
LAYER_6
 10
76.3901
 20
-89.4585
 42
-0.4141337847
  0
VERTEX
  8
LAYER_6
 10
75.1197
 20
-88.1871
 42
-0.4141443277
  0
VERTEX
  8
LAYER_6
 10
76.3908
 20
-86.9164
 42
0.4141443277
  0
VERTEX
  8
LAYER_6
 10
75.1197
 20
-88.1871
 42
0.4141337847
  0
VERTEX
  8
LAYER_6
 10
76.3901
 20
-89.4585
 42
0.4141214918
  0
VERTEX
  8
LAYER_6
 10
77.6618
 20
-88.1885
 42
0.4141320411
  0
VERTEX
  8
LAYER_6
 10
76.3922
 20
-86.9164
 42
0.4125252922
  0
SEQEND
  0
POLYLINE
  8
LAYER_6
 40
0.1058
 41
0.1058
 66
1
 10
0
 20
0
 30
0
 70
1
  0
VERTEX
  8
LAYER_6
 10
76.7332
 20
-86.5414
 42
-0.4125252922
  0
VERTEX
  8
LAYER_6
 10
76.3922
 20
-86.9164
 42
-0.4141320411
  0
VERTEX
  8
LAYER_6
 10
77.6618
 20
-88.1885
 42
-0.4141214918
  0
VERTEX
  8
LAYER_6
 10
76.3901
 20
-89.4585
 42
-0.4141337847
  0
VERTEX
  8
LAYER_6
 10
75.1197
 20
-88.1871
 42
-0.4141443277
  0
VERTEX
  8
LAYER_6
 10
76.3908
 20
-86.9164
 42
0.4141443277
  0
VERTEX
  8
LAYER_6
 10
75.1197
 20
-88.1871
 42
0.4141337847
  0
VERTEX
  8
LAYER_6
 10
76.3901
 20
-89.4585
 42
0.4141214918
  0
VERTEX
  8
LAYER_6
 10
77.6618
 20
-88.1885
 42
0.4141320411
  0
VERTEX
  8
LAYER_6
 10
76.3922
 20
-86.9164
 42
0.4125252922
  0
SEQEND
  0
POLYLINE
  8
LAYER_6
 40
0.1058
 41
0.1058
 66
1
 10
0
 20
0
 30
0
  0
VERTEX
  8
LAYER_6
 10
76.3908
 20
-94.4164
 42
-0.4126767407
  0
VERTEX
  8
LAYER_6
 10
76.7332
 20
-94.7898
  0
VERTEX
  8
LAYER_6
 10
76.7332
 20
-94.7914
  0
VERTEX
  8
LAYER_6
 10
76.7332
 20
-95.5414
  0
SEQEND
  0
POLYLINE
  8
LAYER_6
 40
0.1058
 41
0.1058
 66
1
 10
0
 20
0
 30
0
 70
1
  0
VERTEX
  8
LAYER_6
 10
76.7332
 20
-95.5414
 42
-0.4125252922
  0
VERTEX
  8
LAYER_6
 10
76.3922
 20
-95.9164
 42
-0.4141321583
  0
VERTEX
  8
LAYER_6
 10
77.6618
 20
-97.1885
 42
-0.4141213744
  0
VERTEX
  8
LAYER_6
 10
76.3901
 20
-98.4585
 42
-0.4141336675
  0
VERTEX
  8
LAYER_6
 10
75.1197
 20
-97.1871
 42
-0.414144445
  0
VERTEX
  8
LAYER_6
 10
76.3908
 20
-95.9164
 42
0.414144445
  0
VERTEX
  8
LAYER_6
 10
75.1197
 20
-97.1871
 42
0.4141336675
  0
VERTEX
  8
LAYER_6
 10
76.3901
 20
-98.4585
 42
0.4141213744
  0
VERTEX
  8
LAYER_6
 10
77.6618
 20
-97.1885
 42
0.4141321583
  0
VERTEX
  8
LAYER_6
 10
76.3922
 20
-95.9164
 42
0.4125252922
  0
SEQEND
  0
POLYLINE
  8
LAYER_6
 40
0.1058
 41
0.1058
 66
1
 10
0
 20
0
 30
0
 70
1
  0
VERTEX
  8
LAYER_6
 10
76.7332
 20
-95.5414
 42
-0.4125252922
  0
VERTEX
  8
LAYER_6
 10
76.3922
 20
-95.9164
 42
-0.4141321583
  0
VERTEX
  8
LAYER_6
 10
77.6618
 20
-97.1885
 42
-0.4141213744
  0
VERTEX
  8
LAYER_6
 10
76.3901
 20
-98.4585
 42
-0.4141336675
  0
VERTEX
  8
LAYER_6
 10
75.1197
 20
-97.1871
 42
-0.414144445
  0
VERTEX
  8
LAYER_6
 10
76.3908
 20
-95.9164
 42
0.414144445
  0
VERTEX
  8
LAYER_6
 10
75.1197
 20
-97.1871
 42
0.4141336675
  0
VERTEX
  8
LAYER_6
 10
76.3901
 20
-98.4585
 42
0.4141213744
  0
VERTEX
  8
LAYER_6
 10
77.6618
 20
-97.1885
 42
0.4141321583
  0
VERTEX
  8
LAYER_6
 10
76.3922
 20
-95.9164
 42
0.4125252922
  0
SEQEND
  0
POLYLINE
  8
LAYER_6
 40
0.1058
 41
0.1058
 66
1
 10
0
 20
0
 30
0
 70
1
  0
VERTEX
  8
LAYER_6
 10
76.7332
 20
-104.5414
 42
-0.4125252922
  0
VERTEX
  8
LAYER_6
 10
76.3922
 20
-104.9164
 42
-0.4141321584
  0
VERTEX
  8
LAYER_6
 10
77.6618
 20
-106.1885
 42
-0.4141213744
  0
VERTEX
  8
LAYER_6
 10
76.3901
 20
-107.4585
 42
-0.4141336674
  0
VERTEX
  8
LAYER_6
 10
75.1197
 20
-106.1871
 42
-0.414144445
  0
VERTEX
  8
LAYER_6
 10
76.3908
 20
-104.9164
 42
0.414144445
  0
VERTEX
  8
LAYER_6
 10
75.1197
 20
-106.1871
 42
0.4141336675
  0
VERTEX
  8
LAYER_6
 10
76.3901
 20
-107.4585
 42
0.4141213744
  0
VERTEX
  8
LAYER_6
 10
77.6618
 20
-106.1885
 42
0.4141321584
  0
VERTEX
  8
LAYER_6
 10
76.3922
 20
-104.9164
 42
0.4125252922
  0
SEQEND
  0
POLYLINE
  8
LAYER_6
 40
0.1058
 41
0.1058
 66
1
 10
0
 20
0
 30
0
 70
1
  0
VERTEX
  8
LAYER_6
 10
76.7332
 20
-104.5414
 42
-0.4125252922
  0
VERTEX
  8
LAYER_6
 10
76.3922
 20
-104.9164
 42
-0.4141321584
  0
VERTEX
  8
LAYER_6
 10
77.6618
 20
-106.1885
 42
-0.4141213744
  0
VERTEX
  8
LAYER_6
 10
76.3901
 20
-107.4585
 42
-0.4141336674
  0
VERTEX
  8
LAYER_6
 10
75.1197
 20
-106.1871
 42
-0.414144445
  0
VERTEX
  8
LAYER_6
 10
76.3908
 20
-104.9164
 42
0.414144445
  0
VERTEX
  8
LAYER_6
 10
75.1197
 20
-106.1871
 42
0.4141336675
  0
VERTEX
  8
LAYER_6
 10
76.3901
 20
-107.4585
 42
0.4141213744
  0
VERTEX
  8
LAYER_6
 10
77.6618
 20
-106.1885
 42
0.4141321584
  0
VERTEX
  8
LAYER_6
 10
76.3922
 20
-104.9164
 42
0.4125252922
  0
SEQEND
  0
POLYLINE
  8
LAYER_6
 40
0.1058
 41
0.1058
 66
1
 10
0
 20
0
 30
0
 70
1
  0
VERTEX
  8
LAYER_6
 10
76.7332
 20
-113.5414
 42
-0.4125252922
  0
VERTEX
  8
LAYER_6
 10
76.3922
 20
-113.9164
 42
-0.4141320411
  0
VERTEX
  8
LAYER_6
 10
77.6618
 20
-115.1885
 42
-0.4141214918
  0
VERTEX
  8
LAYER_6
 10
76.3901
 20
-116.4585
 42
-0.4141337847
  0
VERTEX
  8
LAYER_6
 10
75.1197
 20
-115.1871
 42
-0.4141443277
  0
VERTEX
  8
LAYER_6
 10
76.3908
 20
-113.9164
 42
0.4141443277
  0
VERTEX
  8
LAYER_6
 10
75.1197
 20
-115.1871
 42
0.4141337847
  0
VERTEX
  8
LAYER_6
 10
76.3901
 20
-116.4585
 42
0.4141214918
  0
VERTEX
  8
LAYER_6
 10
77.6618
 20
-115.1885
 42
0.4141320411
  0
VERTEX
  8
LAYER_6
 10
76.3922
 20
-113.9164
 42
0.4125252922
  0
SEQEND
  0
POLYLINE
  8
LAYER_6
 40
0.1058
 41
0.1058
 66
1
 10
0
 20
0
 30
0
 70
1
  0
VERTEX
  8
LAYER_6
 10
76.7332
 20
-113.5414
 42
-0.4125252922
  0
VERTEX
  8
LAYER_6
 10
76.3922
 20
-113.9164
 42
-0.4141320411
  0
VERTEX
  8
LAYER_6
 10
77.6618
 20
-115.1885
 42
-0.4141214918
  0
VERTEX
  8
LAYER_6
 10
76.3901
 20
-116.4585
 42
-0.4141337847
  0
VERTEX
  8
LAYER_6
 10
75.1197
 20
-115.1871
 42
-0.4141443277
  0
VERTEX
  8
LAYER_6
 10
76.3908
 20
-113.9164
 42
0.4141443277
  0
VERTEX
  8
LAYER_6
 10
75.1197
 20
-115.1871
 42
0.4141337847
  0
VERTEX
  8
LAYER_6
 10
76.3901
 20
-116.4585
 42
0.4141214918
  0
VERTEX
  8
LAYER_6
 10
77.6618
 20
-115.1885
 42
0.4141320411
  0
VERTEX
  8
LAYER_6
 10
76.3922
 20
-113.9164
 42
0.4125252922
  0
SEQEND
  0
POLYLINE
  8
LAYER_6
 40
0.1058
 41
0.1058
 66
1
 10
0
 20
0
 30
0
 70
1
  0
VERTEX
  8
LAYER_6
 10
76.3908
 20
-112.4164
 42
-0.4126767407
  0
VERTEX
  8
LAYER_6
 10
76.7332
 20
-112.7898
  0
VERTEX
  8
LAYER_6
 10
76.7332
 20
-112.7914
  0
VERTEX
  8
LAYER_6
 10
76.7332
 20
-112.7898
 42
0.4126767407
  0
SEQEND
  0
POLYLINE
  8
LAYER_6
 40
0.1058
 41
0.1058
 66
1
 10
0
 20
0
 30
0
  0
VERTEX
  8
LAYER_6
 10
74.5647
 20
-50.9164
  0
VERTEX
  8
LAYER_6
 10
74.5633
 20
-50.9164
 42
0.412605842
  0
VERTEX
  8
LAYER_6
 10
74.2223
 20
-51.2914
  0
VERTEX
  8
LAYER_6
 10
74.2223
 20
-53.5414
  0
VERTEX
  8
LAYER_6
 10
74.2223
 20
-53.5429
 42
0.4127456274
  0
VERTEX
  8
LAYER_6
 10
74.5647
 20
-53.9164
  0
VERTEX
  8
LAYER_6
 10
86.0723
 20
-53.9164
  0
VERTEX
  8
LAYER_6
 10
97.5799
 20
-53.9164
 42
0.4127372994
  0
VERTEX
  8
LAYER_6
 10
97.9223
 20
-53.5429
  0
VERTEX
  8
LAYER_6
 10
97.9223
 20
-53.5414
  0
VERTEX
  8
LAYER_6
 10
97.9223
 20
-51.2914
 42
0.4110829529
  0
VERTEX
  8
LAYER_6
 10
97.5828
 20
-50.9164
 42
-0.4139641652
  0
VERTEX
  8
LAYER_6
 10
98.454
 20
-51.7926
 42
-0.413962888
  0
VERTEX
  8
LAYER_6
 10
97.5785
 20
-52.6645
 42
-0.413993808
  0
VERTEX
  8
LAYER_6
 10
96.7058
 20
-51.7897
 42
-0.4139616862
  0
VERTEX
  8
LAYER_6
 10
97.5799
 20
-50.9164
  0
SEQEND
  0
POLYLINE
  8
LAYER_6
 40
0.1058
 41
0.1058
 66
1
 10
0
 20
0
 30
0
 70
1
  0
VERTEX
  8
LAYER_6
 10
76.3908
 20
-103.4164
 42
-0.4126767407
  0
VERTEX
  8
LAYER_6
 10
76.7332
 20
-103.7898
  0
VERTEX
  8
LAYER_6
 10
76.7332
 20
-103.7914
  0
VERTEX
  8
LAYER_6
 10
76.7332
 20
-103.7898
 42
0.4126767407
  0
SEQEND
  0
POLYLINE
  8
LAYER_6
 40
0.1058
 41
0.1058
 66
1
 10
0
 20
0
 30
0
  0
VERTEX
  8
LAYER_6
 10
74.8788
 20
-121.4164
  0
VERTEX
  8
LAYER_6
 10
74.5647
 20
-121.4164
 42
-0.4127456274
  0
VERTEX
  8
LAYER_6
 10
74.2223
 20
-121.0429
  0
VERTEX
  8
LAYER_6
 10
74.2223
 20
-121.0414
  0
VERTEX
  8
LAYER_6
 10
74.2223
 20
-118.7914
 42
-0.4126058422
  0
VERTEX
  8
LAYER_6
 10
74.5633
 20
-118.4164
  0
VERTEX
  8
LAYER_6
 10
74.5647
 20
-118.4164
  0
VERTEX
  8
LAYER_6
 10
86.0723
 20
-118.4164
  0
VERTEX
  8
LAYER_6
 10
97.5799
 20
-118.4164
 42
0.4139616865
  0
VERTEX
  8
LAYER_6
 10
96.7058
 20
-119.2897
 42
0.413993808
  0
VERTEX
  8
LAYER_6
 10
97.5785
 20
-120.1645
 42
0.413962888
  0
VERTEX
  8
LAYER_6
 10
98.454
 20
-119.2926
 42
0.4139641652
  0
VERTEX
  8
LAYER_6
 10
97.5828
 20
-118.4164
 42
-0.4110829529
  0
VERTEX
  8
LAYER_6
 10
97.9223
 20
-118.7914
  0
VERTEX
  8
LAYER_6
 10
97.9223
 20
-121.0414
  0
VERTEX
  8
LAYER_6
 10
97.9223
 20
-121.0429
 42
-0.4127372994
  0
VERTEX
  8
LAYER_6
 10
97.5799
 20
-121.4164
  0
VERTEX
  8
LAYER_6
 10
86.0723
 20
-121.4164
  0
VERTEX
  8
LAYER_6
 10
81.8382
 20
-121.4164
  0
SEQEND
  0
POLYLINE
  8
LAYER_6
 40
0.1058
 41
0.1058
 66
1
 10
0
 20
0
 30
0
 70
1
  0
VERTEX
  8
LAYER_6
 10
76.7332
 20
-113.5414
 42
-0.4125252922
  0
VERTEX
  8
LAYER_6
 10
76.3922
 20
-113.9164
 42
-0.4141320411
  0
VERTEX
  8
LAYER_6
 10
77.6618
 20
-115.1885
 42
-0.4141214918
  0
VERTEX
  8
LAYER_6
 10
76.3901
 20
-116.4585
 42
-0.4141337847
  0
VERTEX
  8
LAYER_6
 10
75.1197
 20
-115.1871
 42
-0.4141443277
  0
VERTEX
  8
LAYER_6
 10
76.3908
 20
-113.9164
 42
0.4141443277
  0
VERTEX
  8
LAYER_6
 10
75.1197
 20
-115.1871
 42
0.4141337847
  0
VERTEX
  8
LAYER_6
 10
76.3901
 20
-116.4585
 42
0.4141214918
  0
VERTEX
  8
LAYER_6
 10
77.6618
 20
-115.1885
 42
0.4141320411
  0
VERTEX
  8
LAYER_6
 10
76.3922
 20
-113.9164
 42
0.4125252922
  0
SEQEND
  0
POLYLINE
  8
LAYER_6
 40
0.1058
 41
0.1058
 66
1
 10
0
 20
0
 30
0
 70
1
  0
VERTEX
  8
LAYER_6
 10
76.7332
 20
-113.5414
 42
-0.4125252922
  0
VERTEX
  8
LAYER_6
 10
76.3922
 20
-113.9164
 42
-0.4141320411
  0
VERTEX
  8
LAYER_6
 10
77.6618
 20
-115.1885
 42
-0.4141214918
  0
VERTEX
  8
LAYER_6
 10
76.3901
 20
-116.4585
 42
-0.4141337847
  0
VERTEX
  8
LAYER_6
 10
75.1197
 20
-115.1871
 42
-0.4141443277
  0
VERTEX
  8
LAYER_6
 10
76.3908
 20
-113.9164
 42
0.4141443277
  0
VERTEX
  8
LAYER_6
 10
75.1197
 20
-115.1871
 42
0.4141337847
  0
VERTEX
  8
LAYER_6
 10
76.3901
 20
-116.4585
 42
0.4141214918
  0
VERTEX
  8
LAYER_6
 10
77.6618
 20
-115.1885
 42
0.4141320411
  0
VERTEX
  8
LAYER_6
 10
76.3922
 20
-113.9164
 42
0.4125252922
  0
SEQEND
  0
POLYLINE
  8
LAYER_6
 40
0.1058
 41
0.1058
 66
1
 10
0
 20
0
 30
0
  0
VERTEX
  8
LAYER_6
 10
76.3908
 20
-116.9164
 42
-0.4126767407
  0
VERTEX
  8
LAYER_6
 10
76.7332
 20
-117.2898
  0
VERTEX
  8
LAYER_6
 10
76.7332
 20
-117.2914
  0
VERTEX
  8
LAYER_6
 10
76.7332
 20
-118.0414
 42
-0.4125252922
  0
VERTEX
  8
LAYER_6
 10
76.3922
 20
-118.4164
 42
-0.4141321583
  0
VERTEX
  8
LAYER_6
 10
77.6618
 20
-119.6885
 42
-0.4141213744
  0
VERTEX
  8
LAYER_6
 10
76.3901
 20
-120.9585
 42
-0.4141336675
  0
VERTEX
  8
LAYER_6
 10
75.1197
 20
-119.6871
 42
-0.414144445
  0
VERTEX
  8
LAYER_6
 10
76.3908
 20
-118.4164
 42
0.414144445
  0
VERTEX
  8
LAYER_6
 10
75.1197
 20
-119.6871
 42
0.4141336675
  0
VERTEX
  8
LAYER_6
 10
76.3901
 20
-120.9585
 42
0.4141213744
  0
VERTEX
  8
LAYER_6
 10
77.6618
 20
-119.6885
 42
0.4141321583
  0
VERTEX
  8
LAYER_6
 10
76.3922
 20
-118.4164
 42
0.4125252922
  0
VERTEX
  8
LAYER_6
 10
76.7332
 20
-118.0414
 42
-0.4125252922
  0
VERTEX
  8
LAYER_6
 10
76.3922
 20
-118.4164
 42
-0.4141321583
  0
VERTEX
  8
LAYER_6
 10
77.6618
 20
-119.6885
 42
-0.4141213744
  0
VERTEX
  8
LAYER_6
 10
76.3901
 20
-120.9585
 42
-0.4141336675
  0
VERTEX
  8
LAYER_6
 10
75.1197
 20
-119.6871
 42
-0.414144445
  0
VERTEX
  8
LAYER_6
 10
76.3908
 20
-118.4164
 42
0.414144445
  0
VERTEX
  8
LAYER_6
 10
75.1197
 20
-119.6871
 42
0.4141336675
  0
VERTEX
  8
LAYER_6
 10
76.3901
 20
-120.9585
 42
0.4141213744
  0
VERTEX
  8
LAYER_6
 10
77.6618
 20
-119.6885
 42
0.4141321583
  0
VERTEX
  8
LAYER_6
 10
76.3922
 20
-118.4164
 42
0.4125252922
  0
VERTEX
  8
LAYER_6
 10
76.7332
 20
-118.0414
 42
-0.4125252922
  0
VERTEX
  8
LAYER_6
 10
76.3922
 20
-118.4164
 42
-0.4141321583
  0
VERTEX
  8
LAYER_6
 10
77.6618
 20
-119.6885
 42
-0.4141213744
  0
VERTEX
  8
LAYER_6
 10
76.3901
 20
-120.9585
 42
-0.4141336675
  0
VERTEX
  8
LAYER_6
 10
75.1197
 20
-119.6871
 42
-0.414144445
  0
VERTEX
  8
LAYER_6
 10
76.3908
 20
-118.4164
 42
0.414144445
  0
VERTEX
  8
LAYER_6
 10
75.1197
 20
-119.6871
 42
0.4141336675
  0
VERTEX
  8
LAYER_6
 10
76.3901
 20
-120.9585
 42
0.4141213744
  0
VERTEX
  8
LAYER_6
 10
77.6618
 20
-119.6885
 42
0.4141321583
  0
VERTEX
  8
LAYER_6
 10
76.3922
 20
-118.4164
 42
0.4125252922
  0
VERTEX
  8
LAYER_6
 10
76.7332
 20
-118.0414
 42
-0.4125252922
  0
VERTEX
  8
LAYER_6
 10
76.3922
 20
-118.4164
 42
-0.4141321583
  0
VERTEX
  8
LAYER_6
 10
77.6618
 20
-119.6885
 42
-0.4141213744
  0
VERTEX
  8
LAYER_6
 10
76.3901
 20
-120.9585
 42
-0.4141336675
  0
VERTEX
  8
LAYER_6
 10
75.1197
 20
-119.6871
 42
-0.414144445
  0
VERTEX
  8
LAYER_6
 10
76.3908
 20
-118.4164
 42
0.414144445
  0
VERTEX
  8
LAYER_6
 10
75.1197
 20
-119.6871
 42
0.4141336675
  0
VERTEX
  8
LAYER_6
 10
76.3901
 20
-120.9585
 42
0.4141213744
  0
VERTEX
  8
LAYER_6
 10
77.6618
 20
-119.6885
 42
0.4141321583
  0
VERTEX
  8
LAYER_6
 10
76.3922
 20
-118.4164
 42
0.4125252922
  0
VERTEX
  8
LAYER_6
 10
76.7332
 20
-118.0414
  0
SEQEND
  0
POLYLINE
  8
LAYER_6
 40
0.1058
 41
0.1058
 66
1
 10
0
 20
0
 30
0
 70
1
  0
VERTEX
  8
LAYER_6
 10
97.5799
 20
-113.9164
 42
0.413961666
  0
VERTEX
  8
LAYER_6
 10
96.7058
 20
-114.7897
 42
0.4139938282
  0
VERTEX
  8
LAYER_6
 10
97.5785
 20
-115.6645
 42
0.4139629083
  0
VERTEX
  8
LAYER_6
 10
98.454
 20
-114.7926
 42
0.4139641451
  0
VERTEX
  8
LAYER_6
 10
97.5828
 20
-113.9164
 42
-0.4110829529
  0
VERTEX
  8
LAYER_6
 10
97.9223
 20
-114.2914
  0
VERTEX
  8
LAYER_6
 10
97.9223
 20
-116.5414
  0
VERTEX
  8
LAYER_6
 10
97.9223
 20
-116.5429
 42
-0.4127372994
  0
VERTEX
  8
LAYER_6
 10
97.5799
 20
-116.9164
  0
VERTEX
  8
LAYER_6
 10
86.0723
 20
-116.9164
  0
VERTEX
  8
LAYER_6
 10
74.5647
 20
-116.9164
 42
-0.4127456274
  0
VERTEX
  8
LAYER_6
 10
74.2223
 20
-116.5429
  0
VERTEX
  8
LAYER_6
 10
74.2223
 20
-116.5414
  0
VERTEX
  8
LAYER_6
 10
74.2223
 20
-114.2914
 42
-0.4126058422
  0
VERTEX
  8
LAYER_6
 10
74.5633
 20
-113.9164
  0
VERTEX
  8
LAYER_6
 10
74.5647
 20
-113.9164
  0
VERTEX
  8
LAYER_6
 10
86.0723
 20
-113.9164
  0
SEQEND
  0
POLYLINE
  8
LAYER_6
 40
0.1058
 41
0.1058
 66
1
 10
0
 20
0
 30
0
 70
1
  0
VERTEX
  8
LAYER_6
 10
97.5799
 20
-109.4164
  0
VERTEX
  8
LAYER_6
 10
86.0723
 20
-109.4164
  0
VERTEX
  8
LAYER_6
 10
74.5647
 20
-109.4164
  0
VERTEX
  8
LAYER_6
 10
74.5633
 20
-109.4164
 42
0.412605842
  0
VERTEX
  8
LAYER_6
 10
74.2223
 20
-109.7914
  0
VERTEX
  8
LAYER_6
 10
74.2223
 20
-112.0414
  0
VERTEX
  8
LAYER_6
 10
74.2223
 20
-112.0429
 42
0.4127456274
  0
VERTEX
  8
LAYER_6
 10
74.5647
 20
-112.4164
  0
VERTEX
  8
LAYER_6
 10
86.0723
 20
-112.4164
  0
VERTEX
  8
LAYER_6
 10
97.5799
 20
-112.4164
 42
0.4127372994
  0
VERTEX
  8
LAYER_6
 10
97.9223
 20
-112.0429
  0
VERTEX
  8
LAYER_6
 10
97.9223
 20
-112.0414
  0
VERTEX
  8
LAYER_6
 10
97.9223
 20
-109.7914
 42
0.4110829529
  0
VERTEX
  8
LAYER_6
 10
97.5828
 20
-109.4164
 42
-0.4139641652
  0
VERTEX
  8
LAYER_6
 10
98.454
 20
-110.2926
 42
-0.413962888
  0
VERTEX
  8
LAYER_6
 10
97.5785
 20
-111.1645
 42
-0.413993808
  0
VERTEX
  8
LAYER_6
 10
96.7058
 20
-110.2897
 42
-0.4139616865
  0
SEQEND
  0
POLYLINE
  8
LAYER_6
 40
0.1058
 41
0.1058
 66
1
 10
0
 20
0
 30
0
 70
1
  0
VERTEX
  8
LAYER_6
 10
76.7332
 20
-104.5414
 42
-0.4125252922
  0
VERTEX
  8
LAYER_6
 10
76.3922
 20
-104.9164
 42
-0.4141321584
  0
VERTEX
  8
LAYER_6
 10
77.6618
 20
-106.1885
 42
-0.4141213744
  0
VERTEX
  8
LAYER_6
 10
76.3901
 20
-107.4585
 42
-0.4141336674
  0
VERTEX
  8
LAYER_6
 10
75.1197
 20
-106.1871
 42
-0.414144445
  0
VERTEX
  8
LAYER_6
 10
76.3908
 20
-104.9164
 42
0.414144445
  0
VERTEX
  8
LAYER_6
 10
75.1197
 20
-106.1871
 42
0.4141336675
  0
VERTEX
  8
LAYER_6
 10
76.3901
 20
-107.4585
 42
0.4141213744
  0
VERTEX
  8
LAYER_6
 10
77.6618
 20
-106.1885
 42
0.4141321584
  0
VERTEX
  8
LAYER_6
 10
76.3922
 20
-104.9164
 42
0.4125252922
  0
SEQEND
  0
POLYLINE
  8
LAYER_6
 40
0.1058
 41
0.1058
 66
1
 10
0
 20
0
 30
0
 70
1
  0
VERTEX
  8
LAYER_6
 10
76.7332
 20
-104.5414
 42
-0.4125252922
  0
VERTEX
  8
LAYER_6
 10
76.3922
 20
-104.9164
 42
-0.4141321584
  0
VERTEX
  8
LAYER_6
 10
77.6618
 20
-106.1885
 42
-0.4141213744
  0
VERTEX
  8
LAYER_6
 10
76.3901
 20
-107.4585
 42
-0.4141336674
  0
VERTEX
  8
LAYER_6
 10
75.1197
 20
-106.1871
 42
-0.414144445
  0
VERTEX
  8
LAYER_6
 10
76.3908
 20
-104.9164
 42
0.414144445
  0
VERTEX
  8
LAYER_6
 10
75.1197
 20
-106.1871
 42
0.4141336675
  0
VERTEX
  8
LAYER_6
 10
76.3901
 20
-107.4585
 42
0.4141213744
  0
VERTEX
  8
LAYER_6
 10
77.6618
 20
-106.1885
 42
0.4141321584
  0
VERTEX
  8
LAYER_6
 10
76.3922
 20
-104.9164
 42
0.4125252922
  0
SEQEND
  0
POLYLINE
  8
LAYER_6
 40
0.1058
 41
0.1058
 66
1
 10
0
 20
0
 30
0
  0
VERTEX
  8
LAYER_6
 10
76.3908
 20
-107.9164
 42
-0.4126767407
  0
VERTEX
  8
LAYER_6
 10
76.7332
 20
-108.2898
  0
VERTEX
  8
LAYER_6
 10
76.7332
 20
-108.2914
  0
VERTEX
  8
LAYER_6
 10
76.7332
 20
-109.0414
 42
-0.4125252922
  0
VERTEX
  8
LAYER_6
 10
76.3922
 20
-109.4164
 42
-0.4141321583
  0
VERTEX
  8
LAYER_6
 10
77.6618
 20
-110.6885
 42
-0.4141213744
  0
VERTEX
  8
LAYER_6
 10
76.3901
 20
-111.9585
 42
-0.4141336675
  0
VERTEX
  8
LAYER_6
 10
75.1197
 20
-110.6871
 42
-0.414144445
  0
VERTEX
  8
LAYER_6
 10
76.3908
 20
-109.4164
 42
0.414144445
  0
VERTEX
  8
LAYER_6
 10
75.1197
 20
-110.6871
 42
0.4141336675
  0
VERTEX
  8
LAYER_6
 10
76.3901
 20
-111.9585
 42
0.4141213744
  0
VERTEX
  8
LAYER_6
 10
77.6618
 20
-110.6885
 42
0.4141321584
  0
VERTEX
  8
LAYER_6
 10
76.3922
 20
-109.4164
 42
0.4125252922
  0
VERTEX
  8
LAYER_6
 10
76.7332
 20
-109.0414
 42
-0.4125252922
  0
VERTEX
  8
LAYER_6
 10
76.3922
 20
-109.4164
 42
-0.4141321583
  0
VERTEX
  8
LAYER_6
 10
77.6618
 20
-110.6885
 42
-0.4141213744
  0
VERTEX
  8
LAYER_6
 10
76.3901
 20
-111.9585
 42
-0.4141336675
  0
VERTEX
  8
LAYER_6
 10
75.1197
 20
-110.6871
 42
-0.414144445
  0
VERTEX
  8
LAYER_6
 10
76.3908
 20
-109.4164
 42
0.414144445
  0
VERTEX
  8
LAYER_6
 10
75.1197
 20
-110.6871
 42
0.4141336675
  0
VERTEX
  8
LAYER_6
 10
76.3901
 20
-111.9585
 42
0.4141213744
  0
VERTEX
  8
LAYER_6
 10
77.6618
 20
-110.6885
 42
0.4141321584
  0
VERTEX
  8
LAYER_6
 10
76.3922
 20
-109.4164
 42
0.4125252922
  0
VERTEX
  8
LAYER_6
 10
76.7332
 20
-109.0414
 42
-0.4125252922
  0
VERTEX
  8
LAYER_6
 10
76.3922
 20
-109.4164
 42
-0.4141321583
  0
VERTEX
  8
LAYER_6
 10
77.6618
 20
-110.6885
 42
-0.4141213744
  0
VERTEX
  8
LAYER_6
 10
76.3901
 20
-111.9585
 42
-0.4141336675
  0
VERTEX
  8
LAYER_6
 10
75.1197
 20
-110.6871
 42
-0.414144445
  0
VERTEX
  8
LAYER_6
 10
76.3908
 20
-109.4164
 42
0.414144445
  0
VERTEX
  8
LAYER_6
 10
75.1197
 20
-110.6871
 42
0.4141336675
  0
VERTEX
  8
LAYER_6
 10
76.3901
 20
-111.9585
 42
0.4141213744
  0
VERTEX
  8
LAYER_6
 10
77.6618
 20
-110.6885
 42
0.4141321584
  0
VERTEX
  8
LAYER_6
 10
76.3922
 20
-109.4164
 42
0.4125252922
  0
VERTEX
  8
LAYER_6
 10
76.7332
 20
-109.0414
 42
-0.4125252922
  0
VERTEX
  8
LAYER_6
 10
76.3922
 20
-109.4164
 42
-0.4141321583
  0
VERTEX
  8
LAYER_6
 10
77.6618
 20
-110.6885
 42
-0.4141213744
  0
VERTEX
  8
LAYER_6
 10
76.3901
 20
-111.9585
 42
-0.4141336675
  0
VERTEX
  8
LAYER_6
 10
75.1197
 20
-110.6871
 42
-0.414144445
  0
VERTEX
  8
LAYER_6
 10
76.3908
 20
-109.4164
 42
0.414144445
  0
VERTEX
  8
LAYER_6
 10
75.1197
 20
-110.6871
 42
0.4141336675
  0
VERTEX
  8
LAYER_6
 10
76.3901
 20
-111.9585
 42
0.4141213744
  0
VERTEX
  8
LAYER_6
 10
77.6618
 20
-110.6885
 42
0.4141321584
  0
VERTEX
  8
LAYER_6
 10
76.3922
 20
-109.4164
 42
0.4125252922
  0
VERTEX
  8
LAYER_6
 10
76.7332
 20
-109.0414
  0
SEQEND
  0
POLYLINE
  8
LAYER_6
 40
0.1058
 41
0.1058
 66
1
 10
0
 20
0
 30
0
 70
1
  0
VERTEX
  8
LAYER_6
 10
97.5799
 20
-104.9164
 42
0.4139616862
  0
VERTEX
  8
LAYER_6
 10
96.7058
 20
-105.7897
 42
0.413993808
  0
VERTEX
  8
LAYER_6
 10
97.5785
 20
-106.6645
 42
0.413962888
  0
VERTEX
  8
LAYER_6
 10
98.454
 20
-105.7926
 42
0.4139641652
  0
VERTEX
  8
LAYER_6
 10
97.5828
 20
-104.9164
 42
-0.4110829529
  0
VERTEX
  8
LAYER_6
 10
97.9223
 20
-105.2914
  0
VERTEX
  8
LAYER_6
 10
97.9223
 20
-107.5414
  0
VERTEX
  8
LAYER_6
 10
97.9223
 20
-107.5429
 42
-0.4127372994
  0
VERTEX
  8
LAYER_6
 10
97.5799
 20
-107.9164
  0
VERTEX
  8
LAYER_6
 10
86.0723
 20
-107.9164
  0
VERTEX
  8
LAYER_6
 10
74.5647
 20
-107.9164
 42
-0.4127456274
  0
VERTEX
  8
LAYER_6
 10
74.2223
 20
-107.5429
  0
VERTEX
  8
LAYER_6
 10
74.2223
 20
-107.5414
  0
VERTEX
  8
LAYER_6
 10
74.2223
 20
-105.2914
 42
-0.4126058422
  0
VERTEX
  8
LAYER_6
 10
74.5633
 20
-104.9164
  0
VERTEX
  8
LAYER_6
 10
74.5647
 20
-104.9164
  0
VERTEX
  8
LAYER_6
 10
86.0723
 20
-104.9164
  0
SEQEND
  0
POLYLINE
  8
LAYER_6
 40
0.1058
 41
0.1058
 66
1
 10
0
 20
0
 30
0
 70
1
  0
VERTEX
  8
LAYER_6
 10
97.5799
 20
-100.4164
  0
VERTEX
  8
LAYER_6
 10
86.0723
 20
-100.4164
  0
VERTEX
  8
LAYER_6
 10
74.5647
 20
-100.4164
  0
VERTEX
  8
LAYER_6
 10
74.5633
 20
-100.4164
 42
0.412605842
  0
VERTEX
  8
LAYER_6
 10
74.2223
 20
-100.7914
  0
VERTEX
  8
LAYER_6
 10
74.2223
 20
-103.0414
  0
VERTEX
  8
LAYER_6
 10
74.2223
 20
-103.0429
 42
0.4127456274
  0
VERTEX
  8
LAYER_6
 10
74.5647
 20
-103.4164
  0
VERTEX
  8
LAYER_6
 10
86.0723
 20
-103.4164
  0
VERTEX
  8
LAYER_6
 10
97.5799
 20
-103.4164
 42
0.4127372994
  0
VERTEX
  8
LAYER_6
 10
97.9223
 20
-103.0429
  0
VERTEX
  8
LAYER_6
 10
97.9223
 20
-103.0414
  0
VERTEX
  8
LAYER_6
 10
97.9223
 20
-100.7914
 42
0.4110829529
  0
VERTEX
  8
LAYER_6
 10
97.5828
 20
-100.4164
 42
-0.4139641652
  0
VERTEX
  8
LAYER_6
 10
98.454
 20
-101.2926
 42
-0.413962888
  0
VERTEX
  8
LAYER_6
 10
97.5785
 20
-102.1645
 42
-0.413993808
  0
VERTEX
  8
LAYER_6
 10
96.7058
 20
-101.2897
 42
-0.4139616865
  0
SEQEND
  0
POLYLINE
  8
LAYER_6
 40
0.1058
 41
0.1058
 66
1
 10
0
 20
0
 30
0
 70
1
  0
VERTEX
  8
LAYER_6
 10
76.7332
 20
-95.5414
 42
-0.4125252922
  0
VERTEX
  8
LAYER_6
 10
76.3922
 20
-95.9164
 42
-0.4141321583
  0
VERTEX
  8
LAYER_6
 10
77.6618
 20
-97.1885
 42
-0.4141213744
  0
VERTEX
  8
LAYER_6
 10
76.3901
 20
-98.4585
 42
-0.4141336675
  0
VERTEX
  8
LAYER_6
 10
75.1197
 20
-97.1871
 42
-0.414144445
  0
VERTEX
  8
LAYER_6
 10
76.3908
 20
-95.9164
 42
0.414144445
  0
VERTEX
  8
LAYER_6
 10
75.1197
 20
-97.1871
 42
0.4141336675
  0
VERTEX
  8
LAYER_6
 10
76.3901
 20
-98.4585
 42
0.4141213744
  0
VERTEX
  8
LAYER_6
 10
77.6618
 20
-97.1885
 42
0.4141321583
  0
VERTEX
  8
LAYER_6
 10
76.3922
 20
-95.9164
 42
0.4125252922
  0
SEQEND
  0
POLYLINE
  8
LAYER_6
 40
0.1058
 41
0.1058
 66
1
 10
0
 20
0
 30
0
 70
1
  0
VERTEX
  8
LAYER_6
 10
76.7332
 20
-95.5414
 42
-0.4125252922
  0
VERTEX
  8
LAYER_6
 10
76.3922
 20
-95.9164
 42
-0.4141321583
  0
VERTEX
  8
LAYER_6
 10
77.6618
 20
-97.1885
 42
-0.4141213744
  0
VERTEX
  8
LAYER_6
 10
76.3901
 20
-98.4585
 42
-0.4141336675
  0
VERTEX
  8
LAYER_6
 10
75.1197
 20
-97.1871
 42
-0.414144445
  0
VERTEX
  8
LAYER_6
 10
76.3908
 20
-95.9164
 42
0.414144445
  0
VERTEX
  8
LAYER_6
 10
75.1197
 20
-97.1871
 42
0.4141336675
  0
VERTEX
  8
LAYER_6
 10
76.3901
 20
-98.4585
 42
0.4141213744
  0
VERTEX
  8
LAYER_6
 10
77.6618
 20
-97.1885
 42
0.4141321583
  0
VERTEX
  8
LAYER_6
 10
76.3922
 20
-95.9164
 42
0.4125252922
  0
SEQEND
  0
POLYLINE
  8
LAYER_6
 40
0.1058
 41
0.1058
 66
1
 10
0
 20
0
 30
0
  0
VERTEX
  8
LAYER_6
 10
76.3908
 20
-98.9164
 42
-0.4126767407
  0
VERTEX
  8
LAYER_6
 10
76.7332
 20
-99.2898
  0
VERTEX
  8
LAYER_6
 10
76.7332
 20
-99.2914
  0
VERTEX
  8
LAYER_6
 10
76.7332
 20
-100.0414
 42
-0.4125252922
  0
VERTEX
  8
LAYER_6
 10
76.3922
 20
-100.4164
 42
-0.4141321584
  0
VERTEX
  8
LAYER_6
 10
77.6618
 20
-101.6885
 42
-0.4141213744
  0
VERTEX
  8
LAYER_6
 10
76.3901
 20
-102.9585
 42
-0.4141336674
  0
VERTEX
  8
LAYER_6
 10
75.1197
 20
-101.6871
 42
-0.414144445
  0
VERTEX
  8
LAYER_6
 10
76.3908
 20
-100.4164
 42
0.414144445
  0
VERTEX
  8
LAYER_6
 10
75.1197
 20
-101.6871
 42
0.4141336675
  0
VERTEX
  8
LAYER_6
 10
76.3901
 20
-102.9585
 42
0.4141213744
  0
VERTEX
  8
LAYER_6
 10
77.6618
 20
-101.6885
 42
0.4141321584
  0
VERTEX
  8
LAYER_6
 10
76.3922
 20
-100.4164
 42
0.4125252922
  0
VERTEX
  8
LAYER_6
 10
76.7332
 20
-100.0414
 42
-0.4125252922
  0
VERTEX
  8
LAYER_6
 10
76.3922
 20
-100.4164
 42
-0.4141321584
  0
VERTEX
  8
LAYER_6
 10
77.6618
 20
-101.6885
 42
-0.4141213744
  0
VERTEX
  8
LAYER_6
 10
76.3901
 20
-102.9585
 42
-0.4141336674
  0
VERTEX
  8
LAYER_6
 10
75.1197
 20
-101.6871
 42
-0.414144445
  0
VERTEX
  8
LAYER_6
 10
76.3908
 20
-100.4164
 42
0.414144445
  0
VERTEX
  8
LAYER_6
 10
75.1197
 20
-101.6871
 42
0.4141336675
  0
VERTEX
  8
LAYER_6
 10
76.3901
 20
-102.9585
 42
0.4141213744
  0
VERTEX
  8
LAYER_6
 10
77.6618
 20
-101.6885
 42
0.4141321584
  0
VERTEX
  8
LAYER_6
 10
76.3922
 20
-100.4164
 42
0.4125252922
  0
VERTEX
  8
LAYER_6
 10
76.7332
 20
-100.0414
 42
-0.4125252922
  0
VERTEX
  8
LAYER_6
 10
76.3922
 20
-100.4164
 42
-0.4141321584
  0
VERTEX
  8
LAYER_6
 10
77.6618
 20
-101.6885
 42
-0.4141213744
  0
VERTEX
  8
LAYER_6
 10
76.3901
 20
-102.9585
 42
-0.4141336674
  0
VERTEX
  8
LAYER_6
 10
75.1197
 20
-101.6871
 42
-0.414144445
  0
VERTEX
  8
LAYER_6
 10
76.3908
 20
-100.4164
 42
0.414144445
  0
VERTEX
  8
LAYER_6
 10
75.1197
 20
-101.6871
 42
0.4141336675
  0
VERTEX
  8
LAYER_6
 10
76.3901
 20
-102.9585
 42
0.4141213744
  0
VERTEX
  8
LAYER_6
 10
77.6618
 20
-101.6885
 42
0.4141321584
  0
VERTEX
  8
LAYER_6
 10
76.3922
 20
-100.4164
 42
0.4125252922
  0
VERTEX
  8
LAYER_6
 10
76.7332
 20
-100.0414
 42
-0.4125252922
  0
VERTEX
  8
LAYER_6
 10
76.3922
 20
-100.4164
 42
-0.4141321584
  0
VERTEX
  8
LAYER_6
 10
77.6618
 20
-101.6885
 42
-0.4141213744
  0
VERTEX
  8
LAYER_6
 10
76.3901
 20
-102.9585
 42
-0.4141336674
  0
VERTEX
  8
LAYER_6
 10
75.1197
 20
-101.6871
 42
-0.414144445
  0
VERTEX
  8
LAYER_6
 10
76.3908
 20
-100.4164
 42
0.414144445
  0
VERTEX
  8
LAYER_6
 10
75.1197
 20
-101.6871
 42
0.4141336675
  0
VERTEX
  8
LAYER_6
 10
76.3901
 20
-102.9585
 42
0.4141213744
  0
VERTEX
  8
LAYER_6
 10
77.6618
 20
-101.6885
 42
0.4141321584
  0
VERTEX
  8
LAYER_6
 10
76.3922
 20
-100.4164
 42
0.4125252922
  0
VERTEX
  8
LAYER_6
 10
76.7332
 20
-100.0414
  0
SEQEND
  0
POLYLINE
  8
LAYER_6
 40
0.1058
 41
0.1058
 66
1
 10
0
 20
0
 30
0
 70
1
  0
VERTEX
  8
LAYER_6
 10
97.5799
 20
-95.9164
 42
0.4139616862
  0
VERTEX
  8
LAYER_6
 10
96.7058
 20
-96.7897
 42
0.413993808
  0
VERTEX
  8
LAYER_6
 10
97.5785
 20
-97.6645
 42
0.413962888
  0
VERTEX
  8
LAYER_6
 10
98.454
 20
-96.7926
 42
0.4139641652
  0
VERTEX
  8
LAYER_6
 10
97.5828
 20
-95.9164
 42
-0.4110829529
  0
VERTEX
  8
LAYER_6
 10
97.9223
 20
-96.2914
  0
VERTEX
  8
LAYER_6
 10
97.9223
 20
-98.5414
  0
VERTEX
  8
LAYER_6
 10
97.9223
 20
-98.5429
 42
-0.4127372994
  0
VERTEX
  8
LAYER_6
 10
97.5799
 20
-98.9164
  0
VERTEX
  8
LAYER_6
 10
86.0723
 20
-98.9164
  0
VERTEX
  8
LAYER_6
 10
74.5647
 20
-98.9164
 42
-0.4127456274
  0
VERTEX
  8
LAYER_6
 10
74.2223
 20
-98.5429
  0
VERTEX
  8
LAYER_6
 10
74.2223
 20
-98.5414
  0
VERTEX
  8
LAYER_6
 10
74.2223
 20
-96.2914
 42
-0.4126058422
  0
VERTEX
  8
LAYER_6
 10
74.5633
 20
-95.9164
  0
VERTEX
  8
LAYER_6
 10
74.5647
 20
-95.9164
  0
VERTEX
  8
LAYER_6
 10
86.0723
 20
-95.9164
  0
SEQEND
  0
POLYLINE
  8
LAYER_6
 40
0.1058
 41
0.1058
 66
1
 10
0
 20
0
 30
0
 70
1
  0
VERTEX
  8
LAYER_6
 10
97.5799
 20
-91.4164
  0
VERTEX
  8
LAYER_6
 10
86.0723
 20
-91.4164
  0
VERTEX
  8
LAYER_6
 10
74.5647
 20
-91.4164
  0
VERTEX
  8
LAYER_6
 10
74.5633
 20
-91.4164
 42
0.412605842
  0
VERTEX
  8
LAYER_6
 10
74.2223
 20
-91.7914
  0
VERTEX
  8
LAYER_6
 10
74.2223
 20
-94.0414
  0
VERTEX
  8
LAYER_6
 10
74.2223
 20
-94.0429
 42
0.4127456274
  0
VERTEX
  8
LAYER_6
 10
74.5647
 20
-94.4164
  0
VERTEX
  8
LAYER_6
 10
86.0723
 20
-94.4164
  0
VERTEX
  8
LAYER_6
 10
97.5799
 20
-94.4164
 42
0.4127372994
  0
VERTEX
  8
LAYER_6
 10
97.9223
 20
-94.0429
  0
VERTEX
  8
LAYER_6
 10
97.9223
 20
-94.0414
  0
VERTEX
  8
LAYER_6
 10
97.9223
 20
-91.7914
 42
0.4110829529
  0
VERTEX
  8
LAYER_6
 10
97.5828
 20
-91.4164
 42
-0.4139641451
  0
VERTEX
  8
LAYER_6
 10
98.454
 20
-92.2926
 42
-0.4139629083
  0
VERTEX
  8
LAYER_6
 10
97.5785
 20
-93.1645
 42
-0.4139938282
  0
VERTEX
  8
LAYER_6
 10
96.7058
 20
-92.2897
 42
-0.4139616663
  0
SEQEND
  0
POLYLINE
  8
LAYER_6
 40
0.1058
 41
0.1058
 66
1
 10
0
 20
0
 30
0
 70
1
  0
VERTEX
  8
LAYER_6
 10
76.7332
 20
-86.5414
 42
-0.4125252922
  0
VERTEX
  8
LAYER_6
 10
76.3922
 20
-86.9164
 42
-0.4141320411
  0
VERTEX
  8
LAYER_6
 10
77.6618
 20
-88.1885
 42
-0.4141214918
  0
VERTEX
  8
LAYER_6
 10
76.3901
 20
-89.4585
 42
-0.4141337847
  0
VERTEX
  8
LAYER_6
 10
75.1197
 20
-88.1871
 42
-0.4141443277
  0
VERTEX
  8
LAYER_6
 10
76.3908
 20
-86.9164
 42
0.4141443277
  0
VERTEX
  8
LAYER_6
 10
75.1197
 20
-88.1871
 42
0.4141337847
  0
VERTEX
  8
LAYER_6
 10
76.3901
 20
-89.4585
 42
0.4141214918
  0
VERTEX
  8
LAYER_6
 10
77.6618
 20
-88.1885
 42
0.4141320411
  0
VERTEX
  8
LAYER_6
 10
76.3922
 20
-86.9164
 42
0.4125252922
  0
SEQEND
  0
POLYLINE
  8
LAYER_6
 40
0.1058
 41
0.1058
 66
1
 10
0
 20
0
 30
0
 70
1
  0
VERTEX
  8
LAYER_6
 10
76.7332
 20
-86.5414
 42
-0.4125252922
  0
VERTEX
  8
LAYER_6
 10
76.3922
 20
-86.9164
 42
-0.4141320411
  0
VERTEX
  8
LAYER_6
 10
77.6618
 20
-88.1885
 42
-0.4141214918
  0
VERTEX
  8
LAYER_6
 10
76.3901
 20
-89.4585
 42
-0.4141337847
  0
VERTEX
  8
LAYER_6
 10
75.1197
 20
-88.1871
 42
-0.4141443277
  0
VERTEX
  8
LAYER_6
 10
76.3908
 20
-86.9164
 42
0.4141443277
  0
VERTEX
  8
LAYER_6
 10
75.1197
 20
-88.1871
 42
0.4141337847
  0
VERTEX
  8
LAYER_6
 10
76.3901
 20
-89.4585
 42
0.4141214918
  0
VERTEX
  8
LAYER_6
 10
77.6618
 20
-88.1885
 42
0.4141320411
  0
VERTEX
  8
LAYER_6
 10
76.3922
 20
-86.9164
 42
0.4125252922
  0
SEQEND
  0
POLYLINE
  8
LAYER_6
 40
0.1058
 41
0.1058
 66
1
 10
0
 20
0
 30
0
 70
1
  0
VERTEX
  8
LAYER_6
 10
76.7332
 20
-77.5414
 42
-0.4125252922
  0
VERTEX
  8
LAYER_6
 10
76.3922
 20
-77.9164
 42
-0.4141321584
  0
VERTEX
  8
LAYER_6
 10
77.6618
 20
-79.1885
 42
-0.4141213744
  0
VERTEX
  8
LAYER_6
 10
76.3901
 20
-80.4585
 42
-0.4141336675
  0
VERTEX
  8
LAYER_6
 10
75.1197
 20
-79.1871
 42
-0.414144445
  0
VERTEX
  8
LAYER_6
 10
76.3908
 20
-77.9164
 42
0.414144445
  0
VERTEX
  8
LAYER_6
 10
75.1197
 20
-79.1871
 42
0.4141336675
  0
VERTEX
  8
LAYER_6
 10
76.3901
 20
-80.4585
 42
0.4141213744
  0
VERTEX
  8
LAYER_6
 10
77.6618
 20
-79.1885
 42
0.4141321584
  0
VERTEX
  8
LAYER_6
 10
76.3922
 20
-77.9164
 42
0.4125252922
  0
SEQEND
  0
POLYLINE
  8
LAYER_6
 40
0.1058
 41
0.1058
 66
1
 10
0
 20
0
 30
0
  0
VERTEX
  8
LAYER_6
 10
76.3908
 20
-89.9164
 42
-0.4126767407
  0
VERTEX
  8
LAYER_6
 10
76.7332
 20
-90.2898
  0
VERTEX
  8
LAYER_6
 10
76.7332
 20
-90.2914
  0
VERTEX
  8
LAYER_6
 10
76.7332
 20
-91.0414
 42
-0.4125252922
  0
VERTEX
  8
LAYER_6
 10
76.3922
 20
-91.4164
 42
-0.4141320411
  0
VERTEX
  8
LAYER_6
 10
77.6618
 20
-92.6885
 42
-0.4141214918
  0
VERTEX
  8
LAYER_6
 10
76.3901
 20
-93.9585
 42
-0.4141337847
  0
VERTEX
  8
LAYER_6
 10
75.1197
 20
-92.6871
 42
-0.4141443277
  0
VERTEX
  8
LAYER_6
 10
76.3908
 20
-91.4164
 42
0.4141443277
  0
VERTEX
  8
LAYER_6
 10
75.1197
 20
-92.6871
 42
0.4141337847
  0
VERTEX
  8
LAYER_6
 10
76.3901
 20
-93.9585
 42
0.4141214918
  0
VERTEX
  8
LAYER_6
 10
77.6618
 20
-92.6885
 42
0.4141320411
  0
VERTEX
  8
LAYER_6
 10
76.3922
 20
-91.4164
 42
0.4125252922
  0
VERTEX
  8
LAYER_6
 10
76.7332
 20
-91.0414
 42
-0.4125252922
  0
VERTEX
  8
LAYER_6
 10
76.3922
 20
-91.4164
 42
-0.4141320411
  0
VERTEX
  8
LAYER_6
 10
77.6618
 20
-92.6885
 42
-0.4141214918
  0
VERTEX
  8
LAYER_6
 10
76.3901
 20
-93.9585
 42
-0.4141337847
  0
VERTEX
  8
LAYER_6
 10
75.1197
 20
-92.6871
 42
-0.4141443277
  0
VERTEX
  8
LAYER_6
 10
76.3908
 20
-91.4164
 42
0.4141443277
  0
VERTEX
  8
LAYER_6
 10
75.1197
 20
-92.6871
 42
0.4141337847
  0
VERTEX
  8
LAYER_6
 10
76.3901
 20
-93.9585
 42
0.4141214918
  0
VERTEX
  8
LAYER_6
 10
77.6618
 20
-92.6885
 42
0.4141320411
  0
VERTEX
  8
LAYER_6
 10
76.3922
 20
-91.4164
 42
0.4125252922
  0
VERTEX
  8
LAYER_6
 10
76.7332
 20
-91.0414
 42
-0.4125252922
  0
VERTEX
  8
LAYER_6
 10
76.3922
 20
-91.4164
 42
-0.4141320411
  0
VERTEX
  8
LAYER_6
 10
77.6618
 20
-92.6885
 42
-0.4141214918
  0
VERTEX
  8
LAYER_6
 10
76.3901
 20
-93.9585
 42
-0.4141337847
  0
VERTEX
  8
LAYER_6
 10
75.1197
 20
-92.6871
 42
-0.4141443277
  0
VERTEX
  8
LAYER_6
 10
76.3908
 20
-91.4164
 42
0.4141443277
  0
VERTEX
  8
LAYER_6
 10
75.1197
 20
-92.6871
 42
0.4141337847
  0
VERTEX
  8
LAYER_6
 10
76.3901
 20
-93.9585
 42
0.4141214918
  0
VERTEX
  8
LAYER_6
 10
77.6618
 20
-92.6885
 42
0.4141320411
  0
VERTEX
  8
LAYER_6
 10
76.3922
 20
-91.4164
 42
0.4125252922
  0
VERTEX
  8
LAYER_6
 10
76.7332
 20
-91.0414
 42
-0.4125252922
  0
VERTEX
  8
LAYER_6
 10
76.3922
 20
-91.4164
 42
-0.4141320411
  0
VERTEX
  8
LAYER_6
 10
77.6618
 20
-92.6885
 42
-0.4141214918
  0
VERTEX
  8
LAYER_6
 10
76.3901
 20
-93.9585
 42
-0.4141337847
  0
VERTEX
  8
LAYER_6
 10
75.1197
 20
-92.6871
 42
-0.4141443277
  0
VERTEX
  8
LAYER_6
 10
76.3908
 20
-91.4164
 42
0.4141443277
  0
VERTEX
  8
LAYER_6
 10
75.1197
 20
-92.6871
 42
0.4141337847
  0
VERTEX
  8
LAYER_6
 10
76.3901
 20
-93.9585
 42
0.4141214918
  0
VERTEX
  8
LAYER_6
 10
77.6618
 20
-92.6885
 42
0.4141320411
  0
VERTEX
  8
LAYER_6
 10
76.3922
 20
-91.4164
 42
0.4125252922
  0
VERTEX
  8
LAYER_6
 10
76.7332
 20
-91.0414
 42
-0.4125252922
  0
VERTEX
  8
LAYER_6
 10
76.3922
 20
-91.4164
 42
-0.4141320411
  0
VERTEX
  8
LAYER_6
 10
77.6618
 20
-92.6885
 42
-0.4141214918
  0
VERTEX
  8
LAYER_6
 10
76.3901
 20
-93.9585
 42
-0.4141337847
  0
VERTEX
  8
LAYER_6
 10
75.1197
 20
-92.6871
 42
-0.4141443277
  0
VERTEX
  8
LAYER_6
 10
76.3908
 20
-91.4164
 42
0.4141443277
  0
VERTEX
  8
LAYER_6
 10
75.1197
 20
-92.6871
 42
0.4141337847
  0
VERTEX
  8
LAYER_6
 10
76.3901
 20
-93.9585
 42
0.4141214918
  0
VERTEX
  8
LAYER_6
 10
77.6618
 20
-92.6885
 42
0.4141320411
  0
VERTEX
  8
LAYER_6
 10
76.3922
 20
-91.4164
 42
0.4125252922
  0
VERTEX
  8
LAYER_6
 10
76.7332
 20
-91.0414
 42
-0.4125252922
  0
VERTEX
  8
LAYER_6
 10
76.3922
 20
-91.4164
 42
-0.4141320411
  0
VERTEX
  8
LAYER_6
 10
77.6618
 20
-92.6885
 42
-0.4141214918
  0
VERTEX
  8
LAYER_6
 10
76.3901
 20
-93.9585
 42
-0.4141337847
  0
VERTEX
  8
LAYER_6
 10
75.1197
 20
-92.6871
 42
-0.4141443277
  0
VERTEX
  8
LAYER_6
 10
76.3908
 20
-91.4164
 42
0.4141443277
  0
VERTEX
  8
LAYER_6
 10
75.1197
 20
-92.6871
 42
0.4141337847
  0
VERTEX
  8
LAYER_6
 10
76.3901
 20
-93.9585
 42
0.4141214918
  0
VERTEX
  8
LAYER_6
 10
77.6618
 20
-92.6885
 42
0.4141320411
  0
VERTEX
  8
LAYER_6
 10
76.3922
 20
-91.4164
 42
0.4125252922
  0
VERTEX
  8
LAYER_6
 10
76.7332
 20
-91.0414
 42
-0.4125252922
  0
VERTEX
  8
LAYER_6
 10
76.3922
 20
-91.4164
 42
-0.4141320411
  0
VERTEX
  8
LAYER_6
 10
77.6618
 20
-92.6885
 42
-0.4141214918
  0
VERTEX
  8
LAYER_6
 10
76.3901
 20
-93.9585
 42
-0.4141337847
  0
VERTEX
  8
LAYER_6
 10
75.1197
 20
-92.6871
 42
-0.4141443277
  0
VERTEX
  8
LAYER_6
 10
76.3908
 20
-91.4164
 42
0.4141443277
  0
VERTEX
  8
LAYER_6
 10
75.1197
 20
-92.6871
 42
0.4141337847
  0
VERTEX
  8
LAYER_6
 10
76.3901
 20
-93.9585
 42
0.4141214918
  0
VERTEX
  8
LAYER_6
 10
77.6618
 20
-92.6885
 42
0.4141320411
  0
VERTEX
  8
LAYER_6
 10
76.3922
 20
-91.4164
 42
0.4125252922
  0
VERTEX
  8
LAYER_6
 10
76.7332
 20
-91.0414
 42
-0.4125252922
  0
VERTEX
  8
LAYER_6
 10
76.3922
 20
-91.4164
 42
-0.4141320411
  0
VERTEX
  8
LAYER_6
 10
77.6618
 20
-92.6885
 42
-0.4141214918
  0
VERTEX
  8
LAYER_6
 10
76.3901
 20
-93.9585
 42
-0.4141337847
  0
VERTEX
  8
LAYER_6
 10
75.1197
 20
-92.6871
 42
-0.4141443277
  0
VERTEX
  8
LAYER_6
 10
76.3908
 20
-91.4164
 42
0.4141443277
  0
VERTEX
  8
LAYER_6
 10
75.1197
 20
-92.6871
 42
0.4141337847
  0
VERTEX
  8
LAYER_6
 10
76.3901
 20
-93.9585
 42
0.4141214918
  0
VERTEX
  8
LAYER_6
 10
77.6618
 20
-92.6885
 42
0.4141320411
  0
VERTEX
  8
LAYER_6
 10
76.3922
 20
-91.4164
 42
0.4125252922
  0
VERTEX
  8
LAYER_6
 10
76.7332
 20
-91.0414
  0
SEQEND
  0
POLYLINE
  8
LAYER_6
 40
0.1058
 41
0.1058
 66
1
 10
0
 20
0
 30
0
 70
1
  0
VERTEX
  8
LAYER_6
 10
97.5799
 20
-86.9164
 42
0.413961666
  0
VERTEX
  8
LAYER_6
 10
96.7058
 20
-87.7897
 42
0.4139938282
  0
VERTEX
  8
LAYER_6
 10
97.5785
 20
-88.6645
 42
0.4139629083
  0
VERTEX
  8
LAYER_6
 10
98.454
 20
-87.7926
 42
0.4139641451
  0
VERTEX
  8
LAYER_6
 10
97.5828
 20
-86.9164
 42
-0.4110829529
  0
VERTEX
  8
LAYER_6
 10
97.9223
 20
-87.2914
  0
VERTEX
  8
LAYER_6
 10
97.9223
 20
-89.5414
  0
VERTEX
  8
LAYER_6
 10
97.9223
 20
-89.5429
 42
-0.4127372994
  0
VERTEX
  8
LAYER_6
 10
97.5799
 20
-89.9164
  0
VERTEX
  8
LAYER_6
 10
86.0723
 20
-89.9164
  0
VERTEX
  8
LAYER_6
 10
74.5647
 20
-89.9164
 42
-0.4127456274
  0
VERTEX
  8
LAYER_6
 10
74.2223
 20
-89.5429
  0
VERTEX
  8
LAYER_6
 10
74.2223
 20
-89.5414
  0
VERTEX
  8
LAYER_6
 10
74.2223
 20
-87.2914
 42
-0.4126058422
  0
VERTEX
  8
LAYER_6
 10
74.5633
 20
-86.9164
  0
VERTEX
  8
LAYER_6
 10
74.5647
 20
-86.9164
  0
VERTEX
  8
LAYER_6
 10
86.0723
 20
-86.9164
  0
SEQEND
  0
POLYLINE
  8
LAYER_6
 40
0.1058
 41
0.1058
 66
1
 10
0
 20
0
 30
0
 70
1
  0
VERTEX
  8
LAYER_6
 10
97.5799
 20
-82.4164
  0
VERTEX
  8
LAYER_6
 10
86.0723
 20
-82.4164
  0
VERTEX
  8
LAYER_6
 10
74.5647
 20
-82.4164
  0
VERTEX
  8
LAYER_6
 10
74.5633
 20
-82.4164
 42
0.412605842
  0
VERTEX
  8
LAYER_6
 10
74.2223
 20
-82.7914
  0
VERTEX
  8
LAYER_6
 10
74.2223
 20
-85.0414
  0
VERTEX
  8
LAYER_6
 10
74.2223
 20
-85.0429
 42
0.4127456274
  0
VERTEX
  8
LAYER_6
 10
74.5647
 20
-85.4164
  0
VERTEX
  8
LAYER_6
 10
86.0723
 20
-85.4164
  0
VERTEX
  8
LAYER_6
 10
97.5799
 20
-85.4164
 42
0.4127372994
  0
VERTEX
  8
LAYER_6
 10
97.9223
 20
-85.0429
  0
VERTEX
  8
LAYER_6
 10
97.9223
 20
-85.0414
  0
VERTEX
  8
LAYER_6
 10
97.9223
 20
-82.7914
 42
0.4110829529
  0
VERTEX
  8
LAYER_6
 10
97.5828
 20
-82.4164
 42
-0.4139641652
  0
VERTEX
  8
LAYER_6
 10
98.454
 20
-83.2926
 42
-0.413962888
  0
VERTEX
  8
LAYER_6
 10
97.5785
 20
-84.1645
 42
-0.413993808
  0
VERTEX
  8
LAYER_6
 10
96.7058
 20
-83.2897
 42
-0.4139616865
  0
SEQEND
  0
POLYLINE
  8
LAYER_6
 40
0.1058
 41
0.1058
 66
1
 10
0
 20
0
 30
0
  0
VERTEX
  8
LAYER_6
 10
76.3908
 20
-80.9164
 42
-0.4126767407
  0
VERTEX
  8
LAYER_6
 10
76.7332
 20
-81.2898
  0
VERTEX
  8
LAYER_6
 10
76.7332
 20
-81.2914
  0
VERTEX
  8
LAYER_6
 10
76.7332
 20
-82.0414
 42
-0.4125252922
  0
VERTEX
  8
LAYER_6
 10
76.3922
 20
-82.4164
 42
-0.4141321584
  0
VERTEX
  8
LAYER_6
 10
77.6618
 20
-83.6885
 42
-0.4141213744
  0
VERTEX
  8
LAYER_6
 10
76.3901
 20
-84.9585
 42
-0.4141336675
  0
VERTEX
  8
LAYER_6
 10
75.1197
 20
-83.6871
 42
-0.414144445
  0
VERTEX
  8
LAYER_6
 10
76.3908
 20
-82.4164
 42
0.414144445
  0
VERTEX
  8
LAYER_6
 10
75.1197
 20
-83.6871
 42
0.4141336675
  0
VERTEX
  8
LAYER_6
 10
76.3901
 20
-84.9585
 42
0.4141213744
  0
VERTEX
  8
LAYER_6
 10
77.6618
 20
-83.6885
 42
0.4141321584
  0
VERTEX
  8
LAYER_6
 10
76.3922
 20
-82.4164
 42
0.4125252922
  0
VERTEX
  8
LAYER_6
 10
76.7332
 20
-82.0414
 42
-0.4125252922
  0
VERTEX
  8
LAYER_6
 10
76.3922
 20
-82.4164
 42
-0.4141321584
  0
VERTEX
  8
LAYER_6
 10
77.6618
 20
-83.6885
 42
-0.4141213744
  0
VERTEX
  8
LAYER_6
 10
76.3901
 20
-84.9585
 42
-0.4141336675
  0
VERTEX
  8
LAYER_6
 10
75.1197
 20
-83.6871
 42
-0.414144445
  0
VERTEX
  8
LAYER_6
 10
76.3908
 20
-82.4164
 42
0.414144445
  0
VERTEX
  8
LAYER_6
 10
75.1197
 20
-83.6871
 42
0.4141336675
  0
VERTEX
  8
LAYER_6
 10
76.3901
 20
-84.9585
 42
0.4141213744
  0
VERTEX
  8
LAYER_6
 10
77.6618
 20
-83.6885
 42
0.4141321584
  0
VERTEX
  8
LAYER_6
 10
76.3922
 20
-82.4164
 42
0.4125252922
  0
VERTEX
  8
LAYER_6
 10
76.7332
 20
-82.0414
 42
-0.4125252922
  0
VERTEX
  8
LAYER_6
 10
76.3922
 20
-82.4164
 42
-0.4141321584
  0
VERTEX
  8
LAYER_6
 10
77.6618
 20
-83.6885
 42
-0.4141213744
  0
VERTEX
  8
LAYER_6
 10
76.3901
 20
-84.9585
 42
-0.4141336675
  0
VERTEX
  8
LAYER_6
 10
75.1197
 20
-83.6871
 42
-0.414144445
  0
VERTEX
  8
LAYER_6
 10
76.3908
 20
-82.4164
 42
0.414144445
  0
VERTEX
  8
LAYER_6
 10
75.1197
 20
-83.6871
 42
0.4141336675
  0
VERTEX
  8
LAYER_6
 10
76.3901
 20
-84.9585
 42
0.4141213744
  0
VERTEX
  8
LAYER_6
 10
77.6618
 20
-83.6885
 42
0.4141321584
  0
VERTEX
  8
LAYER_6
 10
76.3922
 20
-82.4164
 42
0.4125252922
  0
VERTEX
  8
LAYER_6
 10
76.7332
 20
-82.0414
  0
SEQEND
  0
POLYLINE
  8
LAYER_6
 40
0.1058
 41
0.1058
 66
1
 10
0
 20
0
 30
0
 70
1
  0
VERTEX
  8
LAYER_6
 10
97.5799
 20
-77.9164
 42
0.4139616862
  0
VERTEX
  8
LAYER_6
 10
96.7058
 20
-78.7897
 42
0.413993808
  0
VERTEX
  8
LAYER_6
 10
97.5785
 20
-79.6645
 42
0.413962888
  0
VERTEX
  8
LAYER_6
 10
98.454
 20
-78.7926
 42
0.4139641652
  0
VERTEX
  8
LAYER_6
 10
97.5828
 20
-77.9164
 42
-0.4110829529
  0
VERTEX
  8
LAYER_6
 10
97.9223
 20
-78.2914
  0
VERTEX
  8
LAYER_6
 10
97.9223
 20
-80.5414
  0
VERTEX
  8
LAYER_6
 10
97.9223
 20
-80.5429
 42
-0.4127372994
  0
VERTEX
  8
LAYER_6
 10
97.5799
 20
-80.9164
  0
VERTEX
  8
LAYER_6
 10
86.0723
 20
-80.9164
  0
VERTEX
  8
LAYER_6
 10
74.5647
 20
-80.9164
 42
-0.4127456274
  0
VERTEX
  8
LAYER_6
 10
74.2223
 20
-80.5429
  0
VERTEX
  8
LAYER_6
 10
74.2223
 20
-80.5414
  0
VERTEX
  8
LAYER_6
 10
74.2223
 20
-78.2914
 42
-0.4126058422
  0
VERTEX
  8
LAYER_6
 10
74.5633
 20
-77.9164
  0
VERTEX
  8
LAYER_6
 10
74.5647
 20
-77.9164
  0
VERTEX
  8
LAYER_6
 10
86.0723
 20
-77.9164
  0
SEQEND
  0
POLYLINE
  8
LAYER_6
 40
0.1058
 41
0.1058
 66
1
 10
0
 20
0
 30
0
 70
1
  0
VERTEX
  8
LAYER_6
 10
97.5799
 20
-73.4164
  0
VERTEX
  8
LAYER_6
 10
86.0723
 20
-73.4164
  0
VERTEX
  8
LAYER_6
 10
74.5647
 20
-73.4164
  0
VERTEX
  8
LAYER_6
 10
74.5633
 20
-73.4164
 42
0.412605842
  0
VERTEX
  8
LAYER_6
 10
74.2223
 20
-73.7914
  0
VERTEX
  8
LAYER_6
 10
74.2223
 20
-76.0414
  0
VERTEX
  8
LAYER_6
 10
74.2223
 20
-76.0429
 42
0.4127456274
  0
VERTEX
  8
LAYER_6
 10
74.5647
 20
-76.4164
  0
VERTEX
  8
LAYER_6
 10
86.0723
 20
-76.4164
  0
VERTEX
  8
LAYER_6
 10
97.5799
 20
-76.4164
 42
0.4127372994
  0
VERTEX
  8
LAYER_6
 10
97.9223
 20
-76.0429
  0
VERTEX
  8
LAYER_6
 10
97.9223
 20
-76.0414
  0
VERTEX
  8
LAYER_6
 10
97.9223
 20
-73.7914
 42
0.4110829529
  0
VERTEX
  8
LAYER_6
 10
97.5828
 20
-73.4164
 42
-0.4139641652
  0
VERTEX
  8
LAYER_6
 10
98.454
 20
-74.2926
 42
-0.413962888
  0
VERTEX
  8
LAYER_6
 10
97.5785
 20
-75.1645
 42
-0.413993808
  0
VERTEX
  8
LAYER_6
 10
96.7058
 20
-74.2897
 42
-0.4139616865
  0
SEQEND
  0
POLYLINE
  8
LAYER_6
 40
0.1058
 41
0.1058
 66
1
 10
0
 20
0
 30
0
  0
VERTEX
  8
LAYER_6
 10
76.3908
 20
-71.9164
 42
-0.4126767407
  0
VERTEX
  8
LAYER_6
 10
76.7332
 20
-72.2898
  0
VERTEX
  8
LAYER_6
 10
76.7332
 20
-72.2914
  0
VERTEX
  8
LAYER_6
 10
76.7332
 20
-73.0414
 42
-0.4125252922
  0
VERTEX
  8
LAYER_6
 10
76.3922
 20
-73.4164
 42
-0.4141321583
  0
VERTEX
  8
LAYER_6
 10
77.6618
 20
-74.6885
 42
-0.4141213744
  0
VERTEX
  8
LAYER_6
 10
76.3901
 20
-75.9585
 42
-0.4141336674
  0
VERTEX
  8
LAYER_6
 10
75.1197
 20
-74.6871
 42
-0.414144445
  0
VERTEX
  8
LAYER_6
 10
76.3908
 20
-73.4164
 42
0.414144445
  0
VERTEX
  8
LAYER_6
 10
75.1197
 20
-74.6871
 42
0.4141336675
  0
VERTEX
  8
LAYER_6
 10
76.3901
 20
-75.9585
 42
0.4141213744
  0
VERTEX
  8
LAYER_6
 10
77.6618
 20
-74.6885
 42
0.4141321584
  0
VERTEX
  8
LAYER_6
 10
76.3922
 20
-73.4164
 42
0.4125252922
  0
VERTEX
  8
LAYER_6
 10
76.7332
 20
-73.0414
  0
SEQEND
  0
POLYLINE
  8
LAYER_6
 40
0.1058
 41
0.1058
 66
1
 10
0
 20
0
 30
0
  0
VERTEX
  8
LAYER_6
 10
76.3908
 20
-68.9164
 42
0.414144445
  0
VERTEX
  8
LAYER_6
 10
75.1197
 20
-70.1871
 42
0.4141336674
  0
VERTEX
  8
LAYER_6
 10
76.3901
 20
-71.4585
 42
0.4141213744
  0
VERTEX
  8
LAYER_6
 10
77.6618
 20
-70.1885
 42
0.4141321584
  0
VERTEX
  8
LAYER_6
 10
76.3922
 20
-68.9164
 42
0.4125252922
  0
VERTEX
  8
LAYER_6
 10
76.7332
 20
-68.5414
  0
VERTEX
  8
LAYER_6
 10
76.7332
 20
-67.7914
  0
VERTEX
  8
LAYER_6
 10
76.7332
 20
-67.7898
 42
0.4126767407
  0
VERTEX
  8
LAYER_6
 10
76.3908
 20
-67.4164
  0
SEQEND
  0
POLYLINE
  8
LAYER_6
 40
0.1058
 41
0.1058
 66
1
 10
0
 20
0
 30
0
 70
1
  0
VERTEX
  8
LAYER_6
 10
97.5799
 20
-64.4164
  0
VERTEX
  8
LAYER_6
 10
86.0723
 20
-64.4164
  0
VERTEX
  8
LAYER_6
 10
74.5647
 20
-64.4164
  0
VERTEX
  8
LAYER_6
 10
74.5633
 20
-64.4164
 42
0.412605842
  0
VERTEX
  8
LAYER_6
 10
74.2223
 20
-64.7914
  0
VERTEX
  8
LAYER_6
 10
74.2223
 20
-67.0414
  0
VERTEX
  8
LAYER_6
 10
74.2223
 20
-67.0429
 42
0.4127456274
  0
VERTEX
  8
LAYER_6
 10
74.5647
 20
-67.4164
  0
VERTEX
  8
LAYER_6
 10
86.0723
 20
-67.4164
  0
VERTEX
  8
LAYER_6
 10
97.5799
 20
-67.4164
 42
0.4127372994
  0
VERTEX
  8
LAYER_6
 10
97.9223
 20
-67.0429
  0
VERTEX
  8
LAYER_6
 10
97.9223
 20
-67.0414
  0
VERTEX
  8
LAYER_6
 10
97.9223
 20
-64.7914
 42
0.4110829529
  0
VERTEX
  8
LAYER_6
 10
97.5828
 20
-64.4164
 42
-0.4139641451
  0
VERTEX
  8
LAYER_6
 10
98.454
 20
-65.2926
 42
-0.4139629083
  0
VERTEX
  8
LAYER_6
 10
97.5785
 20
-66.1645
 42
-0.4139938282
  0
VERTEX
  8
LAYER_6
 10
96.7058
 20
-65.2897
 42
-0.4139616663
  0
SEQEND
  0
POLYLINE
  8
LAYER_6
 40
0.1058
 41
0.1058
 66
1
 10
0
 20
0
 30
0
 70
1
  0
VERTEX
  8
LAYER_6
 10
97.5799
 20
-68.9164
  0
VERTEX
  8
LAYER_6
 10
86.0723
 20
-68.9164
  0
VERTEX
  8
LAYER_6
 10
74.5647
 20
-68.9164
  0
VERTEX
  8
LAYER_6
 10
74.5633
 20
-68.9164
 42
0.412605842
  0
VERTEX
  8
LAYER_6
 10
74.2223
 20
-69.2914
  0
VERTEX
  8
LAYER_6
 10
74.2223
 20
-71.5414
  0
VERTEX
  8
LAYER_6
 10
74.2223
 20
-71.5429
 42
0.4127456274
  0
VERTEX
  8
LAYER_6
 10
74.5647
 20
-71.9164
  0
VERTEX
  8
LAYER_6
 10
86.0723
 20
-71.9164
  0
VERTEX
  8
LAYER_6
 10
97.5799
 20
-71.9164
 42
0.4127372994
  0
VERTEX
  8
LAYER_6
 10
97.9223
 20
-71.5429
  0
VERTEX
  8
LAYER_6
 10
97.9223
 20
-71.5414
  0
VERTEX
  8
LAYER_6
 10
97.9223
 20
-69.2914
 42
0.4110829529
  0
VERTEX
  8
LAYER_6
 10
97.5828
 20
-68.9164
 42
-0.4139641652
  0
VERTEX
  8
LAYER_6
 10
98.454
 20
-69.7926
 42
-0.413962888
  0
VERTEX
  8
LAYER_6
 10
97.5785
 20
-70.6645
 42
-0.413993808
  0
VERTEX
  8
LAYER_6
 10
96.7058
 20
-69.7897
 42
-0.4139616865
  0
SEQEND
  0
POLYLINE
  8
LAYER_6
 40
0.1058
 41
0.1058
 66
1
 10
0
 20
0
 30
0
  0
VERTEX
  8
LAYER_6
 10
76.3908
 20
-64.4164
 42
0.4141443277
  0
VERTEX
  8
LAYER_6
 10
75.1197
 20
-65.6871
 42
0.4141337847
  0
VERTEX
  8
LAYER_6
 10
76.3901
 20
-66.9585
 42
0.4141214918
  0
VERTEX
  8
LAYER_6
 10
77.6618
 20
-65.6885
 42
0.4141320411
  0
VERTEX
  8
LAYER_6
 10
76.3922
 20
-64.4164
 42
0.4125252922
  0
VERTEX
  8
LAYER_6
 10
76.7332
 20
-64.0414
  0
VERTEX
  8
LAYER_6
 10
76.7332
 20
-63.2914
  0
VERTEX
  8
LAYER_6
 10
76.7332
 20
-63.2898
 42
0.4126767407
  0
VERTEX
  8
LAYER_6
 10
76.3908
 20
-62.9164
  0
SEQEND
  0
POLYLINE
  8
LAYER_6
 40
0.1058
 41
0.1058
 66
1
 10
0
 20
0
 30
0
  0
VERTEX
  8
LAYER_6
 10
76.3908
 20
-59.9164
 42
0.414144445
  0
VERTEX
  8
LAYER_6
 10
75.1197
 20
-61.1871
 42
0.4141336674
  0
VERTEX
  8
LAYER_6
 10
76.3901
 20
-62.4585
 42
0.4141213744
  0
VERTEX
  8
LAYER_6
 10
77.6618
 20
-61.1885
 42
0.4141321583
  0
VERTEX
  8
LAYER_6
 10
76.3922
 20
-59.9164
 42
0.4125252922
  0
VERTEX
  8
LAYER_6
 10
76.7332
 20
-59.5414
  0
VERTEX
  8
LAYER_6
 10
76.7332
 20
-58.7914
  0
VERTEX
  8
LAYER_6
 10
76.7332
 20
-58.7898
 42
0.4126767407
  0
VERTEX
  8
LAYER_6
 10
76.3908
 20
-58.4164
  0
SEQEND
  0
POLYLINE
  8
LAYER_6
 40
0.1058
 41
0.1058
 66
1
 10
0
 20
0
 30
0
 70
1
  0
VERTEX
  8
LAYER_6
 10
97.5799
 20
-59.9164
 42
0.4139616862
  0
VERTEX
  8
LAYER_6
 10
96.7058
 20
-60.7897
 42
0.413993808
  0
VERTEX
  8
LAYER_6
 10
97.5785
 20
-61.6645
 42
0.413962888
  0
VERTEX
  8
LAYER_6
 10
98.454
 20
-60.7926
 42
0.4139641652
  0
VERTEX
  8
LAYER_6
 10
97.5828
 20
-59.9164
 42
-0.4110829529
  0
VERTEX
  8
LAYER_6
 10
97.9223
 20
-60.2914
  0
VERTEX
  8
LAYER_6
 10
97.9223
 20
-62.5414
  0
VERTEX
  8
LAYER_6
 10
97.9223
 20
-62.5429
 42
-0.4127372994
  0
VERTEX
  8
LAYER_6
 10
97.5799
 20
-62.9164
  0
VERTEX
  8
LAYER_6
 10
86.0723
 20
-62.9164
  0
VERTEX
  8
LAYER_6
 10
74.5647
 20
-62.9164
 42
-0.4127456274
  0
VERTEX
  8
LAYER_6
 10
74.2223
 20
-62.5429
  0
VERTEX
  8
LAYER_6
 10
74.2223
 20
-62.5414
  0
VERTEX
  8
LAYER_6
 10
74.2223
 20
-60.2914
 42
-0.4126058422
  0
VERTEX
  8
LAYER_6
 10
74.5633
 20
-59.9164
  0
VERTEX
  8
LAYER_6
 10
74.5647
 20
-59.9164
  0
VERTEX
  8
LAYER_6
 10
86.0723
 20
-59.9164
  0
SEQEND
  0
POLYLINE
  8
LAYER_6
 40
0.1058
 41
0.1058
 66
1
 10
0
 20
0
 30
0
 70
1
  0
VERTEX
  8
LAYER_6
 10
97.5799
 20
-55.4164
 42
0.4139616862
  0
VERTEX
  8
LAYER_6
 10
96.7058
 20
-56.2897
 42
0.413993808
  0
VERTEX
  8
LAYER_6
 10
97.5785
 20
-57.1645
 42
0.413962888
  0
VERTEX
  8
LAYER_6
 10
98.454
 20
-56.2926
 42
0.4139641652
  0
VERTEX
  8
LAYER_6
 10
97.5828
 20
-55.4164
 42
-0.4110829529
  0
VERTEX
  8
LAYER_6
 10
97.9223
 20
-55.7914
  0
VERTEX
  8
LAYER_6
 10
97.9223
 20
-58.0414
  0
VERTEX
  8
LAYER_6
 10
97.9223
 20
-58.0429
 42
-0.4127372994
  0
VERTEX
  8
LAYER_6
 10
97.5799
 20
-58.4164
  0
VERTEX
  8
LAYER_6
 10
86.0723
 20
-58.4164
  0
VERTEX
  8
LAYER_6
 10
74.5647
 20
-58.4164
 42
-0.4127456274
  0
VERTEX
  8
LAYER_6
 10
74.2223
 20
-58.0429
  0
VERTEX
  8
LAYER_6
 10
74.2223
 20
-58.0414
  0
VERTEX
  8
LAYER_6
 10
74.2223
 20
-55.7914
 42
-0.4126058422
  0
VERTEX
  8
LAYER_6
 10
74.5633
 20
-55.4164
  0
VERTEX
  8
LAYER_6
 10
74.5647
 20
-55.4164
  0
VERTEX
  8
LAYER_6
 10
86.0723
 20
-55.4164
  0
SEQEND
  0
POLYLINE
  8
LAYER_6
 40
0.1058
 41
0.1058
 66
1
 10
0
 20
0
 30
0
  0
VERTEX
  8
LAYER_6
 10
76.3908
 20
-55.4164
 42
0.414144445
  0
VERTEX
  8
LAYER_6
 10
75.1197
 20
-56.6871
 42
0.4141336674
  0
VERTEX
  8
LAYER_6
 10
76.3901
 20
-57.9585
 42
0.4141213744
  0
VERTEX
  8
LAYER_6
 10
77.6618
 20
-56.6885
 42
0.4141321584
  0
VERTEX
  8
LAYER_6
 10
76.3922
 20
-55.4164
 42
0.4125252922
  0
VERTEX
  8
LAYER_6
 10
76.7332
 20
-55.0414
  0
VERTEX
  8
LAYER_6
 10
76.7332
 20
-54.2914
  0
SEQEND
  0
POLYLINE
  8
LAYER_6
 40
0.1058
 41
0.1058
 66
1
 10
0
 20
0
 30
0
 70
1
  0
VERTEX
  8
LAYER_6
 10
76.3908
 20
-53.9164
 42
-0.4126767407
  0
VERTEX
  8
LAYER_6
 10
76.7332
 20
-54.2898
  0
VERTEX
  8
LAYER_6
 10
76.7332
 20
-54.2914
  0
VERTEX
  8
LAYER_6
 10
76.7332
 20
-54.2898
 42
0.4126767407
  0
SEQEND
  0
INSERT
  8
LAYER_6
  2
AIGNBL0601000A
 10
0
 20
0
 30
0
  0
INSERT
  8
LAYER_6
  2
AIGNBL0601000B
 10
0
 20
0
 30
0
  0
INSERT
  8
LAYER_6
  2
AIGNBL0601000C
 10
0
 20
0
 30
0
  0
INSERT
  8
LAYER_6
  2
AIGNBL0601000D
 10
0
 20
0
 30
0
  0
INSERT
  8
LAYER_6
  2
AIGNBL0601000E
 10
0
 20
0
 30
0
  0
INSERT
  8
LAYER_6
  2
AIGNBL0601000F
 10
0
 20
0
 30
0
  0
INSERT
  8
LAYER_6
  2
AIGNBL06010010
 10
0
 20
0
 30
0
  0
INSERT
  8
LAYER_6
  2
AIGNBL06010011
 10
0
 20
0
 30
0
  0
POLYLINE
  8
LAYER_6
 40
0.05
 41
0.05
 62
255
 66
1
 10
0
 20
0
 30
0
 70
1
  0
VERTEX
  8
LAYER_6
 10
73.75
 20
-122.1695
 42
0.0570234399
  0
VERTEX
  8
LAYER_6
 10
96.9687
 20
-122.1402
  0
VERTEX
  8
LAYER_6
 10
96.9687
 20
-126.7374
  0
VERTEX
  8
LAYER_6
 10
96.782
 20
-126.7583
 42
-0.05969998421
  0
VERTEX
  8
LAYER_6
 10
74.9267
 20
-126.7667
  0
SEQEND
  0
POLYLINE
  8
LAYER_6
 40
0.1058
 41
0.1058
 66
1
 10
0
 20
0
 30
0
  0
VERTEX
  8
LAYER_6
 10
74.9267
 20
-126.7667
 42
0.05969998421
  0
VERTEX
  8
LAYER_6
 10
96.782
 20
-126.7583
  0
VERTEX
  8
LAYER_6
 10
96.9687
 20
-126.7374
  0
SEQEND
  0
POLYLINE
  8
LAYER_6
 40
0.1058
 41
0.1058
 66
1
 10
0
 20
0
 30
0
  0
VERTEX
  8
LAYER_6
 10
73.75
 20
-122.1695
 42
0.0570234399
  0
VERTEX
  8
LAYER_6
 10
96.9687
 20
-122.1402
  0
SEQEND
  0
ENDSEC
  0
EOF
