  0
SECTION
  2
HEADER
  9
$ACADVER
  1
AC1009
  9
$LUNITS
 70
2
  9
$LUPREC
 70
4
  9
$LTSCALE
 40
1.0
  9
$EXTMIN
 10
33.7873
 20
-259.334
 30
0
  9
$EXTMAX
 10
230.7955
 20
22.6587
 30
0
  0
ENDSEC
  0
SECTION
  2
TABLES
  0
TABLE
  2
LTYPE
 70
256
  0
ENDTAB
  0
TABLE
  2
LAYER
 70
6
  0
LAYER
  2
LAYER_1
 70
64
 62
7
  6
CONTINUOUS
  0
LAYER
  2
LAYER_2
 70
64
 62
7
  6
CONTINUOUS
  0
LAYER
  2
LAYER_3
 70
64
 62
7
  6
CONTINUOUS
  0
LAYER
  2
LAYER_4
 70
64
 62
7
  6
CONTINUOUS
  0
LAYER
  2
LAYER_5
 70
64
 62
7
  6
CONTINUOUS
  0
LAYER
  2
LAYER_6
 70
64
 62
7
  6
CONTINUOUS
  0
ENDTAB
  0
TABLE
  2
STYLE
 70
6
  0
STYLE
  2
STANDARD
 70
0
 40
0
 50
0
 71
0
 41
0
 42
0
  3
TXT
  4
BIGFONT
  0
ENDTAB
  0
ENDSEC
  0
SECTION
  2
BLOCKS
  0
BLOCK
  8
LAYER_1
  2
AIGNBL01040005
 70
64
 10
0
 20
0
 30
0
  3
AIGNBL01040005
  0
POLYLINE
  8
LAYER_1
 40
0.05
 41
0.05
 66
1
 10
0
 20
0
 30
0
 70
1
  0
VERTEX
  8
LAYER_1
 10
138.3767
 20
-249.1011
  0
VERTEX
  8
LAYER_1
 10
137.891
 20
-250.2793
  0
VERTEX
  8
LAYER_1
 10
137.2664
 20
-250.2793
  0
VERTEX
  8
LAYER_1
 10
138.857
 20
-246.5355
  0
VERTEX
  8
LAYER_1
 10
139.586
 20
-246.5355
  0
VERTEX
  8
LAYER_1
 10
141.1828
 20
-250.2793
  0
VERTEX
  8
LAYER_1
 10
140.5365
 20
-250.2793
  0
VERTEX
  8
LAYER_1
 10
140.0369
 20
-249.1011
  0
SEQEND
  0
POLYLINE
  8
LAYER_1
 40
0.05
 41
0.05
 66
1
 10
0
 20
0
 30
0
 70
1
  0
VERTEX
  8
LAYER_1
 10
139.9115
 20
-248.7245
  0
VERTEX
  8
LAYER_1
 10
139.4533
 20
-247.6459
  0
VERTEX
  8
LAYER_1
 10
139.2101
 20
-246.963
  0
VERTEX
  8
LAYER_1
 10
139.1967
 20
-246.963
  0
VERTEX
  8
LAYER_1
 10
138.9603
 20
-247.6414
  0
VERTEX
  8
LAYER_1
 10
138.5021
 20
-248.7245
  0
SEQEND
  0
ENDBLK
  0
BLOCK
  8
LAYER_1
  2
AIGNBL01040006
 70
64
 10
0
 20
0
 30
0
  3
AIGNBL01040006
  0
POLYLINE
  8
LAYER_1
 40
0.05
 41
0.05
 66
1
 10
0
 20
0
 30
0
 70
1
  0
VERTEX
  8
LAYER_1
 10
145.5226
 20
-250.8295
 42
-0.01588995579
  0
VERTEX
  8
LAYER_1
 10
143.7311
 20
-250.3954
  0
VERTEX
  8
LAYER_1
 10
143.4465
 20
-250.3406
 42
-0.08603985201
  0
VERTEX
  8
LAYER_1
 10
142.5648
 20
-250.1665
 42
-0.09807603942
  0
VERTEX
  8
LAYER_1
 10
141.9131
 20
-249.7557
 42
-0.2094886647
  0
VERTEX
  8
LAYER_1
 10
141.3839
 20
-248.4469
 42
-0.09686882676
  0
VERTEX
  8
LAYER_1
 10
141.5276
 20
-247.6779
 42
-0.2046492491
  0
VERTEX
  8
LAYER_1
 10
142.5693
 20
-246.6597
 42
-0.09822810302
  0
VERTEX
  8
LAYER_1
 10
143.5644
 20
-246.4745
 42
-0.08551091506
  0
VERTEX
  8
LAYER_1
 10
144.4282
 20
-246.615
 42
-0.1004264881
  0
VERTEX
  8
LAYER_1
 10
145.0896
 20
-247.0069
 42
-0.2141381959
  0
VERTEX
  8
LAYER_1
 10
145.6617
 20
-248.3686
 42
-0.09538251124
  0
VERTEX
  8
LAYER_1
 10
145.5236
 20
-249.1322
 42
-0.2145004706
  0
VERTEX
  8
LAYER_1
 10
144.5063
 20
-250.1049
 42
-0.02339472194
  0
VERTEX
  8
LAYER_1
 10
144.3281
 20
-250.1628
  0
VERTEX
  8
LAYER_1
 10
144.3281
 20
-250.1852
  0
VERTEX
  8
LAYER_1
 10
145.6965
 20
-250.424
  0
SEQEND
  0
POLYLINE
  8
LAYER_1
 40
0.05
 41
0.05
 66
1
 10
0
 20
0
 30
0
 70
1
  0
VERTEX
  8
LAYER_1
 10
145.0233
 20
-248.39
 42
0.1071465477
  0
VERTEX
  8
LAYER_1
 10
144.8729
 20
-247.6894
 42
0.2977221891
  0
VERTEX
  8
LAYER_1
 10
143.5433
 20
-246.8687
 42
0.1072160189
  0
VERTEX
  8
LAYER_1
 10
142.8575
 20
-247.0073
 42
0.2385375056
  0
VERTEX
  8
LAYER_1
 10
142.0749
 20
-248.007
 42
0.05759145292
  0
VERTEX
  8
LAYER_1
 10
142.0296
 20
-248.4344
 42
0.2182236294
  0
VERTEX
  8
LAYER_1
 10
142.5575
 20
-249.6231
 42
0.1771891839
  0
VERTEX
  8
LAYER_1
 10
143.5161
 20
-249.9468
 42
0.1075696895
  0
VERTEX
  8
LAYER_1
 10
144.1932
 20
-249.8086
 42
0.236982977
  0
VERTEX
  8
LAYER_1
 10
144.9758
 20
-248.8146
 42
0.05604944619
  0
SEQEND
  0
ENDBLK
  0
BLOCK
  8
LAYER_1
  2
AIGNBL01040007
 70
64
 10
0
 20
0
 30
0
  3
AIGNBL01040007
  0
POLYLINE
  8
LAYER_1
 40
0.05
 41
0.05
 66
1
 10
0
 20
0
 30
0
 70
1
  0
VERTEX
  8
LAYER_1
 10
146.9815
 20
-246.5355
  0
VERTEX
  8
LAYER_1
 10
146.9815
 20
-248.7517
 42
0.114472655
  0
VERTEX
  8
LAYER_1
 10
147.1146
 20
-249.4136
 42
0.1464766
  0
VERTEX
  8
LAYER_1
 10
147.4628
 20
-249.7966
 42
0.1363197034
  0
VERTEX
  8
LAYER_1
 10
148.0716
 20
-249.9468
 42
0.1219363095
  0
VERTEX
  8
LAYER_1
 10
148.6913
 20
-249.8128
 42
0.1503291203
  0
VERTEX
  8
LAYER_1
 10
149.0609
 20
-249.446
 42
0.1255921242
  0
VERTEX
  8
LAYER_1
 10
149.2105
 20
-248.7517
  0
VERTEX
  8
LAYER_1
 10
149.2105
 20
-246.5355
  0
VERTEX
  8
LAYER_1
 10
149.8217
 20
-246.5355
  0
VERTEX
  8
LAYER_1
 10
149.8217
 20
-248.7187
 42
-0.1000186514
  0
VERTEX
  8
LAYER_1
 10
149.6875
 20
-249.4569
 42
-0.1214826848
  0
VERTEX
  8
LAYER_1
 10
149.3164
 20
-249.9606
 42
-0.1105884685
  0
VERTEX
  8
LAYER_1
 10
148.6945
 20
-250.2654
 42
-0.06129767201
  0
VERTEX
  8
LAYER_1
 10
148.0509
 20
-250.3406
 42
-0.09420892198
  0
VERTEX
  8
LAYER_1
 10
147.2365
 20
-250.2032
 42
-0.2431575096
  0
VERTEX
  8
LAYER_1
 10
146.4378
 20
-249.2978
 42
-0.06319469768
  0
VERTEX
  8
LAYER_1
 10
146.3707
 20
-248.7404
  0
VERTEX
  8
LAYER_1
 10
146.3707
 20
-246.5355
  0
SEQEND
  0
ENDBLK
  0
BLOCK
  8
LAYER_1
  2
AIGNBL01040008
 70
64
 10
0
 20
0
 30
0
  3
AIGNBL01040008
  0
POLYLINE
  8
LAYER_1
 40
0.05
 41
0.05
 66
1
 10
0
 20
0
 30
0
 70
1
  0
VERTEX
  8
LAYER_1
 10
151.5573
 20
-249.1011
  0
VERTEX
  8
LAYER_1
 10
151.0709
 20
-250.2793
  0
VERTEX
  8
LAYER_1
 10
150.447
 20
-250.2793
  0
VERTEX
  8
LAYER_1
 10
152.0365
 20
-246.5355
  0
VERTEX
  8
LAYER_1
 10
152.7655
 20
-246.5355
  0
VERTEX
  8
LAYER_1
 10
154.3623
 20
-250.2793
  0
VERTEX
  8
LAYER_1
 10
153.7167
 20
-250.2793
  0
VERTEX
  8
LAYER_1
 10
153.2175
 20
-249.1011
  0
SEQEND
  0
POLYLINE
  8
LAYER_1
 40
0.05
 41
0.05
 66
1
 10
0
 20
0
 30
0
 70
1
  0
VERTEX
  8
LAYER_1
 10
153.0921
 20
-248.7245
  0
VERTEX
  8
LAYER_1
 10
152.6332
 20
-247.6459
  0
VERTEX
  8
LAYER_1
 10
152.3897
 20
-246.963
  0
VERTEX
  8
LAYER_1
 10
152.3759
 20
-246.963
  0
VERTEX
  8
LAYER_1
 10
152.1402
 20
-247.6414
  0
VERTEX
  8
LAYER_1
 10
151.682
 20
-248.7245
  0
SEQEND
  0
ENDBLK
  0
BLOCK
  8
LAYER_1
  2
AIGNBL01040009
 70
64
 10
0
 20
0
 30
0
  3
AIGNBL01040009
  0
POLYLINE
  8
LAYER_1
 40
0.05
 41
0.05
 66
1
 10
0
 20
0
 30
0
 70
1
  0
VERTEX
  8
LAYER_1
 10
155.3969
 20
-246.58
 42
-0.03256094069
  0
VERTEX
  8
LAYER_1
 10
156.5576
 20
-246.5072
 42
-0.08241612935
  0
VERTEX
  8
LAYER_1
 10
157.5173
 20
-246.6416
 42
-0.07669938049
  0
VERTEX
  8
LAYER_1
 10
157.8691
 20
-246.8184
 42
-0.2484913661
  0
VERTEX
  8
LAYER_1
 10
158.279
 20
-247.6018
 42
-0.2263535337
  0
VERTEX
  8
LAYER_1
 10
157.9177
 20
-248.4014
 42
-0.1098394792
  0
VERTEX
  8
LAYER_1
 10
157.2932
 20
-248.7128
 42
-0.0656406839
  0
VERTEX
  8
LAYER_1
 10
156.4872
 20
-248.8127
 42
-0.06243203296
  0
VERTEX
  8
LAYER_1
 10
156.0015
 20
-248.7793
  0
VERTEX
  8
LAYER_1
 10
156.0015
 20
-250.2793
  0
VERTEX
  8
LAYER_1
 10
155.3969
 20
-250.2793
  0
SEQEND
  0
POLYLINE
  8
LAYER_1
 40
0.05
 41
0.05
 66
1
 10
0
 20
0
 30
0
 70
1
  0
VERTEX
  8
LAYER_1
 10
156.0015
 20
-248.3852
 42
0.04167858666
  0
VERTEX
  8
LAYER_1
 10
156.501
 20
-248.4245
 42
0.1033682296
  0
VERTEX
  8
LAYER_1
 10
157.216
 20
-248.2977
 42
0.300261568
  0
VERTEX
  8
LAYER_1
 10
157.6751
 20
-247.6242
 42
0.1736095203
  0
VERTEX
  8
LAYER_1
 10
157.5412
 20
-247.2193
 42
0.1518049397
  0
VERTEX
  8
LAYER_1
 10
157.1227
 20
-246.9614
 42
0.06878721899
  0
VERTEX
  8
LAYER_1
 10
156.5713
 20
-246.891
 42
0.0640598863
  0
VERTEX
  8
LAYER_1
 10
156.0015
 20
-246.93
  0
SEQEND
  0
ENDBLK
  0
BLOCK
  8
LAYER_1
  2
AIGNBL0104000A
 70
64
 10
0
 20
0
 30
0
  3
AIGNBL0104000A
  0
POLYLINE
  8
LAYER_1
 40
0.05
 41
0.05
 66
1
 10
0
 20
0
 30
0
 70
1
  0
VERTEX
  8
LAYER_1
 10
159.8218
 20
-246.8352
 42
-0.2759870412
  0
VERTEX
  8
LAYER_1
 10
159.6829
 20
-247.0742
 42
-0.1267055018
  0
VERTEX
  8
LAYER_1
 10
159.4325
 20
-247.1356
 42
-0.2239956238
  0
VERTEX
  8
LAYER_1
 10
159.1241
 20
-247.0039
 42
-0.1705452753
  0
VERTEX
  8
LAYER_1
 10
159.0645
 20
-246.8352
 42
-0.2641883957
  0
VERTEX
  8
LAYER_1
 10
159.2127
 20
-246.5896
 42
-0.1291792354
  0
VERTEX
  8
LAYER_1
 10
159.4459
 20
-246.53
 42
-0.2251681707
  0
VERTEX
  8
LAYER_1
 10
159.761
 20
-246.6599
 42
-0.1693099844
  0
SEQEND
  0
POLYLINE
  8
LAYER_1
 40
0.05
 41
0.05
 66
1
 10
0
 20
0
 30
0
 70
1
  0
VERTEX
  8
LAYER_1
 10
159.1407
 20
-250.2793
  0
VERTEX
  8
LAYER_1
 10
159.1407
 20
-247.5907
  0
VERTEX
  8
LAYER_1
 10
159.7515
 20
-247.5907
  0
VERTEX
  8
LAYER_1
 10
159.7515
 20
-250.2793
  0
SEQEND
  0
ENDBLK
  0
BLOCK
  8
LAYER_1
  2
AIGNBL0104000B
 70
64
 10
0
 20
0
 30
0
  3
AIGNBL0104000B
  0
POLYLINE
  8
LAYER_1
 40
0.05
 41
0.05
 66
1
 10
0
 20
0
 30
0
 70
1
  0
VERTEX
  8
LAYER_1
 10
161.6118
 20
-249.1011
  0
VERTEX
  8
LAYER_1
 10
161.1271
 20
-250.2793
  0
VERTEX
  8
LAYER_1
 10
160.5015
 20
-250.2793
  0
VERTEX
  8
LAYER_1
 10
162.0918
 20
-246.5355
  0
VERTEX
  8
LAYER_1
 10
162.8211
 20
-246.5355
  0
VERTEX
  8
LAYER_1
 10
164.4186
 20
-250.2793
  0
VERTEX
  8
LAYER_1
 10
163.7719
 20
-250.2793
  0
VERTEX
  8
LAYER_1
 10
163.2727
 20
-249.1011
  0
SEQEND
  0
POLYLINE
  8
LAYER_1
 40
0.05
 41
0.05
 66
1
 10
0
 20
0
 30
0
 70
1
  0
VERTEX
  8
LAYER_1
 10
163.1473
 20
-248.7245
  0
VERTEX
  8
LAYER_1
 10
162.6891
 20
-247.6459
  0
VERTEX
  8
LAYER_1
 10
162.4466
 20
-246.963
  0
VERTEX
  8
LAYER_1
 10
162.4321
 20
-246.963
  0
VERTEX
  8
LAYER_1
 10
162.1961
 20
-247.6414
  0
VERTEX
  8
LAYER_1
 10
161.7379
 20
-248.7245
  0
SEQEND
  0
ENDBLK
  0
BLOCK
  8
LAYER_1
  2
AIGNBL01030004
 70
64
 10
0
 20
0
 30
0
  3
AIGNBL01030004
  0
INSERT
  8
LAYER_1
  2
AIGNBL01040005
 10
0
 20
0
 30
0
  0
INSERT
  8
LAYER_1
  2
AIGNBL01040006
 10
0
 20
0
 30
0
  0
INSERT
  8
LAYER_1
  2
AIGNBL01040007
 10
0
 20
0
 30
0
  0
INSERT
  8
LAYER_1
  2
AIGNBL01040008
 10
0
 20
0
 30
0
  0
INSERT
  8
LAYER_1
  2
AIGNBL01040009
 10
0
 20
0
 30
0
  0
INSERT
  8
LAYER_1
  2
AIGNBL0104000A
 10
0
 20
0
 30
0
  0
INSERT
  8
LAYER_1
  2
AIGNBL0104000B
 10
0
 20
0
 30
0
  0
ENDBLK
  0
BLOCK
  8
LAYER_1
  2
AIGNBL0103000D
 70
64
 10
0
 20
0
 30
0
  3
AIGNBL0103000D
  0
POLYLINE
  8
LAYER_1
 40
0.05
 41
0.05
 66
1
 10
0
 20
0
 30
0
 70
1
  0
VERTEX
  8
LAYER_1
 10
137.3756
 20
-252.1676
  0
VERTEX
  8
LAYER_1
 10
137.9258
 20
-252.1676
  0
VERTEX
  8
LAYER_1
 10
137.9258
 20
-252.2609
  0
VERTEX
  8
LAYER_1
 10
137.2715
 20
-252.2609
  0
VERTEX
  8
LAYER_1
 10
137.2715
 20
-251.2339
  0
VERTEX
  8
LAYER_1
 10
137.9082
 20
-251.2339
  0
VERTEX
  8
LAYER_1
 10
137.9082
 20
-251.3266
  0
VERTEX
  8
LAYER_1
 10
137.3756
 20
-251.3266
  0
VERTEX
  8
LAYER_1
 10
137.3756
 20
-251.6787
  0
VERTEX
  8
LAYER_1
 10
137.8734
 20
-251.6787
  0
VERTEX
  8
LAYER_1
 10
137.8734
 20
-251.7717
  0
VERTEX
  8
LAYER_1
 10
137.3756
 20
-251.7717
  0
SEQEND
  0
ENDBLK
  0
BLOCK
  8
LAYER_1
  2
AIGNBL0103000E
 70
64
 10
0
 20
0
 30
0
  3
AIGNBL0103000E
  0
POLYLINE
  8
LAYER_1
 40
0.05
 41
0.05
 66
1
 10
0
 20
0
 30
0
 70
1
  0
VERTEX
  8
LAYER_1
 10
139.0589
 20
-252.1079
  0
VERTEX
  8
LAYER_1
 10
139.0613
 20
-252.1079
  0
VERTEX
  8
LAYER_1
 10
139.0613
 20
-251.2339
  0
VERTEX
  8
LAYER_1
 10
139.1663
 20
-251.2339
  0
VERTEX
  8
LAYER_1
 10
139.1663
 20
-252.2609
  0
VERTEX
  8
LAYER_1
 10
139.0365
 20
-252.2609
  0
VERTEX
  8
LAYER_1
 10
138.4384
 20
-251.3772
  0
VERTEX
  8
LAYER_1
 10
138.435
 20
-251.3772
  0
VERTEX
  8
LAYER_1
 10
138.435
 20
-252.2609
  0
VERTEX
  8
LAYER_1
 10
138.3306
 20
-252.2609
  0
VERTEX
  8
LAYER_1
 10
138.3306
 20
-251.2339
  0
VERTEX
  8
LAYER_1
 10
138.4611
 20
-251.2339
  0
SEQEND
  0
ENDBLK
  0
BLOCK
  8
LAYER_1
  2
AIGNBL0103000F
 70
64
 10
0
 20
0
 30
0
  3
AIGNBL0103000F
  0
POLYLINE
  8
LAYER_1
 40
0.05
 41
0.05
 66
1
 10
0
 20
0
 30
0
 70
1
  0
VERTEX
  8
LAYER_1
 10
139.637
 20
-252.0501
  0
VERTEX
  8
LAYER_1
 10
139.691
 20
-252.1527
 42
0.1791739205
  0
VERTEX
  8
LAYER_1
 10
139.8034
 20
-252.1937
  0
VERTEX
  8
LAYER_1
 10
139.8922
 20
-252.1744
  0
VERTEX
  8
LAYER_1
 10
139.948
 20
-252.1214
  0
VERTEX
  8
LAYER_1
 10
139.9763
 20
-252.0453
  0
VERTEX
  8
LAYER_1
 10
139.9853
 20
-251.956
  0
VERTEX
  8
LAYER_1
 10
139.9853
 20
-251.2339
  0
VERTEX
  8
LAYER_1
 10
140.0893
 20
-251.2339
  0
VERTEX
  8
LAYER_1
 10
140.0893
 20
-251.965
  0
VERTEX
  8
LAYER_1
 10
140.0783
 20
-252.0718
  0
VERTEX
  8
LAYER_1
 10
140.0369
 20
-252.1765
  0
VERTEX
  8
LAYER_1
 10
139.9529
 20
-252.2554
  0
VERTEX
  8
LAYER_1
 10
139.8147
 20
-252.2868
 42
-0.18823279
  0
VERTEX
  8
LAYER_1
 10
139.6311
 20
-252.2268
 42
-0.1779708983
  0
VERTEX
  8
LAYER_1
 10
139.5391
 20
-252.0769
  0
SEQEND
  0
ENDBLK
  0
BLOCK
  8
LAYER_1
  2
AIGNBL01030010
 70
64
 10
0
 20
0
 30
0
  3
AIGNBL01030010
  0
POLYLINE
  8
LAYER_1
 40
0.05
 41
0.05
 66
1
 10
0
 20
0
 30
0
 70
1
  0
VERTEX
  8
LAYER_1
 10
141.5693
 20
-251.7469
 42
-0.104348301
  0
VERTEX
  8
LAYER_1
 10
141.5279
 20
-251.9629
 42
-0.1013865216
  0
VERTEX
  8
LAYER_1
 10
141.4163
 20
-252.1338
  0
VERTEX
  8
LAYER_1
 10
141.2458
 20
-252.2461
 42
-0.09497960855
  0
VERTEX
  8
LAYER_1
 10
141.0332
 20
-252.2868
 42
-0.1003676177
  0
VERTEX
  8
LAYER_1
 10
140.8207
 20
-252.2461
  0
VERTEX
  8
LAYER_1
 10
140.6512
 20
-252.1338
 42
-0.09474436642
  0
VERTEX
  8
LAYER_1
 10
140.5389
 20
-251.9629
 42
-0.09317427323
  0
VERTEX
  8
LAYER_1
 10
140.4986
 20
-251.7469
 42
-0.1052531491
  0
VERTEX
  8
LAYER_1
 10
140.5389
 20
-251.5306
 42
-0.1000138279
  0
VERTEX
  8
LAYER_1
 10
140.6512
 20
-251.3604
 42
-0.09581503346
  0
VERTEX
  8
LAYER_1
 10
140.8207
 20
-251.2481
 42
-0.09561956468
  0
VERTEX
  8
LAYER_1
 10
141.0332
 20
-251.2071
 42
-0.1024782491
  0
VERTEX
  8
LAYER_1
 10
141.2458
 20
-251.2481
 42
-0.1014786584
  0
VERTEX
  8
LAYER_1
 10
141.4163
 20
-251.3604
 42
-0.09815577957
  0
VERTEX
  8
LAYER_1
 10
141.5279
 20
-251.5306
 42
-0.09523735002
  0
SEQEND
  0
POLYLINE
  8
LAYER_1
 40
0.05
 41
0.05
 66
1
 10
0
 20
0
 30
0
 70
1
  0
VERTEX
  8
LAYER_1
 10
141.4584
 20
-251.7476
  0
VERTEX
  8
LAYER_1
 10
141.4301
 20
-251.5767
  0
VERTEX
  8
LAYER_1
 10
141.3454
 20
-251.4344
  0
VERTEX
  8
LAYER_1
 10
141.211
 20
-251.337
 42
0.1026237584
  0
VERTEX
  8
LAYER_1
 10
141.0332
 20
-251.3001
 42
0.1147987019
  0
VERTEX
  8
LAYER_1
 10
140.8558
 20
-251.337
  0
VERTEX
  8
LAYER_1
 10
140.7225
 20
-251.4344
  0
VERTEX
  8
LAYER_1
 10
140.6374
 20
-251.5767
  0
VERTEX
  8
LAYER_1
 10
140.6081
 20
-251.7476
  0
VERTEX
  8
LAYER_1
 10
140.6374
 20
-251.9188
  0
VERTEX
  8
LAYER_1
 10
140.7225
 20
-252.0607
  0
VERTEX
  8
LAYER_1
 10
140.8558
 20
-252.1575
  0
VERTEX
  8
LAYER_1
 10
141.0332
 20
-252.1937
 42
0.1185100977
  0
VERTEX
  8
LAYER_1
 10
141.211
 20
-252.1575
  0
VERTEX
  8
LAYER_1
 10
141.3454
 20
-252.0607
  0
VERTEX
  8
LAYER_1
 10
141.4301
 20
-251.9188
  0
SEQEND
  0
ENDBLK
  0
BLOCK
  8
LAYER_1
  2
AIGNBL01030011
 70
64
 10
0
 20
0
 30
0
  3
AIGNBL01030011
  0
POLYLINE
  8
LAYER_1
 40
0.05
 41
0.05
 66
1
 10
0
 20
0
 30
0
 70
1
  0
VERTEX
  8
LAYER_1
 10
142.3393
 20
-252.2609
  0
VERTEX
  8
LAYER_1
 10
142.2349
 20
-252.2609
  0
VERTEX
  8
LAYER_1
 10
142.2349
 20
-251.8182
  0
VERTEX
  8
LAYER_1
 10
141.8504
 20
-251.2339
  0
VERTEX
  8
LAYER_1
 10
141.9813
 20
-251.2339
  0
VERTEX
  8
LAYER_1
 10
142.2904
 20
-251.7311
  0
VERTEX
  8
LAYER_1
 10
142.6022
 20
-251.2339
  0
VERTEX
  8
LAYER_1
 10
142.7234
 20
-251.2339
  0
VERTEX
  8
LAYER_1
 10
142.3393
 20
-251.8182
  0
SEQEND
  0
ENDBLK
  0
BLOCK
  8
LAYER_1
  2
AIGNBL01030012
 70
64
 10
0
 20
0
 30
0
  3
AIGNBL01030012
  0
POLYLINE
  8
LAYER_1
 40
0.05
 41
0.05
 66
1
 10
0
 20
0
 30
0
 70
1
  0
VERTEX
  8
LAYER_1
 10
143.6236
 20
-251.2339
  0
VERTEX
  8
LAYER_1
 10
143.9288
 20
-251.2339
  0
VERTEX
  8
LAYER_1
 10
144.047
 20
-251.2457
  0
VERTEX
  8
LAYER_1
 10
144.1528
 20
-251.288
  0
VERTEX
  8
LAYER_1
 10
144.2307
 20
-251.3686
  0
VERTEX
  8
LAYER_1
 10
144.2603
 20
-251.4961
 42
-0.1778951175
  0
VERTEX
  8
LAYER_1
 10
144.2103
 20
-251.6373
 42
-0.1614829203
  0
VERTEX
  8
LAYER_1
 10
144.078
 20
-251.7166
  0
VERTEX
  8
LAYER_1
 10
144.078
 20
-251.7194
 42
-0.1736511409
  0
VERTEX
  8
LAYER_1
 10
144.2434
 20
-251.7969
 42
-0.1925337955
  0
VERTEX
  8
LAYER_1
 10
144.3099
 20
-251.9764
  0
VERTEX
  8
LAYER_1
 10
144.2823
 20
-252.0928
  0
VERTEX
  8
LAYER_1
 10
144.2062
 20
-252.1831
  0
VERTEX
  8
LAYER_1
 10
144.0866
 20
-252.2402
  0
VERTEX
  8
LAYER_1
 10
143.9275
 20
-252.2609
  0
VERTEX
  8
LAYER_1
 10
143.6236
 20
-252.2609
  0
SEQEND
  0
POLYLINE
  8
LAYER_1
 40
0.05
 41
0.05
 66
1
 10
0
 20
0
 30
0
 70
1
  0
VERTEX
  8
LAYER_1
 10
143.7277
 20
-251.6832
  0
VERTEX
  8
LAYER_1
 10
143.9382
 20
-251.6832
  0
VERTEX
  8
LAYER_1
 10
144.0146
 20
-251.6742
  0
VERTEX
  8
LAYER_1
 10
144.0842
 20
-251.6453
  0
VERTEX
  8
LAYER_1
 10
144.1362
 20
-251.5888
  0
VERTEX
  8
LAYER_1
 10
144.1552
 20
-251.5034
  0
VERTEX
  8
LAYER_1
 10
144.1362
 20
-251.4203
  0
VERTEX
  8
LAYER_1
 10
144.0835
 20
-251.3638
  0
VERTEX
  8
LAYER_1
 10
144.005
 20
-251.3328
  0
VERTEX
  8
LAYER_1
 10
143.9089
 20
-251.3235
  0
VERTEX
  8
LAYER_1
 10
143.7277
 20
-251.3235
  0
SEQEND
  0
POLYLINE
  8
LAYER_1
 40
0.05
 41
0.05
 66
1
 10
0
 20
0
 30
0
 70
1
  0
VERTEX
  8
LAYER_1
 10
143.7277
 20
-252.171
  0
VERTEX
  8
LAYER_1
 10
143.9223
 20
-252.171
  0
VERTEX
  8
LAYER_1
 10
144.0301
 20
-252.1596
  0
VERTEX
  8
LAYER_1
 10
144.1204
 20
-252.1252
  0
VERTEX
  8
LAYER_1
 10
144.181
 20
-252.0625
  0
VERTEX
  8
LAYER_1
 10
144.2048
 20
-251.9705
 42
0.2546661425
  0
VERTEX
  8
LAYER_1
 10
144.1362
 20
-251.8189
 42
0.138509597
  0
VERTEX
  8
LAYER_1
 10
143.9413
 20
-251.7686
  0
VERTEX
  8
LAYER_1
 10
143.7277
 20
-251.7686
  0
SEQEND
  0
ENDBLK
  0
BLOCK
  8
LAYER_1
  2
AIGNBL01030013
 70
64
 10
0
 20
0
 30
0
  3
AIGNBL01030013
  0
POLYLINE
  8
LAYER_1
 40
0.05
 41
0.05
 66
1
 10
0
 20
0
 30
0
 70
1
  0
VERTEX
  8
LAYER_1
 10
144.7388
 20
-252.2609
  0
VERTEX
  8
LAYER_1
 10
144.6241
 20
-252.2609
  0
VERTEX
  8
LAYER_1
 10
145.0685
 20
-251.2339
  0
VERTEX
  8
LAYER_1
 10
145.1705
 20
-251.2339
  0
VERTEX
  8
LAYER_1
 10
145.6111
 20
-252.2609
  0
VERTEX
  8
LAYER_1
 10
145.4943
 20
-252.2609
  0
VERTEX
  8
LAYER_1
 10
145.3813
 20
-251.9912
  0
VERTEX
  8
LAYER_1
 10
144.8504
 20
-251.9912
  0
SEQEND
  0
POLYLINE
  8
LAYER_1
 40
0.05
 41
0.05
 66
1
 10
0
 20
0
 30
0
 70
1
  0
VERTEX
  8
LAYER_1
 10
144.8894
 20
-251.8947
  0
VERTEX
  8
LAYER_1
 10
145.3424
 20
-251.8947
  0
VERTEX
  8
LAYER_1
 10
145.1164
 20
-251.3493
  0
SEQEND
  0
ENDBLK
  0
BLOCK
  8
LAYER_1
  2
AIGNBL01030014
 70
64
 10
0
 20
0
 30
0
  3
AIGNBL01030014
  0
POLYLINE
  8
LAYER_1
 40
0.05
 41
0.05
 66
1
 10
0
 20
0
 30
0
 70
1
  0
VERTEX
  8
LAYER_1
 10
146.2915
 20
-252.2609
  0
VERTEX
  8
LAYER_1
 10
146.1871
 20
-252.2609
  0
VERTEX
  8
LAYER_1
 10
146.1871
 20
-251.3266
  0
VERTEX
  8
LAYER_1
 10
145.8426
 20
-251.3266
  0
VERTEX
  8
LAYER_1
 10
145.8426
 20
-251.2339
  0
VERTEX
  8
LAYER_1
 10
146.635
 20
-251.2339
  0
VERTEX
  8
LAYER_1
 10
146.635
 20
-251.3266
  0
VERTEX
  8
LAYER_1
 10
146.2915
 20
-251.3266
  0
SEQEND
  0
ENDBLK
  0
BLOCK
  8
LAYER_1
  2
AIGNBL01030015
 70
64
 10
0
 20
0
 30
0
  3
AIGNBL01030015
  0
POLYLINE
  8
LAYER_1
 40
0.05
 41
0.05
 66
1
 10
0
 20
0
 30
0
 70
1
  0
VERTEX
  8
LAYER_1
 10
146.9888
 20
-251.2339
  0
VERTEX
  8
LAYER_1
 10
147.0932
 20
-251.2339
  0
VERTEX
  8
LAYER_1
 10
147.0932
 20
-251.6787
  0
VERTEX
  8
LAYER_1
 10
147.654
 20
-251.6787
  0
VERTEX
  8
LAYER_1
 10
147.654
 20
-251.2339
  0
VERTEX
  8
LAYER_1
 10
147.7581
 20
-251.2339
  0
VERTEX
  8
LAYER_1
 10
147.7581
 20
-252.2609
  0
VERTEX
  8
LAYER_1
 10
147.654
 20
-252.2609
  0
VERTEX
  8
LAYER_1
 10
147.654
 20
-251.7745
  0
VERTEX
  8
LAYER_1
 10
147.0932
 20
-251.7745
  0
VERTEX
  8
LAYER_1
 10
147.0932
 20
-252.2609
  0
VERTEX
  8
LAYER_1
 10
146.9888
 20
-252.2609
  0
SEQEND
  0
ENDBLK
  0
BLOCK
  8
LAYER_1
  2
AIGNBL01030016
 70
64
 10
0
 20
0
 30
0
  3
AIGNBL01030016
  0
POLYLINE
  8
LAYER_1
 40
0.05
 41
0.05
 66
1
 10
0
 20
0
 30
0
 70
1
  0
VERTEX
  8
LAYER_1
 10
148.3351
 20
-252.2609
  0
VERTEX
  8
LAYER_1
 10
148.2311
 20
-252.2609
  0
VERTEX
  8
LAYER_1
 10
148.2311
 20
-251.2339
  0
VERTEX
  8
LAYER_1
 10
148.5322
 20
-251.2339
  0
VERTEX
  8
LAYER_1
 10
148.6724
 20
-251.2481
  0
VERTEX
  8
LAYER_1
 10
148.7844
 20
-251.2953
  0
VERTEX
  8
LAYER_1
 10
148.8571
 20
-251.38
  0
VERTEX
  8
LAYER_1
 10
148.8829
 20
-251.5078
  0
VERTEX
  8
LAYER_1
 10
148.8636
 20
-251.6108
  0
VERTEX
  8
LAYER_1
 10
148.8088
 20
-251.6911
  0
VERTEX
  8
LAYER_1
 10
148.7258
 20
-251.7459
  0
VERTEX
  8
LAYER_1
 10
148.6214
 20
-251.7717
  0
VERTEX
  8
LAYER_1
 10
148.9211
 20
-252.2609
  0
VERTEX
  8
LAYER_1
 10
148.7937
 20
-252.2609
  0
VERTEX
  8
LAYER_1
 10
148.5098
 20
-251.7807
  0
VERTEX
  8
LAYER_1
 10
148.3351
 20
-251.7807
  0
SEQEND
  0
POLYLINE
  8
LAYER_1
 40
0.05
 41
0.05
 66
1
 10
0
 20
0
 30
0
 70
1
  0
VERTEX
  8
LAYER_1
 10
148.3351
 20
-251.6904
  0
VERTEX
  8
LAYER_1
 10
148.517
 20
-251.6904
 42
0.1622417858
  0
VERTEX
  8
LAYER_1
 10
148.711
 20
-251.6453
 42
0.2500476248
  0
VERTEX
  8
LAYER_1
 10
148.7799
 20
-251.5078
  0
VERTEX
  8
LAYER_1
 10
148.7602
 20
-251.4224
  0
VERTEX
  8
LAYER_1
 10
148.7079
 20
-251.3652
  0
VERTEX
  8
LAYER_1
 10
148.6269
 20
-251.3338
  0
VERTEX
  8
LAYER_1
 10
148.5212
 20
-251.3235
  0
VERTEX
  8
LAYER_1
 10
148.3351
 20
-251.3235
  0
SEQEND
  0
ENDBLK
  0
BLOCK
  8
LAYER_1
  2
AIGNBL01030017
 70
64
 10
0
 20
0
 30
0
  3
AIGNBL01030017
  0
POLYLINE
  8
LAYER_1
 40
0.05
 41
0.05
 66
1
 10
0
 20
0
 30
0
 70
1
  0
VERTEX
  8
LAYER_1
 10
150.3154
 20
-251.7469
 42
-0.1015060182
  0
VERTEX
  8
LAYER_1
 10
150.2747
 20
-251.9629
 42
-0.09993540575
  0
VERTEX
  8
LAYER_1
 10
150.1624
 20
-252.1338
 42
-0.09525489566
  0
VERTEX
  8
LAYER_1
 10
149.9926
 20
-252.2461
 42
-0.09491251156
  0
VERTEX
  8
LAYER_1
 10
149.78
 20
-252.2868
 42
-0.1002015795
  0
VERTEX
  8
LAYER_1
 10
149.5674
 20
-252.2461
 42
-0.1016690689
  0
VERTEX
  8
LAYER_1
 10
149.3979
 20
-252.1338
 42
-0.09667300425
  0
VERTEX
  8
LAYER_1
 10
149.2856
 20
-251.9629
 42
-0.09262920428
  0
VERTEX
  8
LAYER_1
 10
149.2453
 20
-251.7469
 42
-0.09846568495
  0
VERTEX
  8
LAYER_1
 10
149.2856
 20
-251.5306
 42
-0.09950302227
  0
VERTEX
  8
LAYER_1
 10
149.3979
 20
-251.3604
 42
-0.09832237419
  0
VERTEX
  8
LAYER_1
 10
149.5674
 20
-251.2481
 42
-0.09564774702
  0
VERTEX
  8
LAYER_1
 10
149.78
 20
-251.2071
 42
-0.1014301699
  0
VERTEX
  8
LAYER_1
 10
149.9926
 20
-251.2481
 42
-0.1041253763
  0
VERTEX
  8
LAYER_1
 10
150.1624
 20
-251.3604
 42
-0.09489987116
  0
VERTEX
  8
LAYER_1
 10
150.2747
 20
-251.5306
 42
-0.09342113907
  0
SEQEND
  0
POLYLINE
  8
LAYER_1
 40
0.05
 41
0.05
 66
1
 10
0
 20
0
 30
0
 70
1
  0
VERTEX
  8
LAYER_1
 10
150.2051
 20
-251.7476
  0
VERTEX
  8
LAYER_1
 10
150.1762
 20
-251.5767
  0
VERTEX
  8
LAYER_1
 10
150.0921
 20
-251.4344
  0
VERTEX
  8
LAYER_1
 10
149.9581
 20
-251.337
 42
0.1022827687
  0
VERTEX
  8
LAYER_1
 10
149.78
 20
-251.3001
 42
0.1183846388
  0
VERTEX
  8
LAYER_1
 10
149.6026
 20
-251.337
  0
VERTEX
  8
LAYER_1
 10
149.4682
 20
-251.4344
  0
VERTEX
  8
LAYER_1
 10
149.3842
 20
-251.5767
  0
VERTEX
  8
LAYER_1
 10
149.3549
 20
-251.7476
  0
VERTEX
  8
LAYER_1
 10
149.3842
 20
-251.9188
  0
VERTEX
  8
LAYER_1
 10
149.4682
 20
-252.0607
  0
VERTEX
  8
LAYER_1
 10
149.6026
 20
-252.1575
 42
0.1007973502
  0
VERTEX
  8
LAYER_1
 10
149.78
 20
-252.1937
  0
VERTEX
  8
LAYER_1
 10
149.9581
 20
-252.1575
  0
VERTEX
  8
LAYER_1
 10
150.0921
 20
-252.0607
  0
VERTEX
  8
LAYER_1
 10
150.1762
 20
-251.9188
  0
SEQEND
  0
ENDBLK
  0
BLOCK
  8
LAYER_1
  2
AIGNBL01030018
 70
64
 10
0
 20
0
 30
0
  3
AIGNBL01030018
  0
POLYLINE
  8
LAYER_1
 40
0.05
 41
0.05
 66
1
 10
0
 20
0
 30
0
 70
1
  0
VERTEX
  8
LAYER_1
 10
151.7489
 20
-251.7469
 42
-0.1017020442
  0
VERTEX
  8
LAYER_1
 10
151.7086
 20
-251.9629
  0
VERTEX
  8
LAYER_1
 10
151.5963
 20
-252.1338
  0
VERTEX
  8
LAYER_1
 10
151.4264
 20
-252.2461
 42
-0.09495021158
  0
VERTEX
  8
LAYER_1
 10
151.2139
 20
-252.2868
 42
-0.1019502388
  0
VERTEX
  8
LAYER_1
 10
151.0013
 20
-252.2461
 42
-0.1021914323
  0
VERTEX
  8
LAYER_1
 10
150.8318
 20
-252.1338
 42
-0.09636018285
  0
VERTEX
  8
LAYER_1
 10
150.7188
 20
-251.9629
 42
-0.09364604827
  0
VERTEX
  8
LAYER_1
 10
150.6781
 20
-251.7469
 42
-0.1001287453
  0
VERTEX
  8
LAYER_1
 10
150.7188
 20
-251.5306
 42
-0.1037227634
  0
VERTEX
  8
LAYER_1
 10
150.8318
 20
-251.3604
 42
-0.0985967677
  0
VERTEX
  8
LAYER_1
 10
151.0013
 20
-251.2481
 42
-0.0957287822
  0
VERTEX
  8
LAYER_1
 10
151.2139
 20
-251.2071
 42
-0.1016365741
  0
VERTEX
  8
LAYER_1
 10
151.4264
 20
-251.2481
 42
-0.09861864621
  0
VERTEX
  8
LAYER_1
 10
151.5963
 20
-251.3604
 42
-0.09487953686
  0
VERTEX
  8
LAYER_1
 10
151.7086
 20
-251.5306
 42
-0.09256741039
  0
SEQEND
  0
POLYLINE
  8
LAYER_1
 40
0.05
 41
0.05
 66
1
 10
0
 20
0
 30
0
 70
1
  0
VERTEX
  8
LAYER_1
 10
151.639
 20
-251.7476
  0
VERTEX
  8
LAYER_1
 10
151.61
 20
-251.5767
  0
VERTEX
  8
LAYER_1
 10
151.526
 20
-251.4344
  0
VERTEX
  8
LAYER_1
 10
151.3916
 20
-251.337
 42
0.1025075331
  0
VERTEX
  8
LAYER_1
 10
151.2139
 20
-251.3001
 42
0.118884027
  0
VERTEX
  8
LAYER_1
 10
151.0361
 20
-251.337
  0
VERTEX
  8
LAYER_1
 10
150.9017
 20
-251.4344
  0
VERTEX
  8
LAYER_1
 10
150.818
 20
-251.5767
  0
VERTEX
  8
LAYER_1
 10
150.7887
 20
-251.7476
  0
VERTEX
  8
LAYER_1
 10
150.818
 20
-251.9188
  0
VERTEX
  8
LAYER_1
 10
150.9017
 20
-252.0607
  0
VERTEX
  8
LAYER_1
 10
151.0361
 20
-252.1575
 42
0.100589677
  0
VERTEX
  8
LAYER_1
 10
151.2139
 20
-252.1937
  0
VERTEX
  8
LAYER_1
 10
151.3916
 20
-252.1575
  0
VERTEX
  8
LAYER_1
 10
151.526
 20
-252.0607
  0
VERTEX
  8
LAYER_1
 10
151.61
 20
-251.9188
  0
SEQEND
  0
ENDBLK
  0
BLOCK
  8
LAYER_1
  2
AIGNBL01030019
 70
64
 10
0
 20
0
 30
0
  3
AIGNBL01030019
  0
POLYLINE
  8
LAYER_1
 40
0.05
 41
0.05
 66
1
 10
0
 20
0
 30
0
 70
1
  0
VERTEX
  8
LAYER_1
 10
152.6742
 20
-252.0839
  0
VERTEX
  8
LAYER_1
 10
152.6756
 20
-252.0839
  0
VERTEX
  8
LAYER_1
 10
153.0194
 20
-251.2339
  0
VERTEX
  8
LAYER_1
 10
153.1793
 20
-251.2339
  0
VERTEX
  8
LAYER_1
 10
153.1793
 20
-252.2609
  0
VERTEX
  8
LAYER_1
 10
153.0749
 20
-252.2609
  0
VERTEX
  8
LAYER_1
 10
153.0749
 20
-251.3686
  0
VERTEX
  8
LAYER_1
 10
153.0718
 20
-251.3686
  0
VERTEX
  8
LAYER_1
 10
152.7007
 20
-252.2609
  0
VERTEX
  8
LAYER_1
 10
152.646
 20
-252.2609
  0
VERTEX
  8
LAYER_1
 10
152.2743
 20
-251.3686
  0
VERTEX
  8
LAYER_1
 10
152.2708
 20
-251.3686
  0
VERTEX
  8
LAYER_1
 10
152.2708
 20
-252.2609
  0
VERTEX
  8
LAYER_1
 10
152.1668
 20
-252.2609
  0
VERTEX
  8
LAYER_1
 10
152.1668
 20
-251.2339
  0
VERTEX
  8
LAYER_1
 10
152.327
 20
-251.2339
  0
SEQEND
  0
ENDBLK
  0
BLOCK
  8
LAYER_1
  2
AIGNBL0103001A
 70
64
 10
0
 20
0
 30
0
  3
AIGNBL0103001A
  0
POLYLINE
  8
LAYER_1
 40
0.05
 41
0.05
 66
1
 10
0
 20
0
 30
0
 70
1
  0
VERTEX
  8
LAYER_1
 10
154.3196
 20
-252.1676
  0
VERTEX
  8
LAYER_1
 10
154.8694
 20
-252.1676
  0
VERTEX
  8
LAYER_1
 10
154.8694
 20
-252.2609
  0
VERTEX
  8
LAYER_1
 10
154.2145
 20
-252.2609
  0
VERTEX
  8
LAYER_1
 10
154.2145
 20
-251.2339
  0
VERTEX
  8
LAYER_1
 10
154.8522
 20
-251.2339
  0
VERTEX
  8
LAYER_1
 10
154.8522
 20
-251.3263
  0
VERTEX
  8
LAYER_1
 10
154.3196
 20
-251.3263
  0
VERTEX
  8
LAYER_1
 10
154.3196
 20
-251.6787
  0
VERTEX
  8
LAYER_1
 10
154.8167
 20
-251.6787
  0
VERTEX
  8
LAYER_1
 10
154.8167
 20
-251.7717
  0
VERTEX
  8
LAYER_1
 10
154.3196
 20
-251.7717
  0
SEQEND
  0
ENDBLK
  0
BLOCK
  8
LAYER_1
  2
AIGNBL0103001B
 70
64
 10
0
 20
0
 30
0
  3
AIGNBL0103001B
  0
POLYLINE
  8
LAYER_1
 40
0.05
 41
0.05
 66
1
 10
0
 20
0
 30
0
 70
1
  0
VERTEX
  8
LAYER_1
 10
155.6101
 20
-251.6484
  0
VERTEX
  8
LAYER_1
 10
155.8906
 20
-251.2339
  0
VERTEX
  8
LAYER_1
 10
156.0153
 20
-251.2339
  0
VERTEX
  8
LAYER_1
 10
155.6749
 20
-251.7221
  0
VERTEX
  8
LAYER_1
 10
156.0518
 20
-252.2609
  0
VERTEX
  8
LAYER_1
 10
155.9216
 20
-252.2609
  0
VERTEX
  8
LAYER_1
 10
155.6081
 20
-251.7979
  0
VERTEX
  8
LAYER_1
 10
155.296
 20
-252.2609
  0
VERTEX
  8
LAYER_1
 10
155.165
 20
-252.2609
  0
VERTEX
  8
LAYER_1
 10
155.5426
 20
-251.7211
  0
VERTEX
  8
LAYER_1
 10
155.1988
 20
-251.2339
  0
VERTEX
  8
LAYER_1
 10
155.329
 20
-251.2339
  0
SEQEND
  0
ENDBLK
  0
BLOCK
  8
LAYER_1
  2
AIGNBL0103001C
 70
64
 10
0
 20
0
 30
0
  3
AIGNBL0103001C
  0
POLYLINE
  8
LAYER_1
 40
0.05
 41
0.05
 66
1
 10
0
 20
0
 30
0
 70
1
  0
VERTEX
  8
LAYER_1
 10
156.4159
 20
-251.2339
  0
VERTEX
  8
LAYER_1
 10
156.706
 20
-251.2339
  0
VERTEX
  8
LAYER_1
 10
156.8487
 20
-251.2498
  0
VERTEX
  8
LAYER_1
 10
156.9575
 20
-251.3015
  0
VERTEX
  8
LAYER_1
 10
157.0288
 20
-251.3866
  0
VERTEX
  8
LAYER_1
 10
157.053
 20
-251.5078
  0
VERTEX
  8
LAYER_1
 10
157.0281
 20
-251.6291
  0
VERTEX
  8
LAYER_1
 10
156.9568
 20
-251.7145
  0
VERTEX
  8
LAYER_1
 10
156.8459
 20
-251.7659
  0
VERTEX
  8
LAYER_1
 10
156.7032
 20
-251.7831
  0
VERTEX
  8
LAYER_1
 10
156.5203
 20
-251.7831
  0
VERTEX
  8
LAYER_1
 10
156.5203
 20
-252.2609
  0
VERTEX
  8
LAYER_1
 10
156.4159
 20
-252.2609
  0
SEQEND
  0
POLYLINE
  8
LAYER_1
 40
0.05
 41
0.05
 66
1
 10
0
 20
0
 30
0
 70
1
  0
VERTEX
  8
LAYER_1
 10
156.5203
 20
-251.6949
  0
VERTEX
  8
LAYER_1
 10
156.6974
 20
-251.6949
 42
0.179800284
  0
VERTEX
  8
LAYER_1
 10
156.8848
 20
-251.6474
 42
0.2343125845
  0
VERTEX
  8
LAYER_1
 10
156.9489
 20
-251.5078
 42
0.2635647854
  0
VERTEX
  8
LAYER_1
 10
156.8824
 20
-251.3676
 42
0.1265134521
  0
VERTEX
  8
LAYER_1
 10
156.6974
 20
-251.3235
  0
VERTEX
  8
LAYER_1
 10
156.5203
 20
-251.3235
  0
SEQEND
  0
ENDBLK
  0
BLOCK
  8
LAYER_1
  2
AIGNBL0103001D
 70
64
 10
0
 20
0
 30
0
  3
AIGNBL0103001D
  0
POLYLINE
  8
LAYER_1
 40
0.05
 41
0.05
 66
1
 10
0
 20
0
 30
0
 70
1
  0
VERTEX
  8
LAYER_1
 10
157.5621
 20
-252.1676
  0
VERTEX
  8
LAYER_1
 10
158.1116
 20
-252.1676
  0
VERTEX
  8
LAYER_1
 10
158.1116
 20
-252.2609
  0
VERTEX
  8
LAYER_1
 10
157.4577
 20
-252.2609
  0
VERTEX
  8
LAYER_1
 10
157.4577
 20
-251.2339
  0
VERTEX
  8
LAYER_1
 10
158.0947
 20
-251.2339
  0
VERTEX
  8
LAYER_1
 10
158.0947
 20
-251.3263
  0
VERTEX
  8
LAYER_1
 10
157.5621
 20
-251.3263
  0
VERTEX
  8
LAYER_1
 10
157.5621
 20
-251.6787
  0
VERTEX
  8
LAYER_1
 10
158.0599
 20
-251.6787
  0
VERTEX
  8
LAYER_1
 10
158.0599
 20
-251.7717
  0
VERTEX
  8
LAYER_1
 10
157.5621
 20
-251.7717
  0
SEQEND
  0
ENDBLK
  0
BLOCK
  8
LAYER_1
  2
AIGNBL0103001E
 70
64
 10
0
 20
0
 30
0
  3
AIGNBL0103001E
  0
POLYLINE
  8
LAYER_1
 40
0.05
 41
0.05
 66
1
 10
0
 20
0
 30
0
 70
1
  0
VERTEX
  8
LAYER_1
 10
158.6208
 20
-252.2609
  0
VERTEX
  8
LAYER_1
 10
158.5168
 20
-252.2609
  0
VERTEX
  8
LAYER_1
 10
158.5168
 20
-251.2339
  0
VERTEX
  8
LAYER_1
 10
158.8185
 20
-251.2339
  0
VERTEX
  8
LAYER_1
 10
158.9584
 20
-251.2481
  0
VERTEX
  8
LAYER_1
 10
159.07
 20
-251.2953
  0
VERTEX
  8
LAYER_1
 10
159.1438
 20
-251.38
  0
VERTEX
  8
LAYER_1
 10
159.1696
 20
-251.5078
  0
VERTEX
  8
LAYER_1
 10
159.1493
 20
-251.6105
  0
VERTEX
  8
LAYER_1
 10
159.0945
 20
-251.6915
  0
VERTEX
  8
LAYER_1
 10
159.0111
 20
-251.7459
  0
VERTEX
  8
LAYER_1
 10
158.9067
 20
-251.7717
  0
VERTEX
  8
LAYER_1
 10
159.2075
 20
-252.2609
  0
VERTEX
  8
LAYER_1
 10
159.08
 20
-252.2609
  0
VERTEX
  8
LAYER_1
 10
158.7955
 20
-251.7803
  0
VERTEX
  8
LAYER_1
 10
158.6208
 20
-251.7803
  0
SEQEND
  0
POLYLINE
  8
LAYER_1
 40
0.05
 41
0.05
 66
1
 10
0
 20
0
 30
0
 70
1
  0
VERTEX
  8
LAYER_1
 10
158.6208
 20
-251.69
  0
VERTEX
  8
LAYER_1
 10
158.8027
 20
-251.69
 42
0.1625850216
  0
VERTEX
  8
LAYER_1
 10
158.9974
 20
-251.6453
 42
0.2500143464
  0
VERTEX
  8
LAYER_1
 10
159.0652
 20
-251.5078
  0
VERTEX
  8
LAYER_1
 10
159.047
 20
-251.4224
  0
VERTEX
  8
LAYER_1
 10
158.9943
 20
-251.3652
  0
VERTEX
  8
LAYER_1
 10
158.9123
 20
-251.3338
  0
VERTEX
  8
LAYER_1
 10
158.8065
 20
-251.3235
  0
VERTEX
  8
LAYER_1
 10
158.6208
 20
-251.3235
  0
SEQEND
  0
ENDBLK
  0
BLOCK
  8
LAYER_1
  2
AIGNBL0103001F
 70
64
 10
0
 20
0
 30
0
  3
AIGNBL0103001F
  0
POLYLINE
  8
LAYER_1
 40
0.05
 41
0.05
 66
1
 10
0
 20
0
 30
0
 70
1
  0
VERTEX
  8
LAYER_1
 10
159.6898
 20
-252.2609
  0
VERTEX
  8
LAYER_1
 10
159.5865
 20
-252.2609
  0
VERTEX
  8
LAYER_1
 10
159.5865
 20
-251.2339
  0
VERTEX
  8
LAYER_1
 10
159.6898
 20
-251.2339
  0
SEQEND
  0
ENDBLK
  0
BLOCK
  8
LAYER_1
  2
AIGNBL01030020
 70
64
 10
0
 20
0
 30
0
  3
AIGNBL01030020
  0
POLYLINE
  8
LAYER_1
 40
0.05
 41
0.05
 66
1
 10
0
 20
0
 30
0
 70
1
  0
VERTEX
  8
LAYER_1
 10
160.2676
 20
-252.1676
  0
VERTEX
  8
LAYER_1
 10
160.8174
 20
-252.1676
  0
VERTEX
  8
LAYER_1
 10
160.8174
 20
-252.2609
  0
VERTEX
  8
LAYER_1
 10
160.1639
 20
-252.2609
  0
VERTEX
  8
LAYER_1
 10
160.1639
 20
-251.2339
  0
VERTEX
  8
LAYER_1
 10
160.8005
 20
-251.2339
  0
VERTEX
  8
LAYER_1
 10
160.8005
 20
-251.3263
  0
VERTEX
  8
LAYER_1
 10
160.2676
 20
-251.3263
  0
VERTEX
  8
LAYER_1
 10
160.2676
 20
-251.6787
  0
VERTEX
  8
LAYER_1
 10
160.7654
 20
-251.6787
  0
VERTEX
  8
LAYER_1
 10
160.7654
 20
-251.7717
  0
VERTEX
  8
LAYER_1
 10
160.2676
 20
-251.7717
  0
SEQEND
  0
ENDBLK
  0
BLOCK
  8
LAYER_1
  2
AIGNBL01030021
 70
64
 10
0
 20
0
 30
0
  3
AIGNBL01030021
  0
POLYLINE
  8
LAYER_1
 40
0.05
 41
0.05
 66
1
 10
0
 20
0
 30
0
 70
1
  0
VERTEX
  8
LAYER_1
 10
161.9505
 20
-252.1079
  0
VERTEX
  8
LAYER_1
 10
161.9536
 20
-252.1079
  0
VERTEX
  8
LAYER_1
 10
161.9536
 20
-251.2339
  0
VERTEX
  8
LAYER_1
 10
162.058
 20
-251.2339
  0
VERTEX
  8
LAYER_1
 10
162.058
 20
-252.2609
  0
VERTEX
  8
LAYER_1
 10
161.9277
 20
-252.2609
  0
VERTEX
  8
LAYER_1
 10
161.3297
 20
-251.3772
  0
VERTEX
  8
LAYER_1
 10
161.3266
 20
-251.3772
  0
VERTEX
  8
LAYER_1
 10
161.3266
 20
-252.2609
  0
VERTEX
  8
LAYER_1
 10
161.2222
 20
-252.2609
  0
VERTEX
  8
LAYER_1
 10
161.2222
 20
-251.2339
  0
VERTEX
  8
LAYER_1
 10
161.3535
 20
-251.2339
  0
SEQEND
  0
ENDBLK
  0
BLOCK
  8
LAYER_1
  2
AIGNBL01030022
 70
64
 10
0
 20
0
 30
0
  3
AIGNBL01030022
  0
POLYLINE
  8
LAYER_1
 40
0.05
 41
0.05
 66
1
 10
0
 20
0
 30
0
 70
1
  0
VERTEX
  8
LAYER_1
 10
163.396
 20
-252.0942
  0
VERTEX
  8
LAYER_1
 10
163.3323
 20
-252.1679
  0
VERTEX
  8
LAYER_1
 10
163.2469
 20
-252.2295
  0
VERTEX
  8
LAYER_1
 10
163.1394
 20
-252.2716
  0
VERTEX
  8
LAYER_1
 10
163.0112
 20
-252.2868
 42
-0.1009164681
  0
VERTEX
  8
LAYER_1
 10
162.7966
 20
-252.2461
 42
-0.1027581013
  0
VERTEX
  8
LAYER_1
 10
162.6271
 20
-252.1335
 42
-0.1010578842
  0
VERTEX
  8
LAYER_1
 10
162.5162
 20
-251.9633
 42
-0.09298732079
  0
VERTEX
  8
LAYER_1
 10
162.4759
 20
-251.7469
 42
-0.1023262951
  0
VERTEX
  8
LAYER_1
 10
162.5169
 20
-251.5306
 42
-0.1009138363
  0
VERTEX
  8
LAYER_1
 10
162.6285
 20
-251.3604
  0
VERTEX
  8
LAYER_1
 10
162.798
 20
-251.2481
 42
-0.09535690024
  0
VERTEX
  8
LAYER_1
 10
163.0112
 20
-251.2071
  0
VERTEX
  8
LAYER_1
 10
163.1222
 20
-251.2191
  0
VERTEX
  8
LAYER_1
 10
163.2252
 20
-251.2522
  0
VERTEX
  8
LAYER_1
 10
163.3117
 20
-251.3035
  0
VERTEX
  8
LAYER_1
 10
163.3767
 20
-251.3711
  0
VERTEX
  8
LAYER_1
 10
163.2906
 20
-251.4355
  0
VERTEX
  8
LAYER_1
 10
163.2469
 20
-251.3858
  0
VERTEX
  8
LAYER_1
 10
163.1835
 20
-251.3421
  0
VERTEX
  8
LAYER_1
 10
163.1043
 20
-251.3114
  0
VERTEX
  8
LAYER_1
 10
163.0126
 20
-251.3001
  0
VERTEX
  8
LAYER_1
 10
162.8338
 20
-251.3362
  0
VERTEX
  8
LAYER_1
 10
162.6998
 20
-251.4338
  0
VERTEX
  8
LAYER_1
 10
162.6147
 20
-251.5764
  0
VERTEX
  8
LAYER_1
 10
162.5868
 20
-251.7469
  0
VERTEX
  8
LAYER_1
 10
162.6164
 20
-251.9178
  0
VERTEX
  8
LAYER_1
 10
162.7012
 20
-252.0601
  0
VERTEX
  8
LAYER_1
 10
162.8356
 20
-252.1575
 42
0.1012189446
  0
VERTEX
  8
LAYER_1
 10
163.0126
 20
-252.1937
  0
VERTEX
  8
LAYER_1
 10
163.1804
 20
-252.1575
 42
0.1297589768
  0
VERTEX
  8
LAYER_1
 10
163.3148
 20
-252.0414
  0
SEQEND
  0
ENDBLK
  0
BLOCK
  8
LAYER_1
  2
AIGNBL01030023
 70
64
 10
0
 20
0
 30
0
  3
AIGNBL01030023
  0
POLYLINE
  8
LAYER_1
 40
0.05
 41
0.05
 66
1
 10
0
 20
0
 30
0
 70
1
  0
VERTEX
  8
LAYER_1
 10
163.8801
 20
-252.1676
  0
VERTEX
  8
LAYER_1
 10
164.4299
 20
-252.1676
  0
VERTEX
  8
LAYER_1
 10
164.4299
 20
-252.2609
  0
VERTEX
  8
LAYER_1
 10
163.7764
 20
-252.2609
  0
VERTEX
  8
LAYER_1
 10
163.7764
 20
-251.2339
  0
VERTEX
  8
LAYER_1
 10
164.4127
 20
-251.2339
  0
VERTEX
  8
LAYER_1
 10
164.4127
 20
-251.3263
  0
VERTEX
  8
LAYER_1
 10
163.8801
 20
-251.3263
  0
VERTEX
  8
LAYER_1
 10
163.8801
 20
-251.6787
  0
VERTEX
  8
LAYER_1
 10
164.3782
 20
-251.6787
  0
VERTEX
  8
LAYER_1
 10
164.3782
 20
-251.7717
  0
VERTEX
  8
LAYER_1
 10
163.8801
 20
-251.7717
  0
SEQEND
  0
ENDBLK
  0
BLOCK
  8
LAYER_1
  2
AIGNBL01020003
 70
64
 10
0
 20
0
 30
0
  3
AIGNBL01020003
  0
INSERT
  8
LAYER_1
  2
AIGNBL01030004
 10
0
 20
0
 30
0
  0
ENDBLK
  0
BLOCK
  8
LAYER_1
  2
AIGNBL0102000C
 70
64
 10
0
 20
0
 30
0
  3
AIGNBL0102000C
  0
INSERT
  8
LAYER_1
  2
AIGNBL0103000D
 10
0
 20
0
 30
0
  0
INSERT
  8
LAYER_1
  2
AIGNBL0103000E
 10
0
 20
0
 30
0
  0
INSERT
  8
LAYER_1
  2
AIGNBL0103000F
 10
0
 20
0
 30
0
  0
INSERT
  8
LAYER_1
  2
AIGNBL01030010
 10
0
 20
0
 30
0
  0
INSERT
  8
LAYER_1
  2
AIGNBL01030011
 10
0
 20
0
 30
0
  0
INSERT
  8
LAYER_1
  2
AIGNBL01030012
 10
0
 20
0
 30
0
  0
INSERT
  8
LAYER_1
  2
AIGNBL01030013
 10
0
 20
0
 30
0
  0
INSERT
  8
LAYER_1
  2
AIGNBL01030014
 10
0
 20
0
 30
0
  0
INSERT
  8
LAYER_1
  2
AIGNBL01030015
 10
0
 20
0
 30
0
  0
INSERT
  8
LAYER_1
  2
AIGNBL01030016
 10
0
 20
0
 30
0
  0
INSERT
  8
LAYER_1
  2
AIGNBL01030017
 10
0
 20
0
 30
0
  0
INSERT
  8
LAYER_1
  2
AIGNBL01030018
 10
0
 20
0
 30
0
  0
INSERT
  8
LAYER_1
  2
AIGNBL01030019
 10
0
 20
0
 30
0
  0
INSERT
  8
LAYER_1
  2
AIGNBL0103001A
 10
0
 20
0
 30
0
  0
INSERT
  8
LAYER_1
  2
AIGNBL0103001B
 10
0
 20
0
 30
0
  0
INSERT
  8
LAYER_1
  2
AIGNBL0103001C
 10
0
 20
0
 30
0
  0
INSERT
  8
LAYER_1
  2
AIGNBL0103001D
 10
0
 20
0
 30
0
  0
INSERT
  8
LAYER_1
  2
AIGNBL0103001E
 10
0
 20
0
 30
0
  0
INSERT
  8
LAYER_1
  2
AIGNBL0103001F
 10
0
 20
0
 30
0
  0
INSERT
  8
LAYER_1
  2
AIGNBL01030020
 10
0
 20
0
 30
0
  0
INSERT
  8
LAYER_1
  2
AIGNBL01030021
 10
0
 20
0
 30
0
  0
INSERT
  8
LAYER_1
  2
AIGNBL01030022
 10
0
 20
0
 30
0
  0
INSERT
  8
LAYER_1
  2
AIGNBL01030023
 10
0
 20
0
 30
0
  0
ENDBLK
  0
BLOCK
  8
LAYER_1
  2
AIGNBL01010002
 70
64
 10
0
 20
0
 30
0
  3
AIGNBL01010002
  0
INSERT
  8
LAYER_1
  2
AIGNBL01020003
 10
0
 20
0
 30
0
  0
INSERT
  8
LAYER_1
  2
AIGNBL0102000C
 10
0
 20
0
 30
0
  0
ENDBLK
  0
BLOCK
  8
LAYER_1
  2
AIGNBL01010024
 70
64
 10
0
 20
0
 30
0
  3
AIGNBL01010024
  0
POLYLINE
  8
LAYER_1
 40
0.1058
 41
0.1058
 66
1
 10
0
 20
0
 30
0
  0
VERTEX
  8
LAYER_1
 10
187.0176
 20
-63.3405
  0
VERTEX
  8
LAYER_1
 10
178.4992
 20
-54.8212
  0
SEQEND
  0
TEXT
  8
LAYER_1
 10
185.5302
 20
-68.2811
 11
185.5302
 21
-68.2811
 40
4.6571
 41
0.5
 72
1
  1
水栓取り付け穴
  0
TEXT
  8
LAYER_1
 10
186.1116
 20
-73.3962
 11
186.1116
 21
-73.3962
 40
5.542
 41
0.5
 72
1
  1
22-26
  0
CIRCLE
  8
LAYER_1
 10
181.604
 20
-57.8318
 40
3.0613
  0
POLYLINE
  8
LAYER_1
 40
0.1058
 41
0.1058
 66
1
 10
0
 20
0
 30
0
  0
VERTEX
  8
LAYER_1
 10
175.2602
 20
-57.8422
  0
VERTEX
  8
LAYER_1
 10
179.2166
 20
-57.8359
  0
SEQEND
  0
POLYLINE
  8
LAYER_1
 40
0.1058
 41
0.1058
 66
1
 10
0
 20
0
 30
0
  0
VERTEX
  8
LAYER_1
 10
180
 20
-57.8339
  0
VERTEX
  8
LAYER_1
 10
180.8185
 20
-57.8339
  0
SEQEND
  0
POLYLINE
  8
LAYER_1
 40
0.1058
 41
0.1058
 66
1
 10
0
 20
0
 30
0
  0
VERTEX
  8
LAYER_1
 10
181.604
 20
-57.8318
  0
VERTEX
  8
LAYER_1
 10
185.5582
 20
-57.8257
  0
SEQEND
  0
POLYLINE
  8
LAYER_1
 40
0.1058
 41
0.1058
 66
1
 10
0
 20
0
 30
0
  0
VERTEX
  8
LAYER_1
 10
181.6267
 20
-51.9262
  0
VERTEX
  8
LAYER_1
 10
181.6122
 20
-55.4444
  0
SEQEND
  0
POLYLINE
  8
LAYER_1
 40
0.1058
 41
0.1058
 66
1
 10
0
 20
0
 30
0
  0
VERTEX
  8
LAYER_1
 10
181.6102
 20
-56.2278
  0
VERTEX
  8
LAYER_1
 10
181.6061
 20
-57.0474
  0
SEQEND
  0
POLYLINE
  8
LAYER_1
 40
0.1058
 41
0.1058
 66
1
 10
0
 20
0
 30
0
  0
VERTEX
  8
LAYER_1
 10
181.604
 20
-57.8318
  0
VERTEX
  8
LAYER_1
 10
181.5895
 20
-61.7871
  0
SEQEND
  0
ENDBLK
  0
BLOCK
  8
LAYER_6
  2
AIGNBL06010002
 70
64
 10
0
 20
0
 30
0
  3
AIGNBL06010002
  0
POLYLINE
  8
LAYER_6
 40
0.7056
 41
0.7056
 66
1
 10
0
 20
0
 30
0
 70
1
  0
VERTEX
  8
LAYER_6
 10
33.7873
 20
22.6587
  0
VERTEX
  8
LAYER_6
 10
230.7955
 20
22.6587
  0
VERTEX
  8
LAYER_6
 10
230.7955
 20
-259.334
  0
VERTEX
  8
LAYER_6
 10
33.7873
 20
-259.334
  0
SEQEND
  0
ENDBLK
  0
ENDSEC
  0
SECTION
  2
ENTITIES
  0
INSERT
  8
LAYER_1
  2
AIGNBL01010002
 10
0
 20
0
 30
0
  0
TEXT
  8
LAYER_1
 10
146.0328
 20
-176.3613
 11
146.0328
 21
-176.3613
 40
5.542
 41
0.5
 50
89.99999999
  1
天板厚 0030mm
  0
INSERT
  8
LAYER_1
  2
AIGNBL01010024
 10
0
 20
0
 30
0
  0
POLYLINE
  8
LAYER_1
 40
0.1058
 41
0.1058
 66
1
 10
0
 20
0
 30
0
  0
VERTEX
  8
LAYER_1
 10
134.285
 20
-94.5381
  0
VERTEX
  8
LAYER_1
 10
124.0869
 20
-94.5381
  0
SEQEND
  0
POLYLINE
  8
LAYER_1
 40
0.1058
 41
0.1058
 66
1
 10
0
 20
0
 30
0
  0
VERTEX
  8
LAYER_1
 10
134.4374
 20
-94.6905
  0
VERTEX
  8
LAYER_1
 10
134.4374
 20
-127.4438
  0
SEQEND
  0
POLYLINE
  8
LAYER_1
 40
0.1058
 41
0.1058
 66
1
 10
0
 20
0
 30
0
  0
VERTEX
  8
LAYER_1
 10
134.4374
 20
-94.6905
  0
VERTEX
  8
LAYER_1
 10
134.285
 20
-94.5381
  0
SEQEND
  0
POLYLINE
  8
LAYER_1
 40
0.1058
 41
0.1058
 66
1
 10
0
 20
0
 30
0
  0
VERTEX
  8
LAYER_1
 10
124.0869
 20
-94.5381
  0
VERTEX
  8
LAYER_1
 10
123.9345
 20
-94.6905
  0
SEQEND
  0
POLYLINE
  8
LAYER_1
 40
0.1058
 41
0.1058
 66
1
 10
0
 20
0
 30
0
  0
VERTEX
  8
LAYER_1
 10
123.9345
 20
-127.4438
  0
VERTEX
  8
LAYER_1
 10
124.0234
 20
-127.5327
  0
SEQEND
  0
POLYLINE
  8
LAYER_1
 40
0.1058
 41
0.1058
 66
1
 10
0
 20
0
 30
0
  0
VERTEX
  8
LAYER_1
 10
134.4374
 20
-127.4438
  0
VERTEX
  8
LAYER_1
 10
134.3485
 20
-127.5327
  0
SEQEND
  0
POLYLINE
  8
LAYER_1
 40
0.1058
 41
0.1058
 66
1
 10
0
 20
0
 30
0
  0
VERTEX
  8
LAYER_1
 10
123.9345
 20
-127.4438
  0
VERTEX
  8
LAYER_1
 10
123.9345
 20
-109.6892
  0
SEQEND
  0
POLYLINE
  8
LAYER_1
 40
0.1058
 41
0.1058
 66
1
 10
0
 20
0
 30
0
  0
VERTEX
  8
LAYER_1
 10
123.9345
 20
-103.39
  0
VERTEX
  8
LAYER_1
 10
123.9345
 20
-94.6905
  0
SEQEND
  0
POLYLINE
  8
LAYER_1
 40
0.1058
 41
0.1058
 66
1
 10
0
 20
0
 30
0
  0
VERTEX
  8
LAYER_1
 10
123.9345
 20
-103.39
  0
VERTEX
  8
LAYER_1
 10
108.25
 20
-103.39
  0
SEQEND
  0
POLYLINE
  8
LAYER_1
 40
0.1058
 41
0.1058
 66
1
 10
0
 20
0
 30
0
  0
VERTEX
  8
LAYER_1
 10
129.1923
 20
-94.2714
  0
VERTEX
  8
LAYER_1
 10
123.9345
 20
-94.2714
  0
SEQEND
  0
POLYLINE
  8
LAYER_1
 40
0.1058
 41
0.1058
 66
1
 10
0
 20
0
 30
0
  0
VERTEX
  8
LAYER_1
 10
134.1453
 20
-86.6133
  0
VERTEX
  8
LAYER_1
 10
124.2393
 20
-86.6133
  0
SEQEND
  0
POLYLINE
  8
LAYER_1
 40
0.1058
 41
0.1058
 66
1
 10
0
 20
0
 30
0
  0
VERTEX
  8
LAYER_1
 10
129.1923
 20
-94.2714
  0
VERTEX
  8
LAYER_1
 10
134.4374
 20
-92.1505
  0
SEQEND
  0
POLYLINE
  8
LAYER_1
 40
0.1058
 41
0.1058
 66
1
 10
0
 20
0
 30
0
  0
VERTEX
  8
LAYER_1
 10
123.9345
 20
-94.2714
  0
VERTEX
  8
LAYER_1
 10
123.9345
 20
-90.2709
  0
SEQEND
  0
POLYLINE
  8
LAYER_1
 40
0.1058
 41
0.1058
 66
1
 10
0
 20
0
 30
0
  0
VERTEX
  8
LAYER_1
 10
134.4374
 20
-86.9181
  0
VERTEX
  8
LAYER_1
 10
134.4374
 20
-86.8673
  0
VERTEX
  8
LAYER_1
 10
134.4247
 20
-86.8165
  0
VERTEX
  8
LAYER_1
 10
134.3993
 20
-86.7657
  0
VERTEX
  8
LAYER_1
 10
134.3739
 20
-86.7276
  0
VERTEX
  8
LAYER_1
 10
134.3358
 20
-86.6895
  0
VERTEX
  8
LAYER_1
 10
134.285
 20
-86.6641
  0
VERTEX
  8
LAYER_1
 10
134.2469
 20
-86.6387
  0
VERTEX
  8
LAYER_1
 10
134.1961
 20
-86.626
  0
VERTEX
  8
LAYER_1
 10
134.1453
 20
-86.6133
  0
SEQEND
  0
POLYLINE
  8
LAYER_1
 40
0.1058
 41
0.1058
 66
1
 10
0
 20
0
 30
0
  0
VERTEX
  8
LAYER_1
 10
124.2393
 20
-86.6133
  0
VERTEX
  8
LAYER_1
 10
124.1885
 20
-86.626
  0
VERTEX
  8
LAYER_1
 10
124.1377
 20
-86.6387
  0
VERTEX
  8
LAYER_1
 10
124.0869
 20
-86.6641
  0
VERTEX
  8
LAYER_1
 10
124.0488
 20
-86.6894
  0
VERTEX
  8
LAYER_1
 10
124.0107
 20
-86.7276
  0
VERTEX
  8
LAYER_1
 10
123.9853
 20
-86.7656
  0
VERTEX
  8
LAYER_1
 10
123.9599
 20
-86.8165
  0
VERTEX
  8
LAYER_1
 10
123.9472
 20
-86.8673
  0
VERTEX
  8
LAYER_1
 10
123.9345
 20
-86.9181
  0
VERTEX
  8
LAYER_1
 10
123.9345
 20
-87.7563
  0
SEQEND
  0
POLYLINE
  8
LAYER_1
 40
0.1058
 41
0.1058
 66
1
 10
0
 20
0
 30
0
  0
VERTEX
  8
LAYER_1
 10
123.9345
 20
-90.2709
  0
VERTEX
  8
LAYER_1
 10
124.0488
 20
-89.6867
  0
VERTEX
  8
LAYER_1
 10
124.0996
 20
-89.0898
  0
VERTEX
  8
LAYER_1
 10
124.0996
 20
-89.0136
  0
VERTEX
  8
LAYER_1
 10
124.0615
 20
-88.4167
  0
VERTEX
  8
LAYER_1
 10
123.9599
 20
-87.8325
  0
VERTEX
  8
LAYER_1
 10
123.9345
 20
-87.7563
  0
SEQEND
  0
POLYLINE
  8
LAYER_1
 40
0.1058
 41
0.1058
 66
1
 10
0
 20
0
 30
0
  0
VERTEX
  8
LAYER_1
 10
135.0597
 20
-89.0136
  0
VERTEX
  8
LAYER_1
 10
135.0216
 20
-88.6071
  0
VERTEX
  8
LAYER_1
 10
134.92
 20
-88.2007
  0
VERTEX
  8
LAYER_1
 10
134.7422
 20
-87.8197
  0
VERTEX
  8
LAYER_1
 10
134.4374
 20
-87.8197
  0
SEQEND
  0
POLYLINE
  8
LAYER_1
 40
0.1058
 41
0.1058
 66
1
 10
0
 20
0
 30
0
  0
VERTEX
  8
LAYER_1
 10
134.4374
 20
-88.0484
  0
VERTEX
  8
LAYER_1
 10
134.4374
 20
-87.8198
  0
SEQEND
  0
POLYLINE
  8
LAYER_1
 40
0.1058
 41
0.1058
 66
1
 10
0
 20
0
 30
0
  0
VERTEX
  8
LAYER_1
 10
134.7422
 20
-90.2201
  0
VERTEX
  8
LAYER_1
 10
134.92
 20
-89.8391
  0
VERTEX
  8
LAYER_1
 10
135.0216
 20
-89.4327
  0
VERTEX
  8
LAYER_1
 10
135.0597
 20
-89.0135
  0
SEQEND
  0
POLYLINE
  8
LAYER_1
 40
0.1058
 41
0.1058
 66
1
 10
0
 20
0
 30
0
  0
VERTEX
  8
LAYER_1
 10
134.7422
 20
-90.2201
  0
VERTEX
  8
LAYER_1
 10
134.4374
 20
-90.2201
  0
SEQEND
  0
POLYLINE
  8
LAYER_1
 40
0.1058
 41
0.1058
 66
1
 10
0
 20
0
 30
0
  0
VERTEX
  8
LAYER_1
 10
134.4374
 20
-89.9915
  0
VERTEX
  8
LAYER_1
 10
134.4374
 20
-90.22
  0
SEQEND
  0
POLYLINE
  8
LAYER_1
 40
0.1058
 41
0.1058
 66
1
 10
0
 20
0
 30
0
  0
VERTEX
  8
LAYER_1
 10
134.4374
 20
-92.1505
  0
VERTEX
  8
LAYER_1
 10
134.4374
 20
-89.0135
  0
VERTEX
  8
LAYER_1
 10
134.4374
 20
-86.9181
  0
SEQEND
  0
POLYLINE
  8
LAYER_1
 40
0.1058
 41
0.1058
 66
1
 10
0
 20
0
 30
0
  0
VERTEX
  8
LAYER_1
 10
106.3958
 20
-90.2201
  0
VERTEX
  8
LAYER_1
 10
123.9599
 20
-90.2201
  0
SEQEND
  0
POLYLINE
  8
LAYER_1
 40
0.1058
 41
0.1058
 66
1
 10
0
 20
0
 30
0
  0
VERTEX
  8
LAYER_1
 10
106.3958
 20
-87.8198
  0
VERTEX
  8
LAYER_1
 10
123.9599
 20
-87.8198
  0
SEQEND
  0
POLYLINE
  8
LAYER_1
 40
0.1058
 41
0.1058
 66
1
 10
0
 20
0
 30
0
  0
VERTEX
  8
LAYER_1
 10
106.2434
 20
-90.0677
  0
VERTEX
  8
LAYER_1
 10
106.2434
 20
-87.9721
  0
SEQEND
  0
POLYLINE
  8
LAYER_1
 40
0.1058
 41
0.1058
 66
1
 10
0
 20
0
 30
0
  0
VERTEX
  8
LAYER_1
 10
106.3958
 20
-87.8198
  0
VERTEX
  8
LAYER_1
 10
106.2434
 20
-87.9721
  0
SEQEND
  0
POLYLINE
  8
LAYER_1
 40
0.1058
 41
0.1058
 66
1
 10
0
 20
0
 30
0
  0
VERTEX
  8
LAYER_1
 10
106.2434
 20
-90.0677
  0
VERTEX
  8
LAYER_1
 10
106.3958
 20
-90.22
  0
SEQEND
  0
POLYLINE
  8
LAYER_1
 40
0.1058
 41
0.1058
 66
1
 10
0
 20
0
 30
0
  0
VERTEX
  8
LAYER_1
 10
161.8635
 20
-94.3983
  0
VERTEX
  8
LAYER_1
 10
166.9562
 20
-94.3983
  0
SEQEND
  0
POLYLINE
  8
LAYER_1
 40
0.1058
 41
0.1058
 66
1
 10
0
 20
0
 30
0
  0
VERTEX
  8
LAYER_1
 10
161.8635
 20
-94.3983
  0
VERTEX
  8
LAYER_1
 10
156.7581
 20
-94.3983
  0
SEQEND
  0
POLYLINE
  8
LAYER_1
 40
0.1058
 41
0.1058
 66
1
 10
0
 20
0
 30
0
  0
VERTEX
  8
LAYER_1
 10
156.6057
 20
-94.5507
  0
VERTEX
  8
LAYER_1
 10
156.6057
 20
-127.3167
  0
SEQEND
  0
POLYLINE
  8
LAYER_1
 40
0.1058
 41
0.1058
 66
1
 10
0
 20
0
 30
0
  0
VERTEX
  8
LAYER_1
 10
156.6057
 20
-94.5507
  0
VERTEX
  8
LAYER_1
 10
156.7581
 20
-94.3983
  0
SEQEND
  0
POLYLINE
  8
LAYER_1
 40
0.1058
 41
0.1058
 66
1
 10
0
 20
0
 30
0
  0
VERTEX
  8
LAYER_1
 10
166.9562
 20
-94.3983
  0
VERTEX
  8
LAYER_1
 10
167.1086
 20
-94.5507
  0
SEQEND
  0
POLYLINE
  8
LAYER_1
 40
0.1058
 41
0.1058
 66
1
 10
0
 20
0
 30
0
  0
VERTEX
  8
LAYER_1
 10
167.1086
 20
-127.3168
  0
VERTEX
  8
LAYER_1
 10
167.0197
 20
-127.4056
  0
SEQEND
  0
POLYLINE
  8
LAYER_1
 40
0.1058
 41
0.1058
 66
1
 10
0
 20
0
 30
0
  0
VERTEX
  8
LAYER_1
 10
156.6057
 20
-127.3168
  0
VERTEX
  8
LAYER_1
 10
156.7073
 20
-127.4056
  0
SEQEND
  0
POLYLINE
  8
LAYER_1
 40
0.1058
 41
0.1058
 66
1
 10
0
 20
0
 30
0
  0
VERTEX
  8
LAYER_1
 10
167.1086
 20
-127.3168
  0
VERTEX
  8
LAYER_1
 10
167.1086
 20
-109.5495
  0
SEQEND
  0
POLYLINE
  8
LAYER_1
 40
0.1058
 41
0.1058
 66
1
 10
0
 20
0
 30
0
  0
VERTEX
  8
LAYER_1
 10
167.1086
 20
-103.2503
  0
VERTEX
  8
LAYER_1
 10
167.1086
 20
-94.5508
  0
SEQEND
  0
POLYLINE
  8
LAYER_1
 40
0.1058
 41
0.1058
 66
1
 10
0
 20
0
 30
0
  0
VERTEX
  8
LAYER_1
 10
161.8635
 20
-94.1317
  0
VERTEX
  8
LAYER_1
 10
167.1086
 20
-94.1317
  0
SEQEND
  0
POLYLINE
  8
LAYER_1
 40
0.1058
 41
0.1058
 66
1
 10
0
 20
0
 30
0
  0
VERTEX
  8
LAYER_1
 10
156.9105
 20
-86.4863
  0
VERTEX
  8
LAYER_1
 10
166.8165
 20
-86.4863
  0
SEQEND
  0
POLYLINE
  8
LAYER_1
 40
0.1058
 41
0.1058
 66
1
 10
0
 20
0
 30
0
  0
VERTEX
  8
LAYER_1
 10
161.8635
 20
-94.1317
  0
VERTEX
  8
LAYER_1
 10
156.6057
 20
-92.0108
  0
SEQEND
  0
POLYLINE
  8
LAYER_1
 40
0.1058
 41
0.1058
 66
1
 10
0
 20
0
 30
0
  0
VERTEX
  8
LAYER_1
 10
167.1086
 20
-94.1317
  0
VERTEX
  8
LAYER_1
 10
167.1086
 20
-90.1439
  0
SEQEND
  0
POLYLINE
  8
LAYER_1
 40
0.1058
 41
0.1058
 66
1
 10
0
 20
0
 30
0
  0
VERTEX
  8
LAYER_1
 10
156.9105
 20
-86.4863
  0
VERTEX
  8
LAYER_1
 10
156.8597
 20
-86.4863
  0
VERTEX
  8
LAYER_1
 10
156.8089
 20
-86.499
  0
VERTEX
  8
LAYER_1
 10
156.7581
 20
-86.5244
  0
VERTEX
  8
LAYER_1
 10
156.72
 20
-86.5625
  0
VERTEX
  8
LAYER_1
 10
156.6819
 20
-86.5879
  0
VERTEX
  8
LAYER_1
 10
156.6438
 20
-86.6387
  0
VERTEX
  8
LAYER_1
 10
156.6311
 20
-86.6768
  0
VERTEX
  8
LAYER_1
 10
156.6057
 20
-86.7403
  0
VERTEX
  8
LAYER_1
 10
156.6057
 20
-86.7784
  0
SEQEND
  0
POLYLINE
  8
LAYER_1
 40
0.1058
 41
0.1058
 66
1
 10
0
 20
0
 30
0
  0
VERTEX
  8
LAYER_1
 10
167.1086
 20
-86.7784
  0
VERTEX
  8
LAYER_1
 10
167.1086
 20
-86.7403
  0
VERTEX
  8
LAYER_1
 10
167.0959
 20
-86.6768
  0
VERTEX
  8
LAYER_1
 10
167.0705
 20
-86.6387
  0
VERTEX
  8
LAYER_1
 10
167.0451
 20
-86.5879
  0
VERTEX
  8
LAYER_1
 10
167.007
 20
-86.5625
  0
VERTEX
  8
LAYER_1
 10
166.9562
 20
-86.5244
  0
VERTEX
  8
LAYER_1
 10
166.9181
 20
-86.499
  0
VERTEX
  8
LAYER_1
 10
166.8546
 20
-86.4863
  0
VERTEX
  8
LAYER_1
 10
166.8165
 20
-86.4863
  0
SEQEND
  0
POLYLINE
  8
LAYER_1
 40
0.1058
 41
0.1058
 66
1
 10
0
 20
0
 30
0
  0
VERTEX
  8
LAYER_1
 10
167.1086
 20
-86.7784
  0
VERTEX
  8
LAYER_1
 10
167.1086
 20
-87.6293
  0
SEQEND
  0
POLYLINE
  8
LAYER_1
 40
0.1058
 41
0.1058
 66
1
 10
0
 20
0
 30
0
  0
VERTEX
  8
LAYER_1
 10
166.9562
 20
-88.8866
  0
VERTEX
  8
LAYER_1
 10
166.9943
 20
-89.4835
  0
VERTEX
  8
LAYER_1
 10
167.0959
 20
-90.0677
  0
VERTEX
  8
LAYER_1
 10
167.1086
 20
-90.1439
  0
SEQEND
  0
POLYLINE
  8
LAYER_1
 40
0.1058
 41
0.1058
 66
1
 10
0
 20
0
 30
0
  0
VERTEX
  8
LAYER_1
 10
167.1086
 20
-87.6293
  0
VERTEX
  8
LAYER_1
 10
166.9943
 20
-88.2135
  0
VERTEX
  8
LAYER_1
 10
166.9562
 20
-88.8104
  0
VERTEX
  8
LAYER_1
 10
166.9562
 20
-88.8866
  0
SEQEND
  0
POLYLINE
  8
LAYER_1
 40
0.1058
 41
0.1058
 66
1
 10
0
 20
0
 30
0
  0
VERTEX
  8
LAYER_1
 10
156.3136
 20
-87.6801
  0
VERTEX
  8
LAYER_1
 10
156.1358
 20
-88.0611
  0
VERTEX
  8
LAYER_1
 10
156.0215
 20
-88.4675
  0
VERTEX
  8
LAYER_1
 10
155.9834
 20
-88.8866
  0
SEQEND
  0
POLYLINE
  8
LAYER_1
 40
0.1058
 41
0.1058
 66
1
 10
0
 20
0
 30
0
  0
VERTEX
  8
LAYER_1
 10
156.3136
 20
-87.6801
  0
VERTEX
  8
LAYER_1
 10
156.6057
 20
-87.6801
  0
SEQEND
  0
POLYLINE
  8
LAYER_1
 40
0.1058
 41
0.1058
 66
1
 10
0
 20
0
 30
0
  0
VERTEX
  8
LAYER_1
 10
156.6057
 20
-87.9087
  0
VERTEX
  8
LAYER_1
 10
156.6057
 20
-87.6801
  0
SEQEND
  0
POLYLINE
  8
LAYER_1
 40
0.1058
 41
0.1058
 66
1
 10
0
 20
0
 30
0
  0
VERTEX
  8
LAYER_1
 10
155.9834
 20
-88.8866
  0
VERTEX
  8
LAYER_1
 10
156.0215
 20
-89.3057
  0
VERTEX
  8
LAYER_1
 10
156.1358
 20
-89.7121
  0
VERTEX
  8
LAYER_1
 10
156.3136
 20
-90.0804
  0
VERTEX
  8
LAYER_1
 10
156.6057
 20
-90.0804
  0
SEQEND
  0
POLYLINE
  8
LAYER_1
 40
0.1058
 41
0.1058
 66
1
 10
0
 20
0
 30
0
  0
VERTEX
  8
LAYER_1
 10
156.6057
 20
-89.8645
  0
VERTEX
  8
LAYER_1
 10
156.6057
 20
-90.0804
  0
SEQEND
  0
POLYLINE
  8
LAYER_1
 40
0.1058
 41
0.1058
 66
1
 10
0
 20
0
 30
0
  0
VERTEX
  8
LAYER_1
 10
156.6057
 20
-92.0108
  0
VERTEX
  8
LAYER_1
 10
156.6057
 20
-88.8866
  0
VERTEX
  8
LAYER_1
 10
156.6057
 20
-86.7784
  0
SEQEND
  0
POLYLINE
  8
LAYER_1
 40
0.1058
 41
0.1058
 66
1
 10
0
 20
0
 30
0
  0
VERTEX
  8
LAYER_1
 10
184.66
 20
-90.0804
  0
VERTEX
  8
LAYER_1
 10
167.0959
 20
-90.0804
  0
SEQEND
  0
POLYLINE
  8
LAYER_1
 40
0.1058
 41
0.1058
 66
1
 10
0
 20
0
 30
0
  0
VERTEX
  8
LAYER_1
 10
184.66
 20
-87.6801
  0
VERTEX
  8
LAYER_1
 10
167.0959
 20
-87.6801
  0
SEQEND
  0
POLYLINE
  8
LAYER_1
 40
0.1058
 41
0.1058
 66
1
 10
0
 20
0
 30
0
  0
VERTEX
  8
LAYER_1
 10
184.8124
 20
-89.9407
  0
VERTEX
  8
LAYER_1
 10
184.8124
 20
-87.8325
  0
SEQEND
  0
POLYLINE
  8
LAYER_1
 40
0.1058
 41
0.1058
 66
1
 10
0
 20
0
 30
0
  0
VERTEX
  8
LAYER_1
 10
184.66
 20
-87.6801
  0
VERTEX
  8
LAYER_1
 10
184.8124
 20
-87.8325
  0
SEQEND
  0
POLYLINE
  8
LAYER_1
 40
0.1058
 41
0.1058
 66
1
 10
0
 20
0
 30
0
  0
VERTEX
  8
LAYER_1
 10
184.8124
 20
-89.9407
  0
VERTEX
  8
LAYER_1
 10
184.66
 20
-90.0804
  0
SEQEND
  0
POLYLINE
  8
LAYER_1
 40
0.1058
 41
0.1058
 66
1
 10
0
 20
0
 30
0
  0
VERTEX
  8
LAYER_1
 10
124.8488
 20
-94.2714
  0
VERTEX
  8
LAYER_1
 10
124.8361
 20
-94.5381
  0
SEQEND
  0
POLYLINE
  8
LAYER_1
 40
0.1058
 41
0.1058
 66
1
 10
0
 20
0
 30
0
  0
VERTEX
  8
LAYER_1
 10
133.5356
 20
-94.5381
  0
VERTEX
  8
LAYER_1
 10
133.5229
 20
-93.9412
  0
VERTEX
  8
LAYER_1
 10
133.4848
 20
-93.3316
  0
VERTEX
  8
LAYER_1
 10
133.434
 20
-92.7474
  0
VERTEX
  8
LAYER_1
 10
133.4086
 20
-92.5569
  0
SEQEND
  0
POLYLINE
  8
LAYER_1
 40
0.1058
 41
0.1058
 66
1
 10
0
 20
0
 30
0
  0
VERTEX
  8
LAYER_1
 10
157.6344
 20
-92.4299
  0
VERTEX
  8
LAYER_1
 10
157.5709
 20
-93.0268
  0
VERTEX
  8
LAYER_1
 10
157.5328
 20
-93.6237
  0
VERTEX
  8
LAYER_1
 10
157.5074
 20
-94.2206
  0
VERTEX
  8
LAYER_1
 10
157.5074
 20
-94.3983
  0
SEQEND
  0
POLYLINE
  8
LAYER_1
 40
0.1058
 41
0.1058
 66
1
 10
0
 20
0
 30
0
  0
VERTEX
  8
LAYER_1
 10
166.2069
 20
-94.3984
  0
VERTEX
  8
LAYER_1
 10
166.2069
 20
-94.1317
  0
SEQEND
  0
POLYLINE
  8
LAYER_1
 40
0.1058
 41
0.1058
 66
1
 10
0
 20
0
 30
0
  0
VERTEX
  8
LAYER_1
 10
201.7669
 20
-103.2503
  0
VERTEX
  8
LAYER_1
 10
167.1086
 20
-103.2503
  0
SEQEND
  0
POLYLINE
  8
LAYER_1
 40
0.1058
 41
0.1058
 66
1
 10
0
 20
0
 30
0
  0
VERTEX
  8
LAYER_1
 10
201.9066
 20
-103.4027
  0
VERTEX
  8
LAYER_1
 10
201.9066
 20
-109.4097
  0
SEQEND
  0
POLYLINE
  8
LAYER_1
 40
0.1058
 41
0.1058
 66
1
 10
0
 20
0
 30
0
  0
VERTEX
  8
LAYER_1
 10
201.7669
 20
-103.2503
  0
VERTEX
  8
LAYER_1
 10
201.9066
 20
-103.4026
  0
SEQEND
  0
POLYLINE
  8
LAYER_1
 40
0.1058
 41
0.1058
 66
1
 10
0
 20
0
 30
0
  0
VERTEX
  8
LAYER_1
 10
201.9066
 20
-109.4098
  0
VERTEX
  8
LAYER_1
 10
201.7668
 20
-109.5494
  0
VERTEX
  8
LAYER_1
 10
201.208
 20
-109.5494
  0
SEQEND
  0
POLYLINE
  8
LAYER_1
 40
0.1058
 41
0.1058
 66
1
 10
0
 20
0
 30
0
  0
VERTEX
  8
LAYER_1
 10
195.3026
 20
-109.5495
  0
VERTEX
  8
LAYER_1
 10
167.1086
 20
-109.5495
  0
SEQEND
  0
POLYLINE
  8
LAYER_1
 40
0.1058
 41
0.1058
 66
1
 10
0
 20
0
 30
0
  0
VERTEX
  8
LAYER_1
 10
196.3313
 20
-112.1149
  0
VERTEX
  8
LAYER_1
 10
198.8458
 20
-111.2005
  0
SEQEND
  0
POLYLINE
  8
LAYER_1
 40
0.1058
 41
0.1058
 66
1
 10
0
 20
0
 30
0
  0
VERTEX
  8
LAYER_1
 10
201.3732
 20
-110.2733
  0
VERTEX
  8
LAYER_1
 10
198.8459
 20
-111.2004
  0
SEQEND
  0
POLYLINE
  8
LAYER_1
 40
0.1058
 41
0.1058
 66
1
 10
0
 20
0
 30
0
  0
VERTEX
  8
LAYER_1
 10
195.3026
 20
-109.5494
  0
VERTEX
  8
LAYER_1
 10
196.2169
 20
-112.064
  0
SEQEND
  0
POLYLINE
  8
LAYER_1
 40
0.1058
 41
0.1058
 66
1
 10
0
 20
0
 30
0
  0
VERTEX
  8
LAYER_1
 10
201.2081
 20
-109.5494
  0
VERTEX
  8
LAYER_1
 10
201.4366
 20
-110.1717
  0
SEQEND
  0
POLYLINE
  8
LAYER_1
 40
0.1058
 41
0.1058
 66
1
 10
0
 20
0
 30
0
  0
VERTEX
  8
LAYER_1
 10
196.217
 20
-112.064
  0
VERTEX
  8
LAYER_1
 10
196.3313
 20
-112.1148
  0
SEQEND
  0
POLYLINE
  8
LAYER_1
 40
0.1058
 41
0.1058
 66
1
 10
0
 20
0
 30
0
  0
VERTEX
  8
LAYER_1
 10
201.3732
 20
-110.2733
  0
VERTEX
  8
LAYER_1
 10
201.4366
 20
-110.1717
  0
SEQEND
  0
POLYLINE
  8
LAYER_1
 40
0.1058
 41
0.1058
 66
1
 10
0
 20
0
 30
0
  0
VERTEX
  8
LAYER_1
 10
201.7668
 20
-103.2503
  0
VERTEX
  8
LAYER_1
 10
201.7668
 20
-109.5494
  0
SEQEND
  0
POLYLINE
  8
LAYER_1
 40
0.1058
 41
0.1058
 66
1
 10
0
 20
0
 30
0
  0
VERTEX
  8
LAYER_1
 10
201.4366
 20
-110.1718
  0
VERTEX
  8
LAYER_1
 10
196.2169
 20
-112.064
  0
SEQEND
  0
POLYLINE
  8
LAYER_1
 40
0.1058
 41
0.1058
 66
1
 10
0
 20
0
 30
0
  0
VERTEX
  8
LAYER_1
 10
89.2888
 20
-103.39
  0
VERTEX
  8
LAYER_1
 10
123.9344
 20
-103.39
  0
SEQEND
  0
POLYLINE
  8
LAYER_1
 40
0.1058
 41
0.1058
 66
1
 10
0
 20
0
 30
0
  0
VERTEX
  8
LAYER_1
 10
89.1364
 20
-103.5297
  0
VERTEX
  8
LAYER_1
 10
89.1364
 20
-109.5367
  0
SEQEND
  0
POLYLINE
  8
LAYER_1
 40
0.1058
 41
0.1058
 66
1
 10
0
 20
0
 30
0
  0
VERTEX
  8
LAYER_1
 10
89.2888
 20
-103.39
  0
VERTEX
  8
LAYER_1
 10
89.1364
 20
-103.5296
  0
SEQEND
  0
POLYLINE
  8
LAYER_1
 40
0.1058
 41
0.1058
 66
1
 10
0
 20
0
 30
0
  0
VERTEX
  8
LAYER_1
 10
89.1364
 20
-109.5368
  0
VERTEX
  8
LAYER_1
 10
89.2888
 20
-109.6891
  0
VERTEX
  8
LAYER_1
 10
89.8476
 20
-109.6891
  0
SEQEND
  0
POLYLINE
  8
LAYER_1
 40
0.1058
 41
0.1058
 66
1
 10
0
 20
0
 30
0
  0
VERTEX
  8
LAYER_1
 10
95.7404
 20
-109.6892
  0
VERTEX
  8
LAYER_1
 10
123.9344
 20
-109.6892
  0
SEQEND
  0
POLYLINE
  8
LAYER_1
 40
0.1058
 41
0.1058
 66
1
 10
0
 20
0
 30
0
  0
VERTEX
  8
LAYER_1
 10
94.7244
 20
-112.2419
  0
VERTEX
  8
LAYER_1
 10
92.1971
 20
-111.3275
  0
SEQEND
  0
POLYLINE
  8
LAYER_1
 40
0.1058
 41
0.1058
 66
1
 10
0
 20
0
 30
0
  0
VERTEX
  8
LAYER_1
 10
89.6698
 20
-110.4131
  0
VERTEX
  8
LAYER_1
 10
92.1971
 20
-111.3274
  0
SEQEND
  0
POLYLINE
  8
LAYER_1
 40
0.1058
 41
0.1058
 66
1
 10
0
 20
0
 30
0
  0
VERTEX
  8
LAYER_1
 10
95.7404
 20
-109.6891
  0
VERTEX
  8
LAYER_1
 10
94.8387
 20
-112.191
  0
SEQEND
  0
POLYLINE
  8
LAYER_1
 40
0.1058
 41
0.1058
 66
1
 10
0
 20
0
 30
0
  0
VERTEX
  8
LAYER_1
 10
89.8476
 20
-109.6891
  0
VERTEX
  8
LAYER_1
 10
89.619
 20
-110.2987
  0
SEQEND
  0
POLYLINE
  8
LAYER_1
 40
0.1058
 41
0.1058
 66
1
 10
0
 20
0
 30
0
  0
VERTEX
  8
LAYER_1
 10
94.8387
 20
-112.191
  0
VERTEX
  8
LAYER_1
 10
94.7244
 20
-112.2418
  0
SEQEND
  0
POLYLINE
  8
LAYER_1
 40
0.1058
 41
0.1058
 66
1
 10
0
 20
0
 30
0
  0
VERTEX
  8
LAYER_1
 10
89.6698
 20
-110.4131
  0
VERTEX
  8
LAYER_1
 10
89.619
 20
-110.2987
  0
SEQEND
  0
POLYLINE
  8
LAYER_1
 40
0.1058
 41
0.1058
 66
1
 10
0
 20
0
 30
0
  0
VERTEX
  8
LAYER_1
 10
89.2888
 20
-103.39
  0
VERTEX
  8
LAYER_1
 10
89.2888
 20
-109.6891
  0
SEQEND
  0
POLYLINE
  8
LAYER_1
 40
0.1058
 41
0.1058
 66
1
 10
0
 20
0
 30
0
  0
VERTEX
  8
LAYER_1
 10
89.619
 20
-110.2987
  0
VERTEX
  8
LAYER_1
 10
94.8387
 20
-112.191
  0
SEQEND
  0
POLYLINE
  8
LAYER_1
 40
0.1058
 41
0.1058
 66
1
 10
0
 20
0
 30
0
  0
VERTEX
  8
LAYER_1
 10
156.6056
 20
-181.406
  0
VERTEX
  8
LAYER_1
 10
156.6056
 20
-180.9488
  0
SEQEND
  0
POLYLINE
  8
LAYER_1
 40
0.1058
 41
0.1058
 66
1
 10
0
 20
0
 30
0
  0
VERTEX
  8
LAYER_1
 10
161.8634
 20
-181.406
  0
VERTEX
  8
LAYER_1
 10
156.6056
 20
-181.406
  0
SEQEND
  0
POLYLINE
  8
LAYER_1
 40
0.1058
 41
0.1058
 66
1
 10
0
 20
0
 30
0
  0
VERTEX
  8
LAYER_1
 10
158.7773
 20
-180.9489
  0
VERTEX
  8
LAYER_1
 10
158.7773
 20
-177.0499
  0
SEQEND
  0
POLYLINE
  8
LAYER_1
 40
0.1058
 41
0.1058
 66
1
 10
0
 20
0
 30
0
  0
VERTEX
  8
LAYER_1
 10
158.2566
 20
-184.0096
  0
VERTEX
  8
LAYER_1
 10
161.8634
 20
-184.0096
  0
SEQEND
  0
POLYLINE
  8
LAYER_1
 40
0.1058
 41
0.1058
 66
1
 10
0
 20
0
 30
0
  0
VERTEX
  8
LAYER_1
 10
157.7359
 20
-183.7048
  0
VERTEX
  8
LAYER_1
 10
157.7359
 20
-182.0664
  0
SEQEND
  0
POLYLINE
  8
LAYER_1
 40
0.1058
 41
0.1058
 66
1
 10
0
 20
0
 30
0
  0
VERTEX
  8
LAYER_1
 10
158.2566
 20
-184.0096
  0
VERTEX
  8
LAYER_1
 10
157.7359
 20
-183.7048
  0
SEQEND
  0
POLYLINE
  8
LAYER_1
 40
0.1058
 41
0.1058
 66
1
 10
0
 20
0
 30
0
  0
VERTEX
  8
LAYER_1
 10
155.8563
 20
-181.9141
  0
VERTEX
  8
LAYER_1
 10
155.8563
 20
-181.5457
  0
SEQEND
  0
POLYLINE
  8
LAYER_1
 40
0.1058
 41
0.1058
 66
1
 10
0
 20
0
 30
0
  0
VERTEX
  8
LAYER_1
 10
161.8634
 20
-182.0664
  0
VERTEX
  8
LAYER_1
 10
157.5708
 20
-182.0664
  0
SEQEND
  0
POLYLINE
  8
LAYER_1
 40
0.1058
 41
0.1058
 66
1
 10
0
 20
0
 30
0
  0
VERTEX
  8
LAYER_1
 10
155.8563
 20
-181.5457
  0
VERTEX
  8
LAYER_1
 10
161.8634
 20
-181.5457
  0
SEQEND
  0
POLYLINE
  8
LAYER_1
 40
0.1058
 41
0.1058
 66
1
 10
0
 20
0
 30
0
  0
VERTEX
  8
LAYER_1
 10
155.8563
 20
-181.914
  0
VERTEX
  8
LAYER_1
 10
161.8634
 20
-181.914
  0
SEQEND
  0
POLYLINE
  8
LAYER_1
 40
0.1058
 41
0.1058
 66
1
 10
0
 20
0
 30
0
  0
VERTEX
  8
LAYER_1
 10
156.9612
 20
-181.9394
  0
VERTEX
  8
LAYER_1
 10
157.2152
 20
-182.0156
  0
VERTEX
  8
LAYER_1
 10
157.4692
 20
-182.0664
  0
VERTEX
  8
LAYER_1
 10
157.5708
 20
-182.0664
  0
SEQEND
  0
POLYLINE
  8
LAYER_1
 40
0.1058
 41
0.1058
 66
1
 10
0
 20
0
 30
0
  0
VERTEX
  8
LAYER_1
 10
157.5708
 20
-181.406
  0
VERTEX
  8
LAYER_1
 10
157.3041
 20
-181.4314
  0
VERTEX
  8
LAYER_1
 10
157.0501
 20
-181.4949
  0
VERTEX
  8
LAYER_1
 10
156.9612
 20
-181.533
  0
SEQEND
  0
POLYLINE
  8
LAYER_1
 40
0.1058
 41
0.1058
 66
1
 10
0
 20
0
 30
0
  0
VERTEX
  8
LAYER_1
 10
156.9612
 20
-181.9394
  0
VERTEX
  8
LAYER_1
 10
156.9104
 20
-181.9267
  0
VERTEX
  8
LAYER_1
 10
156.8596
 20
-181.914
  0
VERTEX
  8
LAYER_1
 10
156.8469
 20
-181.914
  0
SEQEND
  0
POLYLINE
  8
LAYER_1
 40
0.1058
 41
0.1058
 66
1
 10
0
 20
0
 30
0
  0
VERTEX
  8
LAYER_1
 10
156.8469
 20
-181.5457
  0
VERTEX
  8
LAYER_1
 10
156.8977
 20
-181.5457
  0
VERTEX
  8
LAYER_1
 10
156.9485
 20
-181.533
  0
VERTEX
  8
LAYER_1
 10
156.9612
 20
-181.533
  0
SEQEND
  0
POLYLINE
  8
LAYER_1
 40
0.1058
 41
0.1058
 66
1
 10
0
 20
0
 30
0
  0
VERTEX
  8
LAYER_1
 10
159.7679
 20
-183.7047
  0
VERTEX
  8
LAYER_1
 10
159.7679
 20
-182.0664
  0
SEQEND
  0
POLYLINE
  8
LAYER_1
 40
0.1058
 41
0.1058
 66
1
 10
0
 20
0
 30
0
  0
VERTEX
  8
LAYER_1
 10
159.7679
 20
-183.7047
  0
VERTEX
  8
LAYER_1
 10
160.3394
 20
-183.8571
  0
VERTEX
  8
LAYER_1
 10
160.9363
 20
-183.9587
  0
VERTEX
  8
LAYER_1
 10
161.5332
 20
-184.0095
  0
VERTEX
  8
LAYER_1
 10
161.8634
 20
-184.0095
  0
SEQEND
  0
POLYLINE
  8
LAYER_1
 40
0.1058
 41
0.1058
 66
1
 10
0
 20
0
 30
0
  0
VERTEX
  8
LAYER_1
 10
157.7359
 20
-183.7047
  0
VERTEX
  8
LAYER_1
 10
158.0153
 20
-183.8571
  0
VERTEX
  8
LAYER_1
 10
158.3201
 20
-183.9587
  0
VERTEX
  8
LAYER_1
 10
158.6376
 20
-184.0095
  0
VERTEX
  8
LAYER_1
 10
158.9678
 20
-183.9968
  0
VERTEX
  8
LAYER_1
 10
159.2726
 20
-183.9333
  0
VERTEX
  8
LAYER_1
 10
159.5774
 20
-183.819
  0
VERTEX
  8
LAYER_1
 10
159.7679
 20
-183.7047
  0
SEQEND
  0
POLYLINE
  8
LAYER_1
 40
0.1058
 41
0.1058
 66
1
 10
0
 20
0
 30
0
  0
VERTEX
  8
LAYER_1
 10
160.6569
 20
-181.914
  0
VERTEX
  8
LAYER_1
 10
161.2538
 20
-182.0283
  0
VERTEX
  8
LAYER_1
 10
161.8507
 20
-182.0664
  0
VERTEX
  8
LAYER_1
 10
161.8634
 20
-182.0664
  0
SEQEND
  0
POLYLINE
  8
LAYER_1
 40
0.1058
 41
0.1058
 66
1
 10
0
 20
0
 30
0
  0
VERTEX
  8
LAYER_1
 10
158.1804
 20
-181.914
  0
VERTEX
  8
LAYER_1
 10
158.7773
 20
-182.0283
  0
VERTEX
  8
LAYER_1
 10
159.3742
 20
-182.0664
  0
VERTEX
  8
LAYER_1
 10
159.9711
 20
-182.0283
  0
VERTEX
  8
LAYER_1
 10
159.9838
 20
-182.0283
  0
SEQEND
  0
POLYLINE
  8
LAYER_1
 40
0.1058
 41
0.1058
 66
1
 10
0
 20
0
 30
0
  0
VERTEX
  8
LAYER_1
 10
159.3869
 20
-181.914
  0
VERTEX
  8
LAYER_1
 10
159.9711
 20
-182.0283
  0
VERTEX
  8
LAYER_1
 10
160.568
 20
-182.0664
  0
VERTEX
  8
LAYER_1
 10
161.1776
 20
-182.0283
  0
VERTEX
  8
LAYER_1
 10
161.2157
 20
-182.0156
  0
SEQEND
  0
POLYLINE
  8
LAYER_1
 40
0.1058
 41
0.1058
 66
1
 10
0
 20
0
 30
0
  0
VERTEX
  8
LAYER_1
 10
158.1805
 20
-182.0665
  0
VERTEX
  8
LAYER_1
 10
158.7774
 20
-182.0283
  0
SEQEND
  0
POLYLINE
  8
LAYER_1
 40
0.1058
 41
0.1058
 66
1
 10
0
 20
0
 30
0
  0
VERTEX
  8
LAYER_1
 10
161.8635
 20
-181.4061
  0
VERTEX
  8
LAYER_1
 10
161.2666
 20
-181.4315
  0
VERTEX
  8
LAYER_1
 10
160.6697
 20
-181.5458
  0
VERTEX
  8
LAYER_1
 10
160.657
 20
-181.5458
  0
SEQEND
  0
POLYLINE
  8
LAYER_1
 40
0.1058
 41
0.1058
 66
1
 10
0
 20
0
 30
0
  0
VERTEX
  8
LAYER_1
 10
161.2158
 20
-181.4442
  0
VERTEX
  8
LAYER_1
 10
160.6316
 20
-181.406
  0
VERTEX
  8
LAYER_1
 10
160.022
 20
-181.4314
  0
VERTEX
  8
LAYER_1
 10
159.4378
 20
-181.5331
  0
VERTEX
  8
LAYER_1
 10
159.387
 20
-181.5458
  0
SEQEND
  0
POLYLINE
  8
LAYER_1
 40
0.1058
 41
0.1058
 66
1
 10
0
 20
0
 30
0
  0
VERTEX
  8
LAYER_1
 10
159.9839
 20
-181.4315
  0
VERTEX
  8
LAYER_1
 10
159.387
 20
-181.406
  0
VERTEX
  8
LAYER_1
 10
158.7901
 20
-181.4315
  0
VERTEX
  8
LAYER_1
 10
158.1932
 20
-181.5458
  0
VERTEX
  8
LAYER_1
 10
158.1805
 20
-181.5458
  0
SEQEND
  0
POLYLINE
  8
LAYER_1
 40
0.1058
 41
0.1058
 66
1
 10
0
 20
0
 30
0
  0
VERTEX
  8
LAYER_1
 10
158.7774
 20
-181.4315
  0
VERTEX
  8
LAYER_1
 10
158.1805
 20
-181.406
  0
SEQEND
  0
POLYLINE
  8
LAYER_1
 40
0.1058
 41
0.1058
 66
1
 10
0
 20
0
 30
0
  0
VERTEX
  8
LAYER_1
 10
158.4091
 20
-193.5473
  0
VERTEX
  8
LAYER_1
 10
161.8635
 20
-193.5473
  0
SEQEND
  0
POLYLINE
  8
LAYER_1
 40
0.1058
 41
0.1058
 66
1
 10
0
 20
0
 30
0
  0
VERTEX
  8
LAYER_1
 10
158.4091
 20
-189.9532
  0
VERTEX
  8
LAYER_1
 10
158.2059
 20
-190.512
  0
VERTEX
  8
LAYER_1
 10
158.0789
 20
-191.1089
  0
VERTEX
  8
LAYER_1
 10
158.0281
 20
-191.7058
  0
VERTEX
  8
LAYER_1
 10
158.0662
 20
-192.3027
  0
VERTEX
  8
LAYER_1
 10
158.1805
 20
-192.8869
  0
VERTEX
  8
LAYER_1
 10
158.371
 20
-193.4584
  0
VERTEX
  8
LAYER_1
 10
158.4091
 20
-193.5473
  0
SEQEND
  0
POLYLINE
  8
LAYER_1
 40
0.1058
 41
0.1058
 66
1
 10
0
 20
0
 30
0
  0
VERTEX
  8
LAYER_1
 10
158.4091
 20
-189.9532
  0
VERTEX
  8
LAYER_1
 10
161.8635
 20
-189.9532
  0
SEQEND
  0
POLYLINE
  8
LAYER_1
 40
0.1058
 41
0.1058
 66
1
 10
0
 20
0
 30
0
  0
VERTEX
  8
LAYER_1
 10
158.879
 20
-189.9532
  0
VERTEX
  8
LAYER_1
 10
158.7774
 20
-189.9659
  0
VERTEX
  8
LAYER_1
 10
158.7012
 20
-189.9913
  0
VERTEX
  8
LAYER_1
 10
158.6123
 20
-190.0421
  0
VERTEX
  8
LAYER_1
 10
158.5361
 20
-190.1056
  0
VERTEX
  8
LAYER_1
 10
158.4599
 20
-190.1945
  0
VERTEX
  8
LAYER_1
 10
158.3837
 20
-190.2961
  0
VERTEX
  8
LAYER_1
 10
158.3202
 20
-190.4104
  0
VERTEX
  8
LAYER_1
 10
158.2567
 20
-190.5501
  0
VERTEX
  8
LAYER_1
 10
158.2059
 20
-190.6898
  0
VERTEX
  8
LAYER_1
 10
158.1551
 20
-190.8549
  0
VERTEX
  8
LAYER_1
 10
158.117
 20
-191.02
  0
VERTEX
  8
LAYER_1
 10
158.0916
 20
-191.1978
  0
VERTEX
  8
LAYER_1
 10
158.0662
 20
-191.3756
  0
VERTEX
  8
LAYER_1
 10
158.0535
 20
-191.5661
  0
VERTEX
  8
LAYER_1
 10
158.0408
 20
-191.7566
  0
VERTEX
  8
LAYER_1
 10
158.0535
 20
-191.9471
  0
VERTEX
  8
LAYER_1
 10
158.0662
 20
-192.1249
  0
VERTEX
  8
LAYER_1
 10
158.0916
 20
-192.3027
  0
VERTEX
  8
LAYER_1
 10
158.117
 20
-192.4805
  0
VERTEX
  8
LAYER_1
 10
158.1551
 20
-192.6456
  0
VERTEX
  8
LAYER_1
 10
158.2059
 20
-192.8107
  0
VERTEX
  8
LAYER_1
 10
158.2567
 20
-192.9631
  0
VERTEX
  8
LAYER_1
 10
158.3202
 20
-193.0901
  0
VERTEX
  8
LAYER_1
 10
158.3837
 20
-193.2044
  0
VERTEX
  8
LAYER_1
 10
158.4599
 20
-193.306
  0
VERTEX
  8
LAYER_1
 10
158.5361
 20
-193.3949
  0
VERTEX
  8
LAYER_1
 10
158.6123
 20
-193.4711
  0
VERTEX
  8
LAYER_1
 10
158.7012
 20
-193.5092
  0
VERTEX
  8
LAYER_1
 10
158.7774
 20
-193.5473
  0
VERTEX
  8
LAYER_1
 10
158.879
 20
-193.5473
  0
VERTEX
  8
LAYER_1
 10
158.9552
 20
-193.5473
  0
VERTEX
  8
LAYER_1
 10
159.0441
 20
-193.5092
  0
VERTEX
  8
LAYER_1
 10
159.1203
 20
-193.4711
  0
VERTEX
  8
LAYER_1
 10
159.2092
 20
-193.3949
  0
VERTEX
  8
LAYER_1
 10
159.2854
 20
-193.306
  0
VERTEX
  8
LAYER_1
 10
159.3616
 20
-193.2044
  0
VERTEX
  8
LAYER_1
 10
159.4251
 20
-193.0901
  0
VERTEX
  8
LAYER_1
 10
159.4886
 20
-192.9631
  0
VERTEX
  8
LAYER_1
 10
159.5394
 20
-192.8107
  0
VERTEX
  8
LAYER_1
 10
159.5902
 20
-192.6456
  0
VERTEX
  8
LAYER_1
 10
159.6283
 20
-192.4805
  0
VERTEX
  8
LAYER_1
 10
159.6537
 20
-192.3027
  0
VERTEX
  8
LAYER_1
 10
159.6791
 20
-192.1249
  0
VERTEX
  8
LAYER_1
 10
159.6918
 20
-191.9471
  0
VERTEX
  8
LAYER_1
 10
159.6918
 20
-191.7566
  0
VERTEX
  8
LAYER_1
 10
159.6918
 20
-191.5661
  0
VERTEX
  8
LAYER_1
 10
159.6791
 20
-191.3756
  0
VERTEX
  8
LAYER_1
 10
159.6537
 20
-191.1978
  0
VERTEX
  8
LAYER_1
 10
159.6283
 20
-191.02
  0
VERTEX
  8
LAYER_1
 10
159.5902
 20
-190.8549
  0
VERTEX
  8
LAYER_1
 10
159.5394
 20
-190.6898
  0
VERTEX
  8
LAYER_1
 10
159.4886
 20
-190.5501
  0
VERTEX
  8
LAYER_1
 10
159.4251
 20
-190.4104
  0
VERTEX
  8
LAYER_1
 10
159.3616
 20
-190.2961
  0
VERTEX
  8
LAYER_1
 10
159.2854
 20
-190.1945
  0
VERTEX
  8
LAYER_1
 10
159.2092
 20
-190.1056
  0
VERTEX
  8
LAYER_1
 10
159.1203
 20
-190.0421
  0
VERTEX
  8
LAYER_1
 10
159.0441
 20
-189.9913
  0
VERTEX
  8
LAYER_1
 10
158.9552
 20
-189.9659
  0
VERTEX
  8
LAYER_1
 10
158.879
 20
-189.9532
  0
SEQEND
  0
POLYLINE
  8
LAYER_1
 40
0.1058
 41
0.1058
 66
1
 10
0
 20
0
 30
0
  0
VERTEX
  8
LAYER_1
 10
161.8635
 20
-189.9532
  0
VERTEX
  8
LAYER_1
 10
161.6857
 20
-189.9659
  0
VERTEX
  8
LAYER_1
 10
161.5079
 20
-189.9913
  0
VERTEX
  8
LAYER_1
 10
161.3428
 20
-190.0421
  0
VERTEX
  8
LAYER_1
 10
161.1777
 20
-190.1056
  0
VERTEX
  8
LAYER_1
 10
161.0253
 20
-190.1945
  0
VERTEX
  8
LAYER_1
 10
160.8729
 20
-190.2961
  0
VERTEX
  8
LAYER_1
 10
160.7459
 20
-190.4104
  0
VERTEX
  8
LAYER_1
 10
160.6189
 20
-190.5501
  0
VERTEX
  8
LAYER_1
 10
160.5173
 20
-190.6898
  0
VERTEX
  8
LAYER_1
 10
160.4157
 20
-190.8549
  0
VERTEX
  8
LAYER_1
 10
160.3395
 20
-191.02
  0
VERTEX
  8
LAYER_1
 10
160.276
 20
-191.1978
  0
VERTEX
  8
LAYER_1
 10
160.2252
 20
-191.3756
  0
VERTEX
  8
LAYER_1
 10
160.1998
 20
-191.5661
  0
VERTEX
  8
LAYER_1
 10
160.1998
 20
-191.7566
  0
VERTEX
  8
LAYER_1
 10
160.1998
 20
-191.9471
  0
VERTEX
  8
LAYER_1
 10
160.2252
 20
-192.1249
  0
VERTEX
  8
LAYER_1
 10
160.276
 20
-192.3027
  0
VERTEX
  8
LAYER_1
 10
160.3395
 20
-192.4805
  0
VERTEX
  8
LAYER_1
 10
160.4157
 20
-192.6456
  0
VERTEX
  8
LAYER_1
 10
160.5173
 20
-192.8107
  0
VERTEX
  8
LAYER_1
 10
160.6189
 20
-192.9631
  0
VERTEX
  8
LAYER_1
 10
160.7459
 20
-193.0901
  0
VERTEX
  8
LAYER_1
 10
160.8729
 20
-193.2044
  0
VERTEX
  8
LAYER_1
 10
161.0253
 20
-193.306
  0
VERTEX
  8
LAYER_1
 10
161.1777
 20
-193.3949
  0
VERTEX
  8
LAYER_1
 10
161.3428
 20
-193.4711
  0
VERTEX
  8
LAYER_1
 10
161.5079
 20
-193.5092
  0
VERTEX
  8
LAYER_1
 10
161.6857
 20
-193.5473
  0
VERTEX
  8
LAYER_1
 10
161.8635
 20
-193.5473
  0
VERTEX
  8
LAYER_1
 10
162.0413
 20
-193.5473
  0
VERTEX
  8
LAYER_1
 10
162.2064
 20
-193.5092
  0
VERTEX
  8
LAYER_1
 10
162.3715
 20
-193.4711
  0
VERTEX
  8
LAYER_1
 10
162.5366
 20
-193.3949
  0
VERTEX
  8
LAYER_1
 10
162.7017
 20
-193.306
  0
VERTEX
  8
LAYER_1
 10
162.8414
 20
-193.2044
  0
VERTEX
  8
LAYER_1
 10
162.9811
 20
-193.0901
  0
VERTEX
  8
LAYER_1
 10
163.0954
 20
-192.9631
  0
VERTEX
  8
LAYER_1
 10
163.2097
 20
-192.8107
  0
VERTEX
  8
LAYER_1
 10
163.2986
 20
-192.6456
  0
VERTEX
  8
LAYER_1
 10
163.3875
 20
-192.4805
  0
VERTEX
  8
LAYER_1
 10
163.451
 20
-192.3027
  0
VERTEX
  8
LAYER_1
 10
163.4891
 20
-192.1249
  0
VERTEX
  8
LAYER_1
 10
163.5145
 20
-191.9471
  0
VERTEX
  8
LAYER_1
 10
163.5272
 20
-191.7566
  0
VERTEX
  8
LAYER_1
 10
163.5145
 20
-191.5661
  0
VERTEX
  8
LAYER_1
 10
163.4891
 20
-191.3756
  0
VERTEX
  8
LAYER_1
 10
163.451
 20
-191.1978
  0
VERTEX
  8
LAYER_1
 10
163.3875
 20
-191.02
  0
VERTEX
  8
LAYER_1
 10
163.2986
 20
-190.8549
  0
VERTEX
  8
LAYER_1
 10
163.2097
 20
-190.6898
  0
VERTEX
  8
LAYER_1
 10
163.0954
 20
-190.5501
  0
VERTEX
  8
LAYER_1
 10
162.9811
 20
-190.4104
  0
VERTEX
  8
LAYER_1
 10
162.8414
 20
-190.2961
  0
VERTEX
  8
LAYER_1
 10
162.7017
 20
-190.1945
  0
VERTEX
  8
LAYER_1
 10
162.5366
 20
-190.1056
  0
VERTEX
  8
LAYER_1
 10
162.3715
 20
-190.0421
  0
VERTEX
  8
LAYER_1
 10
162.2064
 20
-189.9913
  0
VERTEX
  8
LAYER_1
 10
162.0413
 20
-189.9659
  0
VERTEX
  8
LAYER_1
 10
161.8635
 20
-189.9532
  0
SEQEND
  0
POLYLINE
  8
LAYER_1
 40
0.1058
 41
0.1058
 66
1
 10
0
 20
0
 30
0
  0
VERTEX
  8
LAYER_1
 10
158.7774
 20
-189.9532
  0
VERTEX
  8
LAYER_1
 10
158.7774
 20
-184.0096
  0
SEQEND
  0
POLYLINE
  8
LAYER_1
 40
0.1058
 41
0.1058
 66
1
 10
0
 20
0
 30
0
  0
VERTEX
  8
LAYER_1
 10
167.1086
 20
-181.4061
  0
VERTEX
  8
LAYER_1
 10
167.1086
 20
-180.9489
  0
SEQEND
  0
POLYLINE
  8
LAYER_1
 40
0.1058
 41
0.1058
 66
1
 10
0
 20
0
 30
0
  0
VERTEX
  8
LAYER_1
 10
161.8635
 20
-181.4061
  0
VERTEX
  8
LAYER_1
 10
167.1086
 20
-181.4061
  0
SEQEND
  0
POLYLINE
  8
LAYER_1
 40
0.1058
 41
0.1058
 66
1
 10
0
 20
0
 30
0
  0
VERTEX
  8
LAYER_1
 10
164.9369
 20
-180.9489
  0
VERTEX
  8
LAYER_1
 10
164.9369
 20
-177.05
  0
SEQEND
  0
POLYLINE
  8
LAYER_1
 40
0.1058
 41
0.1058
 66
1
 10
0
 20
0
 30
0
  0
VERTEX
  8
LAYER_1
 10
165.4576
 20
-184.0096
  0
VERTEX
  8
LAYER_1
 10
161.8635
 20
-184.0096
  0
SEQEND
  0
POLYLINE
  8
LAYER_1
 40
0.1058
 41
0.1058
 66
1
 10
0
 20
0
 30
0
  0
VERTEX
  8
LAYER_1
 10
165.9783
 20
-183.7048
  0
VERTEX
  8
LAYER_1
 10
165.9783
 20
-182.0665
  0
SEQEND
  0
POLYLINE
  8
LAYER_1
 40
0.1058
 41
0.1058
 66
1
 10
0
 20
0
 30
0
  0
VERTEX
  8
LAYER_1
 10
165.4576
 20
-184.0096
  0
VERTEX
  8
LAYER_1
 10
165.9783
 20
-183.7048
  0
SEQEND
  0
POLYLINE
  8
LAYER_1
 40
0.1058
 41
0.1058
 66
1
 10
0
 20
0
 30
0
  0
VERTEX
  8
LAYER_1
 10
167.8579
 20
-181.9141
  0
VERTEX
  8
LAYER_1
 10
167.8579
 20
-181.5458
  0
SEQEND
  0
POLYLINE
  8
LAYER_1
 40
0.1058
 41
0.1058
 66
1
 10
0
 20
0
 30
0
  0
VERTEX
  8
LAYER_1
 10
161.8635
 20
-182.0665
  0
VERTEX
  8
LAYER_1
 10
166.1561
 20
-182.0665
  0
SEQEND
  0
POLYLINE
  8
LAYER_1
 40
0.1058
 41
0.1058
 66
1
 10
0
 20
0
 30
0
  0
VERTEX
  8
LAYER_1
 10
167.8579
 20
-181.5458
  0
VERTEX
  8
LAYER_1
 10
161.8635
 20
-181.5458
  0
SEQEND
  0
POLYLINE
  8
LAYER_1
 40
0.1058
 41
0.1058
 66
1
 10
0
 20
0
 30
0
  0
VERTEX
  8
LAYER_1
 10
167.8579
 20
-181.9141
  0
VERTEX
  8
LAYER_1
 10
161.8635
 20
-181.9141
  0
SEQEND
  0
POLYLINE
  8
LAYER_1
 40
0.1058
 41
0.1058
 66
1
 10
0
 20
0
 30
0
  0
VERTEX
  8
LAYER_1
 10
166.1561
 20
-182.0664
  0
VERTEX
  8
LAYER_1
 10
166.4101
 20
-182.041
  0
VERTEX
  8
LAYER_1
 10
166.6641
 20
-181.9648
  0
VERTEX
  8
LAYER_1
 10
166.753
 20
-181.9394
  0
SEQEND
  0
POLYLINE
  8
LAYER_1
 40
0.1058
 41
0.1058
 66
1
 10
0
 20
0
 30
0
  0
VERTEX
  8
LAYER_1
 10
166.753
 20
-181.533
  0
VERTEX
  8
LAYER_1
 10
166.5117
 20
-181.4441
  0
VERTEX
  8
LAYER_1
 10
166.245
 20
-181.406
  0
VERTEX
  8
LAYER_1
 10
166.1561
 20
-181.406
  0
SEQEND
  0
POLYLINE
  8
LAYER_1
 40
0.1058
 41
0.1058
 66
1
 10
0
 20
0
 30
0
  0
VERTEX
  8
LAYER_1
 10
166.88
 20
-181.914
  0
VERTEX
  8
LAYER_1
 10
166.8292
 20
-181.914
  0
VERTEX
  8
LAYER_1
 10
166.7657
 20
-181.9267
  0
VERTEX
  8
LAYER_1
 10
166.753
 20
-181.9394
  0
SEQEND
  0
POLYLINE
  8
LAYER_1
 40
0.1058
 41
0.1058
 66
1
 10
0
 20
0
 30
0
  0
VERTEX
  8
LAYER_1
 10
166.753
 20
-181.533
  0
VERTEX
  8
LAYER_1
 10
166.8038
 20
-181.5457
  0
VERTEX
  8
LAYER_1
 10
166.8546
 20
-181.5457
  0
VERTEX
  8
LAYER_1
 10
166.88
 20
-181.5457
  0
SEQEND
  0
POLYLINE
  8
LAYER_1
 40
0.1058
 41
0.1058
 66
1
 10
0
 20
0
 30
0
  0
VERTEX
  8
LAYER_1
 10
163.959
 20
-183.7047
  0
VERTEX
  8
LAYER_1
 10
163.959
 20
-182.0664
  0
SEQEND
  0
POLYLINE
  8
LAYER_1
 40
0.1058
 41
0.1058
 66
1
 10
0
 20
0
 30
0
  0
VERTEX
  8
LAYER_1
 10
161.8635
 20
-184.0095
  0
VERTEX
  8
LAYER_1
 10
162.4604
 20
-183.9841
  0
VERTEX
  8
LAYER_1
 10
163.0573
 20
-183.9206
  0
VERTEX
  8
LAYER_1
 10
163.6415
 20
-183.7936
  0
VERTEX
  8
LAYER_1
 10
163.959
 20
-183.7047
  0
VERTEX
  8
LAYER_1
 10
164.2384
 20
-183.8571
  0
VERTEX
  8
LAYER_1
 10
164.5559
 20
-183.9587
  0
VERTEX
  8
LAYER_1
 10
164.8734
 20
-184.0095
  0
VERTEX
  8
LAYER_1
 10
165.1909
 20
-183.9968
  0
VERTEX
  8
LAYER_1
 10
165.4957
 20
-183.9333
  0
VERTEX
  8
LAYER_1
 10
165.8005
 20
-183.819
  0
VERTEX
  8
LAYER_1
 10
165.9783
 20
-183.7047
  0
SEQEND
  0
POLYLINE
  8
LAYER_1
 40
0.1058
 41
0.1058
 66
1
 10
0
 20
0
 30
0
  0
VERTEX
  8
LAYER_1
 10
161.8635
 20
-182.0664
  0
VERTEX
  8
LAYER_1
 10
162.4604
 20
-182.0283
  0
VERTEX
  8
LAYER_1
 10
163.0446
 20
-181.914
  0
VERTEX
  8
LAYER_1
 10
163.0573
 20
-181.914
  0
SEQEND
  0
POLYLINE
  8
LAYER_1
 40
0.1058
 41
0.1058
 66
1
 10
0
 20
0
 30
0
  0
VERTEX
  8
LAYER_1
 10
163.7304
 20
-182.0283
  0
VERTEX
  8
LAYER_1
 10
164.3273
 20
-182.0664
  0
VERTEX
  8
LAYER_1
 10
164.9369
 20
-182.0283
  0
VERTEX
  8
LAYER_1
 10
165.5211
 20
-181.914
  0
VERTEX
  8
LAYER_1
 10
165.5338
 20
-181.914
  0
SEQEND
  0
POLYLINE
  8
LAYER_1
 40
0.1058
 41
0.1058
 66
1
 10
0
 20
0
 30
0
  0
VERTEX
  8
LAYER_1
 10
162.4985
 20
-182.0156
  0
VERTEX
  8
LAYER_1
 10
163.0954
 20
-182.0664
  0
VERTEX
  8
LAYER_1
 10
163.6923
 20
-182.0283
  0
VERTEX
  8
LAYER_1
 10
164.2892
 20
-181.9267
  0
VERTEX
  8
LAYER_1
 10
164.3273
 20
-181.914
  0
SEQEND
  0
POLYLINE
  8
LAYER_1
 40
0.1058
 41
0.1058
 66
1
 10
0
 20
0
 30
0
  0
VERTEX
  8
LAYER_1
 10
164.9369
 20
-182.0283
  0
VERTEX
  8
LAYER_1
 10
165.5338
 20
-182.0664
  0
SEQEND
  0
POLYLINE
  8
LAYER_1
 40
0.1058
 41
0.1058
 66
1
 10
0
 20
0
 30
0
  0
VERTEX
  8
LAYER_1
 10
163.0573
 20
-181.5457
  0
VERTEX
  8
LAYER_1
 10
162.4731
 20
-181.4441
  0
VERTEX
  8
LAYER_1
 10
161.8762
 20
-181.406
  0
VERTEX
  8
LAYER_1
 10
161.8635
 20
-181.406
  0
SEQEND
  0
POLYLINE
  8
LAYER_1
 40
0.1058
 41
0.1058
 66
1
 10
0
 20
0
 30
0
  0
VERTEX
  8
LAYER_1
 10
164.3273
 20
-181.5457
  0
VERTEX
  8
LAYER_1
 10
163.7431
 20
-181.4441
  0
VERTEX
  8
LAYER_1
 10
163.1462
 20
-181.406
  0
VERTEX
  8
LAYER_1
 10
162.5493
 20
-181.4314
  0
VERTEX
  8
LAYER_1
 10
162.4985
 20
-181.4441
  0
SEQEND
  0
POLYLINE
  8
LAYER_1
 40
0.1058
 41
0.1058
 66
1
 10
0
 20
0
 30
0
  0
VERTEX
  8
LAYER_1
 10
165.5338
 20
-181.5457
  0
VERTEX
  8
LAYER_1
 10
164.9496
 20
-181.4441
  0
SEQEND
  0
POLYLINE
  8
LAYER_1
 40
0.1058
 41
0.1058
 66
1
 10
0
 20
0
 30
0
  0
VERTEX
  8
LAYER_1
 10
164.9496
 20
-181.4442
  0
VERTEX
  8
LAYER_1
 10
164.34
 20
-181.406
  0
VERTEX
  8
LAYER_1
 10
163.7431
 20
-181.4314
  0
VERTEX
  8
LAYER_1
 10
163.7304
 20
-181.4314
  0
SEQEND
  0
POLYLINE
  8
LAYER_1
 40
0.1058
 41
0.1058
 66
1
 10
0
 20
0
 30
0
  0
VERTEX
  8
LAYER_1
 10
165.5338
 20
-181.4061
  0
VERTEX
  8
LAYER_1
 10
164.9369
 20
-181.4315
  0
SEQEND
  0
POLYLINE
  8
LAYER_1
 40
0.1058
 41
0.1058
 66
1
 10
0
 20
0
 30
0
  0
VERTEX
  8
LAYER_1
 10
165.3052
 20
-193.5473
  0
VERTEX
  8
LAYER_1
 10
161.8635
 20
-193.5473
  0
SEQEND
  0
POLYLINE
  8
LAYER_1
 40
0.1058
 41
0.1058
 66
1
 10
0
 20
0
 30
0
  0
VERTEX
  8
LAYER_1
 10
165.3052
 20
-193.5473
  0
VERTEX
  8
LAYER_1
 10
165.5084
 20
-192.9885
  0
VERTEX
  8
LAYER_1
 10
165.6354
 20
-192.4043
  0
VERTEX
  8
LAYER_1
 10
165.6862
 20
-191.8074
  0
VERTEX
  8
LAYER_1
 10
165.6481
 20
-191.2105
  0
VERTEX
  8
LAYER_1
 10
165.5338
 20
-190.6135
  0
VERTEX
  8
LAYER_1
 10
165.3433
 20
-190.042
  0
VERTEX
  8
LAYER_1
 10
165.3052
 20
-189.9531
  0
VERTEX
  8
LAYER_1
 10
161.8635
 20
-189.9531
  0
SEQEND
  0
POLYLINE
  8
LAYER_1
 40
0.1058
 41
0.1058
 66
1
 10
0
 20
0
 30
0
  0
VERTEX
  8
LAYER_1
 10
164.848
 20
-189.9532
  0
VERTEX
  8
LAYER_1
 10
164.7591
 20
-189.9659
  0
VERTEX
  8
LAYER_1
 10
164.6702
 20
-189.9913
  0
VERTEX
  8
LAYER_1
 10
164.594
 20
-190.0421
  0
VERTEX
  8
LAYER_1
 10
164.5178
 20
-190.1056
  0
VERTEX
  8
LAYER_1
 10
164.4416
 20
-190.1945
  0
VERTEX
  8
LAYER_1
 10
164.3654
 20
-190.2961
  0
VERTEX
  8
LAYER_1
 10
164.2892
 20
-190.4104
  0
VERTEX
  8
LAYER_1
 10
164.2257
 20
-190.5501
  0
VERTEX
  8
LAYER_1
 10
164.1749
 20
-190.6898
  0
VERTEX
  8
LAYER_1
 10
164.1241
 20
-190.8549
  0
VERTEX
  8
LAYER_1
 10
164.0987
 20
-191.02
  0
VERTEX
  8
LAYER_1
 10
164.0606
 20
-191.1978
  0
VERTEX
  8
LAYER_1
 10
164.0352
 20
-191.3756
  0
VERTEX
  8
LAYER_1
 10
164.0225
 20
-191.5661
  0
VERTEX
  8
LAYER_1
 10
164.0225
 20
-191.7566
  0
VERTEX
  8
LAYER_1
 10
164.0225
 20
-191.9471
  0
VERTEX
  8
LAYER_1
 10
164.0352
 20
-192.1249
  0
VERTEX
  8
LAYER_1
 10
164.0606
 20
-192.3027
  0
VERTEX
  8
LAYER_1
 10
164.0987
 20
-192.4805
  0
VERTEX
  8
LAYER_1
 10
164.1241
 20
-192.6456
  0
VERTEX
  8
LAYER_1
 10
164.1749
 20
-192.8107
  0
VERTEX
  8
LAYER_1
 10
164.2257
 20
-192.9631
  0
VERTEX
  8
LAYER_1
 10
164.2892
 20
-193.0901
  0
VERTEX
  8
LAYER_1
 10
164.3654
 20
-193.2044
  0
VERTEX
  8
LAYER_1
 10
164.4416
 20
-193.306
  0
VERTEX
  8
LAYER_1
 10
164.5178
 20
-193.3949
  0
VERTEX
  8
LAYER_1
 10
164.594
 20
-193.4711
  0
VERTEX
  8
LAYER_1
 10
164.6702
 20
-193.5092
  0
VERTEX
  8
LAYER_1
 10
164.7591
 20
-193.5473
  0
VERTEX
  8
LAYER_1
 10
164.848
 20
-193.5473
  0
VERTEX
  8
LAYER_1
 10
164.9369
 20
-193.5473
  0
VERTEX
  8
LAYER_1
 10
165.0131
 20
-193.5092
  0
VERTEX
  8
LAYER_1
 10
165.102
 20
-193.4711
  0
VERTEX
  8
LAYER_1
 10
165.1909
 20
-193.3949
  0
VERTEX
  8
LAYER_1
 10
165.2544
 20
-193.306
  0
VERTEX
  8
LAYER_1
 10
165.3306
 20
-193.2044
  0
VERTEX
  8
LAYER_1
 10
165.4068
 20
-193.0901
  0
VERTEX
  8
LAYER_1
 10
165.4576
 20
-192.9631
  0
VERTEX
  8
LAYER_1
 10
165.5211
 20
-192.8107
  0
VERTEX
  8
LAYER_1
 10
165.5592
 20
-192.6456
  0
VERTEX
  8
LAYER_1
 10
165.5973
 20
-192.4805
  0
VERTEX
  8
LAYER_1
 10
165.6354
 20
-192.3027
  0
VERTEX
  8
LAYER_1
 10
165.6481
 20
-192.1249
  0
VERTEX
  8
LAYER_1
 10
165.6608
 20
-191.9471
  0
VERTEX
  8
LAYER_1
 10
165.6735
 20
-191.7566
  0
VERTEX
  8
LAYER_1
 10
165.6608
 20
-191.5661
  0
VERTEX
  8
LAYER_1
 10
165.6481
 20
-191.3756
  0
VERTEX
  8
LAYER_1
 10
165.6354
 20
-191.1978
  0
VERTEX
  8
LAYER_1
 10
165.5973
 20
-191.02
  0
VERTEX
  8
LAYER_1
 10
165.5592
 20
-190.8549
  0
VERTEX
  8
LAYER_1
 10
165.5211
 20
-190.6898
  0
VERTEX
  8
LAYER_1
 10
165.4576
 20
-190.5501
  0
VERTEX
  8
LAYER_1
 10
165.4068
 20
-190.4104
  0
VERTEX
  8
LAYER_1
 10
165.3306
 20
-190.2961
  0
VERTEX
  8
LAYER_1
 10
165.2544
 20
-190.1945
  0
VERTEX
  8
LAYER_1
 10
165.1909
 20
-190.1056
  0
VERTEX
  8
LAYER_1
 10
165.102
 20
-190.0421
  0
VERTEX
  8
LAYER_1
 10
165.0131
 20
-189.9913
  0
VERTEX
  8
LAYER_1
 10
164.9369
 20
-189.9659
  0
VERTEX
  8
LAYER_1
 10
164.848
 20
-189.9532
  0
SEQEND
  0
POLYLINE
  8
LAYER_1
 40
0.1058
 41
0.1058
 66
1
 10
0
 20
0
 30
0
  0
VERTEX
  8
LAYER_1
 10
164.9369
 20
-189.9532
  0
VERTEX
  8
LAYER_1
 10
164.9369
 20
-184.0096
  0
SEQEND
  0
POLYLINE
  8
LAYER_1
 40
0.1058
 41
0.1058
 66
1
 10
0
 20
0
 30
0
  0
VERTEX
  8
LAYER_1
 10
167.1086
 20
-180.9489
  0
VERTEX
  8
LAYER_1
 10
156.6057
 20
-180.9489
  0
SEQEND
  0
POLYLINE
  8
LAYER_1
 40
0.1058
 41
0.1058
 66
1
 10
0
 20
0
 30
0
  0
VERTEX
  8
LAYER_1
 10
155.5643
 20
-174.8021
  0
VERTEX
  8
LAYER_1
 10
168.1627
 20
-174.8021
  0
SEQEND
  0
POLYLINE
  8
LAYER_1
 40
0.1058
 41
0.1058
 66
1
 10
0
 20
0
 30
0
  0
VERTEX
  8
LAYER_1
 10
167.7055
 20
-176.4531
  0
VERTEX
  8
LAYER_1
 10
167.7055
 20
-177.05
  0
VERTEX
  8
LAYER_1
 10
161.8635
 20
-177.05
  0
SEQEND
  0
POLYLINE
  8
LAYER_1
 40
0.1058
 41
0.1058
 66
1
 10
0
 20
0
 30
0
  0
VERTEX
  8
LAYER_1
 10
168.1627
 20
-176.4531
  0
VERTEX
  8
LAYER_1
 10
161.8635
 20
-176.4531
  0
SEQEND
  0
POLYLINE
  8
LAYER_1
 40
0.1058
 41
0.1058
 66
1
 10
0
 20
0
 30
0
  0
VERTEX
  8
LAYER_1
 10
168.3151
 20
-176.3007
  0
VERTEX
  8
LAYER_1
 10
168.1627
 20
-176.4531
  0
SEQEND
  0
POLYLINE
  8
LAYER_1
 40
0.1058
 41
0.1058
 66
1
 10
0
 20
0
 30
0
  0
VERTEX
  8
LAYER_1
 10
168.3151
 20
-174.9545
  0
VERTEX
  8
LAYER_1
 10
168.3151
 20
-176.3007
  0
SEQEND
  0
POLYLINE
  8
LAYER_1
 40
0.1058
 41
0.1058
 66
1
 10
0
 20
0
 30
0
  0
VERTEX
  8
LAYER_1
 10
168.1627
 20
-174.8021
  0
VERTEX
  8
LAYER_1
 10
168.3151
 20
-174.9545
  0
SEQEND
  0
POLYLINE
  8
LAYER_1
 40
0.1058
 41
0.1058
 66
1
 10
0
 20
0
 30
0
  0
VERTEX
  8
LAYER_1
 10
155.5643
 20
-174.8021
  0
VERTEX
  8
LAYER_1
 10
155.4119
 20
-174.9545
  0
VERTEX
  8
LAYER_1
 10
155.4119
 20
-176.3007
  0
VERTEX
  8
LAYER_1
 10
155.5643
 20
-176.4531
  0
VERTEX
  8
LAYER_1
 10
161.8635
 20
-176.4531
  0
SEQEND
  0
POLYLINE
  8
LAYER_1
 40
0.1058
 41
0.1058
 66
1
 10
0
 20
0
 30
0
  0
VERTEX
  8
LAYER_1
 10
156.0088
 20
-176.4531
  0
VERTEX
  8
LAYER_1
 10
156.0088
 20
-177.05
  0
VERTEX
  8
LAYER_1
 10
161.8635
 20
-177.05
  0
SEQEND
  0
POLYLINE
  8
LAYER_1
 40
0.1058
 41
0.1058
 66
1
 10
0
 20
0
 30
0
  0
VERTEX
  8
LAYER_1
 10
155.5643
 20
-174.8021
  0
VERTEX
  8
LAYER_1
 10
168.1627
 20
-174.8021
  0
SEQEND
  0
POLYLINE
  8
LAYER_1
 40
0.1058
 41
0.1058
 66
1
 10
0
 20
0
 30
0
  0
VERTEX
  8
LAYER_1
 10
167.0197
 20
-127.4057
  0
VERTEX
  8
LAYER_1
 10
156.7073
 20
-127.4057
  0
SEQEND
  0
POLYLINE
  8
LAYER_1
 40
0.1058
 41
0.1058
 66
1
 10
0
 20
0
 30
0
  0
VERTEX
  8
LAYER_1
 10
156.6057
 20
-127.4946
  0
VERTEX
  8
LAYER_1
 10
156.6057
 20
-174.7132
  0
SEQEND
  0
POLYLINE
  8
LAYER_1
 40
0.1058
 41
0.1058
 66
1
 10
0
 20
0
 30
0
  0
VERTEX
  8
LAYER_1
 10
167.1086
 20
-127.4946
  0
VERTEX
  8
LAYER_1
 10
167.1086
 20
-174.7132
  0
SEQEND
  0
POLYLINE
  8
LAYER_1
 40
0.1058
 41
0.1058
 66
1
 10
0
 20
0
 30
0
  0
VERTEX
  8
LAYER_1
 10
167.0197
 20
-127.4057
  0
VERTEX
  8
LAYER_1
 10
167.1086
 20
-127.4946
  0
SEQEND
  0
POLYLINE
  8
LAYER_1
 40
0.1058
 41
0.1058
 66
1
 10
0
 20
0
 30
0
  0
VERTEX
  8
LAYER_1
 10
156.7073
 20
-127.4057
  0
VERTEX
  8
LAYER_1
 10
156.6057
 20
-127.4946
  0
SEQEND
  0
POLYLINE
  8
LAYER_1
 40
0.1058
 41
0.1058
 66
1
 10
0
 20
0
 30
0
  0
VERTEX
  8
LAYER_1
 10
123.9345
 20
-181.5331
  0
VERTEX
  8
LAYER_1
 10
123.9345
 20
-181.0886
  0
SEQEND
  0
POLYLINE
  8
LAYER_1
 40
0.1058
 41
0.1058
 66
1
 10
0
 20
0
 30
0
  0
VERTEX
  8
LAYER_1
 10
129.1923
 20
-181.5331
  0
VERTEX
  8
LAYER_1
 10
123.9345
 20
-181.5331
  0
SEQEND
  0
POLYLINE
  8
LAYER_1
 40
0.1058
 41
0.1058
 66
1
 10
0
 20
0
 30
0
  0
VERTEX
  8
LAYER_1
 10
126.1189
 20
-181.0886
  0
VERTEX
  8
LAYER_1
 10
126.1189
 20
-177.177
  0
SEQEND
  0
POLYLINE
  8
LAYER_1
 40
0.1058
 41
0.1058
 66
1
 10
0
 20
0
 30
0
  0
VERTEX
  8
LAYER_1
 10
125.5855
 20
-184.1493
  0
VERTEX
  8
LAYER_1
 10
129.1923
 20
-184.1493
  0
SEQEND
  0
POLYLINE
  8
LAYER_1
 40
0.1058
 41
0.1058
 66
1
 10
0
 20
0
 30
0
  0
VERTEX
  8
LAYER_1
 10
125.0648
 20
-183.8445
  0
VERTEX
  8
LAYER_1
 10
125.0648
 20
-182.1935
  0
SEQEND
  0
POLYLINE
  8
LAYER_1
 40
0.1058
 41
0.1058
 66
1
 10
0
 20
0
 30
0
  0
VERTEX
  8
LAYER_1
 10
125.5855
 20
-184.1493
  0
VERTEX
  8
LAYER_1
 10
125.0648
 20
-183.8445
  0
SEQEND
  0
POLYLINE
  8
LAYER_1
 40
0.1058
 41
0.1058
 66
1
 10
0
 20
0
 30
0
  0
VERTEX
  8
LAYER_1
 10
123.1852
 20
-182.0411
  0
VERTEX
  8
LAYER_1
 10
123.1852
 20
-181.6855
  0
SEQEND
  0
POLYLINE
  8
LAYER_1
 40
0.1058
 41
0.1058
 66
1
 10
0
 20
0
 30
0
  0
VERTEX
  8
LAYER_1
 10
129.1923
 20
-182.1935
  0
VERTEX
  8
LAYER_1
 10
124.887
 20
-182.1935
  0
SEQEND
  0
POLYLINE
  8
LAYER_1
 40
0.1058
 41
0.1058
 66
1
 10
0
 20
0
 30
0
  0
VERTEX
  8
LAYER_1
 10
123.1852
 20
-181.6855
  0
VERTEX
  8
LAYER_1
 10
129.1923
 20
-181.6855
  0
SEQEND
  0
POLYLINE
  8
LAYER_1
 40
0.1058
 41
0.1058
 66
1
 10
0
 20
0
 30
0
  0
VERTEX
  8
LAYER_1
 10
123.1852
 20
-182.0411
  0
VERTEX
  8
LAYER_1
 10
129.1923
 20
-182.0411
  0
SEQEND
  0
POLYLINE
  8
LAYER_1
 40
0.1058
 41
0.1058
 66
1
 10
0
 20
0
 30
0
  0
VERTEX
  8
LAYER_1
 10
124.2901
 20
-182.0665
  0
VERTEX
  8
LAYER_1
 10
124.5441
 20
-182.1554
  0
VERTEX
  8
LAYER_1
 10
124.7981
 20
-182.1935
  0
VERTEX
  8
LAYER_1
 10
124.887
 20
-182.1935
  0
SEQEND
  0
POLYLINE
  8
LAYER_1
 40
0.1058
 41
0.1058
 66
1
 10
0
 20
0
 30
0
  0
VERTEX
  8
LAYER_1
 10
124.887
 20
-181.5331
  0
VERTEX
  8
LAYER_1
 10
124.633
 20
-181.5585
  0
VERTEX
  8
LAYER_1
 10
124.379
 20
-181.622
  0
VERTEX
  8
LAYER_1
 10
124.2901
 20
-181.6601
  0
SEQEND
  0
POLYLINE
  8
LAYER_1
 40
0.1058
 41
0.1058
 66
1
 10
0
 20
0
 30
0
  0
VERTEX
  8
LAYER_1
 10
124.2901
 20
-182.0665
  0
VERTEX
  8
LAYER_1
 10
124.2393
 20
-182.0538
  0
VERTEX
  8
LAYER_1
 10
124.1885
 20
-182.0411
  0
VERTEX
  8
LAYER_1
 10
124.1758
 20
-182.0411
  0
SEQEND
  0
POLYLINE
  8
LAYER_1
 40
0.1058
 41
0.1058
 66
1
 10
0
 20
0
 30
0
  0
VERTEX
  8
LAYER_1
 10
124.1758
 20
-181.6855
  0
VERTEX
  8
LAYER_1
 10
124.2266
 20
-181.6728
  0
VERTEX
  8
LAYER_1
 10
124.2774
 20
-181.6601
  0
VERTEX
  8
LAYER_1
 10
124.2901
 20
-181.6601
  0
SEQEND
  0
POLYLINE
  8
LAYER_1
 40
0.1058
 41
0.1058
 66
1
 10
0
 20
0
 30
0
  0
VERTEX
  8
LAYER_1
 10
127.0841
 20
-183.8445
  0
VERTEX
  8
LAYER_1
 10
127.0841
 20
-182.1935
  0
SEQEND
  0
POLYLINE
  8
LAYER_1
 40
0.1058
 41
0.1058
 66
1
 10
0
 20
0
 30
0
  0
VERTEX
  8
LAYER_1
 10
127.0841
 20
-183.8445
  0
VERTEX
  8
LAYER_1
 10
127.6683
 20
-183.9842
  0
VERTEX
  8
LAYER_1
 10
128.2652
 20
-184.0858
  0
VERTEX
  8
LAYER_1
 10
128.8621
 20
-184.1366
  0
VERTEX
  8
LAYER_1
 10
129.1923
 20
-184.1493
  0
SEQEND
  0
POLYLINE
  8
LAYER_1
 40
0.1058
 41
0.1058
 66
1
 10
0
 20
0
 30
0
  0
VERTEX
  8
LAYER_1
 10
125.0648
 20
-183.8445
  0
VERTEX
  8
LAYER_1
 10
125.3442
 20
-183.9969
  0
VERTEX
  8
LAYER_1
 10
125.649
 20
-184.0985
  0
VERTEX
  8
LAYER_1
 10
125.9792
 20
-184.1493
  0
VERTEX
  8
LAYER_1
 10
126.2967
 20
-184.1366
  0
VERTEX
  8
LAYER_1
 10
126.6142
 20
-184.0604
  0
VERTEX
  8
LAYER_1
 10
126.9063
 20
-183.9461
  0
VERTEX
  8
LAYER_1
 10
127.0841
 20
-183.8445
  0
SEQEND
  0
POLYLINE
  8
LAYER_1
 40
0.1058
 41
0.1058
 66
1
 10
0
 20
0
 30
0
  0
VERTEX
  8
LAYER_1
 10
127.9858
 20
-182.0411
  0
VERTEX
  8
LAYER_1
 10
128.5827
 20
-182.1554
  0
VERTEX
  8
LAYER_1
 10
129.1796
 20
-182.1935
  0
VERTEX
  8
LAYER_1
 10
129.1923
 20
-182.1935
  0
SEQEND
  0
POLYLINE
  8
LAYER_1
 40
0.1058
 41
0.1058
 66
1
 10
0
 20
0
 30
0
  0
VERTEX
  8
LAYER_1
 10
125.522
 20
-182.0411
  0
VERTEX
  8
LAYER_1
 10
126.1062
 20
-182.1554
  0
VERTEX
  8
LAYER_1
 10
126.7031
 20
-182.1935
  0
VERTEX
  8
LAYER_1
 10
127.3
 20
-182.1554
  0
VERTEX
  8
LAYER_1
 10
127.3127
 20
-182.1554
  0
SEQEND
  0
POLYLINE
  8
LAYER_1
 40
0.1058
 41
0.1058
 66
1
 10
0
 20
0
 30
0
  0
VERTEX
  8
LAYER_1
 10
126.7158
 20
-182.0411
  0
VERTEX
  8
LAYER_1
 10
127.3
 20
-182.1554
  0
VERTEX
  8
LAYER_1
 10
127.9096
 20
-182.1935
  0
VERTEX
  8
LAYER_1
 10
128.4938
 20
-182.1554
  0
VERTEX
  8
LAYER_1
 10
128.5573
 20
-182.1554
  0
SEQEND
  0
POLYLINE
  8
LAYER_1
 40
0.1058
 41
0.1058
 66
1
 10
0
 20
0
 30
0
  0
VERTEX
  8
LAYER_1
 10
125.522
 20
-182.1935
  0
VERTEX
  8
LAYER_1
 10
126.1188
 20
-182.1554
  0
SEQEND
  0
POLYLINE
  8
LAYER_1
 40
0.1058
 41
0.1058
 66
1
 10
0
 20
0
 30
0
  0
VERTEX
  8
LAYER_1
 10
129.1923
 20
-181.5331
  0
VERTEX
  8
LAYER_1
 10
128.5954
 20
-181.5712
  0
VERTEX
  8
LAYER_1
 10
127.9985
 20
-181.6855
  0
VERTEX
  8
LAYER_1
 10
127.9858
 20
-181.6855
  0
SEQEND
  0
POLYLINE
  8
LAYER_1
 40
0.1058
 41
0.1058
 66
1
 10
0
 20
0
 30
0
  0
VERTEX
  8
LAYER_1
 10
128.5573
 20
-181.5712
  0
VERTEX
  8
LAYER_1
 10
127.9477
 20
-181.5331
  0
VERTEX
  8
LAYER_1
 10
127.3635
 20
-181.5585
  0
VERTEX
  8
LAYER_1
 10
126.7665
 20
-181.6728
  0
VERTEX
  8
LAYER_1
 10
126.7158
 20
-181.6855
  0
SEQEND
  0
POLYLINE
  8
LAYER_1
 40
0.1058
 41
0.1058
 66
1
 10
0
 20
0
 30
0
  0
VERTEX
  8
LAYER_1
 10
127.3127
 20
-181.5712
  0
VERTEX
  8
LAYER_1
 10
126.7158
 20
-181.5331
  0
VERTEX
  8
LAYER_1
 10
126.1188
 20
-181.5712
  0
VERTEX
  8
LAYER_1
 10
125.5346
 20
-181.6855
  0
VERTEX
  8
LAYER_1
 10
125.5219
 20
-181.6855
  0
SEQEND
  0
POLYLINE
  8
LAYER_1
 40
0.1058
 41
0.1058
 66
1
 10
0
 20
0
 30
0
  0
VERTEX
  8
LAYER_1
 10
126.1188
 20
-181.5712
  0
VERTEX
  8
LAYER_1
 10
125.5219
 20
-181.5331
  0
SEQEND
  0
POLYLINE
  8
LAYER_1
 40
0.1058
 41
0.1058
 66
1
 10
0
 20
0
 30
0
  0
VERTEX
  8
LAYER_1
 10
125.7379
 20
-193.687
  0
VERTEX
  8
LAYER_1
 10
129.1922
 20
-193.687
  0
SEQEND
  0
POLYLINE
  8
LAYER_1
 40
0.1058
 41
0.1058
 66
1
 10
0
 20
0
 30
0
  0
VERTEX
  8
LAYER_1
 10
125.7379
 20
-190.0802
  0
VERTEX
  8
LAYER_1
 10
125.5473
 20
-190.6517
  0
VERTEX
  8
LAYER_1
 10
125.4204
 20
-191.2359
  0
VERTEX
  8
LAYER_1
 10
125.3695
 20
-191.8328
  0
VERTEX
  8
LAYER_1
 10
125.3949
 20
-192.4297
  0
VERTEX
  8
LAYER_1
 10
125.5092
 20
-193.0139
  0
VERTEX
  8
LAYER_1
 10
125.6997
 20
-193.5854
  0
VERTEX
  8
LAYER_1
 10
125.7379
 20
-193.687
  0
SEQEND
  0
POLYLINE
  8
LAYER_1
 40
0.1058
 41
0.1058
 66
1
 10
0
 20
0
 30
0
  0
VERTEX
  8
LAYER_1
 10
125.7379
 20
-190.0802
  0
VERTEX
  8
LAYER_1
 10
129.1922
 20
-190.0802
  0
SEQEND
  0
POLYLINE
  8
LAYER_1
 40
0.1058
 41
0.1058
 66
1
 10
0
 20
0
 30
0
  0
VERTEX
  8
LAYER_1
 10
126.1951
 20
-190.0802
  0
VERTEX
  8
LAYER_1
 10
126.1188
 20
-190.0929
  0
VERTEX
  8
LAYER_1
 10
126.0299
 20
-190.131
  0
VERTEX
  8
LAYER_1
 10
125.9537
 20
-190.1691
  0
VERTEX
  8
LAYER_1
 10
125.8648
 20
-190.2326
  0
VERTEX
  8
LAYER_1
 10
125.7887
 20
-190.3215
  0
VERTEX
  8
LAYER_1
 10
125.7124
 20
-190.4231
  0
VERTEX
  8
LAYER_1
 10
125.6489
 20
-190.5501
  0
VERTEX
  8
LAYER_1
 10
125.5855
 20
-190.6771
  0
VERTEX
  8
LAYER_1
 10
125.5346
 20
-190.8295
  0
VERTEX
  8
LAYER_1
 10
125.4838
 20
-190.9819
  0
VERTEX
  8
LAYER_1
 10
125.4458
 20
-191.147
  0
VERTEX
  8
LAYER_1
 10
125.4204
 20
-191.3248
  0
VERTEX
  8
LAYER_1
 10
125.3949
 20
-191.5153
  0
VERTEX
  8
LAYER_1
 10
125.3822
 20
-191.6931
  0
VERTEX
  8
LAYER_1
 10
125.3822
 20
-191.8836
  0
VERTEX
  8
LAYER_1
 10
125.3822
 20
-192.0741
  0
VERTEX
  8
LAYER_1
 10
125.3949
 20
-192.2519
  0
VERTEX
  8
LAYER_1
 10
125.4204
 20
-192.4424
  0
VERTEX
  8
LAYER_1
 10
125.4458
 20
-192.6202
  0
VERTEX
  8
LAYER_1
 10
125.4838
 20
-192.7853
  0
VERTEX
  8
LAYER_1
 10
125.5346
 20
-192.9377
  0
VERTEX
  8
LAYER_1
 10
125.5855
 20
-193.0901
  0
VERTEX
  8
LAYER_1
 10
125.6489
 20
-193.2171
  0
VERTEX
  8
LAYER_1
 10
125.7124
 20
-193.3441
  0
VERTEX
  8
LAYER_1
 10
125.7887
 20
-193.4457
  0
VERTEX
  8
LAYER_1
 10
125.8648
 20
-193.5219
  0
VERTEX
  8
LAYER_1
 10
125.9537
 20
-193.5981
  0
VERTEX
  8
LAYER_1
 10
126.0299
 20
-193.6489
  0
VERTEX
  8
LAYER_1
 10
126.1188
 20
-193.6743
  0
VERTEX
  8
LAYER_1
 10
126.1951
 20
-193.687
  0
VERTEX
  8
LAYER_1
 10
126.2966
 20
-193.6743
  0
VERTEX
  8
LAYER_1
 10
126.3729
 20
-193.6489
  0
VERTEX
  8
LAYER_1
 10
126.4617
 20
-193.5981
  0
VERTEX
  8
LAYER_1
 10
126.538
 20
-193.5219
  0
VERTEX
  8
LAYER_1
 10
126.6141
 20
-193.4457
  0
VERTEX
  8
LAYER_1
 10
126.6904
 20
-193.3441
  0
SEQEND
  0
POLYLINE
  8
LAYER_1
 40
0.1058
 41
0.1058
 66
1
 10
0
 20
0
 30
0
  0
VERTEX
  8
LAYER_1
 10
126.6904
 20
-193.3441
  0
VERTEX
  8
LAYER_1
 10
126.7539
 20
-193.217
  0
VERTEX
  8
LAYER_1
 10
126.8174
 20
-193.0901
  0
VERTEX
  8
LAYER_1
 10
126.8682
 20
-192.9376
  0
VERTEX
  8
LAYER_1
 10
126.919
 20
-192.7853
  0
VERTEX
  8
LAYER_1
 10
126.9571
 20
-192.6201
  0
VERTEX
  8
LAYER_1
 10
126.9825
 20
-192.4424
  0
VERTEX
  8
LAYER_1
 10
127.0079
 20
-192.2518
  0
VERTEX
  8
LAYER_1
 10
127.0206
 20
-192.0741
  0
VERTEX
  8
LAYER_1
 10
127.0333
 20
-191.8835
  0
VERTEX
  8
LAYER_1
 10
127.0206
 20
-191.693
  0
VERTEX
  8
LAYER_1
 10
127.0079
 20
-191.5153
  0
VERTEX
  8
LAYER_1
 10
126.9825
 20
-191.3247
  0
VERTEX
  8
LAYER_1
 10
126.9571
 20
-191.147
  0
VERTEX
  8
LAYER_1
 10
126.919
 20
-190.9818
  0
VERTEX
  8
LAYER_1
 10
126.8682
 20
-190.8295
  0
VERTEX
  8
LAYER_1
 10
126.8174
 20
-190.677
  0
VERTEX
  8
LAYER_1
 10
126.7539
 20
-190.5501
  0
VERTEX
  8
LAYER_1
 10
126.6904
 20
-190.423
  0
VERTEX
  8
LAYER_1
 10
126.6142
 20
-190.3214
  0
VERTEX
  8
LAYER_1
 10
126.538
 20
-190.2326
  0
VERTEX
  8
LAYER_1
 10
126.4618
 20
-190.1691
  0
VERTEX
  8
LAYER_1
 10
126.3729
 20
-190.1309
  0
VERTEX
  8
LAYER_1
 10
126.2967
 20
-190.0928
  0
VERTEX
  8
LAYER_1
 10
126.1951
 20
-190.0801
  0
SEQEND
  0
POLYLINE
  8
LAYER_1
 40
0.1058
 41
0.1058
 66
1
 10
0
 20
0
 30
0
  0
VERTEX
  8
LAYER_1
 10
129.1923
 20
-190.0802
  0
VERTEX
  8
LAYER_1
 10
129.0145
 20
-190.0929
  0
VERTEX
  8
LAYER_1
 10
128.8494
 20
-190.131
  0
VERTEX
  8
LAYER_1
 10
128.6716
 20
-190.1691
  0
VERTEX
  8
LAYER_1
 10
128.5065
 20
-190.2326
  0
VERTEX
  8
LAYER_1
 10
128.3541
 20
-190.3214
  0
VERTEX
  8
LAYER_1
 10
128.2144
 20
-190.4231
  0
VERTEX
  8
LAYER_1
 10
128.0747
 20
-190.5501
  0
VERTEX
  8
LAYER_1
 10
127.9477
 20
-190.677
  0
VERTEX
  8
LAYER_1
 10
127.8334
 20
-190.8295
  0
VERTEX
  8
LAYER_1
 10
127.7445
 20
-190.9818
  0
VERTEX
  8
LAYER_1
 10
127.6683
 20
-191.147
  0
VERTEX
  8
LAYER_1
 10
127.6048
 20
-191.3247
  0
VERTEX
  8
LAYER_1
 10
127.554
 20
-191.5153
  0
VERTEX
  8
LAYER_1
 10
127.5286
 20
-191.6931
  0
VERTEX
  8
LAYER_1
 10
127.5159
 20
-191.8835
  0
VERTEX
  8
LAYER_1
 10
127.5286
 20
-192.0741
  0
VERTEX
  8
LAYER_1
 10
127.554
 20
-192.2518
  0
VERTEX
  8
LAYER_1
 10
127.6048
 20
-192.4424
  0
VERTEX
  8
LAYER_1
 10
127.6683
 20
-192.6202
  0
VERTEX
  8
LAYER_1
 10
127.7445
 20
-192.7853
  0
VERTEX
  8
LAYER_1
 10
127.8334
 20
-192.9377
  0
VERTEX
  8
LAYER_1
 10
127.9477
 20
-193.0901
  0
VERTEX
  8
LAYER_1
 10
128.0747
 20
-193.217
  0
VERTEX
  8
LAYER_1
 10
128.2144
 20
-193.3441
  0
VERTEX
  8
LAYER_1
 10
128.3541
 20
-193.4456
  0
VERTEX
  8
LAYER_1
 10
128.5065
 20
-193.5218
  0
VERTEX
  8
LAYER_1
 10
128.6716
 20
-193.5981
  0
VERTEX
  8
LAYER_1
 10
128.8494
 20
-193.6489
  0
VERTEX
  8
LAYER_1
 10
129.0145
 20
-193.6743
  0
VERTEX
  8
LAYER_1
 10
129.1923
 20
-193.687
  0
VERTEX
  8
LAYER_1
 10
129.3574
 20
-193.6743
  0
VERTEX
  8
LAYER_1
 10
129.5352
 20
-193.6489
  0
VERTEX
  8
LAYER_1
 10
129.7003
 20
-193.5981
  0
VERTEX
  8
LAYER_1
 10
129.8654
 20
-193.5218
  0
VERTEX
  8
LAYER_1
 10
130.0178
 20
-193.4456
  0
VERTEX
  8
LAYER_1
 10
130.1702
 20
-193.3441
  0
VERTEX
  8
LAYER_1
 10
130.3099
 20
-193.217
  0
VERTEX
  8
LAYER_1
 10
130.4369
 20
-193.0901
  0
VERTEX
  8
LAYER_1
 10
130.5385
 20
-192.9377
  0
VERTEX
  8
LAYER_1
 10
130.6401
 20
-192.7853
  0
VERTEX
  8
LAYER_1
 10
130.7163
 20
-192.6202
  0
VERTEX
  8
LAYER_1
 10
130.7798
 20
-192.4424
  0
VERTEX
  8
LAYER_1
 10
130.8179
 20
-192.2518
  0
VERTEX
  8
LAYER_1
 10
130.856
 20
-192.0741
  0
VERTEX
  8
LAYER_1
 10
130.856
 20
-191.8835
  0
VERTEX
  8
LAYER_1
 10
130.856
 20
-191.6931
  0
VERTEX
  8
LAYER_1
 10
130.8179
 20
-191.5153
  0
VERTEX
  8
LAYER_1
 10
130.7798
 20
-191.3247
  0
VERTEX
  8
LAYER_1
 10
130.7163
 20
-191.147
  0
VERTEX
  8
LAYER_1
 10
130.6401
 20
-190.9818
  0
VERTEX
  8
LAYER_1
 10
130.5385
 20
-190.8295
  0
VERTEX
  8
LAYER_1
 10
130.4369
 20
-190.677
  0
VERTEX
  8
LAYER_1
 10
130.3099
 20
-190.5501
  0
VERTEX
  8
LAYER_1
 10
130.1702
 20
-190.4231
  0
VERTEX
  8
LAYER_1
 10
130.0178
 20
-190.3214
  0
VERTEX
  8
LAYER_1
 10
129.8654
 20
-190.2326
  0
VERTEX
  8
LAYER_1
 10
129.7003
 20
-190.1691
  0
VERTEX
  8
LAYER_1
 10
129.5352
 20
-190.131
  0
VERTEX
  8
LAYER_1
 10
129.3574
 20
-190.0929
  0
VERTEX
  8
LAYER_1
 10
129.1923
 20
-190.0802
  0
SEQEND
  0
POLYLINE
  8
LAYER_1
 40
0.1058
 41
0.1058
 66
1
 10
0
 20
0
 30
0
  0
VERTEX
  8
LAYER_1
 10
126.1189
 20
-190.0802
  0
VERTEX
  8
LAYER_1
 10
126.1189
 20
-184.1493
  0
SEQEND
  0
POLYLINE
  8
LAYER_1
 40
0.1058
 41
0.1058
 66
1
 10
0
 20
0
 30
0
  0
VERTEX
  8
LAYER_1
 10
134.4374
 20
-181.5331
  0
VERTEX
  8
LAYER_1
 10
134.4374
 20
-181.0885
  0
SEQEND
  0
POLYLINE
  8
LAYER_1
 40
0.1058
 41
0.1058
 66
1
 10
0
 20
0
 30
0
  0
VERTEX
  8
LAYER_1
 10
129.1923
 20
-181.5331
  0
VERTEX
  8
LAYER_1
 10
134.4374
 20
-181.5331
  0
SEQEND
  0
POLYLINE
  8
LAYER_1
 40
0.1058
 41
0.1058
 66
1
 10
0
 20
0
 30
0
  0
VERTEX
  8
LAYER_1
 10
132.2657
 20
-181.0886
  0
VERTEX
  8
LAYER_1
 10
132.2657
 20
-177.177
  0
SEQEND
  0
POLYLINE
  8
LAYER_1
 40
0.1058
 41
0.1058
 66
1
 10
0
 20
0
 30
0
  0
VERTEX
  8
LAYER_1
 10
132.7864
 20
-184.1493
  0
VERTEX
  8
LAYER_1
 10
129.1923
 20
-184.1493
  0
SEQEND
  0
POLYLINE
  8
LAYER_1
 40
0.1058
 41
0.1058
 66
1
 10
0
 20
0
 30
0
  0
VERTEX
  8
LAYER_1
 10
133.3198
 20
-183.8445
  0
VERTEX
  8
LAYER_1
 10
133.3198
 20
-182.1935
  0
SEQEND
  0
POLYLINE
  8
LAYER_1
 40
0.1058
 41
0.1058
 66
1
 10
0
 20
0
 30
0
  0
VERTEX
  8
LAYER_1
 10
132.7864
 20
-184.1493
  0
VERTEX
  8
LAYER_1
 10
133.3198
 20
-183.8445
  0
SEQEND
  0
POLYLINE
  8
LAYER_1
 40
0.1058
 41
0.1058
 66
1
 10
0
 20
0
 30
0
  0
VERTEX
  8
LAYER_1
 10
135.1867
 20
-182.0411
  0
VERTEX
  8
LAYER_1
 10
135.1867
 20
-181.6855
  0
SEQEND
  0
POLYLINE
  8
LAYER_1
 40
0.1058
 41
0.1058
 66
1
 10
0
 20
0
 30
0
  0
VERTEX
  8
LAYER_1
 10
129.1923
 20
-182.1935
  0
VERTEX
  8
LAYER_1
 10
133.4849
 20
-182.1935
  0
SEQEND
  0
POLYLINE
  8
LAYER_1
 40
0.1058
 41
0.1058
 66
1
 10
0
 20
0
 30
0
  0
VERTEX
  8
LAYER_1
 10
135.1867
 20
-181.6855
  0
VERTEX
  8
LAYER_1
 10
129.1923
 20
-181.6855
  0
SEQEND
  0
POLYLINE
  8
LAYER_1
 40
0.1058
 41
0.1058
 66
1
 10
0
 20
0
 30
0
  0
VERTEX
  8
LAYER_1
 10
135.1867
 20
-182.041
  0
VERTEX
  8
LAYER_1
 10
129.1923
 20
-182.041
  0
SEQEND
  0
POLYLINE
  8
LAYER_1
 40
0.1058
 41
0.1058
 66
1
 10
0
 20
0
 30
0
  0
VERTEX
  8
LAYER_1
 10
133.4849
 20
-182.1934
  0
VERTEX
  8
LAYER_1
 10
133.7516
 20
-182.168
  0
VERTEX
  8
LAYER_1
 10
134.0056
 20
-182.1045
  0
VERTEX
  8
LAYER_1
 10
134.0818
 20
-182.0664
  0
SEQEND
  0
POLYLINE
  8
LAYER_1
 40
0.1058
 41
0.1058
 66
1
 10
0
 20
0
 30
0
  0
VERTEX
  8
LAYER_1
 10
134.0818
 20
-181.66
  0
VERTEX
  8
LAYER_1
 10
133.8405
 20
-181.5711
  0
VERTEX
  8
LAYER_1
 10
133.5865
 20
-181.533
  0
VERTEX
  8
LAYER_1
 10
133.4849
 20
-181.533
  0
SEQEND
  0
POLYLINE
  8
LAYER_1
 40
0.1058
 41
0.1058
 66
1
 10
0
 20
0
 30
0
  0
VERTEX
  8
LAYER_1
 10
134.2088
 20
-182.041
  0
VERTEX
  8
LAYER_1
 10
134.158
 20
-182.0537
  0
VERTEX
  8
LAYER_1
 10
134.1072
 20
-182.0664
  0
VERTEX
  8
LAYER_1
 10
134.0818
 20
-182.0664
  0
SEQEND
  0
POLYLINE
  8
LAYER_1
 40
0.1058
 41
0.1058
 66
1
 10
0
 20
0
 30
0
  0
VERTEX
  8
LAYER_1
 10
134.0818
 20
-181.66
  0
VERTEX
  8
LAYER_1
 10
134.1453
 20
-181.6727
  0
VERTEX
  8
LAYER_1
 10
134.1834
 20
-181.6854
  0
VERTEX
  8
LAYER_1
 10
134.2088
 20
-181.6854
  0
SEQEND
  0
POLYLINE
  8
LAYER_1
 40
0.1058
 41
0.1058
 66
1
 10
0
 20
0
 30
0
  0
VERTEX
  8
LAYER_1
 10
131.2878
 20
-183.8444
  0
VERTEX
  8
LAYER_1
 10
131.2878
 20
-182.1934
  0
SEQEND
  0
POLYLINE
  8
LAYER_1
 40
0.1058
 41
0.1058
 66
1
 10
0
 20
0
 30
0
  0
VERTEX
  8
LAYER_1
 10
129.1923
 20
-184.1492
  0
VERTEX
  8
LAYER_1
 10
129.7892
 20
-184.1238
  0
VERTEX
  8
LAYER_1
 10
130.3861
 20
-184.0476
  0
VERTEX
  8
LAYER_1
 10
130.9703
 20
-183.9333
  0
VERTEX
  8
LAYER_1
 10
131.2878
 20
-183.8444
  0
VERTEX
  8
LAYER_1
 10
131.5672
 20
-183.9968
  0
VERTEX
  8
LAYER_1
 10
131.872
 20
-184.0984
  0
VERTEX
  8
LAYER_1
 10
132.1895
 20
-184.1492
  0
VERTEX
  8
LAYER_1
 10
132.5197
 20
-184.1365
  0
VERTEX
  8
LAYER_1
 10
132.8372
 20
-184.0603
  0
VERTEX
  8
LAYER_1
 10
133.1293
 20
-183.946
  0
VERTEX
  8
LAYER_1
 10
133.3198
 20
-183.8444
  0
SEQEND
  0
POLYLINE
  8
LAYER_1
 40
0.1058
 41
0.1058
 66
1
 10
0
 20
0
 30
0
  0
VERTEX
  8
LAYER_1
 10
129.1923
 20
-182.1934
  0
VERTEX
  8
LAYER_1
 10
129.7892
 20
-182.1553
  0
VERTEX
  8
LAYER_1
 10
130.3734
 20
-182.0537
  0
VERTEX
  8
LAYER_1
 10
130.3861
 20
-182.041
  0
SEQEND
  0
POLYLINE
  8
LAYER_1
 40
0.1058
 41
0.1058
 66
1
 10
0
 20
0
 30
0
  0
VERTEX
  8
LAYER_1
 10
131.0719
 20
-182.1553
  0
VERTEX
  8
LAYER_1
 10
131.6688
 20
-182.1934
  0
VERTEX
  8
LAYER_1
 10
132.2657
 20
-182.1553
  0
VERTEX
  8
LAYER_1
 10
132.8499
 20
-182.0537
  0
VERTEX
  8
LAYER_1
 10
132.8626
 20
-182.041
  0
SEQEND
  0
POLYLINE
  8
LAYER_1
 40
0.1058
 41
0.1058
 66
1
 10
0
 20
0
 30
0
  0
VERTEX
  8
LAYER_1
 10
129.8273
 20
-182.1553
  0
VERTEX
  8
LAYER_1
 10
130.4242
 20
-182.1934
  0
VERTEX
  8
LAYER_1
 10
131.0211
 20
-182.168
  0
VERTEX
  8
LAYER_1
 10
131.618
 20
-182.0537
  0
VERTEX
  8
LAYER_1
 10
131.6688
 20
-182.041
  0
SEQEND
  0
POLYLINE
  8
LAYER_1
 40
0.1058
 41
0.1058
 66
1
 10
0
 20
0
 30
0
  0
VERTEX
  8
LAYER_1
 10
132.2657
 20
-182.1553
  0
VERTEX
  8
LAYER_1
 10
132.8626
 20
-182.1934
  0
SEQEND
  0
POLYLINE
  8
LAYER_1
 40
0.1058
 41
0.1058
 66
1
 10
0
 20
0
 30
0
  0
VERTEX
  8
LAYER_1
 10
130.3861
 20
-181.6855
  0
VERTEX
  8
LAYER_1
 10
129.8019
 20
-181.5711
  0
VERTEX
  8
LAYER_1
 10
129.205
 20
-181.533
  0
VERTEX
  8
LAYER_1
 10
129.1923
 20
-181.533
  0
SEQEND
  0
POLYLINE
  8
LAYER_1
 40
0.1058
 41
0.1058
 66
1
 10
0
 20
0
 30
0
  0
VERTEX
  8
LAYER_1
 10
131.6688
 20
-181.6855
  0
VERTEX
  8
LAYER_1
 10
131.0846
 20
-181.5711
  0
VERTEX
  8
LAYER_1
 10
130.475
 20
-181.533
  0
VERTEX
  8
LAYER_1
 10
129.8781
 20
-181.5711
  0
VERTEX
  8
LAYER_1
 10
129.8273
 20
-181.5711
  0
SEQEND
  0
POLYLINE
  8
LAYER_1
 40
0.1058
 41
0.1058
 66
1
 10
0
 20
0
 30
0
  0
VERTEX
  8
LAYER_1
 10
132.8626
 20
-181.6855
  0
VERTEX
  8
LAYER_1
 10
132.2784
 20
-181.5711
  0
VERTEX
  8
LAYER_1
 10
131.6815
 20
-181.533
  0
VERTEX
  8
LAYER_1
 10
131.0846
 20
-181.5711
  0
VERTEX
  8
LAYER_1
 10
131.0719
 20
-181.5711
  0
SEQEND
  0
POLYLINE
  8
LAYER_1
 40
0.1058
 41
0.1058
 66
1
 10
0
 20
0
 30
0
  0
VERTEX
  8
LAYER_1
 10
132.8626
 20
-181.5331
  0
VERTEX
  8
LAYER_1
 10
132.2657
 20
-181.5712
  0
SEQEND
  0
POLYLINE
  8
LAYER_1
 40
0.1058
 41
0.1058
 66
1
 10
0
 20
0
 30
0
  0
VERTEX
  8
LAYER_1
 10
132.634
 20
-193.687
  0
VERTEX
  8
LAYER_1
 10
129.1923
 20
-193.687
  0
SEQEND
  0
POLYLINE
  8
LAYER_1
 40
0.1058
 41
0.1058
 66
1
 10
0
 20
0
 30
0
  0
VERTEX
  8
LAYER_1
 10
132.634
 20
-193.687
  0
VERTEX
  8
LAYER_1
 10
132.8372
 20
-193.1155
  0
VERTEX
  8
LAYER_1
 10
132.9642
 20
-192.5312
  0
VERTEX
  8
LAYER_1
 10
133.015
 20
-191.9343
  0
VERTEX
  8
LAYER_1
 10
132.9769
 20
-191.3374
  0
VERTEX
  8
LAYER_1
 10
132.8753
 20
-190.7532
  0
VERTEX
  8
LAYER_1
 10
132.6848
 20
-190.1817
  0
VERTEX
  8
LAYER_1
 10
132.634
 20
-190.0801
  0
VERTEX
  8
LAYER_1
 10
129.1923
 20
-190.0801
  0
SEQEND
  0
POLYLINE
  8
LAYER_1
 40
0.1058
 41
0.1058
 66
1
 10
0
 20
0
 30
0
  0
VERTEX
  8
LAYER_1
 10
132.1768
 20
-190.0802
  0
VERTEX
  8
LAYER_1
 10
132.0879
 20
-190.0929
  0
VERTEX
  8
LAYER_1
 10
132.0117
 20
-190.131
  0
VERTEX
  8
LAYER_1
 10
131.9228
 20
-190.1691
  0
VERTEX
  8
LAYER_1
 10
131.8466
 20
-190.2326
  0
VERTEX
  8
LAYER_1
 10
131.7577
 20
-190.3214
  0
VERTEX
  8
LAYER_1
 10
131.6942
 20
-190.4231
  0
VERTEX
  8
LAYER_1
 10
131.6307
 20
-190.5501
  0
VERTEX
  8
LAYER_1
 10
131.5672
 20
-190.677
  0
VERTEX
  8
LAYER_1
 10
131.5164
 20
-190.8295
  0
VERTEX
  8
LAYER_1
 10
131.4656
 20
-190.9818
  0
VERTEX
  8
LAYER_1
 10
131.4275
 20
-191.147
  0
VERTEX
  8
LAYER_1
 10
131.3894
 20
-191.3247
  0
VERTEX
  8
LAYER_1
 10
131.3767
 20
-191.5153
  0
VERTEX
  8
LAYER_1
 10
131.3513
 20
-191.6931
  0
VERTEX
  8
LAYER_1
 10
131.3513
 20
-191.8835
  0
VERTEX
  8
LAYER_1
 10
131.3513
 20
-192.0741
  0
VERTEX
  8
LAYER_1
 10
131.3767
 20
-192.2518
  0
VERTEX
  8
LAYER_1
 10
131.3894
 20
-192.4424
  0
VERTEX
  8
LAYER_1
 10
131.4275
 20
-192.6202
  0
VERTEX
  8
LAYER_1
 10
131.4656
 20
-192.7853
  0
VERTEX
  8
LAYER_1
 10
131.5164
 20
-192.9377
  0
VERTEX
  8
LAYER_1
 10
131.5672
 20
-193.0901
  0
VERTEX
  8
LAYER_1
 10
131.6307
 20
-193.217
  0
VERTEX
  8
LAYER_1
 10
131.6942
 20
-193.3441
  0
VERTEX
  8
LAYER_1
 10
131.7577
 20
-193.4456
  0
VERTEX
  8
LAYER_1
 10
131.8466
 20
-193.5218
  0
VERTEX
  8
LAYER_1
 10
131.9228
 20
-193.5981
  0
VERTEX
  8
LAYER_1
 10
132.0117
 20
-193.6489
  0
VERTEX
  8
LAYER_1
 10
132.0879
 20
-193.6743
  0
VERTEX
  8
LAYER_1
 10
132.1768
 20
-193.687
  0
VERTEX
  8
LAYER_1
 10
132.2657
 20
-193.6743
  0
VERTEX
  8
LAYER_1
 10
132.3546
 20
-193.6489
  0
VERTEX
  8
LAYER_1
 10
132.4308
 20
-193.5981
  0
VERTEX
  8
LAYER_1
 10
132.507
 20
-193.5218
  0
VERTEX
  8
LAYER_1
 10
132.5959
 20
-193.4456
  0
VERTEX
  8
LAYER_1
 10
132.6594
 20
-193.3441
  0
VERTEX
  8
LAYER_1
 10
132.7229
 20
-193.217
  0
VERTEX
  8
LAYER_1
 10
132.7991
 20
-193.0901
  0
VERTEX
  8
LAYER_1
 10
132.8499
 20
-192.9377
  0
VERTEX
  8
LAYER_1
 10
132.888
 20
-192.7853
  0
VERTEX
  8
LAYER_1
 10
132.9388
 20
-192.6202
  0
VERTEX
  8
LAYER_1
 10
132.9642
 20
-192.4424
  0
VERTEX
  8
LAYER_1
 10
132.9896
 20
-192.2518
  0
VERTEX
  8
LAYER_1
 10
133.0023
 20
-192.0741
  0
VERTEX
  8
LAYER_1
 10
133.0023
 20
-191.8835
  0
VERTEX
  8
LAYER_1
 10
133.0023
 20
-191.6931
  0
SEQEND
  0
POLYLINE
  8
LAYER_1
 40
0.1058
 41
0.1058
 66
1
 10
0
 20
0
 30
0
  0
VERTEX
  8
LAYER_1
 10
133.0023
 20
-191.6931
  0
VERTEX
  8
LAYER_1
 10
132.9896
 20
-191.5153
  0
VERTEX
  8
LAYER_1
 10
132.9642
 20
-191.3247
  0
VERTEX
  8
LAYER_1
 10
132.9388
 20
-191.147
  0
VERTEX
  8
LAYER_1
 10
132.888
 20
-190.9818
  0
VERTEX
  8
LAYER_1
 10
132.8499
 20
-190.8295
  0
VERTEX
  8
LAYER_1
 10
132.7991
 20
-190.677
  0
VERTEX
  8
LAYER_1
 10
132.7229
 20
-190.5501
  0
VERTEX
  8
LAYER_1
 10
132.6594
 20
-190.4231
  0
VERTEX
  8
LAYER_1
 10
132.5959
 20
-190.3214
  0
VERTEX
  8
LAYER_1
 10
132.507
 20
-190.2326
  0
VERTEX
  8
LAYER_1
 10
132.4308
 20
-190.1691
  0
VERTEX
  8
LAYER_1
 10
132.3546
 20
-190.131
  0
VERTEX
  8
LAYER_1
 10
132.2657
 20
-190.0928
  0
VERTEX
  8
LAYER_1
 10
132.1768
 20
-190.0801
  0
SEQEND
  0
POLYLINE
  8
LAYER_1
 40
0.1058
 41
0.1058
 66
1
 10
0
 20
0
 30
0
  0
VERTEX
  8
LAYER_1
 10
132.2657
 20
-190.0802
  0
VERTEX
  8
LAYER_1
 10
132.2657
 20
-184.1493
  0
SEQEND
  0
POLYLINE
  8
LAYER_1
 40
0.1058
 41
0.1058
 66
1
 10
0
 20
0
 30
0
  0
VERTEX
  8
LAYER_1
 10
134.4374
 20
-181.0886
  0
VERTEX
  8
LAYER_1
 10
123.9345
 20
-181.0886
  0
SEQEND
  0
POLYLINE
  8
LAYER_1
 40
0.1058
 41
0.1058
 66
1
 10
0
 20
0
 30
0
  0
VERTEX
  8
LAYER_1
 10
122.8931
 20
-174.9291
  0
VERTEX
  8
LAYER_1
 10
135.4915
 20
-174.9291
  0
SEQEND
  0
POLYLINE
  8
LAYER_1
 40
0.1058
 41
0.1058
 66
1
 10
0
 20
0
 30
0
  0
VERTEX
  8
LAYER_1
 10
135.0343
 20
-176.5801
  0
VERTEX
  8
LAYER_1
 10
135.0343
 20
-177.177
  0
VERTEX
  8
LAYER_1
 10
129.1923
 20
-177.177
  0
SEQEND
  0
POLYLINE
  8
LAYER_1
 40
0.1058
 41
0.1058
 66
1
 10
0
 20
0
 30
0
  0
VERTEX
  8
LAYER_1
 10
135.4915
 20
-176.5801
  0
VERTEX
  8
LAYER_1
 10
129.1923
 20
-176.5801
  0
SEQEND
  0
POLYLINE
  8
LAYER_1
 40
0.1058
 41
0.1058
 66
1
 10
0
 20
0
 30
0
  0
VERTEX
  8
LAYER_1
 10
135.6439
 20
-176.4277
  0
VERTEX
  8
LAYER_1
 10
135.4915
 20
-176.5801
  0
SEQEND
  0
POLYLINE
  8
LAYER_1
 40
0.1058
 41
0.1058
 66
1
 10
0
 20
0
 30
0
  0
VERTEX
  8
LAYER_1
 10
135.6439
 20
-175.0815
  0
VERTEX
  8
LAYER_1
 10
135.6439
 20
-176.4277
  0
SEQEND
  0
POLYLINE
  8
LAYER_1
 40
0.1058
 41
0.1058
 66
1
 10
0
 20
0
 30
0
  0
VERTEX
  8
LAYER_1
 10
135.4915
 20
-174.9291
  0
VERTEX
  8
LAYER_1
 10
135.6439
 20
-175.0815
  0
SEQEND
  0
POLYLINE
  8
LAYER_1
 40
0.1058
 41
0.1058
 66
1
 10
0
 20
0
 30
0
  0
VERTEX
  8
LAYER_1
 10
122.8931
 20
-174.9291
  0
VERTEX
  8
LAYER_1
 10
122.7407
 20
-175.0815
  0
VERTEX
  8
LAYER_1
 10
122.7407
 20
-176.4277
  0
VERTEX
  8
LAYER_1
 10
122.8931
 20
-176.5801
  0
VERTEX
  8
LAYER_1
 10
129.1923
 20
-176.5801
  0
SEQEND
  0
POLYLINE
  8
LAYER_1
 40
0.1058
 41
0.1058
 66
1
 10
0
 20
0
 30
0
  0
VERTEX
  8
LAYER_1
 10
123.3376
 20
-176.5801
  0
VERTEX
  8
LAYER_1
 10
123.3376
 20
-177.177
  0
VERTEX
  8
LAYER_1
 10
129.1923
 20
-177.177
  0
SEQEND
  0
POLYLINE
  8
LAYER_1
 40
0.1058
 41
0.1058
 66
1
 10
0
 20
0
 30
0
  0
VERTEX
  8
LAYER_1
 10
122.8931
 20
-174.9291
  0
VERTEX
  8
LAYER_1
 10
135.4915
 20
-174.9291
  0
SEQEND
  0
POLYLINE
  8
LAYER_1
 40
0.1058
 41
0.1058
 66
1
 10
0
 20
0
 30
0
  0
VERTEX
  8
LAYER_1
 10
123.9345
 20
-127.6216
  0
VERTEX
  8
LAYER_1
 10
123.9345
 20
-174.8402
  0
SEQEND
  0
POLYLINE
  8
LAYER_1
 40
0.1058
 41
0.1058
 66
1
 10
0
 20
0
 30
0
  0
VERTEX
  8
LAYER_1
 10
134.4374
 20
-127.6216
  0
VERTEX
  8
LAYER_1
 10
134.4374
 20
-174.8402
  0
SEQEND
  0
POLYLINE
  8
LAYER_1
 40
0.1058
 41
0.1058
 66
1
 10
0
 20
0
 30
0
  0
VERTEX
  8
LAYER_1
 10
124.0234
 20
-127.5327
  0
VERTEX
  8
LAYER_1
 10
123.9345
 20
-127.6216
  0
SEQEND
  0
POLYLINE
  8
LAYER_1
 40
0.1058
 41
0.1058
 66
1
 10
0
 20
0
 30
0
  0
VERTEX
  8
LAYER_1
 10
134.3485
 20
-127.5327
  0
VERTEX
  8
LAYER_1
 10
134.4374
 20
-127.6216
  0
SEQEND
  0
POLYLINE
  8
LAYER_1
 40
0.1058
 41
0.1058
 66
1
 10
0
 20
0
 30
0
  0
VERTEX
  8
LAYER_1
 10
134.3485
 20
-127.5327
  0
VERTEX
  8
LAYER_1
 10
124.0234
 20
-127.5327
  0
SEQEND
  0
POLYLINE
  8
LAYER_1
 40
0.1058
 41
0.1058
 66
1
 10
0
 20
0
 30
0
  0
VERTEX
  8
LAYER_1
 10
167.1086
 20
-174.7132
  0
VERTEX
  8
LAYER_1
 10
167.0197
 20
-174.8021
  0
SEQEND
  0
POLYLINE
  8
LAYER_1
 40
0.1058
 41
0.1058
 66
1
 10
0
 20
0
 30
0
  0
VERTEX
  8
LAYER_1
 10
156.6057
 20
-174.7132
  0
VERTEX
  8
LAYER_1
 10
156.7073
 20
-174.8021
  0
SEQEND
  0
POLYLINE
  8
LAYER_1
 40
0.1058
 41
0.1058
 66
1
 10
0
 20
0
 30
0
  0
VERTEX
  8
LAYER_1
 10
123.9345
 20
-174.8402
  0
VERTEX
  8
LAYER_1
 10
124.0234
 20
-174.9291
  0
SEQEND
  0
POLYLINE
  8
LAYER_1
 40
0.1058
 41
0.1058
 66
1
 10
0
 20
0
 30
0
  0
VERTEX
  8
LAYER_1
 10
134.4374
 20
-174.8402
  0
VERTEX
  8
LAYER_1
 10
134.3485
 20
-174.9291
  0
SEQEND
  0
POLYLINE
  8
LAYER_1
 40
0.1058
 41
0.1058
 66
1
 10
0
 20
0
 30
0
  0
VERTEX
  8
LAYER_1
 10
134.7422
 20
-87.8198
  0
VERTEX
  8
LAYER_1
 10
134.7422
 20
-90.2201
  0
SEQEND
  0
POLYLINE
  8
LAYER_1
 40
0.1058
 41
0.1058
 66
1
 10
0
 20
0
 30
0
  0
VERTEX
  8
LAYER_1
 10
134.4374
 20
-94.6905
  0
VERTEX
  8
LAYER_1
 10
123.9345
 20
-94.6905
  0
SEQEND
  0
POLYLINE
  8
LAYER_1
 40
0.1058
 41
0.1058
 66
1
 10
0
 20
0
 30
0
  0
VERTEX
  8
LAYER_1
 10
123.9345
 20
-127.4438
  0
VERTEX
  8
LAYER_1
 10
134.4374
 20
-127.4438
  0
SEQEND
  0
POLYLINE
  8
LAYER_1
 40
0.1058
 41
0.1058
 66
1
 10
0
 20
0
 30
0
  0
VERTEX
  8
LAYER_1
 10
156.3136
 20
-87.6801
  0
VERTEX
  8
LAYER_1
 10
156.3136
 20
-90.0804
  0
SEQEND
  0
POLYLINE
  8
LAYER_1
 40
0.1058
 41
0.1058
 66
1
 10
0
 20
0
 30
0
  0
VERTEX
  8
LAYER_1
 10
156.6057
 20
-94.5508
  0
VERTEX
  8
LAYER_1
 10
167.1086
 20
-94.5508
  0
SEQEND
  0
POLYLINE
  8
LAYER_1
 40
0.1058
 41
0.1058
 66
1
 10
0
 20
0
 30
0
  0
VERTEX
  8
LAYER_1
 10
167.1086
 20
-127.3168
  0
VERTEX
  8
LAYER_1
 10
156.6057
 20
-127.3168
  0
SEQEND
  0
POLYLINE
  8
LAYER_1
 40
0.1058
 41
0.1058
 66
1
 10
0
 20
0
 30
0
  0
VERTEX
  8
LAYER_1
 10
106.3958
 20
-87.8198
  0
VERTEX
  8
LAYER_1
 10
106.3958
 20
-90.2201
  0
SEQEND
  0
POLYLINE
  8
LAYER_1
 40
0.1058
 41
0.1058
 66
1
 10
0
 20
0
 30
0
  0
VERTEX
  8
LAYER_1
 10
109.52
 20
-81.9651
  0
VERTEX
  8
LAYER_1
 10
109.8756
 20
-82.1048
  0
SEQEND
  0
POLYLINE
  8
LAYER_1
 40
0.1058
 41
0.1058
 66
1
 10
0
 20
0
 30
0
  0
VERTEX
  8
LAYER_1
 10
110.3201
 20
-82.2826
  0
VERTEX
  8
LAYER_1
 10
110.9932
 20
-82.5493
  0
SEQEND
  0
POLYLINE
  8
LAYER_1
 40
0.1058
 41
0.1058
 66
1
 10
0
 20
0
 30
0
  0
VERTEX
  8
LAYER_1
 10
111.4377
 20
-82.7398
  0
VERTEX
  8
LAYER_1
 10
112.0981
 20
-83.0065
  0
SEQEND
  0
POLYLINE
  8
LAYER_1
 40
0.1058
 41
0.1058
 66
1
 10
0
 20
0
 30
0
  0
VERTEX
  8
LAYER_1
 10
112.5553
 20
-83.1843
  0
VERTEX
  8
LAYER_1
 10
113.2157
 20
-83.451
  0
SEQEND
  0
POLYLINE
  8
LAYER_1
 40
0.1058
 41
0.1058
 66
1
 10
0
 20
0
 30
0
  0
VERTEX
  8
LAYER_1
 10
113.6602
 20
-83.6288
  0
VERTEX
  8
LAYER_1
 10
114.3333
 20
-83.9082
  0
SEQEND
  0
POLYLINE
  8
LAYER_1
 40
0.1058
 41
0.1058
 66
1
 10
0
 20
0
 30
0
  0
VERTEX
  8
LAYER_1
 10
114.7778
 20
-84.086
  0
VERTEX
  8
LAYER_1
 10
115.4382
 20
-84.3527
  0
SEQEND
  0
POLYLINE
  8
LAYER_1
 40
0.1058
 41
0.1058
 66
1
 10
0
 20
0
 30
0
  0
VERTEX
  8
LAYER_1
 10
115.8827
 20
-84.5305
  0
VERTEX
  8
LAYER_1
 10
116.5558
 20
-84.8099
  0
SEQEND
  0
POLYLINE
  8
LAYER_1
 40
0.1058
 41
0.1058
 66
1
 10
0
 20
0
 30
0
  0
VERTEX
  8
LAYER_1
 10
117.0003
 20
-84.9877
  0
VERTEX
  8
LAYER_1
 10
117.6734
 20
-85.2544
  0
SEQEND
  0
POLYLINE
  8
LAYER_1
 40
0.1058
 41
0.1058
 66
1
 10
0
 20
0
 30
0
  0
VERTEX
  8
LAYER_1
 10
118.1179
 20
-85.4322
  0
VERTEX
  8
LAYER_1
 10
118.7783
 20
-85.6989
  0
SEQEND
  0
POLYLINE
  8
LAYER_1
 40
0.1058
 41
0.1058
 66
1
 10
0
 20
0
 30
0
  0
VERTEX
  8
LAYER_1
 10
119.2228
 20
-85.8894
  0
VERTEX
  8
LAYER_1
 10
119.8832
 20
-86.1561
  0
SEQEND
  0
POLYLINE
  8
LAYER_1
 40
0.1058
 41
0.1058
 66
1
 10
0
 20
0
 30
0
  0
VERTEX
  8
LAYER_1
 10
120.3404
 20
-86.3339
  0
VERTEX
  8
LAYER_1
 10
121.0008
 20
-86.6006
  0
SEQEND
  0
POLYLINE
  8
LAYER_1
 40
0.1058
 41
0.1058
 66
1
 10
0
 20
0
 30
0
  0
VERTEX
  8
LAYER_1
 10
121.4453
 20
-86.7784
  0
VERTEX
  8
LAYER_1
 10
122.1184
 20
-87.0578
  0
SEQEND
  0
POLYLINE
  8
LAYER_1
 40
0.1058
 41
0.1058
 66
1
 10
0
 20
0
 30
0
  0
VERTEX
  8
LAYER_1
 10
122.5629
 20
-87.2356
  0
VERTEX
  8
LAYER_1
 10
122.9312
 20
-87.3753
  0
SEQEND
  0
POLYLINE
  8
LAYER_1
 40
0.1058
 41
0.1058
 66
1
 10
0
 20
0
 30
0
  0
VERTEX
  8
LAYER_1
 10
110.409
 20
-79.7299
  0
VERTEX
  8
LAYER_1
 10
110.6376
 20
-79.8188
  0
SEQEND
  0
POLYLINE
  8
LAYER_1
 40
0.1058
 41
0.1058
 66
1
 10
0
 20
0
 30
0
  0
VERTEX
  8
LAYER_1
 10
111.0694
 20
-80.0093
  0
VERTEX
  8
LAYER_1
 10
111.7425
 20
-80.276
  0
SEQEND
  0
POLYLINE
  8
LAYER_1
 40
0.1058
 41
0.1058
 66
1
 10
0
 20
0
 30
0
  0
VERTEX
  8
LAYER_1
 10
112.187
 20
-80.4538
  0
VERTEX
  8
LAYER_1
 10
112.8601
 20
-80.7205
  0
SEQEND
  0
POLYLINE
  8
LAYER_1
 40
0.1058
 41
0.1058
 66
1
 10
0
 20
0
 30
0
  0
VERTEX
  8
LAYER_1
 10
113.3046
 20
-80.911
  0
VERTEX
  8
LAYER_1
 10
113.9777
 20
-81.1777
  0
SEQEND
  0
POLYLINE
  8
LAYER_1
 40
0.1058
 41
0.1058
 66
1
 10
0
 20
0
 30
0
  0
VERTEX
  8
LAYER_1
 10
114.4222
 20
-81.3555
  0
VERTEX
  8
LAYER_1
 10
115.0826
 20
-81.6222
  0
SEQEND
  0
POLYLINE
  8
LAYER_1
 40
0.1058
 41
0.1058
 66
1
 10
0
 20
0
 30
0
  0
VERTEX
  8
LAYER_1
 10
115.5271
 20
-81.8
  0
VERTEX
  8
LAYER_1
 10
116.2002
 20
-82.0794
  0
SEQEND
  0
POLYLINE
  8
LAYER_1
 40
0.1058
 41
0.1058
 66
1
 10
0
 20
0
 30
0
  0
VERTEX
  8
LAYER_1
 10
116.6447
 20
-82.2572
  0
VERTEX
  8
LAYER_1
 10
117.3051
 20
-82.5239
  0
SEQEND
  0
POLYLINE
  8
LAYER_1
 40
0.1058
 41
0.1058
 66
1
 10
0
 20
0
 30
0
  0
VERTEX
  8
LAYER_1
 10
117.7496
 20
-82.7017
  0
VERTEX
  8
LAYER_1
 10
118.4227
 20
-82.9684
  0
SEQEND
  0
POLYLINE
  8
LAYER_1
 40
0.1058
 41
0.1058
 66
1
 10
0
 20
0
 30
0
  0
VERTEX
  8
LAYER_1
 10
118.8672
 20
-83.1462
  0
VERTEX
  8
LAYER_1
 10
119.5403
 20
-83.4129
  0
SEQEND
  0
POLYLINE
  8
LAYER_1
 40
0.1058
 41
0.1058
 66
1
 10
0
 20
0
 30
0
  0
VERTEX
  8
LAYER_1
 10
119.9848
 20
-83.6034
  0
VERTEX
  8
LAYER_1
 10
120.6452
 20
-83.8701
  0
SEQEND
  0
POLYLINE
  8
LAYER_1
 40
0.1058
 41
0.1058
 66
1
 10
0
 20
0
 30
0
  0
VERTEX
  8
LAYER_1
 10
121.0897
 20
-84.0479
  0
VERTEX
  8
LAYER_1
 10
121.7628
 20
-84.3146
  0
SEQEND
  0
POLYLINE
  8
LAYER_1
 40
0.1058
 41
0.1058
 66
1
 10
0
 20
0
 30
0
  0
VERTEX
  8
LAYER_1
 10
122.2073
 20
-84.4924
  0
VERTEX
  8
LAYER_1
 10
122.8677
 20
-84.7718
  0
SEQEND
  0
POLYLINE
  8
LAYER_1
 40
0.1058
 41
0.1058
 66
1
 10
0
 20
0
 30
0
  0
VERTEX
  8
LAYER_1
 10
123.3122
 20
-84.9496
  0
VERTEX
  8
LAYER_1
 10
123.9853
 20
-85.2163
  0
SEQEND
  0
POLYLINE
  8
LAYER_1
 40
0.1058
 41
0.1058
 66
1
 10
0
 20
0
 30
0
  0
VERTEX
  8
LAYER_1
 10
124.4298
 20
-85.3941
  0
VERTEX
  8
LAYER_1
 10
125.1029
 20
-85.6735
  0
SEQEND
  0
POLYLINE
  8
LAYER_1
 40
0.1058
 41
0.1058
 66
1
 10
0
 20
0
 30
0
  0
VERTEX
  8
LAYER_1
 10
125.5474
 20
-85.8513
  0
VERTEX
  8
LAYER_1
 10
125.7633
 20
-85.9402
  0
SEQEND
  0
POLYLINE
  8
LAYER_1
 40
0.1058
 41
0.1058
 66
1
 10
0
 20
0
 30
0
  0
VERTEX
  8
LAYER_1
 10
109.4311
 20
-81.7619
  0
VERTEX
  8
LAYER_1
 10
109.5073
 20
-81.5714
  0
SEQEND
  0
POLYLINE
  8
LAYER_1
 40
0.1058
 41
0.1058
 66
1
 10
0
 20
0
 30
0
  0
VERTEX
  8
LAYER_1
 10
109.6851
 20
-81.1269
  0
VERTEX
  8
LAYER_1
 10
109.9645
 20
-80.4538
  0
SEQEND
  0
POLYLINE
  8
LAYER_1
 40
0.1058
 41
0.1058
 66
1
 10
0
 20
0
 30
0
  0
VERTEX
  8
LAYER_1
 10
110.1423
 20
-80.0093
  0
VERTEX
  8
LAYER_1
 10
110.2185
 20
-79.8188
  0
SEQEND
  0
POLYLINE
  8
LAYER_1
 40
0.1058
 41
0.1058
 66
1
 10
0
 20
0
 30
0
  0
VERTEX
  8
LAYER_1
 10
110.409
 20
-79.7299
  0
VERTEX
  8
LAYER_1
 10
110.2185
 20
-79.8188
  0
SEQEND
  0
POLYLINE
  8
LAYER_1
 40
0.1058
 41
0.1058
 66
1
 10
0
 20
0
 30
0
  0
VERTEX
  8
LAYER_1
 10
109.4311
 20
-81.7619
  0
VERTEX
  8
LAYER_1
 10
109.52
 20
-81.9651
  0
SEQEND
  0
POLYLINE
  8
LAYER_1
 40
0.1058
 41
0.1058
 66
1
 10
0
 20
0
 30
0
  0
VERTEX
  8
LAYER_1
 10
110.409
 20
-79.7299
  0
VERTEX
  8
LAYER_1
 10
110.282
 20
-80.0728
  0
SEQEND
  0
POLYLINE
  8
LAYER_1
 40
0.1058
 41
0.1058
 66
1
 10
0
 20
0
 30
0
  0
VERTEX
  8
LAYER_1
 10
110.0915
 20
-80.5173
  0
VERTEX
  8
LAYER_1
 10
109.8248
 20
-81.1777
  0
SEQEND
  0
POLYLINE
  8
LAYER_1
 40
0.1058
 41
0.1058
 66
1
 10
0
 20
0
 30
0
  0
VERTEX
  8
LAYER_1
 10
109.647
 20
-81.6222
  0
VERTEX
  8
LAYER_1
 10
109.52
 20
-81.9651
  0
SEQEND
  0
POLYLINE
  8
LAYER_1
 40
0.1058
 41
0.1058
 66
1
 10
0
 20
0
 30
0
  0
VERTEX
  8
LAYER_1
 10
136.5837
 20
-89.0136
  0
VERTEX
  8
LAYER_1
 10
136.317
 20
-88.912
  0
SEQEND
  0
POLYLINE
  8
LAYER_1
 40
0.1058
 41
0.1058
 66
1
 10
0
 20
0
 30
0
  0
VERTEX
  8
LAYER_1
 10
135.8852
 20
-88.7342
  0
VERTEX
  8
LAYER_1
 10
135.6185
 20
-88.6199
  0
SEQEND
  0
POLYLINE
  8
LAYER_1
 40
0.1058
 41
0.1058
 66
1
 10
0
 20
0
 30
0
  0
VERTEX
  8
LAYER_1
 10
134.0437
 20
-94.2714
  0
VERTEX
  8
LAYER_1
 10
134.1707
 20
-94.2714
  0
SEQEND
  0
POLYLINE
  8
LAYER_1
 40
0.1058
 41
0.1058
 66
1
 10
0
 20
0
 30
0
  0
VERTEX
  8
LAYER_1
 10
134.6533
 20
-94.2714
  0
VERTEX
  8
LAYER_1
 10
134.793
 20
-94.2714
  0
SEQEND
  0
POLYLINE
  8
LAYER_1
 40
0.1058
 41
0.1058
 66
1
 10
0
 20
0
 30
0
  0
VERTEX
  8
LAYER_1
 10
136.7488
 20
-89.4073
  0
VERTEX
  8
LAYER_1
 10
136.7742
 20
-89.3565
  0
VERTEX
  8
LAYER_1
 10
136.7742
 20
-89.3057
  0
VERTEX
  8
LAYER_1
 10
136.7742
 20
-89.2549
  0
VERTEX
  8
LAYER_1
 10
136.7615
 20
-89.2041
  0
VERTEX
  8
LAYER_1
 10
136.7488
 20
-89.1533
  0
VERTEX
  8
LAYER_1
 10
136.7107
 20
-89.1152
  0
VERTEX
  8
LAYER_1
 10
136.6726
 20
-89.0644
  0
VERTEX
  8
LAYER_1
 10
136.6599
 20
-89.0644
  0
SEQEND
  0
POLYLINE
  8
LAYER_1
 40
0.1058
 41
0.1058
 66
1
 10
0
 20
0
 30
0
  0
VERTEX
  8
LAYER_1
 10
136.5456
 20
-91.5917
  0
VERTEX
  8
LAYER_1
 10
136.6599
 20
-91.1853
  0
VERTEX
  8
LAYER_1
 10
136.6853
 20
-91.0329
  0
SEQEND
  0
POLYLINE
  8
LAYER_1
 40
0.1058
 41
0.1058
 66
1
 10
0
 20
0
 30
0
  0
VERTEX
  8
LAYER_1
 10
136.7107
 20
-90.563
  0
VERTEX
  8
LAYER_1
 10
136.698
 20
-90.3598
  0
VERTEX
  8
LAYER_1
 10
136.4186
 20
-90.2455
  0
SEQEND
  0
POLYLINE
  8
LAYER_1
 40
0.1058
 41
0.1058
 66
1
 10
0
 20
0
 30
0
  0
VERTEX
  8
LAYER_1
 10
136.3297
 20
-90.4487
  0
VERTEX
  8
LAYER_1
 10
136.4186
 20
-90.2455
  0
SEQEND
  0
POLYLINE
  8
LAYER_1
 40
0.1058
 41
0.1058
 66
1
 10
0
 20
0
 30
0
  0
VERTEX
  8
LAYER_1
 10
135.7963
 20
-92.5823
  0
VERTEX
  8
LAYER_1
 10
136.1011
 20
-92.2902
  0
VERTEX
  8
LAYER_1
 10
136.2027
 20
-92.1759
  0
SEQEND
  0
POLYLINE
  8
LAYER_1
 40
0.1058
 41
0.1058
 66
1
 10
0
 20
0
 30
0
  0
VERTEX
  8
LAYER_1
 10
136.444
 20
-91.7695
  0
VERTEX
  8
LAYER_1
 10
136.5456
 20
-91.5917
  0
SEQEND
  0
POLYLINE
  8
LAYER_1
 40
0.1058
 41
0.1058
 66
1
 10
0
 20
0
 30
0
  0
VERTEX
  8
LAYER_1
 10
135.7963
 20
-92.5823
  0
VERTEX
  8
LAYER_1
 10
135.5169
 20
-92.468
  0
SEQEND
  0
POLYLINE
  8
LAYER_1
 40
0.1058
 41
0.1058
 66
1
 10
0
 20
0
 30
0
  0
VERTEX
  8
LAYER_1
 10
135.6058
 20
-92.2521
  0
VERTEX
  8
LAYER_1
 10
135.5169
 20
-92.468
  0
SEQEND
  0
POLYLINE
  8
LAYER_1
 40
0.1058
 41
0.1058
 66
1
 10
0
 20
0
 30
0
  0
VERTEX
  8
LAYER_1
 10
134.793
 20
-94.2714
  0
VERTEX
  8
LAYER_1
 10
134.8438
 20
-94.1444
  0
SEQEND
  0
POLYLINE
  8
LAYER_1
 40
0.1058
 41
0.1058
 66
1
 10
0
 20
0
 30
0
  0
VERTEX
  8
LAYER_1
 10
135.0216
 20
-93.6999
  0
VERTEX
  8
LAYER_1
 10
135.2883
 20
-93.0268
  0
SEQEND
  0
POLYLINE
  8
LAYER_1
 40
0.1058
 41
0.1058
 66
1
 10
0
 20
0
 30
0
  0
VERTEX
  8
LAYER_1
 10
135.4661
 20
-92.5823
  0
VERTEX
  8
LAYER_1
 10
135.7455
 20
-91.9219
  0
SEQEND
  0
POLYLINE
  8
LAYER_1
 40
0.1058
 41
0.1058
 66
1
 10
0
 20
0
 30
0
  0
VERTEX
  8
LAYER_1
 10
135.9233
 20
-91.4774
  0
VERTEX
  8
LAYER_1
 10
135.9741
 20
-91.3504
  0
VERTEX
  8
LAYER_1
 10
136.0503
 20
-91.1599
  0
SEQEND
  0
POLYLINE
  8
LAYER_1
 40
0.1058
 41
0.1058
 66
1
 10
0
 20
0
 30
0
  0
VERTEX
  8
LAYER_1
 10
136.2281
 20
-90.7154
  0
VERTEX
  8
LAYER_1
 10
136.4948
 20
-90.0423
  0
SEQEND
  0
POLYLINE
  8
LAYER_1
 40
0.1058
 41
0.1058
 66
1
 10
0
 20
0
 30
0
  0
VERTEX
  8
LAYER_1
 10
136.6726
 20
-89.6105
  0
VERTEX
  8
LAYER_1
 10
136.7488
 20
-89.4073
  0
SEQEND
  0
POLYLINE
  8
LAYER_1
 40
0.1058
 41
0.1058
 66
1
 10
0
 20
0
 30
0
  0
VERTEX
  8
LAYER_1
 10
136.698
 20
-90.3598
  0
VERTEX
  8
LAYER_1
 10
136.5583
 20
-90.69
  0
SEQEND
  0
POLYLINE
  8
LAYER_1
 40
0.1058
 41
0.1058
 66
1
 10
0
 20
0
 30
0
  0
VERTEX
  8
LAYER_1
 10
136.3805
 20
-91.1345
  0
VERTEX
  8
LAYER_1
 10
136.1138
 20
-91.7949
  0
SEQEND
  0
POLYLINE
  8
LAYER_1
 40
0.1058
 41
0.1058
 66
1
 10
0
 20
0
 30
0
  0
VERTEX
  8
LAYER_1
 10
135.936
 20
-92.2394
  0
VERTEX
  8
LAYER_1
 10
135.7963
 20
-92.5823
  0
SEQEND
  0
POLYLINE
  8
LAYER_1
 40
0.1058
 41
0.1058
 66
1
 10
0
 20
0
 30
0
  0
VERTEX
  8
LAYER_1
 10
166.8927
 20
-103.5551
  0
VERTEX
  8
LAYER_1
 10
166.6006
 20
-104.0758
  0
VERTEX
  8
LAYER_1
 10
166.372
 20
-104.6346
  0
VERTEX
  8
LAYER_1
 10
166.1942
 20
-105.2061
  0
VERTEX
  8
LAYER_1
 10
166.0926
 20
-105.803
  0
VERTEX
  8
LAYER_1
 10
166.0672
 20
-106.3999
  0
VERTEX
  8
LAYER_1
 10
166.0926
 20
-106.9968
  0
VERTEX
  8
LAYER_1
 10
166.1942
 20
-107.581
  0
VERTEX
  8
LAYER_1
 10
166.3593
 20
-108.1652
  0
VERTEX
  8
LAYER_1
 10
166.6006
 20
-108.7113
  0
VERTEX
  8
LAYER_1
 10
166.8673
 20
-109.2066
  0
SEQEND
  0
POLYLINE
  8
LAYER_1
 40
0.1058
 41
0.1058
 66
1
 10
0
 20
0
 30
0
  0
VERTEX
  8
LAYER_1
 10
197.6521
 20
-107.8985
  0
VERTEX
  8
LAYER_1
 10
197.2076
 20
-107.9366
  0
VERTEX
  8
LAYER_1
 10
196.7885
 20
-108.0509
  0
VERTEX
  8
LAYER_1
 10
196.3948
 20
-108.2287
  0
VERTEX
  8
LAYER_1
 10
196.0392
 20
-108.4827
  0
VERTEX
  8
LAYER_1
 10
195.7217
 20
-108.7875
  0
VERTEX
  8
LAYER_1
 10
195.4677
 20
-109.1558
  0
VERTEX
  8
LAYER_1
 10
195.4296
 20
-109.232
  0
SEQEND
  0
POLYLINE
  8
LAYER_1
 40
0.1058
 41
0.1058
 66
1
 10
0
 20
0
 30
0
  0
VERTEX
  8
LAYER_1
 10
200.9033
 20
-109.232
  0
VERTEX
  8
LAYER_1
 10
200.4588
 20
-108.8383
  0
VERTEX
  8
LAYER_1
 10
199.9508
 20
-108.5081
  0
VERTEX
  8
LAYER_1
 10
199.4174
 20
-108.2414
  0
VERTEX
  8
LAYER_1
 10
198.8459
 20
-108.0509
  0
VERTEX
  8
LAYER_1
 10
198.2617
 20
-107.9366
  0
VERTEX
  8
LAYER_1
 10
197.6648
 20
-107.8985
  0
VERTEX
  8
LAYER_1
 10
197.6521
 20
-107.8985
  0
SEQEND
  0
POLYLINE
  8
LAYER_1
 40
0.1058
 41
0.1058
 66
1
 10
0
 20
0
 30
0
  0
VERTEX
  8
LAYER_1
 10
124.1504
 20
-109.3844
  0
VERTEX
  8
LAYER_1
 10
124.4552
 20
-108.8637
  0
VERTEX
  8
LAYER_1
 10
124.6838
 20
-108.3049
  0
VERTEX
  8
LAYER_1
 10
124.8489
 20
-107.7334
  0
VERTEX
  8
LAYER_1
 10
124.9505
 20
-107.1365
  0
VERTEX
  8
LAYER_1
 10
124.9886
 20
-106.5396
  0
VERTEX
  8
LAYER_1
 10
124.9632
 20
-105.9427
  0
VERTEX
  8
LAYER_1
 10
124.8616
 20
-105.3585
  0
VERTEX
  8
LAYER_1
 10
124.6838
 20
-104.7743
  0
VERTEX
  8
LAYER_1
 10
124.4552
 20
-104.2282
  0
VERTEX
  8
LAYER_1
 10
124.1758
 20
-103.7329
  0
SEQEND
  0
POLYLINE
  8
LAYER_1
 40
0.1058
 41
0.1058
 66
1
 10
0
 20
0
 30
0
  0
VERTEX
  8
LAYER_1
 10
95.6262
 20
-109.3717
  0
VERTEX
  8
LAYER_1
 10
95.3849
 20
-109.0034
  0
VERTEX
  8
LAYER_1
 10
95.0928
 20
-108.6732
  0
VERTEX
  8
LAYER_1
 10
94.7372
 20
-108.4192
  0
VERTEX
  8
LAYER_1
 10
94.3435
 20
-108.216
  0
VERTEX
  8
LAYER_1
 10
93.9371
 20
-108.089
  0
VERTEX
  8
LAYER_1
 10
93.4926
 20
-108.0255
  0
VERTEX
  8
LAYER_1
 10
93.4037
 20
-108.0255
  0
VERTEX
  8
LAYER_1
 10
92.7941
 20
-108.0636
  0
VERTEX
  8
LAYER_1
 10
92.2099
 20
-108.1779
  0
VERTEX
  8
LAYER_1
 10
91.6384
 20
-108.3684
  0
VERTEX
  8
LAYER_1
 10
91.105
 20
-108.6351
  0
VERTEX
  8
LAYER_1
 10
90.6097
 20
-108.9653
  0
VERTEX
  8
LAYER_1
 10
90.1525
 20
-109.359
  0
VERTEX
  8
LAYER_1
 10
90.0255
 20
-109.486
  0
SEQEND
  0
POLYLINE
  8
LAYER_1
 40
0.1058
 41
0.1058
 66
1
 10
0
 20
0
 30
0
  0
VERTEX
  8
LAYER_1
 10
159.0822
 20
-189.9532
  0
VERTEX
  8
LAYER_1
 10
159.0822
 20
-184.0096
  0
SEQEND
  0
POLYLINE
  8
LAYER_1
 40
0.1058
 41
0.1058
 66
1
 10
0
 20
0
 30
0
  0
VERTEX
  8
LAYER_1
 10
159.0822
 20
-180.9489
  0
VERTEX
  8
LAYER_1
 10
159.0822
 20
-177.05
  0
SEQEND
  0
POLYLINE
  8
LAYER_1
 40
0.1058
 41
0.1058
 66
1
 10
0
 20
0
 30
0
  0
VERTEX
  8
LAYER_1
 10
164.6321
 20
-189.9532
  0
VERTEX
  8
LAYER_1
 10
164.6321
 20
-184.0096
  0
SEQEND
  0
POLYLINE
  8
LAYER_1
 40
0.1058
 41
0.1058
 66
1
 10
0
 20
0
 30
0
  0
VERTEX
  8
LAYER_1
 10
164.6321
 20
-180.9489
  0
VERTEX
  8
LAYER_1
 10
164.6321
 20
-177.05
  0
SEQEND
  0
POLYLINE
  8
LAYER_1
 40
0.1058
 41
0.1058
 66
1
 10
0
 20
0
 30
0
  0
VERTEX
  8
LAYER_1
 10
155.4119
 20
-174.9545
  0
VERTEX
  8
LAYER_1
 10
168.3151
 20
-174.9545
  0
SEQEND
  0
POLYLINE
  8
LAYER_1
 40
0.1058
 41
0.1058
 66
1
 10
0
 20
0
 30
0
  0
VERTEX
  8
LAYER_1
 10
168.3151
 20
-176.3007
  0
VERTEX
  8
LAYER_1
 10
155.4119
 20
-176.3007
  0
SEQEND
  0
POLYLINE
  8
LAYER_1
 40
0.1058
 41
0.1058
 66
1
 10
0
 20
0
 30
0
  0
VERTEX
  8
LAYER_1
 10
156.3136
 20
-176.4531
  0
VERTEX
  8
LAYER_1
 10
156.0088
 20
-176.7452
  0
SEQEND
  0
POLYLINE
  8
LAYER_1
 40
0.1058
 41
0.1058
 66
1
 10
0
 20
0
 30
0
  0
VERTEX
  8
LAYER_1
 10
156.5549
 20
-177.05
  0
VERTEX
  8
LAYER_1
 10
157.1518
 20
-176.4531
  0
SEQEND
  0
POLYLINE
  8
LAYER_1
 40
0.1058
 41
0.1058
 66
1
 10
0
 20
0
 30
0
  0
VERTEX
  8
LAYER_1
 10
157.4058
 20
-177.05
  0
VERTEX
  8
LAYER_1
 10
158.0027
 20
-176.4531
  0
SEQEND
  0
POLYLINE
  8
LAYER_1
 40
0.1058
 41
0.1058
 66
1
 10
0
 20
0
 30
0
  0
VERTEX
  8
LAYER_1
 10
158.2567
 20
-177.05
  0
VERTEX
  8
LAYER_1
 10
158.8536
 20
-176.4531
  0
SEQEND
  0
POLYLINE
  8
LAYER_1
 40
0.1058
 41
0.1058
 66
1
 10
0
 20
0
 30
0
  0
VERTEX
  8
LAYER_1
 10
159.1076
 20
-177.05
  0
VERTEX
  8
LAYER_1
 10
159.7045
 20
-176.4531
  0
SEQEND
  0
POLYLINE
  8
LAYER_1
 40
0.1058
 41
0.1058
 66
1
 10
0
 20
0
 30
0
  0
VERTEX
  8
LAYER_1
 10
159.9585
 20
-177.05
  0
VERTEX
  8
LAYER_1
 10
160.5554
 20
-176.4531
  0
SEQEND
  0
POLYLINE
  8
LAYER_1
 40
0.1058
 41
0.1058
 66
1
 10
0
 20
0
 30
0
  0
VERTEX
  8
LAYER_1
 10
160.7967
 20
-177.05
  0
VERTEX
  8
LAYER_1
 10
161.3936
 20
-176.4531
  0
SEQEND
  0
POLYLINE
  8
LAYER_1
 40
0.1058
 41
0.1058
 66
1
 10
0
 20
0
 30
0
  0
VERTEX
  8
LAYER_1
 10
161.6476
 20
-177.05
  0
VERTEX
  8
LAYER_1
 10
162.2572
 20
-176.4531
  0
SEQEND
  0
POLYLINE
  8
LAYER_1
 40
0.1058
 41
0.1058
 66
1
 10
0
 20
0
 30
0
  0
VERTEX
  8
LAYER_1
 10
162.4985
 20
-177.05
  0
VERTEX
  8
LAYER_1
 10
163.0954
 20
-176.4531
  0
SEQEND
  0
POLYLINE
  8
LAYER_1
 40
0.1058
 41
0.1058
 66
1
 10
0
 20
0
 30
0
  0
VERTEX
  8
LAYER_1
 10
163.3494
 20
-177.05
  0
VERTEX
  8
LAYER_1
 10
163.9463
 20
-176.4531
  0
SEQEND
  0
POLYLINE
  8
LAYER_1
 40
0.1058
 41
0.1058
 66
1
 10
0
 20
0
 30
0
  0
VERTEX
  8
LAYER_1
 10
164.2003
 20
-177.05
  0
VERTEX
  8
LAYER_1
 10
164.7972
 20
-176.4531
  0
SEQEND
  0
POLYLINE
  8
LAYER_1
 40
0.1058
 41
0.1058
 66
1
 10
0
 20
0
 30
0
  0
VERTEX
  8
LAYER_1
 10
165.0385
 20
-177.05
  0
VERTEX
  8
LAYER_1
 10
165.6354
 20
-176.4531
  0
SEQEND
  0
POLYLINE
  8
LAYER_1
 40
0.1058
 41
0.1058
 66
1
 10
0
 20
0
 30
0
  0
VERTEX
  8
LAYER_1
 10
165.8895
 20
-177.05
  0
VERTEX
  8
LAYER_1
 10
166.499
 20
-176.4531
  0
SEQEND
  0
POLYLINE
  8
LAYER_1
 40
0.1058
 41
0.1058
 66
1
 10
0
 20
0
 30
0
  0
VERTEX
  8
LAYER_1
 10
166.7404
 20
-177.05
  0
VERTEX
  8
LAYER_1
 10
167.3372
 20
-176.4531
  0
SEQEND
  0
POLYLINE
  8
LAYER_1
 40
0.1058
 41
0.1058
 66
1
 10
0
 20
0
 30
0
  0
VERTEX
  8
LAYER_1
 10
167.5913
 20
-177.05
  0
VERTEX
  8
LAYER_1
 10
167.7056
 20
-176.9357
  0
SEQEND
  0
POLYLINE
  8
LAYER_1
 40
0.1058
 41
0.1058
 66
1
 10
0
 20
0
 30
0
  0
VERTEX
  8
LAYER_1
 10
156.8344
 20
-180.9489
  0
VERTEX
  8
LAYER_1
 10
156.6058
 20
-181.1775
  0
SEQEND
  0
POLYLINE
  8
LAYER_1
 40
0.1058
 41
0.1058
 66
1
 10
0
 20
0
 30
0
  0
VERTEX
  8
LAYER_1
 10
157.6853
 20
-180.9489
  0
VERTEX
  8
LAYER_1
 10
157.2408
 20
-181.4061
  0
SEQEND
  0
POLYLINE
  8
LAYER_1
 40
0.1058
 41
0.1058
 66
1
 10
0
 20
0
 30
0
  0
VERTEX
  8
LAYER_1
 10
158.5362
 20
-180.9489
  0
VERTEX
  8
LAYER_1
 10
158.079
 20
-181.4061
  0
SEQEND
  0
POLYLINE
  8
LAYER_1
 40
0.1058
 41
0.1058
 66
1
 10
0
 20
0
 30
0
  0
VERTEX
  8
LAYER_1
 10
159.3744
 20
-180.9489
  0
VERTEX
  8
LAYER_1
 10
158.9299
 20
-181.4061
  0
SEQEND
  0
POLYLINE
  8
LAYER_1
 40
0.1058
 41
0.1058
 66
1
 10
0
 20
0
 30
0
  0
VERTEX
  8
LAYER_1
 10
160.2253
 20
-180.9489
  0
VERTEX
  8
LAYER_1
 10
159.7808
 20
-181.4061
  0
SEQEND
  0
POLYLINE
  8
LAYER_1
 40
0.1058
 41
0.1058
 66
1
 10
0
 20
0
 30
0
  0
VERTEX
  8
LAYER_1
 10
161.0762
 20
-180.9489
  0
VERTEX
  8
LAYER_1
 10
160.6317
 20
-181.4061
  0
SEQEND
  0
POLYLINE
  8
LAYER_1
 40
0.1058
 41
0.1058
 66
1
 10
0
 20
0
 30
0
  0
VERTEX
  8
LAYER_1
 10
161.9271
 20
-180.9489
  0
VERTEX
  8
LAYER_1
 10
161.4826
 20
-181.4061
  0
SEQEND
  0
POLYLINE
  8
LAYER_1
 40
0.1058
 41
0.1058
 66
1
 10
0
 20
0
 30
0
  0
VERTEX
  8
LAYER_1
 10
162.778
 20
-180.9489
  0
VERTEX
  8
LAYER_1
 10
162.3208
 20
-181.4061
  0
SEQEND
  0
POLYLINE
  8
LAYER_1
 40
0.1058
 41
0.1058
 66
1
 10
0
 20
0
 30
0
  0
VERTEX
  8
LAYER_1
 10
163.6162
 20
-180.9489
  0
VERTEX
  8
LAYER_1
 10
163.1717
 20
-181.4061
  0
SEQEND
  0
POLYLINE
  8
LAYER_1
 40
0.1058
 41
0.1058
 66
1
 10
0
 20
0
 30
0
  0
VERTEX
  8
LAYER_1
 10
164.4671
 20
-180.9489
  0
VERTEX
  8
LAYER_1
 10
164.0226
 20
-181.4061
  0
SEQEND
  0
POLYLINE
  8
LAYER_1
 40
0.1058
 41
0.1058
 66
1
 10
0
 20
0
 30
0
  0
VERTEX
  8
LAYER_1
 10
165.318
 20
-180.9489
  0
VERTEX
  8
LAYER_1
 10
164.8735
 20
-181.4061
  0
SEQEND
  0
POLYLINE
  8
LAYER_1
 40
0.1058
 41
0.1058
 66
1
 10
0
 20
0
 30
0
  0
VERTEX
  8
LAYER_1
 10
166.1689
 20
-180.9489
  0
VERTEX
  8
LAYER_1
 10
165.7244
 20
-181.4061
  0
SEQEND
  0
POLYLINE
  8
LAYER_1
 40
0.1058
 41
0.1058
 66
1
 10
0
 20
0
 30
0
  0
VERTEX
  8
LAYER_1
 10
167.0198
 20
-180.9489
  0
VERTEX
  8
LAYER_1
 10
166.5626
 20
-181.4061
  0
SEQEND
  0
POLYLINE
  8
LAYER_1
 40
0.1058
 41
0.1058
 66
1
 10
0
 20
0
 30
0
  0
VERTEX
  8
LAYER_1
 10
161.8636
 20
-194.068
  0
VERTEX
  8
LAYER_1
 10
161.8636
 20
-189.877
  0
SEQEND
  0
POLYLINE
  8
LAYER_1
 40
0.1058
 41
0.1058
 66
1
 10
0
 20
0
 30
0
  0
VERTEX
  8
LAYER_1
 10
161.8636
 20
-189.2801
  0
VERTEX
  8
LAYER_1
 10
161.8636
 20
-188.6832
  0
SEQEND
  0
POLYLINE
  8
LAYER_1
 40
0.1058
 41
0.1058
 66
1
 10
0
 20
0
 30
0
  0
VERTEX
  8
LAYER_1
 10
161.8636
 20
-188.0736
  0
VERTEX
  8
LAYER_1
 10
161.8636
 20
-182.6761
  0
SEQEND
  0
POLYLINE
  8
LAYER_1
 40
0.1058
 41
0.1058
 66
1
 10
0
 20
0
 30
0
  0
VERTEX
  8
LAYER_1
 10
161.8636
 20
-182.0792
  0
VERTEX
  8
LAYER_1
 10
161.8636
 20
-181.4823
  0
SEQEND
  0
POLYLINE
  8
LAYER_1
 40
0.1058
 41
0.1058
 66
1
 10
0
 20
0
 30
0
  0
VERTEX
  8
LAYER_1
 10
161.8636
 20
-180.8854
  0
VERTEX
  8
LAYER_1
 10
161.8636
 20
-175.4752
  0
SEQEND
  0
POLYLINE
  8
LAYER_1
 40
0.1058
 41
0.1058
 66
1
 10
0
 20
0
 30
0
  0
VERTEX
  8
LAYER_1
 10
161.8636
 20
-174.8783
  0
VERTEX
  8
LAYER_1
 10
161.8636
 20
-174.2814
  0
SEQEND
  0
POLYLINE
  8
LAYER_1
 40
0.1058
 41
0.1058
 66
1
 10
0
 20
0
 30
0
  0
VERTEX
  8
LAYER_1
 10
161.8636
 20
-173.6845
  0
VERTEX
  8
LAYER_1
 10
161.8636
 20
-168.2743
  0
SEQEND
  0
POLYLINE
  8
LAYER_1
 40
0.1058
 41
0.1058
 66
1
 10
0
 20
0
 30
0
  0
VERTEX
  8
LAYER_1
 10
161.8636
 20
-167.6774
  0
VERTEX
  8
LAYER_1
 10
161.8636
 20
-167.0805
  0
SEQEND
  0
POLYLINE
  8
LAYER_1
 40
0.1058
 41
0.1058
 66
1
 10
0
 20
0
 30
0
  0
VERTEX
  8
LAYER_1
 10
161.8636
 20
-166.4836
  0
VERTEX
  8
LAYER_1
 10
161.8636
 20
-161.0861
  0
SEQEND
  0
POLYLINE
  8
LAYER_1
 40
0.1058
 41
0.1058
 66
1
 10
0
 20
0
 30
0
  0
VERTEX
  8
LAYER_1
 10
161.8636
 20
-160.4765
  0
VERTEX
  8
LAYER_1
 10
161.8636
 20
-159.8796
  0
SEQEND
  0
POLYLINE
  8
LAYER_1
 40
0.1058
 41
0.1058
 66
1
 10
0
 20
0
 30
0
  0
VERTEX
  8
LAYER_1
 10
161.8636
 20
-159.2827
  0
VERTEX
  8
LAYER_1
 10
161.8636
 20
-153.8852
  0
SEQEND
  0
POLYLINE
  8
LAYER_1
 40
0.1058
 41
0.1058
 66
1
 10
0
 20
0
 30
0
  0
VERTEX
  8
LAYER_1
 10
161.8636
 20
-153.2756
  0
VERTEX
  8
LAYER_1
 10
161.8636
 20
-152.6787
  0
SEQEND
  0
POLYLINE
  8
LAYER_1
 40
0.1058
 41
0.1058
 66
1
 10
0
 20
0
 30
0
  0
VERTEX
  8
LAYER_1
 10
161.8636
 20
-152.0818
  0
VERTEX
  8
LAYER_1
 10
161.8636
 20
-146.6843
  0
SEQEND
  0
POLYLINE
  8
LAYER_1
 40
0.1058
 41
0.1058
 66
1
 10
0
 20
0
 30
0
  0
VERTEX
  8
LAYER_1
 10
161.8636
 20
-146.0747
  0
VERTEX
  8
LAYER_1
 10
161.8636
 20
-145.4778
  0
SEQEND
  0
POLYLINE
  8
LAYER_1
 40
0.1058
 41
0.1058
 66
1
 10
0
 20
0
 30
0
  0
VERTEX
  8
LAYER_1
 10
161.8636
 20
-144.8808
  0
VERTEX
  8
LAYER_1
 10
161.8636
 20
-139.4833
  0
SEQEND
  0
POLYLINE
  8
LAYER_1
 40
0.1058
 41
0.1058
 66
1
 10
0
 20
0
 30
0
  0
VERTEX
  8
LAYER_1
 10
161.8636
 20
-138.8864
  0
VERTEX
  8
LAYER_1
 10
161.8636
 20
-138.2768
  0
SEQEND
  0
POLYLINE
  8
LAYER_1
 40
0.1058
 41
0.1058
 66
1
 10
0
 20
0
 30
0
  0
VERTEX
  8
LAYER_1
 10
161.8636
 20
-137.6799
  0
VERTEX
  8
LAYER_1
 10
161.8636
 20
-132.2824
  0
SEQEND
  0
POLYLINE
  8
LAYER_1
 40
0.1058
 41
0.1058
 66
1
 10
0
 20
0
 30
0
  0
VERTEX
  8
LAYER_1
 10
161.8636
 20
-131.6855
  0
VERTEX
  8
LAYER_1
 10
161.8636
 20
-131.0759
  0
SEQEND
  0
POLYLINE
  8
LAYER_1
 40
0.1058
 41
0.1058
 66
1
 10
0
 20
0
 30
0
  0
VERTEX
  8
LAYER_1
 10
161.8636
 20
-130.479
  0
VERTEX
  8
LAYER_1
 10
161.8636
 20
-125.0815
  0
SEQEND
  0
POLYLINE
  8
LAYER_1
 40
0.1058
 41
0.1058
 66
1
 10
0
 20
0
 30
0
  0
VERTEX
  8
LAYER_1
 10
161.8636
 20
-124.4846
  0
VERTEX
  8
LAYER_1
 10
161.8636
 20
-123.875
  0
SEQEND
  0
POLYLINE
  8
LAYER_1
 40
0.1058
 41
0.1058
 66
1
 10
0
 20
0
 30
0
  0
VERTEX
  8
LAYER_1
 10
161.8636
 20
-123.2781
  0
VERTEX
  8
LAYER_1
 10
161.8636
 20
-117.8806
  0
SEQEND
  0
POLYLINE
  8
LAYER_1
 40
0.1058
 41
0.1058
 66
1
 10
0
 20
0
 30
0
  0
VERTEX
  8
LAYER_1
 10
161.8636
 20
-117.2837
  0
VERTEX
  8
LAYER_1
 10
161.8636
 20
-116.6868
  0
SEQEND
  0
POLYLINE
  8
LAYER_1
 40
0.1058
 41
0.1058
 66
1
 10
0
 20
0
 30
0
  0
VERTEX
  8
LAYER_1
 10
161.8636
 20
-116.0772
  0
VERTEX
  8
LAYER_1
 10
161.8636
 20
-110.6797
  0
SEQEND
  0
POLYLINE
  8
LAYER_1
 40
0.1058
 41
0.1058
 66
1
 10
0
 20
0
 30
0
  0
VERTEX
  8
LAYER_1
 10
161.8636
 20
-110.0828
  0
VERTEX
  8
LAYER_1
 10
161.8636
 20
-109.4859
  0
SEQEND
  0
POLYLINE
  8
LAYER_1
 40
0.1058
 41
0.1058
 66
1
 10
0
 20
0
 30
0
  0
VERTEX
  8
LAYER_1
 10
161.8636
 20
-108.8763
  0
VERTEX
  8
LAYER_1
 10
161.8636
 20
-103.4788
  0
SEQEND
  0
POLYLINE
  8
LAYER_1
 40
0.1058
 41
0.1058
 66
1
 10
0
 20
0
 30
0
  0
VERTEX
  8
LAYER_1
 10
161.8636
 20
-102.8819
  0
VERTEX
  8
LAYER_1
 10
161.8636
 20
-102.285
  0
SEQEND
  0
POLYLINE
  8
LAYER_1
 40
0.1058
 41
0.1058
 66
1
 10
0
 20
0
 30
0
  0
VERTEX
  8
LAYER_1
 10
161.8636
 20
-101.6881
  0
VERTEX
  8
LAYER_1
 10
161.8636
 20
-96.2779
  0
SEQEND
  0
POLYLINE
  8
LAYER_1
 40
0.1058
 41
0.1058
 66
1
 10
0
 20
0
 30
0
  0
VERTEX
  8
LAYER_1
 10
161.8636
 20
-95.681
  0
VERTEX
  8
LAYER_1
 10
161.8636
 20
-95.0841
  0
SEQEND
  0
POLYLINE
  8
LAYER_1
 40
0.1058
 41
0.1058
 66
1
 10
0
 20
0
 30
0
  0
VERTEX
  8
LAYER_1
 10
161.8636
 20
-94.4872
  0
VERTEX
  8
LAYER_1
 10
161.8636
 20
-89.077
  0
SEQEND
  0
POLYLINE
  8
LAYER_1
 40
0.1058
 41
0.1058
 66
1
 10
0
 20
0
 30
0
  0
VERTEX
  8
LAYER_1
 10
161.8636
 20
-88.4801
  0
VERTEX
  8
LAYER_1
 10
161.8636
 20
-87.8832
  0
SEQEND
  0
POLYLINE
  8
LAYER_1
 40
0.1058
 41
0.1058
 66
1
 10
0
 20
0
 30
0
  0
VERTEX
  8
LAYER_1
 10
161.8636
 20
-87.2863
  0
VERTEX
  8
LAYER_1
 10
161.8636
 20
-83.0953
  0
SEQEND
  0
POLYLINE
  8
LAYER_1
 40
0.1058
 41
0.1058
 66
1
 10
0
 20
0
 30
0
  0
VERTEX
  8
LAYER_1
 10
167.1087
 20
-127.4945
  0
VERTEX
  8
LAYER_1
 10
156.6058
 20
-127.4945
  0
SEQEND
  0
POLYLINE
  8
LAYER_1
 40
0.1058
 41
0.1058
 66
1
 10
0
 20
0
 30
0
  0
VERTEX
  8
LAYER_1
 10
126.4111
 20
-190.0801
  0
VERTEX
  8
LAYER_1
 10
126.4111
 20
-184.1492
  0
SEQEND
  0
POLYLINE
  8
LAYER_1
 40
0.1058
 41
0.1058
 66
1
 10
0
 20
0
 30
0
  0
VERTEX
  8
LAYER_1
 10
126.4111
 20
-181.0885
  0
VERTEX
  8
LAYER_1
 10
126.4111
 20
-177.1769
  0
SEQEND
  0
POLYLINE
  8
LAYER_1
 40
0.1058
 41
0.1058
 66
1
 10
0
 20
0
 30
0
  0
VERTEX
  8
LAYER_1
 10
131.961
 20
-190.0801
  0
VERTEX
  8
LAYER_1
 10
131.961
 20
-184.1492
  0
SEQEND
  0
POLYLINE
  8
LAYER_1
 40
0.1058
 41
0.1058
 66
1
 10
0
 20
0
 30
0
  0
VERTEX
  8
LAYER_1
 10
131.961
 20
-181.0885
  0
VERTEX
  8
LAYER_1
 10
131.961
 20
-177.1769
  0
SEQEND
  0
POLYLINE
  8
LAYER_1
 40
0.1058
 41
0.1058
 66
1
 10
0
 20
0
 30
0
  0
VERTEX
  8
LAYER_1
 10
122.7408
 20
-175.0814
  0
VERTEX
  8
LAYER_1
 10
135.644
 20
-175.0814
  0
SEQEND
  0
POLYLINE
  8
LAYER_1
 40
0.1058
 41
0.1058
 66
1
 10
0
 20
0
 30
0
  0
VERTEX
  8
LAYER_1
 10
135.644
 20
-176.4276
  0
VERTEX
  8
LAYER_1
 10
122.7408
 20
-176.4276
  0
SEQEND
  0
POLYLINE
  8
LAYER_1
 40
0.1058
 41
0.1058
 66
1
 10
0
 20
0
 30
0
  0
VERTEX
  8
LAYER_1
 10
123.6425
 20
-176.58
  0
VERTEX
  8
LAYER_1
 10
123.3377
 20
-176.8848
  0
SEQEND
  0
POLYLINE
  8
LAYER_1
 40
0.1058
 41
0.1058
 66
1
 10
0
 20
0
 30
0
  0
VERTEX
  8
LAYER_1
 10
123.8965
 20
-177.1769
  0
VERTEX
  8
LAYER_1
 10
124.4934
 20
-176.58
  0
SEQEND
  0
POLYLINE
  8
LAYER_1
 40
0.1058
 41
0.1058
 66
1
 10
0
 20
0
 30
0
  0
VERTEX
  8
LAYER_1
 10
124.7347
 20
-177.1769
  0
VERTEX
  8
LAYER_1
 10
125.3316
 20
-176.58
  0
SEQEND
  0
POLYLINE
  8
LAYER_1
 40
0.1058
 41
0.1058
 66
1
 10
0
 20
0
 30
0
  0
VERTEX
  8
LAYER_1
 10
125.5856
 20
-177.1769
  0
VERTEX
  8
LAYER_1
 10
126.1952
 20
-176.58
  0
SEQEND
  0
POLYLINE
  8
LAYER_1
 40
0.1058
 41
0.1058
 66
1
 10
0
 20
0
 30
0
  0
VERTEX
  8
LAYER_1
 10
126.4365
 20
-177.1769
  0
VERTEX
  8
LAYER_1
 10
127.0334
 20
-176.58
  0
SEQEND
  0
POLYLINE
  8
LAYER_1
 40
0.1058
 41
0.1058
 66
1
 10
0
 20
0
 30
0
  0
VERTEX
  8
LAYER_1
 10
127.2873
 20
-177.177
  0
VERTEX
  8
LAYER_1
 10
127.8842
 20
-176.5801
  0
SEQEND
  0
POLYLINE
  8
LAYER_1
 40
0.1058
 41
0.1058
 66
1
 10
0
 20
0
 30
0
  0
VERTEX
  8
LAYER_1
 10
128.1382
 20
-177.177
  0
VERTEX
  8
LAYER_1
 10
128.7351
 20
-176.5801
  0
SEQEND
  0
POLYLINE
  8
LAYER_1
 40
0.1058
 41
0.1058
 66
1
 10
0
 20
0
 30
0
  0
VERTEX
  8
LAYER_1
 10
128.9764
 20
-177.177
  0
VERTEX
  8
LAYER_1
 10
129.5733
 20
-176.5801
  0
SEQEND
  0
POLYLINE
  8
LAYER_1
 40
0.1058
 41
0.1058
 66
1
 10
0
 20
0
 30
0
  0
VERTEX
  8
LAYER_1
 10
129.8273
 20
-177.177
  0
VERTEX
  8
LAYER_1
 10
130.4368
 20
-176.5801
  0
SEQEND
  0
POLYLINE
  8
LAYER_1
 40
0.1058
 41
0.1058
 66
1
 10
0
 20
0
 30
0
  0
VERTEX
  8
LAYER_1
 10
130.6782
 20
-177.177
  0
VERTEX
  8
LAYER_1
 10
131.275
 20
-176.5801
  0
SEQEND
  0
POLYLINE
  8
LAYER_1
 40
0.1058
 41
0.1058
 66
1
 10
0
 20
0
 30
0
  0
VERTEX
  8
LAYER_1
 10
131.529
 20
-177.177
  0
VERTEX
  8
LAYER_1
 10
132.1259
 20
-176.5801
  0
SEQEND
  0
POLYLINE
  8
LAYER_1
 40
0.1058
 41
0.1058
 66
1
 10
0
 20
0
 30
0
  0
VERTEX
  8
LAYER_1
 10
132.3799
 20
-177.177
  0
VERTEX
  8
LAYER_1
 10
132.9768
 20
-176.5801
  0
SEQEND
  0
POLYLINE
  8
LAYER_1
 40
0.1058
 41
0.1058
 66
1
 10
0
 20
0
 30
0
  0
VERTEX
  8
LAYER_1
 10
133.2181
 20
-177.177
  0
VERTEX
  8
LAYER_1
 10
133.815
 20
-176.5801
  0
SEQEND
  0
POLYLINE
  8
LAYER_1
 40
0.1058
 41
0.1058
 66
1
 10
0
 20
0
 30
0
  0
VERTEX
  8
LAYER_1
 10
134.069
 20
-177.177
  0
VERTEX
  8
LAYER_1
 10
134.6786
 20
-176.5801
  0
SEQEND
  0
POLYLINE
  8
LAYER_1
 40
0.1058
 41
0.1058
 66
1
 10
0
 20
0
 30
0
  0
VERTEX
  8
LAYER_1
 10
134.9199
 20
-177.177
  0
VERTEX
  8
LAYER_1
 10
135.0342
 20
-177.0626
  0
SEQEND
  0
POLYLINE
  8
LAYER_1
 40
0.1058
 41
0.1058
 66
1
 10
0
 20
0
 30
0
  0
VERTEX
  8
LAYER_1
 10
124.163
 20
-181.0885
  0
VERTEX
  8
LAYER_1
 10
123.9344
 20
-181.3171
  0
SEQEND
  0
POLYLINE
  8
LAYER_1
 40
0.1058
 41
0.1058
 66
1
 10
0
 20
0
 30
0
  0
VERTEX
  8
LAYER_1
 10
125.0139
 20
-181.0885
  0
VERTEX
  8
LAYER_1
 10
124.5694
 20
-181.533
  0
SEQEND
  0
POLYLINE
  8
LAYER_1
 40
0.1058
 41
0.1058
 66
1
 10
0
 20
0
 30
0
  0
VERTEX
  8
LAYER_1
 10
125.8648
 20
-181.0885
  0
VERTEX
  8
LAYER_1
 10
125.4203
 20
-181.533
  0
SEQEND
  0
POLYLINE
  8
LAYER_1
 40
0.1058
 41
0.1058
 66
1
 10
0
 20
0
 30
0
  0
VERTEX
  8
LAYER_1
 10
126.7157
 20
-181.0885
  0
VERTEX
  8
LAYER_1
 10
126.2585
 20
-181.533
  0
SEQEND
  0
POLYLINE
  8
LAYER_1
 40
0.1058
 41
0.1058
 66
1
 10
0
 20
0
 30
0
  0
VERTEX
  8
LAYER_1
 10
127.5539
 20
-181.0885
  0
VERTEX
  8
LAYER_1
 10
127.1094
 20
-181.533
  0
SEQEND
  0
POLYLINE
  8
LAYER_1
 40
0.1058
 41
0.1058
 66
1
 10
0
 20
0
 30
0
  0
VERTEX
  8
LAYER_1
 10
128.4048
 20
-181.0885
  0
VERTEX
  8
LAYER_1
 10
127.9603
 20
-181.533
  0
SEQEND
  0
POLYLINE
  8
LAYER_1
 40
0.1058
 41
0.1058
 66
1
 10
0
 20
0
 30
0
  0
VERTEX
  8
LAYER_1
 10
129.2557
 20
-181.0885
  0
VERTEX
  8
LAYER_1
 10
128.8112
 20
-181.533
  0
SEQEND
  0
POLYLINE
  8
LAYER_1
 40
0.1058
 41
0.1058
 66
1
 10
0
 20
0
 30
0
  0
VERTEX
  8
LAYER_1
 10
130.1066
 20
-181.0885
  0
VERTEX
  8
LAYER_1
 10
129.6621
 20
-181.533
  0
SEQEND
  0
POLYLINE
  8
LAYER_1
 40
0.1058
 41
0.1058
 66
1
 10
0
 20
0
 30
0
  0
VERTEX
  8
LAYER_1
 10
130.9575
 20
-181.0885
  0
VERTEX
  8
LAYER_1
 10
130.5003
 20
-181.533
  0
SEQEND
  0
POLYLINE
  8
LAYER_1
 40
0.1058
 41
0.1058
 66
1
 10
0
 20
0
 30
0
  0
VERTEX
  8
LAYER_1
 10
131.8084
 20
-181.0885
  0
VERTEX
  8
LAYER_1
 10
131.3512
 20
-181.533
  0
SEQEND
  0
POLYLINE
  8
LAYER_1
 40
0.1058
 41
0.1058
 66
1
 10
0
 20
0
 30
0
  0
VERTEX
  8
LAYER_1
 10
132.6466
 20
-181.0885
  0
VERTEX
  8
LAYER_1
 10
132.2021
 20
-181.533
  0
SEQEND
  0
POLYLINE
  8
LAYER_1
 40
0.1058
 41
0.1058
 66
1
 10
0
 20
0
 30
0
  0
VERTEX
  8
LAYER_1
 10
133.4975
 20
-181.0885
  0
VERTEX
  8
LAYER_1
 10
133.053
 20
-181.533
  0
SEQEND
  0
POLYLINE
  8
LAYER_1
 40
0.1058
 41
0.1058
 66
1
 10
0
 20
0
 30
0
  0
VERTEX
  8
LAYER_1
 10
134.3484
 20
-181.0885
  0
VERTEX
  8
LAYER_1
 10
133.9039
 20
-181.533
  0
SEQEND
  0
POLYLINE
  8
LAYER_1
 40
0.1058
 41
0.1058
 66
1
 10
0
 20
0
 30
0
  0
VERTEX
  8
LAYER_1
 10
129.1922
 20
-194.1949
  0
VERTEX
  8
LAYER_1
 10
129.1922
 20
-190.0166
  0
SEQEND
  0
POLYLINE
  8
LAYER_1
 40
0.1058
 41
0.1058
 66
1
 10
0
 20
0
 30
0
  0
VERTEX
  8
LAYER_1
 10
129.1922
 20
-189.407
  0
VERTEX
  8
LAYER_1
 10
129.1922
 20
-188.8101
  0
SEQEND
  0
POLYLINE
  8
LAYER_1
 40
0.1058
 41
0.1058
 66
1
 10
0
 20
0
 30
0
  0
VERTEX
  8
LAYER_1
 10
129.1922
 20
-188.2132
  0
VERTEX
  8
LAYER_1
 10
129.1922
 20
-182.8157
  0
SEQEND
  0
POLYLINE
  8
LAYER_1
 40
0.1058
 41
0.1058
 66
1
 10
0
 20
0
 30
0
  0
VERTEX
  8
LAYER_1
 10
129.1922
 20
-182.2061
  0
VERTEX
  8
LAYER_1
 10
129.1922
 20
-181.6092
  0
SEQEND
  0
POLYLINE
  8
LAYER_1
 40
0.1058
 41
0.1058
 66
1
 10
0
 20
0
 30
0
  0
VERTEX
  8
LAYER_1
 10
129.1922
 20
-181.0123
  0
VERTEX
  8
LAYER_1
 10
129.1922
 20
-175.6148
  0
SEQEND
  0
POLYLINE
  8
LAYER_1
 40
0.1058
 41
0.1058
 66
1
 10
0
 20
0
 30
0
  0
VERTEX
  8
LAYER_1
 10
129.1922
 20
-175.0052
  0
VERTEX
  8
LAYER_1
 10
129.1922
 20
-174.4083
  0
SEQEND
  0
POLYLINE
  8
LAYER_1
 40
0.1058
 41
0.1058
 66
1
 10
0
 20
0
 30
0
  0
VERTEX
  8
LAYER_1
 10
129.1922
 20
-173.8114
  0
VERTEX
  8
LAYER_1
 10
129.1922
 20
-168.4139
  0
SEQEND
  0
POLYLINE
  8
LAYER_1
 40
0.1058
 41
0.1058
 66
1
 10
0
 20
0
 30
0
  0
VERTEX
  8
LAYER_1
 10
129.1922
 20
-167.817
  0
VERTEX
  8
LAYER_1
 10
129.1922
 20
-167.2074
  0
SEQEND
  0
POLYLINE
  8
LAYER_1
 40
0.1058
 41
0.1058
 66
1
 10
0
 20
0
 30
0
  0
VERTEX
  8
LAYER_1
 10
129.1922
 20
-166.6105
  0
VERTEX
  8
LAYER_1
 10
129.1922
 20
-161.213
  0
SEQEND
  0
POLYLINE
  8
LAYER_1
 40
0.1058
 41
0.1058
 66
1
 10
0
 20
0
 30
0
  0
VERTEX
  8
LAYER_1
 10
129.1922
 20
-160.6161
  0
VERTEX
  8
LAYER_1
 10
129.1922
 20
-160.0065
  0
SEQEND
  0
POLYLINE
  8
LAYER_1
 40
0.1058
 41
0.1058
 66
1
 10
0
 20
0
 30
0
  0
VERTEX
  8
LAYER_1
 10
129.1922
 20
-159.4096
  0
VERTEX
  8
LAYER_1
 10
129.1922
 20
-154.0121
  0
SEQEND
  0
POLYLINE
  8
LAYER_1
 40
0.1058
 41
0.1058
 66
1
 10
0
 20
0
 30
0
  0
VERTEX
  8
LAYER_1
 10
129.1922
 20
-153.4152
  0
VERTEX
  8
LAYER_1
 10
129.1922
 20
-152.8183
  0
SEQEND
  0
POLYLINE
  8
LAYER_1
 40
0.1058
 41
0.1058
 66
1
 10
0
 20
0
 30
0
  0
VERTEX
  8
LAYER_1
 10
129.1922
 20
-152.2087
  0
VERTEX
  8
LAYER_1
 10
129.1922
 20
-146.8112
  0
SEQEND
  0
POLYLINE
  8
LAYER_1
 40
0.1058
 41
0.1058
 66
1
 10
0
 20
0
 30
0
  0
VERTEX
  8
LAYER_1
 10
129.1922
 20
-146.2143
  0
VERTEX
  8
LAYER_1
 10
129.1922
 20
-145.6174
  0
SEQEND
  0
POLYLINE
  8
LAYER_1
 40
0.1058
 41
0.1058
 66
1
 10
0
 20
0
 30
0
  0
VERTEX
  8
LAYER_1
 10
129.1922
 20
-145.0078
  0
VERTEX
  8
LAYER_1
 10
129.1922
 20
-139.6103
  0
SEQEND
  0
POLYLINE
  8
LAYER_1
 40
0.1058
 41
0.1058
 66
1
 10
0
 20
0
 30
0
  0
VERTEX
  8
LAYER_1
 10
129.1922
 20
-139.0134
  0
VERTEX
  8
LAYER_1
 10
129.1922
 20
-138.4165
  0
SEQEND
  0
POLYLINE
  8
LAYER_1
 40
0.1058
 41
0.1058
 66
1
 10
0
 20
0
 30
0
  0
VERTEX
  8
LAYER_1
 10
129.1922
 20
-137.8069
  0
VERTEX
  8
LAYER_1
 10
129.1922
 20
-132.4094
  0
SEQEND
  0
POLYLINE
  8
LAYER_1
 40
0.1058
 41
0.1058
 66
1
 10
0
 20
0
 30
0
  0
VERTEX
  8
LAYER_1
 10
129.1922
 20
-131.8125
  0
VERTEX
  8
LAYER_1
 10
129.1922
 20
-131.2156
  0
SEQEND
  0
POLYLINE
  8
LAYER_1
 40
0.1058
 41
0.1058
 66
1
 10
0
 20
0
 30
0
  0
VERTEX
  8
LAYER_1
 10
129.1922
 20
-130.6187
  0
VERTEX
  8
LAYER_1
 10
129.1922
 20
-125.2085
  0
SEQEND
  0
POLYLINE
  8
LAYER_1
 40
0.1058
 41
0.1058
 66
1
 10
0
 20
0
 30
0
  0
VERTEX
  8
LAYER_1
 10
129.1922
 20
-124.6116
  0
VERTEX
  8
LAYER_1
 10
129.1922
 20
-124.0147
  0
SEQEND
  0
POLYLINE
  8
LAYER_1
 40
0.1058
 41
0.1058
 66
1
 10
0
 20
0
 30
0
  0
VERTEX
  8
LAYER_1
 10
129.1922
 20
-123.4178
  0
VERTEX
  8
LAYER_1
 10
129.1922
 20
-118.0076
  0
SEQEND
  0
POLYLINE
  8
LAYER_1
 40
0.1058
 41
0.1058
 66
1
 10
0
 20
0
 30
0
  0
VERTEX
  8
LAYER_1
 10
129.1922
 20
-117.4107
  0
VERTEX
  8
LAYER_1
 10
129.1922
 20
-116.8138
  0
SEQEND
  0
POLYLINE
  8
LAYER_1
 40
0.1058
 41
0.1058
 66
1
 10
0
 20
0
 30
0
  0
VERTEX
  8
LAYER_1
 10
129.1922
 20
-116.2169
  0
VERTEX
  8
LAYER_1
 10
129.1922
 20
-110.8194
  0
SEQEND
  0
POLYLINE
  8
LAYER_1
 40
0.1058
 41
0.1058
 66
1
 10
0
 20
0
 30
0
  0
VERTEX
  8
LAYER_1
 10
129.1922
 20
-110.2098
  0
VERTEX
  8
LAYER_1
 10
129.1922
 20
-109.6129
  0
SEQEND
  0
POLYLINE
  8
LAYER_1
 40
0.1058
 41
0.1058
 66
1
 10
0
 20
0
 30
0
  0
VERTEX
  8
LAYER_1
 10
129.1922
 20
-109.016
  0
VERTEX
  8
LAYER_1
 10
129.1922
 20
-103.6185
  0
SEQEND
  0
POLYLINE
  8
LAYER_1
 40
0.1058
 41
0.1058
 66
1
 10
0
 20
0
 30
0
  0
VERTEX
  8
LAYER_1
 10
129.1922
 20
-103.0089
  0
VERTEX
  8
LAYER_1
 10
129.1922
 20
-102.412
  0
SEQEND
  0
POLYLINE
  8
LAYER_1
 40
0.1058
 41
0.1058
 66
1
 10
0
 20
0
 30
0
  0
VERTEX
  8
LAYER_1
 10
129.1922
 20
-101.8151
  0
VERTEX
  8
LAYER_1
 10
129.1922
 20
-96.4176
  0
SEQEND
  0
POLYLINE
  8
LAYER_1
 40
0.1058
 41
0.1058
 66
1
 10
0
 20
0
 30
0
  0
VERTEX
  8
LAYER_1
 10
129.1922
 20
-95.808
  0
VERTEX
  8
LAYER_1
 10
129.1922
 20
-95.2111
  0
SEQEND
  0
POLYLINE
  8
LAYER_1
 40
0.1058
 41
0.1058
 66
1
 10
0
 20
0
 30
0
  0
VERTEX
  8
LAYER_1
 10
129.1922
 20
-94.6142
  0
VERTEX
  8
LAYER_1
 10
129.1922
 20
-89.2167
  0
SEQEND
  0
POLYLINE
  8
LAYER_1
 40
0.1058
 41
0.1058
 66
1
 10
0
 20
0
 30
0
  0
VERTEX
  8
LAYER_1
 10
129.1922
 20
-88.6198
  0
VERTEX
  8
LAYER_1
 10
129.1922
 20
-88.0102
  0
SEQEND
  0
POLYLINE
  8
LAYER_1
 40
0.1058
 41
0.1058
 66
1
 10
0
 20
0
 30
0
  0
VERTEX
  8
LAYER_1
 10
129.1922
 20
-87.4133
  0
VERTEX
  8
LAYER_1
 10
129.1922
 20
-83.2223
  0
SEQEND
  0
POLYLINE
  8
LAYER_1
 40
0.1058
 41
0.1058
 66
1
 10
0
 20
0
 30
0
  0
VERTEX
  8
LAYER_1
 10
134.4373
 20
-127.6215
  0
VERTEX
  8
LAYER_1
 10
123.9344
 20
-127.6215
  0
SEQEND
  0
POLYLINE
  8
LAYER_1
 40
0.1058
 41
0.1058
 66
1
 10
0
 20
0
 30
0
  0
VERTEX
  8
LAYER_1
 10
134.4373
 20
-174.8401
  0
VERTEX
  8
LAYER_1
 10
123.9344
 20
-174.8401
  0
SEQEND
  0
POLYLINE
  8
LAYER_1
 40
0.1058
 41
0.1058
 66
1
 10
0
 20
0
 30
0
  0
VERTEX
  8
LAYER_1
 10
167.1085
 20
-174.7131
  0
VERTEX
  8
LAYER_1
 10
156.6056
 20
-174.7131
  0
SEQEND
  0
POLYLINE
  8
LAYER_1
 40
0.1058
 41
0.1058
 66
1
 10
0
 20
0
 30
0
  0
VERTEX
  8
LAYER_1
 10
93.6957
 20
-107.2126
  0
VERTEX
  8
LAYER_1
 10
93.0734
 20
-108.9144
  0
SEQEND
  0
POLYLINE
  8
LAYER_1
 40
0.1058
 41
0.1058
 66
1
 10
0
 20
0
 30
0
  0
VERTEX
  8
LAYER_1
 10
92.8702
 20
-109.4732
  0
VERTEX
  8
LAYER_1
 10
92.667
 20
-110.0447
  0
SEQEND
  0
POLYLINE
  8
LAYER_1
 40
0.1058
 41
0.1058
 66
1
 10
0
 20
0
 30
0
  0
VERTEX
  8
LAYER_1
 10
92.4638
 20
-110.6035
  0
VERTEX
  8
LAYER_1
 10
91.8415
 20
-112.3053
  0
SEQEND
  0
POLYLINE
  8
LAYER_1
 40
0.1058
 41
0.1058
 66
1
 10
0
 20
0
 30
0
  0
VERTEX
  8
LAYER_1
 10
122.2835
 20
-176.5801
  0
VERTEX
  8
LAYER_1
 10
76.1571
 20
-176.5801
  0
SEQEND
  0
POLYLINE
  8
LAYER_1
 40
0.1058
 41
0.1058
 66
1
 10
0
 20
0
 30
0
  0
VERTEX
  8
LAYER_1
 10
76.7667
 20
-175.4243
  0
VERTEX
  8
LAYER_1
 10
76.4492
 20
-175.4243
  0
VERTEX
  8
LAYER_1
 10
76.7667
 20
-176.58
  0
VERTEX
  8
LAYER_1
 10
77.0715
 20
-175.4243
  0
VERTEX
  8
LAYER_1
 10
76.7667
 20
-175.4243
  0
SEQEND
  0
POLYLINE
  8
LAYER_1
 40
0.1058
 41
0.1058
 66
1
 10
0
 20
0
 30
0
  0
VERTEX
  8
LAYER_1
 10
76.7667
 20
-176.5801
  0
VERTEX
  8
LAYER_1
 10
76.7667
 20
-87.8198
  0
SEQEND
  0
POLYLINE
  8
LAYER_1
 40
0.1058
 41
0.1058
 66
1
 10
0
 20
0
 30
0
  0
VERTEX
  8
LAYER_1
 10
76.7667
 20
-88.9755
  0
VERTEX
  8
LAYER_1
 10
77.0715
 20
-88.9755
  0
VERTEX
  8
LAYER_1
 10
76.7667
 20
-87.8197
  0
VERTEX
  8
LAYER_1
 10
76.4492
 20
-88.9755
  0
VERTEX
  8
LAYER_1
 10
76.7667
 20
-88.9755
  0
SEQEND
  0
POLYLINE
  8
LAYER_1
 40
0.1058
 41
0.1058
 66
1
 10
0
 20
0
 30
0
  0
VERTEX
  8
LAYER_1
 10
76.1571
 20
-87.8197
  0
VERTEX
  8
LAYER_1
 10
105.7862
 20
-87.8197
  0
SEQEND
  0
POLYLINE
  8
LAYER_1
 40
0.1058
 41
0.1058
 66
1
 10
0
 20
0
 30
0
  0
VERTEX
  8
LAYER_1
 10
109.8629
 20
-79.5139
  0
VERTEX
  8
LAYER_1
 10
98.7504
 20
-75.0308
  0
SEQEND
  0
POLYLINE
  8
LAYER_1
 40
0.1058
 41
0.1058
 66
1
 10
0
 20
0
 30
0
  0
VERTEX
  8
LAYER_1
 10
105.7862
 20
-87.8197
  0
VERTEX
  8
LAYER_1
 10
96.2612
 20
-87.8197
  0
SEQEND
  0
POLYLINE
  8
LAYER_1
 40
0.1058
 41
0.1058
 66
1
 10
0
 20
0
 30
0
  0
VERTEX
  8
LAYER_1
 10
99.3092
 20
-75.2467
  0
VERTEX
  8
LAYER_1
 10
98.598
 20
-76.2246
  0
SEQEND
  0
POLYLINE
  8
LAYER_1
 40
0.1058
 41
0.1058
 66
1
 10
0
 20
0
 30
0
  0
VERTEX
  8
LAYER_1
 10
99.3092
 20
-75.2467
  0
VERTEX
  8
LAYER_1
 10
99.1822
 20
-76.4405
  0
SEQEND
  0
POLYLINE
  8
LAYER_1
 40
0.1058
 41
0.1058
 66
1
 10
0
 20
0
 30
0
  0
VERTEX
  8
LAYER_1
 10
98.598
 20
-76.2246
  0
VERTEX
  8
LAYER_1
 10
99.1822
 20
-76.4405
  0
SEQEND
  0
POLYLINE
  8
LAYER_1
 40
0.1058
 41
0.1058
 66
1
 10
0
 20
0
 30
0
  0
VERTEX
  8
LAYER_1
 10
96.8581
 20
-87.8197
  0
VERTEX
  8
LAYER_1
 10
97.1883
 20
-86.664
  0
SEQEND
  0
POLYLINE
  8
LAYER_1
 40
0.1058
 41
0.1058
 66
1
 10
0
 20
0
 30
0
  0
VERTEX
  8
LAYER_1
 10
96.8581
 20
-87.8197
  0
VERTEX
  8
LAYER_1
 10
96.5787
 20
-86.6513
  0
SEQEND
  0
POLYLINE
  8
LAYER_1
 40
0.1058
 41
0.1058
 66
1
 10
0
 20
0
 30
0
  0
VERTEX
  8
LAYER_1
 10
97.1883
 20
-86.664
  0
VERTEX
  8
LAYER_1
 10
96.5787
 20
-86.6513
  0
SEQEND
  0
POLYLINE
  8
LAYER_1
 40
0.1058
 41
0.1058
 66
1
 10
0
 20
0
 30
0
  0
VERTEX
  8
LAYER_1
 10
99.3092
 20
-75.2467
  0
VERTEX
  8
LAYER_1
 10
99.0933
 20
-75.8055
  0
VERTEX
  8
LAYER_1
 10
98.8774
 20
-76.3643
  0
VERTEX
  8
LAYER_1
 10
98.6742
 20
-76.9358
  0
VERTEX
  8
LAYER_1
 10
98.4837
 20
-77.5073
  0
VERTEX
  8
LAYER_1
 10
98.3059
 20
-78.0788
  0
VERTEX
  8
LAYER_1
 10
98.1408
 20
-78.6503
  0
VERTEX
  8
LAYER_1
 10
97.9757
 20
-79.2345
  0
VERTEX
  8
LAYER_1
 10
97.836
 20
-79.8187
  0
VERTEX
  8
LAYER_1
 10
97.6963
 20
-80.3902
  0
VERTEX
  8
LAYER_1
 10
97.5693
 20
-80.9871
  0
VERTEX
  8
LAYER_1
 10
97.455
 20
-81.5713
  0
VERTEX
  8
LAYER_1
 10
97.3407
 20
-82.1555
  0
VERTEX
  8
LAYER_1
 10
97.2518
 20
-82.7524
  0
VERTEX
  8
LAYER_1
 10
97.1629
 20
-83.3493
  0
VERTEX
  8
LAYER_1
 10
97.0867
 20
-83.9462
  0
VERTEX
  8
LAYER_1
 10
97.0232
 20
-84.5431
  0
VERTEX
  8
LAYER_1
 10
96.9724
 20
-85.14
  0
VERTEX
  8
LAYER_1
 10
96.9343
 20
-85.7369
  0
VERTEX
  8
LAYER_1
 10
96.8962
 20
-86.3338
  0
VERTEX
  8
LAYER_1
 10
96.8708
 20
-86.9307
  0
VERTEX
  8
LAYER_1
 10
96.8581
 20
-87.5403
  0
VERTEX
  8
LAYER_1
 10
96.8581
 20
-87.8197
  0
SEQEND
  0
POLYLINE
  8
LAYER_1
 40
0.1058
 41
0.1058
 66
1
 10
0
 20
0
 30
0
  0
VERTEX
  8
LAYER_1
 10
122.2835
 20
-176.5801
  0
VERTEX
  8
LAYER_1
 10
66.8099
 20
-176.5801
  0
SEQEND
  0
POLYLINE
  8
LAYER_1
 40
0.1058
 41
0.1058
 66
1
 10
0
 20
0
 30
0
  0
VERTEX
  8
LAYER_1
 10
67.4068
 20
-175.4243
  0
VERTEX
  8
LAYER_1
 10
67.102
 20
-175.4243
  0
VERTEX
  8
LAYER_1
 10
67.4068
 20
-176.58
  0
VERTEX
  8
LAYER_1
 10
67.7243
 20
-175.4243
  0
VERTEX
  8
LAYER_1
 10
67.4068
 20
-175.4243
  0
SEQEND
  0
POLYLINE
  8
LAYER_1
 40
0.1058
 41
0.1058
 66
1
 10
0
 20
0
 30
0
  0
VERTEX
  8
LAYER_1
 10
67.4068
 20
-176.5801
  0
VERTEX
  8
LAYER_1
 10
67.4068
 20
-79.6791
  0
SEQEND
  0
POLYLINE
  8
LAYER_1
 40
0.1058
 41
0.1058
 66
1
 10
0
 20
0
 30
0
  0
VERTEX
  8
LAYER_1
 10
67.4068
 20
-80.8348
  0
VERTEX
  8
LAYER_1
 10
67.7243
 20
-80.8348
  0
VERTEX
  8
LAYER_1
 10
67.4068
 20
-79.6791
  0
VERTEX
  8
LAYER_1
 10
67.102
 20
-80.8348
  0
VERTEX
  8
LAYER_1
 10
67.4068
 20
-80.8348
  0
SEQEND
  0
POLYLINE
  8
LAYER_1
 40
0.1058
 41
0.1058
 66
1
 10
0
 20
0
 30
0
  0
VERTEX
  8
LAYER_1
 10
66.8099
 20
-79.6791
  0
VERTEX
  8
LAYER_1
 10
109.6724
 20
-79.6791
  0
SEQEND
  0
POLYLINE
  8
LAYER_1
 40
0.1058
 41
0.1058
 66
1
 10
0
 20
0
 30
0
  0
VERTEX
  8
LAYER_1
 10
91.6384
 20
-112.8641
  0
VERTEX
  8
LAYER_1
 10
88.7936
 20
-120.6619
  0
SEQEND
  0
POLYLINE
  8
LAYER_1
 40
0.1058
 41
0.1058
 66
1
 10
0
 20
0
 30
0
  0
VERTEX
  8
LAYER_1
 10
92.1972
 20
-112.4196
  0
VERTEX
  8
LAYER_1
 10
92.1972
 20
-121.2715
  0
SEQEND
  0
POLYLINE
  8
LAYER_1
 40
0.1058
 41
0.1058
 66
1
 10
0
 20
0
 30
0
  0
VERTEX
  8
LAYER_1
 10
88.9968
 20
-120.1031
  0
VERTEX
  8
LAYER_1
 10
90.0255
 20
-120.7254
  0
SEQEND
  0
POLYLINE
  8
LAYER_1
 40
0.1058
 41
0.1058
 66
1
 10
0
 20
0
 30
0
  0
VERTEX
  8
LAYER_1
 10
88.9968
 20
-120.1031
  0
VERTEX
  8
LAYER_1
 10
90.2033
 20
-120.1285
  0
SEQEND
  0
POLYLINE
  8
LAYER_1
 40
0.1058
 41
0.1058
 66
1
 10
0
 20
0
 30
0
  0
VERTEX
  8
LAYER_1
 10
90.0255
 20
-120.7254
  0
VERTEX
  8
LAYER_1
 10
90.2033
 20
-120.1285
  0
SEQEND
  0
POLYLINE
  8
LAYER_1
 40
0.1058
 41
0.1058
 66
1
 10
0
 20
0
 30
0
  0
VERTEX
  8
LAYER_1
 10
92.1972
 20
-120.6619
  0
VERTEX
  8
LAYER_1
 10
91.0542
 20
-120.2809
  0
SEQEND
  0
POLYLINE
  8
LAYER_1
 40
0.1058
 41
0.1058
 66
1
 10
0
 20
0
 30
0
  0
VERTEX
  8
LAYER_1
 10
92.1972
 20
-120.6619
  0
VERTEX
  8
LAYER_1
 10
91.0288
 20
-120.9032
  0
SEQEND
  0
POLYLINE
  8
LAYER_1
 40
0.1058
 41
0.1058
 66
1
 10
0
 20
0
 30
0
  0
VERTEX
  8
LAYER_1
 10
91.0542
 20
-120.2809
  0
VERTEX
  8
LAYER_1
 10
91.0288
 20
-120.9032
  0
SEQEND
  0
POLYLINE
  8
LAYER_1
 40
0.1058
 41
0.1058
 66
1
 10
0
 20
0
 30
0
  0
VERTEX
  8
LAYER_1
 10
88.9968
 20
-120.1031
  0
VERTEX
  8
LAYER_1
 10
89.5683
 20
-120.2936
  0
VERTEX
  8
LAYER_1
 10
90.1525
 20
-120.4333
  0
VERTEX
  8
LAYER_1
 10
90.7367
 20
-120.5476
  0
VERTEX
  8
LAYER_1
 10
91.3463
 20
-120.6238
  0
VERTEX
  8
LAYER_1
 10
91.9305
 20
-120.6619
  0
VERTEX
  8
LAYER_1
 10
92.1972
 20
-120.6619
  0
SEQEND
  0
POLYLINE
  8
LAYER_1
 40
0.1058
 41
0.1058
 66
1
 10
0
 20
0
 30
0
  0
VERTEX
  8
LAYER_1
 10
122.2835
 20
-176.5801
  0
VERTEX
  8
LAYER_1
 10
85.5678
 20
-176.5801
  0
SEQEND
  0
POLYLINE
  8
LAYER_1
 40
0.1058
 41
0.1058
 66
1
 10
0
 20
0
 30
0
  0
VERTEX
  8
LAYER_1
 10
86.1647
 20
-175.4243
  0
VERTEX
  8
LAYER_1
 10
85.8599
 20
-175.4243
  0
VERTEX
  8
LAYER_1
 10
86.1647
 20
-176.58
  0
VERTEX
  8
LAYER_1
 10
86.4822
 20
-175.4243
  0
VERTEX
  8
LAYER_1
 10
86.1647
 20
-175.4243
  0
SEQEND
  0
POLYLINE
  8
LAYER_1
 40
0.1058
 41
0.1058
 66
1
 10
0
 20
0
 30
0
  0
VERTEX
  8
LAYER_1
 10
86.1647
 20
-176.5801
  0
VERTEX
  8
LAYER_1
 10
86.1647
 20
-111.3275
  0
SEQEND
  0
POLYLINE
  8
LAYER_1
 40
0.1058
 41
0.1058
 66
1
 10
0
 20
0
 30
0
  0
VERTEX
  8
LAYER_1
 10
86.1647
 20
-112.4831
  0
VERTEX
  8
LAYER_1
 10
86.4822
 20
-112.4831
  0
VERTEX
  8
LAYER_1
 10
86.1647
 20
-111.3274
  0
VERTEX
  8
LAYER_1
 10
85.8599
 20
-112.4831
  0
VERTEX
  8
LAYER_1
 10
86.1647
 20
-112.4831
  0
SEQEND
  0
POLYLINE
  8
LAYER_1
 40
0.1058
 41
0.1058
 66
1
 10
0
 20
0
 30
0
  0
VERTEX
  8
LAYER_1
 10
85.5678
 20
-111.3275
  0
VERTEX
  8
LAYER_1
 10
91.6003
 20
-111.3275
  0
SEQEND
  0
POLYLINE
  8
LAYER_1
 40
0.1058
 41
0.1058
 66
1
 10
0
 20
0
 30
0
  0
VERTEX
  8
LAYER_1
 10
129.1923
 20
-82.6255
  0
VERTEX
  8
LAYER_1
 10
129.1923
 20
-78.7519
  0
SEQEND
  0
POLYLINE
  8
LAYER_1
 40
0.1058
 41
0.1058
 66
1
 10
0
 20
0
 30
0
  0
VERTEX
  8
LAYER_1
 10
130.348
 20
-79.3489
  0
VERTEX
  8
LAYER_1
 10
130.348
 20
-79.0441
  0
VERTEX
  8
LAYER_1
 10
129.1923
 20
-79.3489
  0
VERTEX
  8
LAYER_1
 10
130.348
 20
-79.6664
  0
VERTEX
  8
LAYER_1
 10
130.348
 20
-79.3489
  0
SEQEND
  0
POLYLINE
  8
LAYER_1
 40
0.1058
 41
0.1058
 66
1
 10
0
 20
0
 30
0
  0
VERTEX
  8
LAYER_1
 10
129.1923
 20
-79.3489
  0
VERTEX
  8
LAYER_1
 10
136.8631
 20
-79.3489
  0
SEQEND
  0
POLYLINE
  8
LAYER_1
 40
0.1058
 41
0.1058
 66
1
 10
0
 20
0
 30
0
  0
VERTEX
  8
LAYER_1
 10
135.7074
 20
-79.3489
  0
VERTEX
  8
LAYER_1
 10
135.7074
 20
-79.6664
  0
VERTEX
  8
LAYER_1
 10
136.8631
 20
-79.3489
  0
VERTEX
  8
LAYER_1
 10
135.7074
 20
-79.0441
  0
VERTEX
  8
LAYER_1
 10
135.7074
 20
-79.3489
  0
SEQEND
  0
POLYLINE
  8
LAYER_1
 40
0.1058
 41
0.1058
 66
1
 10
0
 20
0
 30
0
  0
VERTEX
  8
LAYER_1
 10
136.8631
 20
-78.7519
  0
VERTEX
  8
LAYER_1
 10
136.8631
 20
-88.5309
  0
SEQEND
  0
POLYLINE
  8
LAYER_1
 40
0.1058
 41
0.1058
 66
1
 10
0
 20
0
 30
0
  0
VERTEX
  8
LAYER_1
 10
92.1972
 20
-111.9243
  0
VERTEX
  8
LAYER_1
 10
92.1972
 20
-189.7626
  0
SEQEND
  0
POLYLINE
  8
LAYER_1
 40
0.1058
 41
0.1058
 66
1
 10
0
 20
0
 30
0
  0
VERTEX
  8
LAYER_1
 10
93.3529
 20
-189.1657
  0
VERTEX
  8
LAYER_1
 10
93.3529
 20
-188.8482
  0
VERTEX
  8
LAYER_1
 10
92.1972
 20
-189.1657
  0
VERTEX
  8
LAYER_1
 10
93.3529
 20
-189.4705
  0
VERTEX
  8
LAYER_1
 10
93.3529
 20
-189.1657
  0
SEQEND
  0
POLYLINE
  8
LAYER_1
 40
0.1058
 41
0.1058
 66
1
 10
0
 20
0
 30
0
  0
VERTEX
  8
LAYER_1
 10
92.1972
 20
-189.1657
  0
VERTEX
  8
LAYER_1
 10
129.1923
 20
-189.1657
  0
SEQEND
  0
POLYLINE
  8
LAYER_1
 40
0.1058
 41
0.1058
 66
1
 10
0
 20
0
 30
0
  0
VERTEX
  8
LAYER_1
 10
128.0366
 20
-189.1657
  0
VERTEX
  8
LAYER_1
 10
128.0366
 20
-189.4705
  0
VERTEX
  8
LAYER_1
 10
129.1923
 20
-189.1657
  0
VERTEX
  8
LAYER_1
 10
128.0366
 20
-188.8482
  0
VERTEX
  8
LAYER_1
 10
128.0366
 20
-189.1657
  0
SEQEND
  0
POLYLINE
  8
LAYER_1
 40
0.1058
 41
0.1058
 66
1
 10
0
 20
0
 30
0
  0
VERTEX
  8
LAYER_1
 10
129.1923
 20
-188.5688
  0
VERTEX
  8
LAYER_1
 10
129.1923
 20
-193.598
  0
SEQEND
  0
POLYLINE
  8
LAYER_1
 40
0.1058
 41
0.1058
 66
1
 10
0
 20
0
 30
0
  0
VERTEX
  8
LAYER_1
 10
132.2657
 20
-187.083
  0
VERTEX
  8
LAYER_1
 10
137.9934
 20
-189.5086
  0
VERTEX
  8
LAYER_1
 10
148.2804
 20
-189.5086
  0
SEQEND
  0
POLYLINE
  8
LAYER_1
 40
0.1058
 41
0.1058
 66
1
 10
0
 20
0
 30
0
  0
VERTEX
  8
LAYER_1
 10
133.3325
 20
-187.5274
  0
VERTEX
  8
LAYER_1
 10
133.4595
 20
-187.248
  0
VERTEX
  8
LAYER_1
 10
132.2657
 20
-187.0829
  0
VERTEX
  8
LAYER_1
 10
133.2055
 20
-187.8195
  0
VERTEX
  8
LAYER_1
 10
133.3325
 20
-187.5274
  0
SEQEND
  0
POLYLINE
  8
LAYER_1
 40
0.1058
 41
0.1058
 66
1
 10
0
 20
0
 30
0
  0
VERTEX
  8
LAYER_1
 10
125.5474
 20
-183.0824
  0
VERTEX
  8
LAYER_1
 10
120.7722
 20
-184.4667
  0
SEQEND
  0
POLYLINE
  8
LAYER_1
 40
0.1058
 41
0.1058
 66
1
 10
0
 20
0
 30
0
  0
VERTEX
  8
LAYER_1
 10
124.4298
 20
-183.4126
  0
VERTEX
  8
LAYER_1
 10
124.5187
 20
-183.7047
  0
VERTEX
  8
LAYER_1
 10
125.5474
 20
-183.0824
  0
VERTEX
  8
LAYER_1
 10
124.3409
 20
-183.1078
  0
VERTEX
  8
LAYER_1
 10
124.4298
 20
-183.4126
  0
SEQEND
  0
POLYLINE
  8
LAYER_1
 40
0.1058
 41
0.1058
 66
1
 10
0
 20
0
 30
0
  0
VERTEX
  8
LAYER_1
 10
126.0554
 20
-192.0486
  0
VERTEX
  8
LAYER_1
 10
122.2327
 20
-194.9696
  0
SEQEND
  0
POLYLINE
  8
LAYER_1
 40
0.1058
 41
0.1058
 66
1
 10
0
 20
0
 30
0
  0
VERTEX
  8
LAYER_1
 10
125.1283
 20
-192.7471
  0
VERTEX
  8
LAYER_1
 10
125.3315
 20
-193.0011
  0
VERTEX
  8
LAYER_1
 10
126.0554
 20
-192.0486
  0
VERTEX
  8
LAYER_1
 10
124.9505
 20
-192.5058
  0
VERTEX
  8
LAYER_1
 10
125.1283
 20
-192.7471
  0
SEQEND
  0
POLYLINE
  8
LAYER_1
 40
0.1058
 41
0.1058
 66
1
 10
0
 20
0
 30
0
  0
VERTEX
  8
LAYER_1
 10
135.0343
 20
-181.0885
  0
VERTEX
  8
LAYER_1
 10
148.7672
 20
-181.0885
  0
SEQEND
  0
POLYLINE
  8
LAYER_1
 40
0.1058
 41
0.1058
 66
1
 10
0
 20
0
 30
0
  0
VERTEX
  8
LAYER_1
 10
148.1703
 20
-182.2442
  0
VERTEX
  8
LAYER_1
 10
148.4751
 20
-182.2442
  0
VERTEX
  8
LAYER_1
 10
148.1703
 20
-181.0885
  0
VERTEX
  8
LAYER_1
 10
147.8528
 20
-182.2442
  0
VERTEX
  8
LAYER_1
 10
148.1703
 20
-182.2442
  0
SEQEND
  0
POLYLINE
  8
LAYER_1
 40
0.1058
 41
0.1058
 66
1
 10
0
 20
0
 30
0
  0
VERTEX
  8
LAYER_1
 10
148.1703
 20
-181.0885
  0
VERTEX
  8
LAYER_1
 10
148.1703
 20
-184.0857
  0
SEQEND
  0
POLYLINE
  8
LAYER_1
 40
0.1058
 41
0.1058
 66
1
 10
0
 20
0
 30
0
  0
VERTEX
  8
LAYER_1
 10
148.1703
 20
-181.0885
  0
VERTEX
  8
LAYER_1
 10
148.1703
 20
-177.1769
  0
SEQEND
  0
POLYLINE
  8
LAYER_1
 40
0.1058
 41
0.1058
 66
1
 10
0
 20
0
 30
0
  0
VERTEX
  8
LAYER_1
 10
148.1703
 20
-176.0212
  0
VERTEX
  8
LAYER_1
 10
147.8528
 20
-176.0212
  0
VERTEX
  8
LAYER_1
 10
148.1703
 20
-177.1769
  0
VERTEX
  8
LAYER_1
 10
148.4751
 20
-176.0212
  0
VERTEX
  8
LAYER_1
 10
148.1703
 20
-176.0212
  0
SEQEND
  0
POLYLINE
  8
LAYER_1
 40
0.1058
 41
0.1058
 66
1
 10
0
 20
0
 30
0
  0
VERTEX
  8
LAYER_1
 10
148.1703
 20
-177.1769
  0
VERTEX
  8
LAYER_1
 10
148.1703
 20
-151.688
  0
SEQEND
  0
POLYLINE
  8
LAYER_1
 40
0.1058
 41
0.1058
 66
1
 10
0
 20
0
 30
0
  0
VERTEX
  8
LAYER_1
 10
148.7672
 20
-177.1769
  0
VERTEX
  8
LAYER_1
 10
135.6439
 20
-177.1769
  0
SEQEND
  0
POLYLINE
  8
LAYER_1
 40
0.1058
 41
0.1058
 66
1
 10
0
 20
0
 30
0
  0
VERTEX
  8
LAYER_1
 10
122.7406
 20
-174.4846
  0
VERTEX
  8
LAYER_1
 10
122.7406
 20
-158.635
  0
SEQEND
  0
POLYLINE
  8
LAYER_1
 40
0.1058
 41
0.1058
 66
1
 10
0
 20
0
 30
0
  0
VERTEX
  8
LAYER_1
 10
121.5849
 20
-159.2319
  0
VERTEX
  8
LAYER_1
 10
121.5849
 20
-159.5494
  0
VERTEX
  8
LAYER_1
 10
122.7406
 20
-159.2319
  0
VERTEX
  8
LAYER_1
 10
121.5849
 20
-158.9144
  0
VERTEX
  8
LAYER_1
 10
121.5849
 20
-159.2319
  0
SEQEND
  0
POLYLINE
  8
LAYER_1
 40
0.1058
 41
0.1058
 66
1
 10
0
 20
0
 30
0
  0
VERTEX
  8
LAYER_1
 10
122.7406
 20
-159.2319
  0
VERTEX
  8
LAYER_1
 10
114.0411
 20
-159.2319
  0
SEQEND
  0
POLYLINE
  8
LAYER_1
 40
0.1058
 41
0.1058
 66
1
 10
0
 20
0
 30
0
  0
VERTEX
  8
LAYER_1
 10
122.7406
 20
-159.2319
  0
VERTEX
  8
LAYER_1
 10
135.6438
 20
-159.2319
  0
SEQEND
  0
POLYLINE
  8
LAYER_1
 40
0.1058
 41
0.1058
 66
1
 10
0
 20
0
 30
0
  0
VERTEX
  8
LAYER_1
 10
136.7995
 20
-159.2319
  0
VERTEX
  8
LAYER_1
 10
136.7995
 20
-158.9144
  0
VERTEX
  8
LAYER_1
 10
135.6438
 20
-159.2319
  0
VERTEX
  8
LAYER_1
 10
136.7995
 20
-159.5494
  0
VERTEX
  8
LAYER_1
 10
136.7995
 20
-159.2319
  0
SEQEND
  0
POLYLINE
  8
LAYER_1
 40
0.1058
 41
0.1058
 66
1
 10
0
 20
0
 30
0
  0
VERTEX
  8
LAYER_1
 10
135.6438
 20
-159.2319
  0
VERTEX
  8
LAYER_1
 10
138.641
 20
-159.2319
  0
SEQEND
  0
POLYLINE
  8
LAYER_1
 40
0.1058
 41
0.1058
 66
1
 10
0
 20
0
 30
0
  0
VERTEX
  8
LAYER_1
 10
135.6438
 20
-158.635
  0
VERTEX
  8
LAYER_1
 10
135.6438
 20
-174.4845
  0
SEQEND
  0
POLYLINE
  8
LAYER_1
 40
0.1058
 41
0.1058
 66
1
 10
0
 20
0
 30
0
  0
VERTEX
  8
LAYER_1
 10
108.4023
 20
-110.8449
  0
VERTEX
  8
LAYER_1
 10
108.7071
 20
-110.8449
  0
VERTEX
  8
LAYER_1
 10
108.4023
 20
-109.6892
  0
VERTEX
  8
LAYER_1
 10
108.0848
 20
-110.8449
  0
VERTEX
  8
LAYER_1
 10
108.4023
 20
-110.8449
  0
SEQEND
  0
POLYLINE
  8
LAYER_1
 40
0.1058
 41
0.1058
 66
1
 10
0
 20
0
 30
0
  0
VERTEX
  8
LAYER_1
 10
108.4023
 20
-109.6892
  0
VERTEX
  8
LAYER_1
 10
108.4023
 20
-118.3887
  0
SEQEND
  0
POLYLINE
  8
LAYER_1
 40
0.1058
 41
0.1058
 66
1
 10
0
 20
0
 30
0
  0
VERTEX
  8
LAYER_1
 10
108.4023
 20
-109.6892
  0
VERTEX
  8
LAYER_1
 10
108.4023
 20
-103.39
  0
SEQEND
  0
POLYLINE
  8
LAYER_1
 40
0.1058
 41
0.1058
 66
1
 10
0
 20
0
 30
0
  0
VERTEX
  8
LAYER_1
 10
108.4023
 20
-102.2343
  0
VERTEX
  8
LAYER_1
 10
108.0848
 20
-102.2343
  0
VERTEX
  8
LAYER_1
 10
108.4023
 20
-103.39
  0
VERTEX
  8
LAYER_1
 10
108.7071
 20
-102.2343
  0
VERTEX
  8
LAYER_1
 10
108.4023
 20
-102.2343
  0
SEQEND
  0
POLYLINE
  8
LAYER_1
 40
0.1058
 41
0.1058
 66
1
 10
0
 20
0
 30
0
  0
VERTEX
  8
LAYER_1
 10
108.4023
 20
-103.39
  0
VERTEX
  8
LAYER_1
 10
108.4023
 20
-100.3801
  0
SEQEND
  0
POLYLINE
  8
LAYER_1
 40
0.1058
 41
0.1058
 66
1
 10
0
 20
0
 30
0
  0
VERTEX
  8
LAYER_1
 10
122.7787
 20
-99.707
  0
VERTEX
  8
LAYER_1
 10
122.7787
 20
-100.0245
  0
VERTEX
  8
LAYER_1
 10
123.9344
 20
-99.707
  0
VERTEX
  8
LAYER_1
 10
122.7787
 20
-99.4022
  0
VERTEX
  8
LAYER_1
 10
122.7787
 20
-99.707
  0
SEQEND
  0
POLYLINE
  8
LAYER_1
 40
0.1058
 41
0.1058
 66
1
 10
0
 20
0
 30
0
  0
VERTEX
  8
LAYER_1
 10
123.9344
 20
-99.707
  0
VERTEX
  8
LAYER_1
 10
120.9372
 20
-99.707
  0
SEQEND
  0
POLYLINE
  8
LAYER_1
 40
0.1058
 41
0.1058
 66
1
 10
0
 20
0
 30
0
  0
VERTEX
  8
LAYER_1
 10
123.9344
 20
-99.707
  0
VERTEX
  8
LAYER_1
 10
134.4373
 20
-99.707
  0
SEQEND
  0
POLYLINE
  8
LAYER_1
 40
0.1058
 41
0.1058
 66
1
 10
0
 20
0
 30
0
  0
VERTEX
  8
LAYER_1
 10
135.593
 20
-99.707
  0
VERTEX
  8
LAYER_1
 10
135.593
 20
-99.4022
  0
VERTEX
  8
LAYER_1
 10
134.4373
 20
-99.707
  0
VERTEX
  8
LAYER_1
 10
135.593
 20
-100.0245
  0
VERTEX
  8
LAYER_1
 10
135.593
 20
-99.707
  0
SEQEND
  0
POLYLINE
  8
LAYER_1
 40
0.1058
 41
0.1058
 66
1
 10
0
 20
0
 30
0
  0
VERTEX
  8
LAYER_1
 10
134.4373
 20
-99.707
  0
VERTEX
  8
LAYER_1
 10
143.1368
 20
-99.707
  0
SEQEND
  0
POLYLINE
  8
LAYER_1
 40
0.1058
 41
0.1058
 66
1
 10
0
 20
0
 30
0
  0
VERTEX
  8
LAYER_1
 10
200.0523
 20
-106.3999
  0
VERTEX
  8
LAYER_1
 10
199.4554
 20
-106.3999
  0
SEQEND
  0
POLYLINE
  8
LAYER_1
 40
0.1058
 41
0.1058
 66
1
 10
0
 20
0
 30
0
  0
VERTEX
  8
LAYER_1
 10
198.8585
 20
-106.3999
  0
VERTEX
  8
LAYER_1
 10
193.461
 20
-106.3999
  0
SEQEND
  0
POLYLINE
  8
LAYER_1
 40
0.1058
 41
0.1058
 66
1
 10
0
 20
0
 30
0
  0
VERTEX
  8
LAYER_1
 10
192.8514
 20
-106.3999
  0
VERTEX
  8
LAYER_1
 10
192.2545
 20
-106.3999
  0
SEQEND
  0
POLYLINE
  8
LAYER_1
 40
0.1058
 41
0.1058
 66
1
 10
0
 20
0
 30
0
  0
VERTEX
  8
LAYER_1
 10
191.6576
 20
-106.3999
  0
VERTEX
  8
LAYER_1
 10
186.2601
 20
-106.3999
  0
SEQEND
  0
POLYLINE
  8
LAYER_1
 40
0.1058
 41
0.1058
 66
1
 10
0
 20
0
 30
0
  0
VERTEX
  8
LAYER_1
 10
185.6632
 20
-106.3999
  0
VERTEX
  8
LAYER_1
 10
185.0536
 20
-106.3999
  0
SEQEND
  0
POLYLINE
  8
LAYER_1
 40
0.1058
 41
0.1058
 66
1
 10
0
 20
0
 30
0
  0
VERTEX
  8
LAYER_1
 10
184.4567
 20
-106.3999
  0
VERTEX
  8
LAYER_1
 10
179.0592
 20
-106.3999
  0
SEQEND
  0
POLYLINE
  8
LAYER_1
 40
0.1058
 41
0.1058
 66
1
 10
0
 20
0
 30
0
  0
VERTEX
  8
LAYER_1
 10
178.4623
 20
-106.3999
  0
VERTEX
  8
LAYER_1
 10
177.8527
 20
-106.3999
  0
SEQEND
  0
POLYLINE
  8
LAYER_1
 40
0.1058
 41
0.1058
 66
1
 10
0
 20
0
 30
0
  0
VERTEX
  8
LAYER_1
 10
177.2558
 20
-106.3999
  0
VERTEX
  8
LAYER_1
 10
171.8583
 20
-106.3999
  0
SEQEND
  0
POLYLINE
  8
LAYER_1
 40
0.1058
 41
0.1058
 66
1
 10
0
 20
0
 30
0
  0
VERTEX
  8
LAYER_1
 10
171.2614
 20
-106.3999
  0
VERTEX
  8
LAYER_1
 10
170.6518
 20
-106.3999
  0
SEQEND
  0
POLYLINE
  8
LAYER_1
 40
0.1058
 41
0.1058
 66
1
 10
0
 20
0
 30
0
  0
VERTEX
  8
LAYER_1
 10
170.0549
 20
-106.3999
  0
VERTEX
  8
LAYER_1
 10
164.6574
 20
-106.3999
  0
SEQEND
  0
POLYLINE
  8
LAYER_1
 40
0.1058
 41
0.1058
 66
1
 10
0
 20
0
 30
0
  0
VERTEX
  8
LAYER_1
 10
164.0605
 20
-106.3999
  0
VERTEX
  8
LAYER_1
 10
163.4636
 20
-106.3999
  0
SEQEND
  0
POLYLINE
  8
LAYER_1
 40
0.1058
 41
0.1058
 66
1
 10
0
 20
0
 30
0
  0
VERTEX
  8
LAYER_1
 10
162.854
 20
-106.3999
  0
VERTEX
  8
LAYER_1
 10
159.9203
 20
-106.3999
  0
SEQEND
  0
TEXT
  8
LAYER_1
 10
88.387
 20
-85.3078
 11
88.387
 21
-85.3078
 40
5.542
 41
0.5
  1
22%%d
  0
TEXT
  8
LAYER_1
 10
86.8105
 20
-126.2672
 11
86.8105
 21
-126.2672
 40
5.542
 41
0.5
  1
20%%d
  0
TEXT
  8
LAYER_1
 10
96.4716
 20
-92.6813
 11
96.4716
 21
-92.6813
 40
4.6571
 41
0.5
  1
止水
  0
TEXT
  8
LAYER_1
 10
109.049
 20
-78.0535
 11
109.049
 21
-78.0535
 40
4.6571
 41
0.5
  1
吐水
  0
TEXT
  8
LAYER_1
 10
130.0234
 20
-76.9851
 11
130.0234
 21
-76.9851
 40
5.542
 41
0.5
  1
26
  0
TEXT
  8
LAYER_1
 10
138.1697
 20
-97.3598
 11
138.1697
 21
-97.3598
 40
5.542
 41
0.5
  1
%%c35
  0
TEXT
  8
LAYER_1
 10
106.7387
 20
-120.814
 11
106.7387
 21
-120.814
 40
5.542
 41
0.5
 50
89.99999999
  1
%%c21
  0
TEXT
  8
LAYER_1
 10
135.7629
 20
-187.8786
 11
135.7629
 21
-187.8786
 40
5.542
 41
0.5
  1
PJ1/2
  0
TEXT
  8
LAYER_1
 10
105.1953
 20
-183.9519
 11
105.1953
 21
-183.9519
 40
5.542
 41
0.5
  1
24六角
  0
TEXT
  8
LAYER_1
 10
108.5736
 20
-197.9707
 11
108.5736
 21
-197.9707
 40
5.542
 41
0.5
  1
23六角
  0
TEXT
  8
LAYER_1
 10
85.1535
 20
-148.3293
 11
85.1535
 21
-148.3293
 40
5.542
 41
0.5
 50
89.99999999
  1
218
  0
TEXT
  8
LAYER_1
 10
75.6822
 20
-132.5955
 11
75.6822
 21
-132.5955
 40
5.542
 41
0.5
 50
89.99999999
  1
298
  0
TEXT
  8
LAYER_1
 10
65.6335
 20
-117.9236
 11
65.6335
 21
-117.9236
 40
5.542
 41
0.5
 50
89.99999999
  1
323
  0
TEXT
  8
LAYER_1
 10
111.3393
 20
-157.2342
 11
111.3393
 21
-157.2342
 40
5.542
 41
0.5
  1
%%c43
  0
TEXT
  8
LAYER_1
 10
97.5568
 20
-187.9275
 11
97.5568
 21
-187.9275
 40
5.542
 41
0.5
  1
123
  0
INSERT
  8
LAYER_6
  2
AIGNBL06010002
 10
0
 20
0
 30
0
  0
POLYLINE
  8
LAYER_6
 40
0.3528
 41
0.3528
 66
1
 10
0
 20
0
 30
0
  0
VERTEX
  8
LAYER_6
 10
34.7876
 20
-258.3332
  0
VERTEX
  8
LAYER_6
 10
229.7955
 20
-258.3332
  0
VERTEX
  8
LAYER_6
 10
229.7955
 20
21.6583
  0
VERTEX
  8
LAYER_6
 10
34.7876
 20
21.6583
  0
VERTEX
  8
LAYER_6
 10
34.7876
 20
-258.3332
  0
SEQEND
  0
TEXT
  8
LAYER_6
 10
166.4505
 20
-248.7955
 11
166.4505
 21
-248.7955
 40
3.3853
 41
0.5
  1
●TEL 0120-65-1232●FAX 06-6532-1580
  0
TEXT
  8
LAYER_6
 10
166.4505
 20
-252.3102
 11
166.4505
 21
-252.3102
 40
3.3853
 41
0.5
  1
hits@hiratatile.co.jp
  0
TEXT
  8
LAYER_6
 10
218.9756
 20
18.4461
 11
218.9756
 21
18.4461
 40
2.0732
 41
0.5
  1
190703RT
  0
TEXT
  8
LAYER_6
 10
37.8495
 20
-250.3797
 11
37.8495
 21
-250.3797
 40
3.2995
 41
0.5
  1
仕様
  0
POLYLINE
  8
LAYER_6
 40
0.3528
 41
0.3528
 66
1
 10
0
 20
0
 30
0
  0
VERTEX
  8
LAYER_6
 10
229.7955
 20
-241.6001
  0
VERTEX
  8
LAYER_6
 10
34.7874
 20
-241.6001
  0
SEQEND
  0
POLYLINE
  8
LAYER_6
 40
0.3528
 41
0.3528
 66
1
 10
0
 20
0
 30
0
  0
VERTEX
  8
LAYER_6
 10
229.7955
 20
-233.091
  0
VERTEX
  8
LAYER_6
 10
34.7874
 20
-233.091
  0
SEQEND
  0
TEXT
  8
LAYER_6
 10
35.9444
 20
-235.5675
 11
35.9444
 21
-235.5675
 40
2.1997
 41
0.5
  1
品名
  0
TEXT
  8
LAYER_6
 10
48.7579
 20
-238.6599
 11
48.7579
 21
-238.6599
 40
3.6373
 41
0.5
  1
シングルレバー洗面単水栓
  0
TEXT
  8
LAYER_6
 10
48.4217
 20
-250.3883
 11
48.4217
 21
-250.3883
 40
3.1177
 41
0.5
  1
●排水金具別途
  0
TEXT
  8
LAYER_6
 10
136.1566
 20
-235.5677
 11
136.1566
 21
-235.5677
 40
2.1997
 41
0.5
  1
品番
  0
TEXT
  8
LAYER_6
 10
142.1786
 20
-238.9121
 11
142.1786
 21
-238.9121
 40
5.3134
 41
0.5
  1
TD-ML054L-（BL）(WH)
  0
ENDSEC
  0
EOF
