  0
SECTION
  2
HEADER
  9
$ACADVER
  1
AC1009
  9
$LUNITS
 70
2
  9
$LUPREC
 70
4
  9
$LTSCALE
 40
1.0
  9
$EXTMIN
 10
33.7873
 20
-259.334
 30
0
  9
$EXTMAX
 10
230.7955
 20
22.6587
 30
0
  0
ENDSEC
  0
SECTION
  2
TABLES
  0
TABLE
  2
LTYPE
 70
256
  0
ENDTAB
  0
TABLE
  2
LAYER
 70
6
  0
LAYER
  2
LAYER_1
 70
64
 62
7
  6
CONTINUOUS
  0
LAYER
  2
LAYER_2
 70
64
 62
7
  6
CONTINUOUS
  0
LAYER
  2
LAYER_3
 70
64
 62
7
  6
CONTINUOUS
  0
LAYER
  2
LAYER_4
 70
64
 62
7
  6
CONTINUOUS
  0
LAYER
  2
LAYER_5
 70
64
 62
7
  6
CONTINUOUS
  0
LAYER
  2
LAYER_6
 70
64
 62
7
  6
CONTINUOUS
  0
ENDTAB
  0
TABLE
  2
STYLE
 70
6
  0
STYLE
  2
STANDARD
 70
0
 40
0
 50
0
 71
0
 41
0
 42
0
  3
TXT
  4
BIGFONT
  0
ENDTAB
  0
ENDSEC
  0
SECTION
  2
BLOCKS
  0
BLOCK
  8
LAYER_1
  2
AIGNBL01040005
 70
64
 10
0
 20
0
 30
0
  3
AIGNBL01040005
  0
POLYLINE
  8
LAYER_1
 40
0.05
 41
0.05
 66
1
 10
0
 20
0
 30
0
 70
1
  0
VERTEX
  8
LAYER_1
 10
138.3767
 20
-249.1011
  0
VERTEX
  8
LAYER_1
 10
137.891
 20
-250.2793
  0
VERTEX
  8
LAYER_1
 10
137.2664
 20
-250.2793
  0
VERTEX
  8
LAYER_1
 10
138.857
 20
-246.5355
  0
VERTEX
  8
LAYER_1
 10
139.586
 20
-246.5355
  0
VERTEX
  8
LAYER_1
 10
141.1828
 20
-250.2793
  0
VERTEX
  8
LAYER_1
 10
140.5365
 20
-250.2793
  0
VERTEX
  8
LAYER_1
 10
140.0369
 20
-249.1011
  0
SEQEND
  0
POLYLINE
  8
LAYER_1
 40
0.05
 41
0.05
 66
1
 10
0
 20
0
 30
0
 70
1
  0
VERTEX
  8
LAYER_1
 10
139.9115
 20
-248.7245
  0
VERTEX
  8
LAYER_1
 10
139.4533
 20
-247.6459
  0
VERTEX
  8
LAYER_1
 10
139.2101
 20
-246.963
  0
VERTEX
  8
LAYER_1
 10
139.1967
 20
-246.963
  0
VERTEX
  8
LAYER_1
 10
138.9603
 20
-247.6414
  0
VERTEX
  8
LAYER_1
 10
138.5021
 20
-248.7245
  0
SEQEND
  0
ENDBLK
  0
BLOCK
  8
LAYER_1
  2
AIGNBL01040006
 70
64
 10
0
 20
0
 30
0
  3
AIGNBL01040006
  0
POLYLINE
  8
LAYER_1
 40
0.05
 41
0.05
 66
1
 10
0
 20
0
 30
0
 70
1
  0
VERTEX
  8
LAYER_1
 10
145.5226
 20
-250.8295
 42
-0.01588995579
  0
VERTEX
  8
LAYER_1
 10
143.7311
 20
-250.3954
  0
VERTEX
  8
LAYER_1
 10
143.4465
 20
-250.3406
 42
-0.08603985201
  0
VERTEX
  8
LAYER_1
 10
142.5648
 20
-250.1665
 42
-0.09807603942
  0
VERTEX
  8
LAYER_1
 10
141.9131
 20
-249.7557
 42
-0.2094886647
  0
VERTEX
  8
LAYER_1
 10
141.3839
 20
-248.4469
 42
-0.09686882676
  0
VERTEX
  8
LAYER_1
 10
141.5276
 20
-247.6779
 42
-0.2046492491
  0
VERTEX
  8
LAYER_1
 10
142.5693
 20
-246.6597
 42
-0.09822810302
  0
VERTEX
  8
LAYER_1
 10
143.5644
 20
-246.4745
 42
-0.08551091506
  0
VERTEX
  8
LAYER_1
 10
144.4282
 20
-246.615
 42
-0.1004264881
  0
VERTEX
  8
LAYER_1
 10
145.0896
 20
-247.0069
 42
-0.2141381959
  0
VERTEX
  8
LAYER_1
 10
145.6617
 20
-248.3686
 42
-0.09538251124
  0
VERTEX
  8
LAYER_1
 10
145.5236
 20
-249.1322
 42
-0.2145004706
  0
VERTEX
  8
LAYER_1
 10
144.5063
 20
-250.1049
 42
-0.02339472194
  0
VERTEX
  8
LAYER_1
 10
144.3281
 20
-250.1628
  0
VERTEX
  8
LAYER_1
 10
144.3281
 20
-250.1852
  0
VERTEX
  8
LAYER_1
 10
145.6965
 20
-250.424
  0
SEQEND
  0
POLYLINE
  8
LAYER_1
 40
0.05
 41
0.05
 66
1
 10
0
 20
0
 30
0
 70
1
  0
VERTEX
  8
LAYER_1
 10
145.0233
 20
-248.39
 42
0.1071465477
  0
VERTEX
  8
LAYER_1
 10
144.8729
 20
-247.6894
 42
0.2977221891
  0
VERTEX
  8
LAYER_1
 10
143.5433
 20
-246.8687
 42
0.1072160189
  0
VERTEX
  8
LAYER_1
 10
142.8575
 20
-247.0073
 42
0.2385375056
  0
VERTEX
  8
LAYER_1
 10
142.0749
 20
-248.007
 42
0.05759145292
  0
VERTEX
  8
LAYER_1
 10
142.0296
 20
-248.4344
 42
0.2182236294
  0
VERTEX
  8
LAYER_1
 10
142.5575
 20
-249.6231
 42
0.1771891839
  0
VERTEX
  8
LAYER_1
 10
143.5161
 20
-249.9468
 42
0.1075696895
  0
VERTEX
  8
LAYER_1
 10
144.1932
 20
-249.8086
 42
0.236982977
  0
VERTEX
  8
LAYER_1
 10
144.9758
 20
-248.8146
 42
0.05604944619
  0
SEQEND
  0
ENDBLK
  0
BLOCK
  8
LAYER_1
  2
AIGNBL01040007
 70
64
 10
0
 20
0
 30
0
  3
AIGNBL01040007
  0
POLYLINE
  8
LAYER_1
 40
0.05
 41
0.05
 66
1
 10
0
 20
0
 30
0
 70
1
  0
VERTEX
  8
LAYER_1
 10
146.9815
 20
-246.5355
  0
VERTEX
  8
LAYER_1
 10
146.9815
 20
-248.7517
 42
0.114472655
  0
VERTEX
  8
LAYER_1
 10
147.1146
 20
-249.4136
 42
0.1464766
  0
VERTEX
  8
LAYER_1
 10
147.4628
 20
-249.7966
 42
0.1363197034
  0
VERTEX
  8
LAYER_1
 10
148.0716
 20
-249.9468
 42
0.1219363095
  0
VERTEX
  8
LAYER_1
 10
148.6913
 20
-249.8128
 42
0.1503291203
  0
VERTEX
  8
LAYER_1
 10
149.0609
 20
-249.446
 42
0.1255921242
  0
VERTEX
  8
LAYER_1
 10
149.2105
 20
-248.7517
  0
VERTEX
  8
LAYER_1
 10
149.2105
 20
-246.5355
  0
VERTEX
  8
LAYER_1
 10
149.8217
 20
-246.5355
  0
VERTEX
  8
LAYER_1
 10
149.8217
 20
-248.7187
 42
-0.1000186514
  0
VERTEX
  8
LAYER_1
 10
149.6875
 20
-249.4569
 42
-0.1214826848
  0
VERTEX
  8
LAYER_1
 10
149.3164
 20
-249.9606
 42
-0.1105884685
  0
VERTEX
  8
LAYER_1
 10
148.6945
 20
-250.2654
 42
-0.06129767201
  0
VERTEX
  8
LAYER_1
 10
148.0509
 20
-250.3406
 42
-0.09420892198
  0
VERTEX
  8
LAYER_1
 10
147.2365
 20
-250.2032
 42
-0.2431575096
  0
VERTEX
  8
LAYER_1
 10
146.4378
 20
-249.2978
 42
-0.06319469768
  0
VERTEX
  8
LAYER_1
 10
146.3707
 20
-248.7404
  0
VERTEX
  8
LAYER_1
 10
146.3707
 20
-246.5355
  0
SEQEND
  0
ENDBLK
  0
BLOCK
  8
LAYER_1
  2
AIGNBL01040008
 70
64
 10
0
 20
0
 30
0
  3
AIGNBL01040008
  0
POLYLINE
  8
LAYER_1
 40
0.05
 41
0.05
 66
1
 10
0
 20
0
 30
0
 70
1
  0
VERTEX
  8
LAYER_1
 10
151.5573
 20
-249.1011
  0
VERTEX
  8
LAYER_1
 10
151.0709
 20
-250.2793
  0
VERTEX
  8
LAYER_1
 10
150.447
 20
-250.2793
  0
VERTEX
  8
LAYER_1
 10
152.0365
 20
-246.5355
  0
VERTEX
  8
LAYER_1
 10
152.7655
 20
-246.5355
  0
VERTEX
  8
LAYER_1
 10
154.3623
 20
-250.2793
  0
VERTEX
  8
LAYER_1
 10
153.7167
 20
-250.2793
  0
VERTEX
  8
LAYER_1
 10
153.2175
 20
-249.1011
  0
SEQEND
  0
POLYLINE
  8
LAYER_1
 40
0.05
 41
0.05
 66
1
 10
0
 20
0
 30
0
 70
1
  0
VERTEX
  8
LAYER_1
 10
153.0921
 20
-248.7245
  0
VERTEX
  8
LAYER_1
 10
152.6332
 20
-247.6459
  0
VERTEX
  8
LAYER_1
 10
152.3897
 20
-246.963
  0
VERTEX
  8
LAYER_1
 10
152.3759
 20
-246.963
  0
VERTEX
  8
LAYER_1
 10
152.1402
 20
-247.6414
  0
VERTEX
  8
LAYER_1
 10
151.682
 20
-248.7245
  0
SEQEND
  0
ENDBLK
  0
BLOCK
  8
LAYER_1
  2
AIGNBL01040009
 70
64
 10
0
 20
0
 30
0
  3
AIGNBL01040009
  0
POLYLINE
  8
LAYER_1
 40
0.05
 41
0.05
 66
1
 10
0
 20
0
 30
0
 70
1
  0
VERTEX
  8
LAYER_1
 10
155.3969
 20
-246.58
 42
-0.03256094069
  0
VERTEX
  8
LAYER_1
 10
156.5576
 20
-246.5072
 42
-0.08241612935
  0
VERTEX
  8
LAYER_1
 10
157.5173
 20
-246.6416
 42
-0.07669938049
  0
VERTEX
  8
LAYER_1
 10
157.8691
 20
-246.8184
 42
-0.2484913661
  0
VERTEX
  8
LAYER_1
 10
158.279
 20
-247.6018
 42
-0.2263535337
  0
VERTEX
  8
LAYER_1
 10
157.9177
 20
-248.4014
 42
-0.1098394792
  0
VERTEX
  8
LAYER_1
 10
157.2932
 20
-248.7128
 42
-0.0656406839
  0
VERTEX
  8
LAYER_1
 10
156.4872
 20
-248.8127
 42
-0.06243203296
  0
VERTEX
  8
LAYER_1
 10
156.0015
 20
-248.7793
  0
VERTEX
  8
LAYER_1
 10
156.0015
 20
-250.2793
  0
VERTEX
  8
LAYER_1
 10
155.3969
 20
-250.2793
  0
SEQEND
  0
POLYLINE
  8
LAYER_1
 40
0.05
 41
0.05
 66
1
 10
0
 20
0
 30
0
 70
1
  0
VERTEX
  8
LAYER_1
 10
156.0015
 20
-248.3852
 42
0.04167858666
  0
VERTEX
  8
LAYER_1
 10
156.501
 20
-248.4245
 42
0.1033682296
  0
VERTEX
  8
LAYER_1
 10
157.216
 20
-248.2977
 42
0.300261568
  0
VERTEX
  8
LAYER_1
 10
157.6751
 20
-247.6242
 42
0.1736095203
  0
VERTEX
  8
LAYER_1
 10
157.5412
 20
-247.2193
 42
0.1518049397
  0
VERTEX
  8
LAYER_1
 10
157.1227
 20
-246.9614
 42
0.06878721899
  0
VERTEX
  8
LAYER_1
 10
156.5713
 20
-246.891
 42
0.0640598863
  0
VERTEX
  8
LAYER_1
 10
156.0015
 20
-246.93
  0
SEQEND
  0
ENDBLK
  0
BLOCK
  8
LAYER_1
  2
AIGNBL0104000A
 70
64
 10
0
 20
0
 30
0
  3
AIGNBL0104000A
  0
POLYLINE
  8
LAYER_1
 40
0.05
 41
0.05
 66
1
 10
0
 20
0
 30
0
 70
1
  0
VERTEX
  8
LAYER_1
 10
159.8218
 20
-246.8352
 42
-0.2759870412
  0
VERTEX
  8
LAYER_1
 10
159.6829
 20
-247.0742
 42
-0.1267055018
  0
VERTEX
  8
LAYER_1
 10
159.4325
 20
-247.1356
 42
-0.2239956238
  0
VERTEX
  8
LAYER_1
 10
159.1241
 20
-247.0039
 42
-0.1705452753
  0
VERTEX
  8
LAYER_1
 10
159.0645
 20
-246.8352
 42
-0.2641883957
  0
VERTEX
  8
LAYER_1
 10
159.2127
 20
-246.5896
 42
-0.1291792354
  0
VERTEX
  8
LAYER_1
 10
159.4459
 20
-246.53
 42
-0.2251681707
  0
VERTEX
  8
LAYER_1
 10
159.761
 20
-246.6599
 42
-0.1693099844
  0
SEQEND
  0
POLYLINE
  8
LAYER_1
 40
0.05
 41
0.05
 66
1
 10
0
 20
0
 30
0
 70
1
  0
VERTEX
  8
LAYER_1
 10
159.1407
 20
-250.2793
  0
VERTEX
  8
LAYER_1
 10
159.1407
 20
-247.5907
  0
VERTEX
  8
LAYER_1
 10
159.7515
 20
-247.5907
  0
VERTEX
  8
LAYER_1
 10
159.7515
 20
-250.2793
  0
SEQEND
  0
ENDBLK
  0
BLOCK
  8
LAYER_1
  2
AIGNBL0104000B
 70
64
 10
0
 20
0
 30
0
  3
AIGNBL0104000B
  0
POLYLINE
  8
LAYER_1
 40
0.05
 41
0.05
 66
1
 10
0
 20
0
 30
0
 70
1
  0
VERTEX
  8
LAYER_1
 10
161.6118
 20
-249.1011
  0
VERTEX
  8
LAYER_1
 10
161.1271
 20
-250.2793
  0
VERTEX
  8
LAYER_1
 10
160.5015
 20
-250.2793
  0
VERTEX
  8
LAYER_1
 10
162.0918
 20
-246.5355
  0
VERTEX
  8
LAYER_1
 10
162.8211
 20
-246.5355
  0
VERTEX
  8
LAYER_1
 10
164.4186
 20
-250.2793
  0
VERTEX
  8
LAYER_1
 10
163.7719
 20
-250.2793
  0
VERTEX
  8
LAYER_1
 10
163.2727
 20
-249.1011
  0
SEQEND
  0
POLYLINE
  8
LAYER_1
 40
0.05
 41
0.05
 66
1
 10
0
 20
0
 30
0
 70
1
  0
VERTEX
  8
LAYER_1
 10
163.1473
 20
-248.7245
  0
VERTEX
  8
LAYER_1
 10
162.6891
 20
-247.6459
  0
VERTEX
  8
LAYER_1
 10
162.4466
 20
-246.963
  0
VERTEX
  8
LAYER_1
 10
162.4321
 20
-246.963
  0
VERTEX
  8
LAYER_1
 10
162.1961
 20
-247.6414
  0
VERTEX
  8
LAYER_1
 10
161.7379
 20
-248.7245
  0
SEQEND
  0
ENDBLK
  0
BLOCK
  8
LAYER_1
  2
AIGNBL01030004
 70
64
 10
0
 20
0
 30
0
  3
AIGNBL01030004
  0
INSERT
  8
LAYER_1
  2
AIGNBL01040005
 10
0
 20
0
 30
0
  0
INSERT
  8
LAYER_1
  2
AIGNBL01040006
 10
0
 20
0
 30
0
  0
INSERT
  8
LAYER_1
  2
AIGNBL01040007
 10
0
 20
0
 30
0
  0
INSERT
  8
LAYER_1
  2
AIGNBL01040008
 10
0
 20
0
 30
0
  0
INSERT
  8
LAYER_1
  2
AIGNBL01040009
 10
0
 20
0
 30
0
  0
INSERT
  8
LAYER_1
  2
AIGNBL0104000A
 10
0
 20
0
 30
0
  0
INSERT
  8
LAYER_1
  2
AIGNBL0104000B
 10
0
 20
0
 30
0
  0
ENDBLK
  0
BLOCK
  8
LAYER_1
  2
AIGNBL0103000D
 70
64
 10
0
 20
0
 30
0
  3
AIGNBL0103000D
  0
POLYLINE
  8
LAYER_1
 40
0.05
 41
0.05
 66
1
 10
0
 20
0
 30
0
 70
1
  0
VERTEX
  8
LAYER_1
 10
137.3756
 20
-252.1676
  0
VERTEX
  8
LAYER_1
 10
137.9258
 20
-252.1676
  0
VERTEX
  8
LAYER_1
 10
137.9258
 20
-252.2609
  0
VERTEX
  8
LAYER_1
 10
137.2715
 20
-252.2609
  0
VERTEX
  8
LAYER_1
 10
137.2715
 20
-251.2339
  0
VERTEX
  8
LAYER_1
 10
137.9082
 20
-251.2339
  0
VERTEX
  8
LAYER_1
 10
137.9082
 20
-251.3266
  0
VERTEX
  8
LAYER_1
 10
137.3756
 20
-251.3266
  0
VERTEX
  8
LAYER_1
 10
137.3756
 20
-251.6787
  0
VERTEX
  8
LAYER_1
 10
137.8734
 20
-251.6787
  0
VERTEX
  8
LAYER_1
 10
137.8734
 20
-251.7717
  0
VERTEX
  8
LAYER_1
 10
137.3756
 20
-251.7717
  0
SEQEND
  0
ENDBLK
  0
BLOCK
  8
LAYER_1
  2
AIGNBL0103000E
 70
64
 10
0
 20
0
 30
0
  3
AIGNBL0103000E
  0
POLYLINE
  8
LAYER_1
 40
0.05
 41
0.05
 66
1
 10
0
 20
0
 30
0
 70
1
  0
VERTEX
  8
LAYER_1
 10
139.0589
 20
-252.1079
  0
VERTEX
  8
LAYER_1
 10
139.0613
 20
-252.1079
  0
VERTEX
  8
LAYER_1
 10
139.0613
 20
-251.2339
  0
VERTEX
  8
LAYER_1
 10
139.1663
 20
-251.2339
  0
VERTEX
  8
LAYER_1
 10
139.1663
 20
-252.2609
  0
VERTEX
  8
LAYER_1
 10
139.0365
 20
-252.2609
  0
VERTEX
  8
LAYER_1
 10
138.4384
 20
-251.3772
  0
VERTEX
  8
LAYER_1
 10
138.435
 20
-251.3772
  0
VERTEX
  8
LAYER_1
 10
138.435
 20
-252.2609
  0
VERTEX
  8
LAYER_1
 10
138.3306
 20
-252.2609
  0
VERTEX
  8
LAYER_1
 10
138.3306
 20
-251.2339
  0
VERTEX
  8
LAYER_1
 10
138.4611
 20
-251.2339
  0
SEQEND
  0
ENDBLK
  0
BLOCK
  8
LAYER_1
  2
AIGNBL0103000F
 70
64
 10
0
 20
0
 30
0
  3
AIGNBL0103000F
  0
POLYLINE
  8
LAYER_1
 40
0.05
 41
0.05
 66
1
 10
0
 20
0
 30
0
 70
1
  0
VERTEX
  8
LAYER_1
 10
139.637
 20
-252.0501
  0
VERTEX
  8
LAYER_1
 10
139.691
 20
-252.1527
 42
0.1791739205
  0
VERTEX
  8
LAYER_1
 10
139.8034
 20
-252.1937
  0
VERTEX
  8
LAYER_1
 10
139.8922
 20
-252.1744
  0
VERTEX
  8
LAYER_1
 10
139.948
 20
-252.1214
  0
VERTEX
  8
LAYER_1
 10
139.9763
 20
-252.0453
  0
VERTEX
  8
LAYER_1
 10
139.9853
 20
-251.956
  0
VERTEX
  8
LAYER_1
 10
139.9853
 20
-251.2339
  0
VERTEX
  8
LAYER_1
 10
140.0893
 20
-251.2339
  0
VERTEX
  8
LAYER_1
 10
140.0893
 20
-251.965
  0
VERTEX
  8
LAYER_1
 10
140.0783
 20
-252.0718
  0
VERTEX
  8
LAYER_1
 10
140.0369
 20
-252.1765
  0
VERTEX
  8
LAYER_1
 10
139.9529
 20
-252.2554
  0
VERTEX
  8
LAYER_1
 10
139.8147
 20
-252.2868
 42
-0.18823279
  0
VERTEX
  8
LAYER_1
 10
139.6311
 20
-252.2268
 42
-0.1779708983
  0
VERTEX
  8
LAYER_1
 10
139.5391
 20
-252.0769
  0
SEQEND
  0
ENDBLK
  0
BLOCK
  8
LAYER_1
  2
AIGNBL01030010
 70
64
 10
0
 20
0
 30
0
  3
AIGNBL01030010
  0
POLYLINE
  8
LAYER_1
 40
0.05
 41
0.05
 66
1
 10
0
 20
0
 30
0
 70
1
  0
VERTEX
  8
LAYER_1
 10
141.5693
 20
-251.7469
 42
-0.104348301
  0
VERTEX
  8
LAYER_1
 10
141.5279
 20
-251.9629
 42
-0.1013865216
  0
VERTEX
  8
LAYER_1
 10
141.4163
 20
-252.1338
  0
VERTEX
  8
LAYER_1
 10
141.2458
 20
-252.2461
 42
-0.09497960855
  0
VERTEX
  8
LAYER_1
 10
141.0332
 20
-252.2868
 42
-0.1003676177
  0
VERTEX
  8
LAYER_1
 10
140.8207
 20
-252.2461
  0
VERTEX
  8
LAYER_1
 10
140.6512
 20
-252.1338
 42
-0.09474436642
  0
VERTEX
  8
LAYER_1
 10
140.5389
 20
-251.9629
 42
-0.09317427323
  0
VERTEX
  8
LAYER_1
 10
140.4986
 20
-251.7469
 42
-0.1052531491
  0
VERTEX
  8
LAYER_1
 10
140.5389
 20
-251.5306
 42
-0.1000138279
  0
VERTEX
  8
LAYER_1
 10
140.6512
 20
-251.3604
 42
-0.09581503346
  0
VERTEX
  8
LAYER_1
 10
140.8207
 20
-251.2481
 42
-0.09561956468
  0
VERTEX
  8
LAYER_1
 10
141.0332
 20
-251.2071
 42
-0.1024782491
  0
VERTEX
  8
LAYER_1
 10
141.2458
 20
-251.2481
 42
-0.1014786584
  0
VERTEX
  8
LAYER_1
 10
141.4163
 20
-251.3604
 42
-0.09815577957
  0
VERTEX
  8
LAYER_1
 10
141.5279
 20
-251.5306
 42
-0.09523735002
  0
SEQEND
  0
POLYLINE
  8
LAYER_1
 40
0.05
 41
0.05
 66
1
 10
0
 20
0
 30
0
 70
1
  0
VERTEX
  8
LAYER_1
 10
141.4584
 20
-251.7476
  0
VERTEX
  8
LAYER_1
 10
141.4301
 20
-251.5767
  0
VERTEX
  8
LAYER_1
 10
141.3454
 20
-251.4344
  0
VERTEX
  8
LAYER_1
 10
141.211
 20
-251.337
 42
0.1026237584
  0
VERTEX
  8
LAYER_1
 10
141.0332
 20
-251.3001
 42
0.1147987019
  0
VERTEX
  8
LAYER_1
 10
140.8558
 20
-251.337
  0
VERTEX
  8
LAYER_1
 10
140.7225
 20
-251.4344
  0
VERTEX
  8
LAYER_1
 10
140.6374
 20
-251.5767
  0
VERTEX
  8
LAYER_1
 10
140.6081
 20
-251.7476
  0
VERTEX
  8
LAYER_1
 10
140.6374
 20
-251.9188
  0
VERTEX
  8
LAYER_1
 10
140.7225
 20
-252.0607
  0
VERTEX
  8
LAYER_1
 10
140.8558
 20
-252.1575
  0
VERTEX
  8
LAYER_1
 10
141.0332
 20
-252.1937
 42
0.1185100977
  0
VERTEX
  8
LAYER_1
 10
141.211
 20
-252.1575
  0
VERTEX
  8
LAYER_1
 10
141.3454
 20
-252.0607
  0
VERTEX
  8
LAYER_1
 10
141.4301
 20
-251.9188
  0
SEQEND
  0
ENDBLK
  0
BLOCK
  8
LAYER_1
  2
AIGNBL01030011
 70
64
 10
0
 20
0
 30
0
  3
AIGNBL01030011
  0
POLYLINE
  8
LAYER_1
 40
0.05
 41
0.05
 66
1
 10
0
 20
0
 30
0
 70
1
  0
VERTEX
  8
LAYER_1
 10
142.3393
 20
-252.2609
  0
VERTEX
  8
LAYER_1
 10
142.2349
 20
-252.2609
  0
VERTEX
  8
LAYER_1
 10
142.2349
 20
-251.8182
  0
VERTEX
  8
LAYER_1
 10
141.8504
 20
-251.2339
  0
VERTEX
  8
LAYER_1
 10
141.9813
 20
-251.2339
  0
VERTEX
  8
LAYER_1
 10
142.2904
 20
-251.7311
  0
VERTEX
  8
LAYER_1
 10
142.6022
 20
-251.2339
  0
VERTEX
  8
LAYER_1
 10
142.7234
 20
-251.2339
  0
VERTEX
  8
LAYER_1
 10
142.3393
 20
-251.8182
  0
SEQEND
  0
ENDBLK
  0
BLOCK
  8
LAYER_1
  2
AIGNBL01030012
 70
64
 10
0
 20
0
 30
0
  3
AIGNBL01030012
  0
POLYLINE
  8
LAYER_1
 40
0.05
 41
0.05
 66
1
 10
0
 20
0
 30
0
 70
1
  0
VERTEX
  8
LAYER_1
 10
143.6236
 20
-251.2339
  0
VERTEX
  8
LAYER_1
 10
143.9288
 20
-251.2339
  0
VERTEX
  8
LAYER_1
 10
144.047
 20
-251.2457
  0
VERTEX
  8
LAYER_1
 10
144.1528
 20
-251.288
  0
VERTEX
  8
LAYER_1
 10
144.2307
 20
-251.3686
  0
VERTEX
  8
LAYER_1
 10
144.2603
 20
-251.4961
 42
-0.1778951175
  0
VERTEX
  8
LAYER_1
 10
144.2103
 20
-251.6373
 42
-0.1614829203
  0
VERTEX
  8
LAYER_1
 10
144.078
 20
-251.7166
  0
VERTEX
  8
LAYER_1
 10
144.078
 20
-251.7194
 42
-0.1736511409
  0
VERTEX
  8
LAYER_1
 10
144.2434
 20
-251.7969
 42
-0.1925337955
  0
VERTEX
  8
LAYER_1
 10
144.3099
 20
-251.9764
  0
VERTEX
  8
LAYER_1
 10
144.2823
 20
-252.0928
  0
VERTEX
  8
LAYER_1
 10
144.2062
 20
-252.1831
  0
VERTEX
  8
LAYER_1
 10
144.0866
 20
-252.2402
  0
VERTEX
  8
LAYER_1
 10
143.9275
 20
-252.2609
  0
VERTEX
  8
LAYER_1
 10
143.6236
 20
-252.2609
  0
SEQEND
  0
POLYLINE
  8
LAYER_1
 40
0.05
 41
0.05
 66
1
 10
0
 20
0
 30
0
 70
1
  0
VERTEX
  8
LAYER_1
 10
143.7277
 20
-251.6832
  0
VERTEX
  8
LAYER_1
 10
143.9382
 20
-251.6832
  0
VERTEX
  8
LAYER_1
 10
144.0146
 20
-251.6742
  0
VERTEX
  8
LAYER_1
 10
144.0842
 20
-251.6453
  0
VERTEX
  8
LAYER_1
 10
144.1362
 20
-251.5888
  0
VERTEX
  8
LAYER_1
 10
144.1552
 20
-251.5034
  0
VERTEX
  8
LAYER_1
 10
144.1362
 20
-251.4203
  0
VERTEX
  8
LAYER_1
 10
144.0835
 20
-251.3638
  0
VERTEX
  8
LAYER_1
 10
144.005
 20
-251.3328
  0
VERTEX
  8
LAYER_1
 10
143.9089
 20
-251.3235
  0
VERTEX
  8
LAYER_1
 10
143.7277
 20
-251.3235
  0
SEQEND
  0
POLYLINE
  8
LAYER_1
 40
0.05
 41
0.05
 66
1
 10
0
 20
0
 30
0
 70
1
  0
VERTEX
  8
LAYER_1
 10
143.7277
 20
-252.171
  0
VERTEX
  8
LAYER_1
 10
143.9223
 20
-252.171
  0
VERTEX
  8
LAYER_1
 10
144.0301
 20
-252.1596
  0
VERTEX
  8
LAYER_1
 10
144.1204
 20
-252.1252
  0
VERTEX
  8
LAYER_1
 10
144.181
 20
-252.0625
  0
VERTEX
  8
LAYER_1
 10
144.2048
 20
-251.9705
 42
0.2546661425
  0
VERTEX
  8
LAYER_1
 10
144.1362
 20
-251.8189
 42
0.138509597
  0
VERTEX
  8
LAYER_1
 10
143.9413
 20
-251.7686
  0
VERTEX
  8
LAYER_1
 10
143.7277
 20
-251.7686
  0
SEQEND
  0
ENDBLK
  0
BLOCK
  8
LAYER_1
  2
AIGNBL01030013
 70
64
 10
0
 20
0
 30
0
  3
AIGNBL01030013
  0
POLYLINE
  8
LAYER_1
 40
0.05
 41
0.05
 66
1
 10
0
 20
0
 30
0
 70
1
  0
VERTEX
  8
LAYER_1
 10
144.7388
 20
-252.2609
  0
VERTEX
  8
LAYER_1
 10
144.6241
 20
-252.2609
  0
VERTEX
  8
LAYER_1
 10
145.0685
 20
-251.2339
  0
VERTEX
  8
LAYER_1
 10
145.1705
 20
-251.2339
  0
VERTEX
  8
LAYER_1
 10
145.6111
 20
-252.2609
  0
VERTEX
  8
LAYER_1
 10
145.4943
 20
-252.2609
  0
VERTEX
  8
LAYER_1
 10
145.3813
 20
-251.9912
  0
VERTEX
  8
LAYER_1
 10
144.8504
 20
-251.9912
  0
SEQEND
  0
POLYLINE
  8
LAYER_1
 40
0.05
 41
0.05
 66
1
 10
0
 20
0
 30
0
 70
1
  0
VERTEX
  8
LAYER_1
 10
144.8894
 20
-251.8947
  0
VERTEX
  8
LAYER_1
 10
145.3424
 20
-251.8947
  0
VERTEX
  8
LAYER_1
 10
145.1164
 20
-251.3493
  0
SEQEND
  0
ENDBLK
  0
BLOCK
  8
LAYER_1
  2
AIGNBL01030014
 70
64
 10
0
 20
0
 30
0
  3
AIGNBL01030014
  0
POLYLINE
  8
LAYER_1
 40
0.05
 41
0.05
 66
1
 10
0
 20
0
 30
0
 70
1
  0
VERTEX
  8
LAYER_1
 10
146.2915
 20
-252.2609
  0
VERTEX
  8
LAYER_1
 10
146.1871
 20
-252.2609
  0
VERTEX
  8
LAYER_1
 10
146.1871
 20
-251.3266
  0
VERTEX
  8
LAYER_1
 10
145.8426
 20
-251.3266
  0
VERTEX
  8
LAYER_1
 10
145.8426
 20
-251.2339
  0
VERTEX
  8
LAYER_1
 10
146.635
 20
-251.2339
  0
VERTEX
  8
LAYER_1
 10
146.635
 20
-251.3266
  0
VERTEX
  8
LAYER_1
 10
146.2915
 20
-251.3266
  0
SEQEND
  0
ENDBLK
  0
BLOCK
  8
LAYER_1
  2
AIGNBL01030015
 70
64
 10
0
 20
0
 30
0
  3
AIGNBL01030015
  0
POLYLINE
  8
LAYER_1
 40
0.05
 41
0.05
 66
1
 10
0
 20
0
 30
0
 70
1
  0
VERTEX
  8
LAYER_1
 10
146.9888
 20
-251.2339
  0
VERTEX
  8
LAYER_1
 10
147.0932
 20
-251.2339
  0
VERTEX
  8
LAYER_1
 10
147.0932
 20
-251.6787
  0
VERTEX
  8
LAYER_1
 10
147.654
 20
-251.6787
  0
VERTEX
  8
LAYER_1
 10
147.654
 20
-251.2339
  0
VERTEX
  8
LAYER_1
 10
147.7581
 20
-251.2339
  0
VERTEX
  8
LAYER_1
 10
147.7581
 20
-252.2609
  0
VERTEX
  8
LAYER_1
 10
147.654
 20
-252.2609
  0
VERTEX
  8
LAYER_1
 10
147.654
 20
-251.7745
  0
VERTEX
  8
LAYER_1
 10
147.0932
 20
-251.7745
  0
VERTEX
  8
LAYER_1
 10
147.0932
 20
-252.2609
  0
VERTEX
  8
LAYER_1
 10
146.9888
 20
-252.2609
  0
SEQEND
  0
ENDBLK
  0
BLOCK
  8
LAYER_1
  2
AIGNBL01030016
 70
64
 10
0
 20
0
 30
0
  3
AIGNBL01030016
  0
POLYLINE
  8
LAYER_1
 40
0.05
 41
0.05
 66
1
 10
0
 20
0
 30
0
 70
1
  0
VERTEX
  8
LAYER_1
 10
148.3351
 20
-252.2609
  0
VERTEX
  8
LAYER_1
 10
148.2311
 20
-252.2609
  0
VERTEX
  8
LAYER_1
 10
148.2311
 20
-251.2339
  0
VERTEX
  8
LAYER_1
 10
148.5322
 20
-251.2339
  0
VERTEX
  8
LAYER_1
 10
148.6724
 20
-251.2481
  0
VERTEX
  8
LAYER_1
 10
148.7844
 20
-251.2953
  0
VERTEX
  8
LAYER_1
 10
148.8571
 20
-251.38
  0
VERTEX
  8
LAYER_1
 10
148.8829
 20
-251.5078
  0
VERTEX
  8
LAYER_1
 10
148.8636
 20
-251.6108
  0
VERTEX
  8
LAYER_1
 10
148.8088
 20
-251.6911
  0
VERTEX
  8
LAYER_1
 10
148.7258
 20
-251.7459
  0
VERTEX
  8
LAYER_1
 10
148.6214
 20
-251.7717
  0
VERTEX
  8
LAYER_1
 10
148.9211
 20
-252.2609
  0
VERTEX
  8
LAYER_1
 10
148.7937
 20
-252.2609
  0
VERTEX
  8
LAYER_1
 10
148.5098
 20
-251.7807
  0
VERTEX
  8
LAYER_1
 10
148.3351
 20
-251.7807
  0
SEQEND
  0
POLYLINE
  8
LAYER_1
 40
0.05
 41
0.05
 66
1
 10
0
 20
0
 30
0
 70
1
  0
VERTEX
  8
LAYER_1
 10
148.3351
 20
-251.6904
  0
VERTEX
  8
LAYER_1
 10
148.517
 20
-251.6904
 42
0.1622417858
  0
VERTEX
  8
LAYER_1
 10
148.711
 20
-251.6453
 42
0.2500476248
  0
VERTEX
  8
LAYER_1
 10
148.7799
 20
-251.5078
  0
VERTEX
  8
LAYER_1
 10
148.7602
 20
-251.4224
  0
VERTEX
  8
LAYER_1
 10
148.7079
 20
-251.3652
  0
VERTEX
  8
LAYER_1
 10
148.6269
 20
-251.3338
  0
VERTEX
  8
LAYER_1
 10
148.5212
 20
-251.3235
  0
VERTEX
  8
LAYER_1
 10
148.3351
 20
-251.3235
  0
SEQEND
  0
ENDBLK
  0
BLOCK
  8
LAYER_1
  2
AIGNBL01030017
 70
64
 10
0
 20
0
 30
0
  3
AIGNBL01030017
  0
POLYLINE
  8
LAYER_1
 40
0.05
 41
0.05
 66
1
 10
0
 20
0
 30
0
 70
1
  0
VERTEX
  8
LAYER_1
 10
150.3154
 20
-251.7469
 42
-0.1015060182
  0
VERTEX
  8
LAYER_1
 10
150.2747
 20
-251.9629
 42
-0.09993540575
  0
VERTEX
  8
LAYER_1
 10
150.1624
 20
-252.1338
 42
-0.09525489566
  0
VERTEX
  8
LAYER_1
 10
149.9926
 20
-252.2461
 42
-0.09491251156
  0
VERTEX
  8
LAYER_1
 10
149.78
 20
-252.2868
 42
-0.1002015795
  0
VERTEX
  8
LAYER_1
 10
149.5674
 20
-252.2461
 42
-0.1016690689
  0
VERTEX
  8
LAYER_1
 10
149.3979
 20
-252.1338
 42
-0.09667300425
  0
VERTEX
  8
LAYER_1
 10
149.2856
 20
-251.9629
 42
-0.09262920428
  0
VERTEX
  8
LAYER_1
 10
149.2453
 20
-251.7469
 42
-0.09846568495
  0
VERTEX
  8
LAYER_1
 10
149.2856
 20
-251.5306
 42
-0.09950302227
  0
VERTEX
  8
LAYER_1
 10
149.3979
 20
-251.3604
 42
-0.09832237419
  0
VERTEX
  8
LAYER_1
 10
149.5674
 20
-251.2481
 42
-0.09564774702
  0
VERTEX
  8
LAYER_1
 10
149.78
 20
-251.2071
 42
-0.1014301699
  0
VERTEX
  8
LAYER_1
 10
149.9926
 20
-251.2481
 42
-0.1041253763
  0
VERTEX
  8
LAYER_1
 10
150.1624
 20
-251.3604
 42
-0.09489987116
  0
VERTEX
  8
LAYER_1
 10
150.2747
 20
-251.5306
 42
-0.09342113907
  0
SEQEND
  0
POLYLINE
  8
LAYER_1
 40
0.05
 41
0.05
 66
1
 10
0
 20
0
 30
0
 70
1
  0
VERTEX
  8
LAYER_1
 10
150.2051
 20
-251.7476
  0
VERTEX
  8
LAYER_1
 10
150.1762
 20
-251.5767
  0
VERTEX
  8
LAYER_1
 10
150.0921
 20
-251.4344
  0
VERTEX
  8
LAYER_1
 10
149.9581
 20
-251.337
 42
0.1022827687
  0
VERTEX
  8
LAYER_1
 10
149.78
 20
-251.3001
 42
0.1183846388
  0
VERTEX
  8
LAYER_1
 10
149.6026
 20
-251.337
  0
VERTEX
  8
LAYER_1
 10
149.4682
 20
-251.4344
  0
VERTEX
  8
LAYER_1
 10
149.3842
 20
-251.5767
  0
VERTEX
  8
LAYER_1
 10
149.3549
 20
-251.7476
  0
VERTEX
  8
LAYER_1
 10
149.3842
 20
-251.9188
  0
VERTEX
  8
LAYER_1
 10
149.4682
 20
-252.0607
  0
VERTEX
  8
LAYER_1
 10
149.6026
 20
-252.1575
 42
0.1007973502
  0
VERTEX
  8
LAYER_1
 10
149.78
 20
-252.1937
  0
VERTEX
  8
LAYER_1
 10
149.9581
 20
-252.1575
  0
VERTEX
  8
LAYER_1
 10
150.0921
 20
-252.0607
  0
VERTEX
  8
LAYER_1
 10
150.1762
 20
-251.9188
  0
SEQEND
  0
ENDBLK
  0
BLOCK
  8
LAYER_1
  2
AIGNBL01030018
 70
64
 10
0
 20
0
 30
0
  3
AIGNBL01030018
  0
POLYLINE
  8
LAYER_1
 40
0.05
 41
0.05
 66
1
 10
0
 20
0
 30
0
 70
1
  0
VERTEX
  8
LAYER_1
 10
151.7489
 20
-251.7469
 42
-0.1017020442
  0
VERTEX
  8
LAYER_1
 10
151.7086
 20
-251.9629
  0
VERTEX
  8
LAYER_1
 10
151.5963
 20
-252.1338
  0
VERTEX
  8
LAYER_1
 10
151.4264
 20
-252.2461
 42
-0.09495021158
  0
VERTEX
  8
LAYER_1
 10
151.2139
 20
-252.2868
 42
-0.1019502388
  0
VERTEX
  8
LAYER_1
 10
151.0013
 20
-252.2461
 42
-0.1021914323
  0
VERTEX
  8
LAYER_1
 10
150.8318
 20
-252.1338
 42
-0.09636018285
  0
VERTEX
  8
LAYER_1
 10
150.7188
 20
-251.9629
 42
-0.09364604827
  0
VERTEX
  8
LAYER_1
 10
150.6781
 20
-251.7469
 42
-0.1001287453
  0
VERTEX
  8
LAYER_1
 10
150.7188
 20
-251.5306
 42
-0.1037227634
  0
VERTEX
  8
LAYER_1
 10
150.8318
 20
-251.3604
 42
-0.0985967677
  0
VERTEX
  8
LAYER_1
 10
151.0013
 20
-251.2481
 42
-0.0957287822
  0
VERTEX
  8
LAYER_1
 10
151.2139
 20
-251.2071
 42
-0.1016365741
  0
VERTEX
  8
LAYER_1
 10
151.4264
 20
-251.2481
 42
-0.09861864621
  0
VERTEX
  8
LAYER_1
 10
151.5963
 20
-251.3604
 42
-0.09487953686
  0
VERTEX
  8
LAYER_1
 10
151.7086
 20
-251.5306
 42
-0.09256741039
  0
SEQEND
  0
POLYLINE
  8
LAYER_1
 40
0.05
 41
0.05
 66
1
 10
0
 20
0
 30
0
 70
1
  0
VERTEX
  8
LAYER_1
 10
151.639
 20
-251.7476
  0
VERTEX
  8
LAYER_1
 10
151.61
 20
-251.5767
  0
VERTEX
  8
LAYER_1
 10
151.526
 20
-251.4344
  0
VERTEX
  8
LAYER_1
 10
151.3916
 20
-251.337
 42
0.1025075331
  0
VERTEX
  8
LAYER_1
 10
151.2139
 20
-251.3001
 42
0.118884027
  0
VERTEX
  8
LAYER_1
 10
151.0361
 20
-251.337
  0
VERTEX
  8
LAYER_1
 10
150.9017
 20
-251.4344
  0
VERTEX
  8
LAYER_1
 10
150.818
 20
-251.5767
  0
VERTEX
  8
LAYER_1
 10
150.7887
 20
-251.7476
  0
VERTEX
  8
LAYER_1
 10
150.818
 20
-251.9188
  0
VERTEX
  8
LAYER_1
 10
150.9017
 20
-252.0607
  0
VERTEX
  8
LAYER_1
 10
151.0361
 20
-252.1575
 42
0.100589677
  0
VERTEX
  8
LAYER_1
 10
151.2139
 20
-252.1937
  0
VERTEX
  8
LAYER_1
 10
151.3916
 20
-252.1575
  0
VERTEX
  8
LAYER_1
 10
151.526
 20
-252.0607
  0
VERTEX
  8
LAYER_1
 10
151.61
 20
-251.9188
  0
SEQEND
  0
ENDBLK
  0
BLOCK
  8
LAYER_1
  2
AIGNBL01030019
 70
64
 10
0
 20
0
 30
0
  3
AIGNBL01030019
  0
POLYLINE
  8
LAYER_1
 40
0.05
 41
0.05
 66
1
 10
0
 20
0
 30
0
 70
1
  0
VERTEX
  8
LAYER_1
 10
152.6742
 20
-252.0839
  0
VERTEX
  8
LAYER_1
 10
152.6756
 20
-252.0839
  0
VERTEX
  8
LAYER_1
 10
153.0194
 20
-251.2339
  0
VERTEX
  8
LAYER_1
 10
153.1793
 20
-251.2339
  0
VERTEX
  8
LAYER_1
 10
153.1793
 20
-252.2609
  0
VERTEX
  8
LAYER_1
 10
153.0749
 20
-252.2609
  0
VERTEX
  8
LAYER_1
 10
153.0749
 20
-251.3686
  0
VERTEX
  8
LAYER_1
 10
153.0718
 20
-251.3686
  0
VERTEX
  8
LAYER_1
 10
152.7007
 20
-252.2609
  0
VERTEX
  8
LAYER_1
 10
152.646
 20
-252.2609
  0
VERTEX
  8
LAYER_1
 10
152.2743
 20
-251.3686
  0
VERTEX
  8
LAYER_1
 10
152.2708
 20
-251.3686
  0
VERTEX
  8
LAYER_1
 10
152.2708
 20
-252.2609
  0
VERTEX
  8
LAYER_1
 10
152.1668
 20
-252.2609
  0
VERTEX
  8
LAYER_1
 10
152.1668
 20
-251.2339
  0
VERTEX
  8
LAYER_1
 10
152.327
 20
-251.2339
  0
SEQEND
  0
ENDBLK
  0
BLOCK
  8
LAYER_1
  2
AIGNBL0103001A
 70
64
 10
0
 20
0
 30
0
  3
AIGNBL0103001A
  0
POLYLINE
  8
LAYER_1
 40
0.05
 41
0.05
 66
1
 10
0
 20
0
 30
0
 70
1
  0
VERTEX
  8
LAYER_1
 10
154.3196
 20
-252.1676
  0
VERTEX
  8
LAYER_1
 10
154.8694
 20
-252.1676
  0
VERTEX
  8
LAYER_1
 10
154.8694
 20
-252.2609
  0
VERTEX
  8
LAYER_1
 10
154.2145
 20
-252.2609
  0
VERTEX
  8
LAYER_1
 10
154.2145
 20
-251.2339
  0
VERTEX
  8
LAYER_1
 10
154.8522
 20
-251.2339
  0
VERTEX
  8
LAYER_1
 10
154.8522
 20
-251.3263
  0
VERTEX
  8
LAYER_1
 10
154.3196
 20
-251.3263
  0
VERTEX
  8
LAYER_1
 10
154.3196
 20
-251.6787
  0
VERTEX
  8
LAYER_1
 10
154.8167
 20
-251.6787
  0
VERTEX
  8
LAYER_1
 10
154.8167
 20
-251.7717
  0
VERTEX
  8
LAYER_1
 10
154.3196
 20
-251.7717
  0
SEQEND
  0
ENDBLK
  0
BLOCK
  8
LAYER_1
  2
AIGNBL0103001B
 70
64
 10
0
 20
0
 30
0
  3
AIGNBL0103001B
  0
POLYLINE
  8
LAYER_1
 40
0.05
 41
0.05
 66
1
 10
0
 20
0
 30
0
 70
1
  0
VERTEX
  8
LAYER_1
 10
155.6101
 20
-251.6484
  0
VERTEX
  8
LAYER_1
 10
155.8906
 20
-251.2339
  0
VERTEX
  8
LAYER_1
 10
156.0153
 20
-251.2339
  0
VERTEX
  8
LAYER_1
 10
155.6749
 20
-251.7221
  0
VERTEX
  8
LAYER_1
 10
156.0518
 20
-252.2609
  0
VERTEX
  8
LAYER_1
 10
155.9216
 20
-252.2609
  0
VERTEX
  8
LAYER_1
 10
155.6081
 20
-251.7979
  0
VERTEX
  8
LAYER_1
 10
155.296
 20
-252.2609
  0
VERTEX
  8
LAYER_1
 10
155.165
 20
-252.2609
  0
VERTEX
  8
LAYER_1
 10
155.5426
 20
-251.7211
  0
VERTEX
  8
LAYER_1
 10
155.1988
 20
-251.2339
  0
VERTEX
  8
LAYER_1
 10
155.329
 20
-251.2339
  0
SEQEND
  0
ENDBLK
  0
BLOCK
  8
LAYER_1
  2
AIGNBL0103001C
 70
64
 10
0
 20
0
 30
0
  3
AIGNBL0103001C
  0
POLYLINE
  8
LAYER_1
 40
0.05
 41
0.05
 66
1
 10
0
 20
0
 30
0
 70
1
  0
VERTEX
  8
LAYER_1
 10
156.4159
 20
-251.2339
  0
VERTEX
  8
LAYER_1
 10
156.706
 20
-251.2339
  0
VERTEX
  8
LAYER_1
 10
156.8487
 20
-251.2498
  0
VERTEX
  8
LAYER_1
 10
156.9575
 20
-251.3015
  0
VERTEX
  8
LAYER_1
 10
157.0288
 20
-251.3866
  0
VERTEX
  8
LAYER_1
 10
157.053
 20
-251.5078
  0
VERTEX
  8
LAYER_1
 10
157.0281
 20
-251.6291
  0
VERTEX
  8
LAYER_1
 10
156.9568
 20
-251.7145
  0
VERTEX
  8
LAYER_1
 10
156.8459
 20
-251.7659
  0
VERTEX
  8
LAYER_1
 10
156.7032
 20
-251.7831
  0
VERTEX
  8
LAYER_1
 10
156.5203
 20
-251.7831
  0
VERTEX
  8
LAYER_1
 10
156.5203
 20
-252.2609
  0
VERTEX
  8
LAYER_1
 10
156.4159
 20
-252.2609
  0
SEQEND
  0
POLYLINE
  8
LAYER_1
 40
0.05
 41
0.05
 66
1
 10
0
 20
0
 30
0
 70
1
  0
VERTEX
  8
LAYER_1
 10
156.5203
 20
-251.6949
  0
VERTEX
  8
LAYER_1
 10
156.6974
 20
-251.6949
 42
0.179800284
  0
VERTEX
  8
LAYER_1
 10
156.8848
 20
-251.6474
 42
0.2343125845
  0
VERTEX
  8
LAYER_1
 10
156.9489
 20
-251.5078
 42
0.2635647854
  0
VERTEX
  8
LAYER_1
 10
156.8824
 20
-251.3676
 42
0.1265134521
  0
VERTEX
  8
LAYER_1
 10
156.6974
 20
-251.3235
  0
VERTEX
  8
LAYER_1
 10
156.5203
 20
-251.3235
  0
SEQEND
  0
ENDBLK
  0
BLOCK
  8
LAYER_1
  2
AIGNBL0103001D
 70
64
 10
0
 20
0
 30
0
  3
AIGNBL0103001D
  0
POLYLINE
  8
LAYER_1
 40
0.05
 41
0.05
 66
1
 10
0
 20
0
 30
0
 70
1
  0
VERTEX
  8
LAYER_1
 10
157.5621
 20
-252.1676
  0
VERTEX
  8
LAYER_1
 10
158.1116
 20
-252.1676
  0
VERTEX
  8
LAYER_1
 10
158.1116
 20
-252.2609
  0
VERTEX
  8
LAYER_1
 10
157.4577
 20
-252.2609
  0
VERTEX
  8
LAYER_1
 10
157.4577
 20
-251.2339
  0
VERTEX
  8
LAYER_1
 10
158.0947
 20
-251.2339
  0
VERTEX
  8
LAYER_1
 10
158.0947
 20
-251.3263
  0
VERTEX
  8
LAYER_1
 10
157.5621
 20
-251.3263
  0
VERTEX
  8
LAYER_1
 10
157.5621
 20
-251.6787
  0
VERTEX
  8
LAYER_1
 10
158.0599
 20
-251.6787
  0
VERTEX
  8
LAYER_1
 10
158.0599
 20
-251.7717
  0
VERTEX
  8
LAYER_1
 10
157.5621
 20
-251.7717
  0
SEQEND
  0
ENDBLK
  0
BLOCK
  8
LAYER_1
  2
AIGNBL0103001E
 70
64
 10
0
 20
0
 30
0
  3
AIGNBL0103001E
  0
POLYLINE
  8
LAYER_1
 40
0.05
 41
0.05
 66
1
 10
0
 20
0
 30
0
 70
1
  0
VERTEX
  8
LAYER_1
 10
158.6208
 20
-252.2609
  0
VERTEX
  8
LAYER_1
 10
158.5168
 20
-252.2609
  0
VERTEX
  8
LAYER_1
 10
158.5168
 20
-251.2339
  0
VERTEX
  8
LAYER_1
 10
158.8185
 20
-251.2339
  0
VERTEX
  8
LAYER_1
 10
158.9584
 20
-251.2481
  0
VERTEX
  8
LAYER_1
 10
159.07
 20
-251.2953
  0
VERTEX
  8
LAYER_1
 10
159.1438
 20
-251.38
  0
VERTEX
  8
LAYER_1
 10
159.1696
 20
-251.5078
  0
VERTEX
  8
LAYER_1
 10
159.1493
 20
-251.6105
  0
VERTEX
  8
LAYER_1
 10
159.0945
 20
-251.6915
  0
VERTEX
  8
LAYER_1
 10
159.0111
 20
-251.7459
  0
VERTEX
  8
LAYER_1
 10
158.9067
 20
-251.7717
  0
VERTEX
  8
LAYER_1
 10
159.2075
 20
-252.2609
  0
VERTEX
  8
LAYER_1
 10
159.08
 20
-252.2609
  0
VERTEX
  8
LAYER_1
 10
158.7955
 20
-251.7803
  0
VERTEX
  8
LAYER_1
 10
158.6208
 20
-251.7803
  0
SEQEND
  0
POLYLINE
  8
LAYER_1
 40
0.05
 41
0.05
 66
1
 10
0
 20
0
 30
0
 70
1
  0
VERTEX
  8
LAYER_1
 10
158.6208
 20
-251.69
  0
VERTEX
  8
LAYER_1
 10
158.8027
 20
-251.69
 42
0.1625850216
  0
VERTEX
  8
LAYER_1
 10
158.9974
 20
-251.6453
 42
0.2500143464
  0
VERTEX
  8
LAYER_1
 10
159.0652
 20
-251.5078
  0
VERTEX
  8
LAYER_1
 10
159.047
 20
-251.4224
  0
VERTEX
  8
LAYER_1
 10
158.9943
 20
-251.3652
  0
VERTEX
  8
LAYER_1
 10
158.9123
 20
-251.3338
  0
VERTEX
  8
LAYER_1
 10
158.8065
 20
-251.3235
  0
VERTEX
  8
LAYER_1
 10
158.6208
 20
-251.3235
  0
SEQEND
  0
ENDBLK
  0
BLOCK
  8
LAYER_1
  2
AIGNBL0103001F
 70
64
 10
0
 20
0
 30
0
  3
AIGNBL0103001F
  0
POLYLINE
  8
LAYER_1
 40
0.05
 41
0.05
 66
1
 10
0
 20
0
 30
0
 70
1
  0
VERTEX
  8
LAYER_1
 10
159.6898
 20
-252.2609
  0
VERTEX
  8
LAYER_1
 10
159.5865
 20
-252.2609
  0
VERTEX
  8
LAYER_1
 10
159.5865
 20
-251.2339
  0
VERTEX
  8
LAYER_1
 10
159.6898
 20
-251.2339
  0
SEQEND
  0
ENDBLK
  0
BLOCK
  8
LAYER_1
  2
AIGNBL01030020
 70
64
 10
0
 20
0
 30
0
  3
AIGNBL01030020
  0
POLYLINE
  8
LAYER_1
 40
0.05
 41
0.05
 66
1
 10
0
 20
0
 30
0
 70
1
  0
VERTEX
  8
LAYER_1
 10
160.2676
 20
-252.1676
  0
VERTEX
  8
LAYER_1
 10
160.8174
 20
-252.1676
  0
VERTEX
  8
LAYER_1
 10
160.8174
 20
-252.2609
  0
VERTEX
  8
LAYER_1
 10
160.1639
 20
-252.2609
  0
VERTEX
  8
LAYER_1
 10
160.1639
 20
-251.2339
  0
VERTEX
  8
LAYER_1
 10
160.8005
 20
-251.2339
  0
VERTEX
  8
LAYER_1
 10
160.8005
 20
-251.3263
  0
VERTEX
  8
LAYER_1
 10
160.2676
 20
-251.3263
  0
VERTEX
  8
LAYER_1
 10
160.2676
 20
-251.6787
  0
VERTEX
  8
LAYER_1
 10
160.7654
 20
-251.6787
  0
VERTEX
  8
LAYER_1
 10
160.7654
 20
-251.7717
  0
VERTEX
  8
LAYER_1
 10
160.2676
 20
-251.7717
  0
SEQEND
  0
ENDBLK
  0
BLOCK
  8
LAYER_1
  2
AIGNBL01030021
 70
64
 10
0
 20
0
 30
0
  3
AIGNBL01030021
  0
POLYLINE
  8
LAYER_1
 40
0.05
 41
0.05
 66
1
 10
0
 20
0
 30
0
 70
1
  0
VERTEX
  8
LAYER_1
 10
161.9505
 20
-252.1079
  0
VERTEX
  8
LAYER_1
 10
161.9536
 20
-252.1079
  0
VERTEX
  8
LAYER_1
 10
161.9536
 20
-251.2339
  0
VERTEX
  8
LAYER_1
 10
162.058
 20
-251.2339
  0
VERTEX
  8
LAYER_1
 10
162.058
 20
-252.2609
  0
VERTEX
  8
LAYER_1
 10
161.9277
 20
-252.2609
  0
VERTEX
  8
LAYER_1
 10
161.3297
 20
-251.3772
  0
VERTEX
  8
LAYER_1
 10
161.3266
 20
-251.3772
  0
VERTEX
  8
LAYER_1
 10
161.3266
 20
-252.2609
  0
VERTEX
  8
LAYER_1
 10
161.2222
 20
-252.2609
  0
VERTEX
  8
LAYER_1
 10
161.2222
 20
-251.2339
  0
VERTEX
  8
LAYER_1
 10
161.3535
 20
-251.2339
  0
SEQEND
  0
ENDBLK
  0
BLOCK
  8
LAYER_1
  2
AIGNBL01030022
 70
64
 10
0
 20
0
 30
0
  3
AIGNBL01030022
  0
POLYLINE
  8
LAYER_1
 40
0.05
 41
0.05
 66
1
 10
0
 20
0
 30
0
 70
1
  0
VERTEX
  8
LAYER_1
 10
163.396
 20
-252.0942
  0
VERTEX
  8
LAYER_1
 10
163.3323
 20
-252.1679
  0
VERTEX
  8
LAYER_1
 10
163.2469
 20
-252.2295
  0
VERTEX
  8
LAYER_1
 10
163.1394
 20
-252.2716
  0
VERTEX
  8
LAYER_1
 10
163.0112
 20
-252.2868
 42
-0.1009164681
  0
VERTEX
  8
LAYER_1
 10
162.7966
 20
-252.2461
 42
-0.1027581013
  0
VERTEX
  8
LAYER_1
 10
162.6271
 20
-252.1335
 42
-0.1010578842
  0
VERTEX
  8
LAYER_1
 10
162.5162
 20
-251.9633
 42
-0.09298732079
  0
VERTEX
  8
LAYER_1
 10
162.4759
 20
-251.7469
 42
-0.1023262951
  0
VERTEX
  8
LAYER_1
 10
162.5169
 20
-251.5306
 42
-0.1009138363
  0
VERTEX
  8
LAYER_1
 10
162.6285
 20
-251.3604
  0
VERTEX
  8
LAYER_1
 10
162.798
 20
-251.2481
 42
-0.09535690024
  0
VERTEX
  8
LAYER_1
 10
163.0112
 20
-251.2071
  0
VERTEX
  8
LAYER_1
 10
163.1222
 20
-251.2191
  0
VERTEX
  8
LAYER_1
 10
163.2252
 20
-251.2522
  0
VERTEX
  8
LAYER_1
 10
163.3117
 20
-251.3035
  0
VERTEX
  8
LAYER_1
 10
163.3767
 20
-251.3711
  0
VERTEX
  8
LAYER_1
 10
163.2906
 20
-251.4355
  0
VERTEX
  8
LAYER_1
 10
163.2469
 20
-251.3858
  0
VERTEX
  8
LAYER_1
 10
163.1835
 20
-251.3421
  0
VERTEX
  8
LAYER_1
 10
163.1043
 20
-251.3114
  0
VERTEX
  8
LAYER_1
 10
163.0126
 20
-251.3001
  0
VERTEX
  8
LAYER_1
 10
162.8338
 20
-251.3362
  0
VERTEX
  8
LAYER_1
 10
162.6998
 20
-251.4338
  0
VERTEX
  8
LAYER_1
 10
162.6147
 20
-251.5764
  0
VERTEX
  8
LAYER_1
 10
162.5868
 20
-251.7469
  0
VERTEX
  8
LAYER_1
 10
162.6164
 20
-251.9178
  0
VERTEX
  8
LAYER_1
 10
162.7012
 20
-252.0601
  0
VERTEX
  8
LAYER_1
 10
162.8356
 20
-252.1575
 42
0.1012189446
  0
VERTEX
  8
LAYER_1
 10
163.0126
 20
-252.1937
  0
VERTEX
  8
LAYER_1
 10
163.1804
 20
-252.1575
 42
0.1297589768
  0
VERTEX
  8
LAYER_1
 10
163.3148
 20
-252.0414
  0
SEQEND
  0
ENDBLK
  0
BLOCK
  8
LAYER_1
  2
AIGNBL01030023
 70
64
 10
0
 20
0
 30
0
  3
AIGNBL01030023
  0
POLYLINE
  8
LAYER_1
 40
0.05
 41
0.05
 66
1
 10
0
 20
0
 30
0
 70
1
  0
VERTEX
  8
LAYER_1
 10
163.8801
 20
-252.1676
  0
VERTEX
  8
LAYER_1
 10
164.4299
 20
-252.1676
  0
VERTEX
  8
LAYER_1
 10
164.4299
 20
-252.2609
  0
VERTEX
  8
LAYER_1
 10
163.7764
 20
-252.2609
  0
VERTEX
  8
LAYER_1
 10
163.7764
 20
-251.2339
  0
VERTEX
  8
LAYER_1
 10
164.4127
 20
-251.2339
  0
VERTEX
  8
LAYER_1
 10
164.4127
 20
-251.3263
  0
VERTEX
  8
LAYER_1
 10
163.8801
 20
-251.3263
  0
VERTEX
  8
LAYER_1
 10
163.8801
 20
-251.6787
  0
VERTEX
  8
LAYER_1
 10
164.3782
 20
-251.6787
  0
VERTEX
  8
LAYER_1
 10
164.3782
 20
-251.7717
  0
VERTEX
  8
LAYER_1
 10
163.8801
 20
-251.7717
  0
SEQEND
  0
ENDBLK
  0
BLOCK
  8
LAYER_1
  2
AIGNBL01020003
 70
64
 10
0
 20
0
 30
0
  3
AIGNBL01020003
  0
INSERT
  8
LAYER_1
  2
AIGNBL01030004
 10
0
 20
0
 30
0
  0
ENDBLK
  0
BLOCK
  8
LAYER_1
  2
AIGNBL0102000C
 70
64
 10
0
 20
0
 30
0
  3
AIGNBL0102000C
  0
INSERT
  8
LAYER_1
  2
AIGNBL0103000D
 10
0
 20
0
 30
0
  0
INSERT
  8
LAYER_1
  2
AIGNBL0103000E
 10
0
 20
0
 30
0
  0
INSERT
  8
LAYER_1
  2
AIGNBL0103000F
 10
0
 20
0
 30
0
  0
INSERT
  8
LAYER_1
  2
AIGNBL01030010
 10
0
 20
0
 30
0
  0
INSERT
  8
LAYER_1
  2
AIGNBL01030011
 10
0
 20
0
 30
0
  0
INSERT
  8
LAYER_1
  2
AIGNBL01030012
 10
0
 20
0
 30
0
  0
INSERT
  8
LAYER_1
  2
AIGNBL01030013
 10
0
 20
0
 30
0
  0
INSERT
  8
LAYER_1
  2
AIGNBL01030014
 10
0
 20
0
 30
0
  0
INSERT
  8
LAYER_1
  2
AIGNBL01030015
 10
0
 20
0
 30
0
  0
INSERT
  8
LAYER_1
  2
AIGNBL01030016
 10
0
 20
0
 30
0
  0
INSERT
  8
LAYER_1
  2
AIGNBL01030017
 10
0
 20
0
 30
0
  0
INSERT
  8
LAYER_1
  2
AIGNBL01030018
 10
0
 20
0
 30
0
  0
INSERT
  8
LAYER_1
  2
AIGNBL01030019
 10
0
 20
0
 30
0
  0
INSERT
  8
LAYER_1
  2
AIGNBL0103001A
 10
0
 20
0
 30
0
  0
INSERT
  8
LAYER_1
  2
AIGNBL0103001B
 10
0
 20
0
 30
0
  0
INSERT
  8
LAYER_1
  2
AIGNBL0103001C
 10
0
 20
0
 30
0
  0
INSERT
  8
LAYER_1
  2
AIGNBL0103001D
 10
0
 20
0
 30
0
  0
INSERT
  8
LAYER_1
  2
AIGNBL0103001E
 10
0
 20
0
 30
0
  0
INSERT
  8
LAYER_1
  2
AIGNBL0103001F
 10
0
 20
0
 30
0
  0
INSERT
  8
LAYER_1
  2
AIGNBL01030020
 10
0
 20
0
 30
0
  0
INSERT
  8
LAYER_1
  2
AIGNBL01030021
 10
0
 20
0
 30
0
  0
INSERT
  8
LAYER_1
  2
AIGNBL01030022
 10
0
 20
0
 30
0
  0
INSERT
  8
LAYER_1
  2
AIGNBL01030023
 10
0
 20
0
 30
0
  0
ENDBLK
  0
BLOCK
  8
LAYER_1
  2
AIGNBL01010002
 70
64
 10
0
 20
0
 30
0
  3
AIGNBL01010002
  0
INSERT
  8
LAYER_1
  2
AIGNBL01020003
 10
0
 20
0
 30
0
  0
INSERT
  8
LAYER_1
  2
AIGNBL0102000C
 10
0
 20
0
 30
0
  0
ENDBLK
  0
BLOCK
  8
LAYER_1
  2
AIGNBL01010024
 70
64
 10
0
 20
0
 30
0
  3
AIGNBL01010024
  0
POLYLINE
  8
LAYER_1
 40
0.1058
 41
0.1058
 66
1
 10
0
 20
0
 30
0
  0
VERTEX
  8
LAYER_1
 10
203.6294
 20
-99.9867
  0
VERTEX
  8
LAYER_1
 10
195.1111
 20
-91.4674
  0
SEQEND
  0
TEXT
  8
LAYER_1
 10
202.1421
 20
-104.9273
 11
202.1421
 21
-104.9273
 40
4.6571
 41
0.5
 72
1
  1
水栓取り付け穴
  0
TEXT
  8
LAYER_1
 10
202.7235
 20
-110.0424
 11
202.7235
 21
-110.0424
 40
5.542
 41
0.5
 72
1
  1
22-26
  0
CIRCLE
  8
LAYER_1
 10
198.2158
 20
-94.478
 40
3.0613
  0
POLYLINE
  8
LAYER_1
 40
0.1058
 41
0.1058
 66
1
 10
0
 20
0
 30
0
  0
VERTEX
  8
LAYER_1
 10
191.8721
 20
-94.4884
  0
VERTEX
  8
LAYER_1
 10
195.8284
 20
-94.4821
  0
SEQEND
  0
POLYLINE
  8
LAYER_1
 40
0.1058
 41
0.1058
 66
1
 10
0
 20
0
 30
0
  0
VERTEX
  8
LAYER_1
 10
196.6118
 20
-94.4801
  0
VERTEX
  8
LAYER_1
 10
197.4303
 20
-94.4801
  0
SEQEND
  0
POLYLINE
  8
LAYER_1
 40
0.1058
 41
0.1058
 66
1
 10
0
 20
0
 30
0
  0
VERTEX
  8
LAYER_1
 10
198.2158
 20
-94.478
  0
VERTEX
  8
LAYER_1
 10
202.1701
 20
-94.4719
  0
SEQEND
  0
POLYLINE
  8
LAYER_1
 40
0.1058
 41
0.1058
 66
1
 10
0
 20
0
 30
0
  0
VERTEX
  8
LAYER_1
 10
198.2386
 20
-88.5724
  0
VERTEX
  8
LAYER_1
 10
198.2241
 20
-92.0906
  0
SEQEND
  0
POLYLINE
  8
LAYER_1
 40
0.1058
 41
0.1058
 66
1
 10
0
 20
0
 30
0
  0
VERTEX
  8
LAYER_1
 10
198.2221
 20
-92.874
  0
VERTEX
  8
LAYER_1
 10
198.2179
 20
-93.6936
  0
SEQEND
  0
POLYLINE
  8
LAYER_1
 40
0.1058
 41
0.1058
 66
1
 10
0
 20
0
 30
0
  0
VERTEX
  8
LAYER_1
 10
198.2158
 20
-94.478
  0
VERTEX
  8
LAYER_1
 10
198.2013
 20
-98.4333
  0
SEQEND
  0
ENDBLK
  0
BLOCK
  8
LAYER_6
  2
AIGNBL06010002
 70
64
 10
0
 20
0
 30
0
  3
AIGNBL06010002
  0
POLYLINE
  8
LAYER_6
 40
0.7056
 41
0.7056
 66
1
 10
0
 20
0
 30
0
 70
1
  0
VERTEX
  8
LAYER_6
 10
33.7873
 20
22.6587
  0
VERTEX
  8
LAYER_6
 10
230.7955
 20
22.6587
  0
VERTEX
  8
LAYER_6
 10
230.7955
 20
-259.334
  0
VERTEX
  8
LAYER_6
 10
33.7873
 20
-259.334
  0
SEQEND
  0
ENDBLK
  0
ENDSEC
  0
SECTION
  2
ENTITIES
  0
INSERT
  8
LAYER_1
  2
AIGNBL01010002
 10
0
 20
0
 30
0
  0
INSERT
  8
LAYER_1
  2
AIGNBL01010024
 10
0
 20
0
 30
0
  0
TEXT
  8
LAYER_1
 10
96.9674
 20
-113.7526
 11
96.9674
 21
-113.7526
 40
5.542
 41
0.5
  1
22%%d
  0
TEXT
  8
LAYER_1
 10
88.2472
 20
-154.1821
 11
88.2472
 21
-154.1821
 40
5.542
 41
0.5
  1
20%%d
  0
POLYLINE
  8
LAYER_1
 40
0.1058
 41
0.1058
 66
1
 10
0
 20
0
 30
0
  0
VERTEX
  8
LAYER_1
 10
136.1273
 20
-123.0308
  0
VERTEX
  8
LAYER_1
 10
125.9292
 20
-123.0308
  0
SEQEND
  0
POLYLINE
  8
LAYER_1
 40
0.1058
 41
0.1058
 66
1
 10
0
 20
0
 30
0
  0
VERTEX
  8
LAYER_1
 10
136.2797
 20
-123.1705
  0
VERTEX
  8
LAYER_1
 10
136.2797
 20
-155.9365
  0
SEQEND
  0
POLYLINE
  8
LAYER_1
 40
0.1058
 41
0.1058
 66
1
 10
0
 20
0
 30
0
  0
VERTEX
  8
LAYER_1
 10
136.2797
 20
-123.1705
  0
VERTEX
  8
LAYER_1
 10
136.1273
 20
-123.0308
  0
SEQEND
  0
POLYLINE
  8
LAYER_1
 40
0.1058
 41
0.1058
 66
1
 10
0
 20
0
 30
0
  0
VERTEX
  8
LAYER_1
 10
125.9292
 20
-123.0308
  0
VERTEX
  8
LAYER_1
 10
125.7768
 20
-123.1705
  0
SEQEND
  0
POLYLINE
  8
LAYER_1
 40
0.1058
 41
0.1058
 66
1
 10
0
 20
0
 30
0
  0
VERTEX
  8
LAYER_1
 10
125.7768
 20
-155.9365
  0
VERTEX
  8
LAYER_1
 10
125.8657
 20
-156.0254
  0
SEQEND
  0
POLYLINE
  8
LAYER_1
 40
0.1058
 41
0.1058
 66
1
 10
0
 20
0
 30
0
  0
VERTEX
  8
LAYER_1
 10
136.2797
 20
-155.9365
  0
VERTEX
  8
LAYER_1
 10
136.1907
 20
-156.0254
  0
SEQEND
  0
POLYLINE
  8
LAYER_1
 40
0.1058
 41
0.1058
 66
1
 10
0
 20
0
 30
0
  0
VERTEX
  8
LAYER_1
 10
125.7768
 20
-155.9365
  0
VERTEX
  8
LAYER_1
 10
125.7768
 20
-138.1819
  0
SEQEND
  0
POLYLINE
  8
LAYER_1
 40
0.1058
 41
0.1058
 66
1
 10
0
 20
0
 30
0
  0
VERTEX
  8
LAYER_1
 10
125.7768
 20
-131.87
  0
VERTEX
  8
LAYER_1
 10
125.7768
 20
-123.1705
  0
SEQEND
  0
POLYLINE
  8
LAYER_1
 40
0.1058
 41
0.1058
 66
1
 10
0
 20
0
 30
0
  0
VERTEX
  8
LAYER_1
 10
125.7768
 20
-131.87
  0
VERTEX
  8
LAYER_1
 10
110.0796
 20
-131.87
  0
SEQEND
  0
POLYLINE
  8
LAYER_1
 40
0.1058
 41
0.1058
 66
1
 10
0
 20
0
 30
0
  0
VERTEX
  8
LAYER_1
 10
131.0346
 20
-122.7514
  0
VERTEX
  8
LAYER_1
 10
125.7768
 20
-122.7514
  0
SEQEND
  0
POLYLINE
  8
LAYER_1
 40
0.1058
 41
0.1058
 66
1
 10
0
 20
0
 30
0
  0
VERTEX
  8
LAYER_1
 10
135.9749
 20
-115.106
  0
VERTEX
  8
LAYER_1
 10
126.0816
 20
-115.106
  0
SEQEND
  0
POLYLINE
  8
LAYER_1
 40
0.1058
 41
0.1058
 66
1
 10
0
 20
0
 30
0
  0
VERTEX
  8
LAYER_1
 10
131.0346
 20
-122.7514
  0
VERTEX
  8
LAYER_1
 10
136.2797
 20
-120.6305
  0
SEQEND
  0
POLYLINE
  8
LAYER_1
 40
0.1058
 41
0.1058
 66
1
 10
0
 20
0
 30
0
  0
VERTEX
  8
LAYER_1
 10
125.7768
 20
-122.7514
  0
VERTEX
  8
LAYER_1
 10
125.7768
 20
-118.7636
  0
SEQEND
  0
POLYLINE
  8
LAYER_1
 40
0.1058
 41
0.1058
 66
1
 10
0
 20
0
 30
0
  0
VERTEX
  8
LAYER_1
 10
136.2797
 20
-115.4108
  0
VERTEX
  8
LAYER_1
 10
136.2797
 20
-115.3473
  0
VERTEX
  8
LAYER_1
 10
136.2542
 20
-115.3092
  0
VERTEX
  8
LAYER_1
 10
136.2415
 20
-115.2584
  0
VERTEX
  8
LAYER_1
 10
136.2161
 20
-115.2203
  0
VERTEX
  8
LAYER_1
 10
136.178
 20
-115.1822
  0
VERTEX
  8
LAYER_1
 10
136.1273
 20
-115.1441
  0
VERTEX
  8
LAYER_1
 10
136.0765
 20
-115.1187
  0
VERTEX
  8
LAYER_1
 10
136.0384
 20
-115.1187
  0
VERTEX
  8
LAYER_1
 10
135.9749
 20
-115.106
  0
SEQEND
  0
POLYLINE
  8
LAYER_1
 40
0.1058
 41
0.1058
 66
1
 10
0
 20
0
 30
0
  0
VERTEX
  8
LAYER_1
 10
126.0816
 20
-115.106
  0
VERTEX
  8
LAYER_1
 10
126.0308
 20
-115.1187
  0
VERTEX
  8
LAYER_1
 10
125.98
 20
-115.1187
  0
VERTEX
  8
LAYER_1
 10
125.9292
 20
-115.1441
  0
VERTEX
  8
LAYER_1
 10
125.8911
 20
-115.1822
  0
VERTEX
  8
LAYER_1
 10
125.853
 20
-115.2203
  0
VERTEX
  8
LAYER_1
 10
125.8149
 20
-115.2584
  0
VERTEX
  8
LAYER_1
 10
125.8022
 20
-115.3092
  0
VERTEX
  8
LAYER_1
 10
125.7895
 20
-115.3473
  0
VERTEX
  8
LAYER_1
 10
125.7768
 20
-115.4108
  0
VERTEX
  8
LAYER_1
 10
125.7768
 20
-116.249
  0
SEQEND
  0
POLYLINE
  8
LAYER_1
 40
0.1058
 41
0.1058
 66
1
 10
0
 20
0
 30
0
  0
VERTEX
  8
LAYER_1
 10
125.7768
 20
-118.7636
  0
VERTEX
  8
LAYER_1
 10
125.8911
 20
-118.1794
  0
VERTEX
  8
LAYER_1
 10
125.9292
 20
-117.5825
  0
VERTEX
  8
LAYER_1
 10
125.9292
 20
-117.5063
  0
VERTEX
  8
LAYER_1
 10
125.9038
 20
-116.9094
  0
VERTEX
  8
LAYER_1
 10
125.8022
 20
-116.3125
  0
VERTEX
  8
LAYER_1
 10
125.7768
 20
-116.249
  0
SEQEND
  0
POLYLINE
  8
LAYER_1
 40
0.1058
 41
0.1058
 66
1
 10
0
 20
0
 30
0
  0
VERTEX
  8
LAYER_1
 10
136.902
 20
-117.5063
  0
VERTEX
  8
LAYER_1
 10
136.8638
 20
-117.0872
  0
VERTEX
  8
LAYER_1
 10
136.7623
 20
-116.6808
  0
VERTEX
  8
LAYER_1
 10
136.5845
 20
-116.3125
  0
VERTEX
  8
LAYER_1
 10
136.2797
 20
-116.3125
  0
SEQEND
  0
POLYLINE
  8
LAYER_1
 40
0.1058
 41
0.1058
 66
1
 10
0
 20
0
 30
0
  0
VERTEX
  8
LAYER_1
 10
136.2797
 20
-116.5284
  0
VERTEX
  8
LAYER_1
 10
136.2797
 20
-116.3125
  0
SEQEND
  0
POLYLINE
  8
LAYER_1
 40
0.1058
 41
0.1058
 66
1
 10
0
 20
0
 30
0
  0
VERTEX
  8
LAYER_1
 10
136.5845
 20
-118.7128
  0
VERTEX
  8
LAYER_1
 10
136.7623
 20
-118.3318
  0
VERTEX
  8
LAYER_1
 10
136.8638
 20
-117.9254
  0
VERTEX
  8
LAYER_1
 10
136.902
 20
-117.5063
  0
SEQEND
  0
POLYLINE
  8
LAYER_1
 40
0.1058
 41
0.1058
 66
1
 10
0
 20
0
 30
0
  0
VERTEX
  8
LAYER_1
 10
136.5845
 20
-118.7128
  0
VERTEX
  8
LAYER_1
 10
136.2797
 20
-118.7128
  0
SEQEND
  0
POLYLINE
  8
LAYER_1
 40
0.1058
 41
0.1058
 66
1
 10
0
 20
0
 30
0
  0
VERTEX
  8
LAYER_1
 10
136.2797
 20
-118.4842
  0
VERTEX
  8
LAYER_1
 10
136.2797
 20
-118.7128
  0
SEQEND
  0
POLYLINE
  8
LAYER_1
 40
0.1058
 41
0.1058
 66
1
 10
0
 20
0
 30
0
  0
VERTEX
  8
LAYER_1
 10
136.2797
 20
-120.6305
  0
VERTEX
  8
LAYER_1
 10
136.2797
 20
-117.5063
  0
VERTEX
  8
LAYER_1
 10
136.2797
 20
-115.4108
  0
SEQEND
  0
POLYLINE
  8
LAYER_1
 40
0.1058
 41
0.1058
 66
1
 10
0
 20
0
 30
0
  0
VERTEX
  8
LAYER_1
 10
108.2254
 20
-118.7128
  0
VERTEX
  8
LAYER_1
 10
125.8022
 20
-118.7128
  0
SEQEND
  0
POLYLINE
  8
LAYER_1
 40
0.1058
 41
0.1058
 66
1
 10
0
 20
0
 30
0
  0
VERTEX
  8
LAYER_1
 10
108.2254
 20
-116.3125
  0
VERTEX
  8
LAYER_1
 10
125.8022
 20
-116.3125
  0
SEQEND
  0
POLYLINE
  8
LAYER_1
 40
0.1058
 41
0.1058
 66
1
 10
0
 20
0
 30
0
  0
VERTEX
  8
LAYER_1
 10
108.073
 20
-118.5604
  0
VERTEX
  8
LAYER_1
 10
108.073
 20
-116.4522
  0
SEQEND
  0
POLYLINE
  8
LAYER_1
 40
0.1058
 41
0.1058
 66
1
 10
0
 20
0
 30
0
  0
VERTEX
  8
LAYER_1
 10
108.2254
 20
-116.3125
  0
VERTEX
  8
LAYER_1
 10
108.073
 20
-116.4522
  0
SEQEND
  0
POLYLINE
  8
LAYER_1
 40
0.1058
 41
0.1058
 66
1
 10
0
 20
0
 30
0
  0
VERTEX
  8
LAYER_1
 10
108.073
 20
-118.5604
  0
VERTEX
  8
LAYER_1
 10
108.2254
 20
-118.7128
  0
SEQEND
  0
POLYLINE
  8
LAYER_1
 40
0.1058
 41
0.1058
 66
1
 10
0
 20
0
 30
0
  0
VERTEX
  8
LAYER_1
 10
164.3212
 20
-123.0308
  0
VERTEX
  8
LAYER_1
 10
169.4139
 20
-123.0308
  0
SEQEND
  0
POLYLINE
  8
LAYER_1
 40
0.1058
 41
0.1058
 66
1
 10
0
 20
0
 30
0
  0
VERTEX
  8
LAYER_1
 10
164.3212
 20
-123.0308
  0
VERTEX
  8
LAYER_1
 10
159.2158
 20
-123.0308
  0
SEQEND
  0
POLYLINE
  8
LAYER_1
 40
0.1058
 41
0.1058
 66
1
 10
0
 20
0
 30
0
  0
VERTEX
  8
LAYER_1
 10
159.0634
 20
-123.1705
  0
VERTEX
  8
LAYER_1
 10
159.0634
 20
-155.9365
  0
SEQEND
  0
POLYLINE
  8
LAYER_1
 40
0.1058
 41
0.1058
 66
1
 10
0
 20
0
 30
0
  0
VERTEX
  8
LAYER_1
 10
159.0634
 20
-123.1705
  0
VERTEX
  8
LAYER_1
 10
159.2158
 20
-123.0308
  0
SEQEND
  0
POLYLINE
  8
LAYER_1
 40
0.1058
 41
0.1058
 66
1
 10
0
 20
0
 30
0
  0
VERTEX
  8
LAYER_1
 10
169.4139
 20
-123.0308
  0
VERTEX
  8
LAYER_1
 10
169.5663
 20
-123.1705
  0
SEQEND
  0
POLYLINE
  8
LAYER_1
 40
0.1058
 41
0.1058
 66
1
 10
0
 20
0
 30
0
  0
VERTEX
  8
LAYER_1
 10
169.5663
 20
-155.9365
  0
VERTEX
  8
LAYER_1
 10
169.4774
 20
-156.0254
  0
SEQEND
  0
POLYLINE
  8
LAYER_1
 40
0.1058
 41
0.1058
 66
1
 10
0
 20
0
 30
0
  0
VERTEX
  8
LAYER_1
 10
159.0634
 20
-155.9365
  0
VERTEX
  8
LAYER_1
 10
159.165
 20
-156.0254
  0
SEQEND
  0
POLYLINE
  8
LAYER_1
 40
0.1058
 41
0.1058
 66
1
 10
0
 20
0
 30
0
  0
VERTEX
  8
LAYER_1
 10
169.5663
 20
-155.9365
  0
VERTEX
  8
LAYER_1
 10
169.5663
 20
-138.1819
  0
SEQEND
  0
POLYLINE
  8
LAYER_1
 40
0.1058
 41
0.1058
 66
1
 10
0
 20
0
 30
0
  0
VERTEX
  8
LAYER_1
 10
169.5663
 20
-131.87
  0
VERTEX
  8
LAYER_1
 10
169.5663
 20
-123.1705
  0
SEQEND
  0
POLYLINE
  8
LAYER_1
 40
0.1058
 41
0.1058
 66
1
 10
0
 20
0
 30
0
  0
VERTEX
  8
LAYER_1
 10
164.3212
 20
-122.7514
  0
VERTEX
  8
LAYER_1
 10
169.5663
 20
-122.7514
  0
SEQEND
  0
POLYLINE
  8
LAYER_1
 40
0.1058
 41
0.1058
 66
1
 10
0
 20
0
 30
0
  0
VERTEX
  8
LAYER_1
 10
159.3682
 20
-115.106
  0
VERTEX
  8
LAYER_1
 10
169.2742
 20
-115.106
  0
SEQEND
  0
POLYLINE
  8
LAYER_1
 40
0.1058
 41
0.1058
 66
1
 10
0
 20
0
 30
0
  0
VERTEX
  8
LAYER_1
 10
164.3212
 20
-122.7514
  0
VERTEX
  8
LAYER_1
 10
159.0634
 20
-120.6305
  0
SEQEND
  0
POLYLINE
  8
LAYER_1
 40
0.1058
 41
0.1058
 66
1
 10
0
 20
0
 30
0
  0
VERTEX
  8
LAYER_1
 10
169.5663
 20
-122.7514
  0
VERTEX
  8
LAYER_1
 10
169.5663
 20
-118.7636
  0
SEQEND
  0
POLYLINE
  8
LAYER_1
 40
0.1058
 41
0.1058
 66
1
 10
0
 20
0
 30
0
  0
VERTEX
  8
LAYER_1
 10
159.3682
 20
-115.106
  0
VERTEX
  8
LAYER_1
 10
159.3174
 20
-115.1187
  0
VERTEX
  8
LAYER_1
 10
159.2666
 20
-115.1187
  0
VERTEX
  8
LAYER_1
 10
159.2158
 20
-115.1441
  0
VERTEX
  8
LAYER_1
 10
159.1777
 20
-115.1822
  0
VERTEX
  8
LAYER_1
 10
159.1396
 20
-115.2203
  0
VERTEX
  8
LAYER_1
 10
159.1015
 20
-115.2584
  0
VERTEX
  8
LAYER_1
 10
159.0888
 20
-115.3092
  0
VERTEX
  8
LAYER_1
 10
159.0634
 20
-115.3473
  0
VERTEX
  8
LAYER_1
 10
159.0634
 20
-115.4108
  0
SEQEND
  0
POLYLINE
  8
LAYER_1
 40
0.1058
 41
0.1058
 66
1
 10
0
 20
0
 30
0
  0
VERTEX
  8
LAYER_1
 10
169.5663
 20
-115.4108
  0
VERTEX
  8
LAYER_1
 10
169.5663
 20
-115.3473
  0
VERTEX
  8
LAYER_1
 10
169.5536
 20
-115.3092
  0
VERTEX
  8
LAYER_1
 10
169.5282
 20
-115.2584
  0
VERTEX
  8
LAYER_1
 10
169.5028
 20
-115.2203
  0
VERTEX
  8
LAYER_1
 10
169.4647
 20
-115.1822
  0
VERTEX
  8
LAYER_1
 10
169.4139
 20
-115.1441
  0
VERTEX
  8
LAYER_1
 10
169.3758
 20
-115.1187
  0
VERTEX
  8
LAYER_1
 10
169.3123
 20
-115.1187
  0
VERTEX
  8
LAYER_1
 10
169.2742
 20
-115.106
  0
SEQEND
  0
POLYLINE
  8
LAYER_1
 40
0.1058
 41
0.1058
 66
1
 10
0
 20
0
 30
0
  0
VERTEX
  8
LAYER_1
 10
169.5663
 20
-115.4108
  0
VERTEX
  8
LAYER_1
 10
169.5663
 20
-116.249
  0
SEQEND
  0
POLYLINE
  8
LAYER_1
 40
0.1058
 41
0.1058
 66
1
 10
0
 20
0
 30
0
  0
VERTEX
  8
LAYER_1
 10
169.4139
 20
-117.5063
  0
VERTEX
  8
LAYER_1
 10
169.452
 20
-118.1032
  0
VERTEX
  8
LAYER_1
 10
169.5536
 20
-118.7001
  0
VERTEX
  8
LAYER_1
 10
169.5663
 20
-118.7636
  0
SEQEND
  0
POLYLINE
  8
LAYER_1
 40
0.1058
 41
0.1058
 66
1
 10
0
 20
0
 30
0
  0
VERTEX
  8
LAYER_1
 10
169.5663
 20
-116.249
  0
VERTEX
  8
LAYER_1
 10
169.452
 20
-116.8332
  0
VERTEX
  8
LAYER_1
 10
169.4139
 20
-117.4301
  0
VERTEX
  8
LAYER_1
 10
169.4139
 20
-117.5063
  0
SEQEND
  0
POLYLINE
  8
LAYER_1
 40
0.1058
 41
0.1058
 66
1
 10
0
 20
0
 30
0
  0
VERTEX
  8
LAYER_1
 10
158.7713
 20
-116.3125
  0
VERTEX
  8
LAYER_1
 10
158.5935
 20
-116.6808
  0
VERTEX
  8
LAYER_1
 10
158.4792
 20
-117.0872
  0
VERTEX
  8
LAYER_1
 10
158.4411
 20
-117.5063
  0
SEQEND
  0
POLYLINE
  8
LAYER_1
 40
0.1058
 41
0.1058
 66
1
 10
0
 20
0
 30
0
  0
VERTEX
  8
LAYER_1
 10
158.7713
 20
-116.3125
  0
VERTEX
  8
LAYER_1
 10
159.0634
 20
-116.3125
  0
SEQEND
  0
POLYLINE
  8
LAYER_1
 40
0.1058
 41
0.1058
 66
1
 10
0
 20
0
 30
0
  0
VERTEX
  8
LAYER_1
 10
159.0634
 20
-116.5284
  0
VERTEX
  8
LAYER_1
 10
159.0634
 20
-116.3125
  0
SEQEND
  0
POLYLINE
  8
LAYER_1
 40
0.1058
 41
0.1058
 66
1
 10
0
 20
0
 30
0
  0
VERTEX
  8
LAYER_1
 10
158.4411
 20
-117.5063
  0
VERTEX
  8
LAYER_1
 10
158.4792
 20
-117.9254
  0
VERTEX
  8
LAYER_1
 10
158.5935
 20
-118.3318
  0
VERTEX
  8
LAYER_1
 10
158.7713
 20
-118.7128
  0
VERTEX
  8
LAYER_1
 10
159.0634
 20
-118.7128
  0
SEQEND
  0
POLYLINE
  8
LAYER_1
 40
0.1058
 41
0.1058
 66
1
 10
0
 20
0
 30
0
  0
VERTEX
  8
LAYER_1
 10
159.0634
 20
-118.4842
  0
VERTEX
  8
LAYER_1
 10
159.0634
 20
-118.7128
  0
SEQEND
  0
POLYLINE
  8
LAYER_1
 40
0.1058
 41
0.1058
 66
1
 10
0
 20
0
 30
0
  0
VERTEX
  8
LAYER_1
 10
159.0634
 20
-120.6305
  0
VERTEX
  8
LAYER_1
 10
159.0634
 20
-117.5063
  0
VERTEX
  8
LAYER_1
 10
159.0634
 20
-115.4108
  0
SEQEND
  0
POLYLINE
  8
LAYER_1
 40
0.1058
 41
0.1058
 66
1
 10
0
 20
0
 30
0
  0
VERTEX
  8
LAYER_1
 10
187.1177
 20
-118.7128
  0
VERTEX
  8
LAYER_1
 10
169.5536
 20
-118.7128
  0
SEQEND
  0
POLYLINE
  8
LAYER_1
 40
0.1058
 41
0.1058
 66
1
 10
0
 20
0
 30
0
  0
VERTEX
  8
LAYER_1
 10
187.1177
 20
-116.3125
  0
VERTEX
  8
LAYER_1
 10
169.5536
 20
-116.3125
  0
SEQEND
  0
POLYLINE
  8
LAYER_1
 40
0.1058
 41
0.1058
 66
1
 10
0
 20
0
 30
0
  0
VERTEX
  8
LAYER_1
 10
187.2701
 20
-118.5604
  0
VERTEX
  8
LAYER_1
 10
187.2701
 20
-116.4522
  0
SEQEND
  0
POLYLINE
  8
LAYER_1
 40
0.1058
 41
0.1058
 66
1
 10
0
 20
0
 30
0
  0
VERTEX
  8
LAYER_1
 10
187.1177
 20
-116.3125
  0
VERTEX
  8
LAYER_1
 10
187.2701
 20
-116.4522
  0
SEQEND
  0
POLYLINE
  8
LAYER_1
 40
0.1058
 41
0.1058
 66
1
 10
0
 20
0
 30
0
  0
VERTEX
  8
LAYER_1
 10
187.2701
 20
-118.5604
  0
VERTEX
  8
LAYER_1
 10
187.1177
 20
-118.7128
  0
SEQEND
  0
POLYLINE
  8
LAYER_1
 40
0.1058
 41
0.1058
 66
1
 10
0
 20
0
 30
0
  0
VERTEX
  8
LAYER_1
 10
126.6784
 20
-122.7514
  0
VERTEX
  8
LAYER_1
 10
126.6784
 20
-123.0308
  0
SEQEND
  0
POLYLINE
  8
LAYER_1
 40
0.1058
 41
0.1058
 66
1
 10
0
 20
0
 30
0
  0
VERTEX
  8
LAYER_1
 10
135.3779
 20
-123.0308
  0
VERTEX
  8
LAYER_1
 10
135.3652
 20
-122.4212
  0
VERTEX
  8
LAYER_1
 10
135.3271
 20
-121.8243
  0
VERTEX
  8
LAYER_1
 10
135.2763
 20
-121.2274
  0
VERTEX
  8
LAYER_1
 10
135.2509
 20
-121.0496
  0
SEQEND
  0
POLYLINE
  8
LAYER_1
 40
0.1058
 41
0.1058
 66
1
 10
0
 20
0
 30
0
  0
VERTEX
  8
LAYER_1
 10
160.0921
 20
-121.0496
  0
VERTEX
  8
LAYER_1
 10
160.0286
 20
-121.6465
  0
VERTEX
  8
LAYER_1
 10
159.9905
 20
-122.2434
  0
VERTEX
  8
LAYER_1
 10
159.9651
 20
-122.8403
  0
VERTEX
  8
LAYER_1
 10
159.9651
 20
-123.0308
  0
SEQEND
  0
POLYLINE
  8
LAYER_1
 40
0.1058
 41
0.1058
 66
1
 10
0
 20
0
 30
0
  0
VERTEX
  8
LAYER_1
 10
168.6646
 20
-123.0308
  0
VERTEX
  8
LAYER_1
 10
168.6646
 20
-122.7514
  0
SEQEND
  0
POLYLINE
  8
LAYER_1
 40
0.1058
 41
0.1058
 66
1
 10
0
 20
0
 30
0
  0
VERTEX
  8
LAYER_1
 10
204.2119
 20
-131.87
  0
VERTEX
  8
LAYER_1
 10
169.5663
 20
-131.87
  0
SEQEND
  0
POLYLINE
  8
LAYER_1
 40
0.1058
 41
0.1058
 66
1
 10
0
 20
0
 30
0
  0
VERTEX
  8
LAYER_1
 10
204.3643
 20
-132.0224
  0
VERTEX
  8
LAYER_1
 10
204.3643
 20
-138.0295
  0
SEQEND
  0
POLYLINE
  8
LAYER_1
 40
0.1058
 41
0.1058
 66
1
 10
0
 20
0
 30
0
  0
VERTEX
  8
LAYER_1
 10
204.2119
 20
-131.87
  0
VERTEX
  8
LAYER_1
 10
204.3643
 20
-132.0224
  0
SEQEND
  0
POLYLINE
  8
LAYER_1
 40
0.1058
 41
0.1058
 66
1
 10
0
 20
0
 30
0
  0
VERTEX
  8
LAYER_1
 10
204.3643
 20
-138.0295
  0
VERTEX
  8
LAYER_1
 10
204.2119
 20
-138.1819
  0
VERTEX
  8
LAYER_1
 10
203.6658
 20
-138.1819
  0
SEQEND
  0
POLYLINE
  8
LAYER_1
 40
0.1058
 41
0.1058
 66
1
 10
0
 20
0
 30
0
  0
VERTEX
  8
LAYER_1
 10
197.7603
 20
-138.1819
  0
VERTEX
  8
LAYER_1
 10
169.5663
 20
-138.1819
  0
SEQEND
  0
POLYLINE
  8
LAYER_1
 40
0.1058
 41
0.1058
 66
1
 10
0
 20
0
 30
0
  0
VERTEX
  8
LAYER_1
 10
198.789
 20
-140.7346
  0
VERTEX
  8
LAYER_1
 10
201.3036
 20
-139.8202
  0
SEQEND
  0
POLYLINE
  8
LAYER_1
 40
0.1058
 41
0.1058
 66
1
 10
0
 20
0
 30
0
  0
VERTEX
  8
LAYER_1
 10
203.8309
 20
-138.9058
  0
VERTEX
  8
LAYER_1
 10
201.3036
 20
-139.8202
  0
SEQEND
  0
POLYLINE
  8
LAYER_1
 40
0.1058
 41
0.1058
 66
1
 10
0
 20
0
 30
0
  0
VERTEX
  8
LAYER_1
 10
197.7603
 20
-138.1819
  0
VERTEX
  8
LAYER_1
 10
198.6747
 20
-140.6838
  0
SEQEND
  0
POLYLINE
  8
LAYER_1
 40
0.1058
 41
0.1058
 66
1
 10
0
 20
0
 30
0
  0
VERTEX
  8
LAYER_1
 10
203.6658
 20
-138.1819
  0
VERTEX
  8
LAYER_1
 10
203.8944
 20
-138.7788
  0
SEQEND
  0
POLYLINE
  8
LAYER_1
 40
0.1058
 41
0.1058
 66
1
 10
0
 20
0
 30
0
  0
VERTEX
  8
LAYER_1
 10
198.6747
 20
-140.6838
  0
VERTEX
  8
LAYER_1
 10
198.789
 20
-140.7346
  0
SEQEND
  0
POLYLINE
  8
LAYER_1
 40
0.1058
 41
0.1058
 66
1
 10
0
 20
0
 30
0
  0
VERTEX
  8
LAYER_1
 10
203.8309
 20
-138.9058
  0
VERTEX
  8
LAYER_1
 10
203.8944
 20
-138.7788
  0
SEQEND
  0
POLYLINE
  8
LAYER_1
 40
0.1058
 41
0.1058
 66
1
 10
0
 20
0
 30
0
  0
VERTEX
  8
LAYER_1
 10
204.2119
 20
-131.87
  0
VERTEX
  8
LAYER_1
 10
204.2119
 20
-138.1819
  0
SEQEND
  0
POLYLINE
  8
LAYER_1
 40
0.1058
 41
0.1058
 66
1
 10
0
 20
0
 30
0
  0
VERTEX
  8
LAYER_1
 10
203.8944
 20
-138.7788
  0
VERTEX
  8
LAYER_1
 10
198.6747
 20
-140.6838
  0
SEQEND
  0
POLYLINE
  8
LAYER_1
 40
0.1058
 41
0.1058
 66
1
 10
0
 20
0
 30
0
  0
VERTEX
  8
LAYER_1
 10
91.1311
 20
-131.87
  0
VERTEX
  8
LAYER_1
 10
125.7767
 20
-131.87
  0
SEQEND
  0
POLYLINE
  8
LAYER_1
 40
0.1058
 41
0.1058
 66
1
 10
0
 20
0
 30
0
  0
VERTEX
  8
LAYER_1
 10
90.9787
 20
-132.0224
  0
VERTEX
  8
LAYER_1
 10
90.9787
 20
-138.0295
  0
SEQEND
  0
POLYLINE
  8
LAYER_1
 40
0.1058
 41
0.1058
 66
1
 10
0
 20
0
 30
0
  0
VERTEX
  8
LAYER_1
 10
91.1311
 20
-131.87
  0
VERTEX
  8
LAYER_1
 10
90.9787
 20
-132.0224
  0
SEQEND
  0
POLYLINE
  8
LAYER_1
 40
0.1058
 41
0.1058
 66
1
 10
0
 20
0
 30
0
  0
VERTEX
  8
LAYER_1
 10
90.9787
 20
-138.0295
  0
VERTEX
  8
LAYER_1
 10
91.1311
 20
-138.1819
  0
VERTEX
  8
LAYER_1
 10
91.6772
 20
-138.1819
  0
SEQEND
  0
POLYLINE
  8
LAYER_1
 40
0.1058
 41
0.1058
 66
1
 10
0
 20
0
 30
0
  0
VERTEX
  8
LAYER_1
 10
97.5827
 20
-138.1819
  0
VERTEX
  8
LAYER_1
 10
125.7767
 20
-138.1819
  0
SEQEND
  0
POLYLINE
  8
LAYER_1
 40
0.1058
 41
0.1058
 66
1
 10
0
 20
0
 30
0
  0
VERTEX
  8
LAYER_1
 10
96.554
 20
-140.7346
  0
VERTEX
  8
LAYER_1
 10
94.0394
 20
-139.8202
  0
SEQEND
  0
POLYLINE
  8
LAYER_1
 40
0.1058
 41
0.1058
 66
1
 10
0
 20
0
 30
0
  0
VERTEX
  8
LAYER_1
 10
91.5121
 20
-138.9058
  0
VERTEX
  8
LAYER_1
 10
94.0394
 20
-139.8202
  0
SEQEND
  0
POLYLINE
  8
LAYER_1
 40
0.1058
 41
0.1058
 66
1
 10
0
 20
0
 30
0
  0
VERTEX
  8
LAYER_1
 10
97.5827
 20
-138.1819
  0
VERTEX
  8
LAYER_1
 10
96.6683
 20
-140.6838
  0
SEQEND
  0
POLYLINE
  8
LAYER_1
 40
0.1058
 41
0.1058
 66
1
 10
0
 20
0
 30
0
  0
VERTEX
  8
LAYER_1
 10
91.6772
 20
-138.1819
  0
VERTEX
  8
LAYER_1
 10
91.4613
 20
-138.7788
  0
SEQEND
  0
POLYLINE
  8
LAYER_1
 40
0.1058
 41
0.1058
 66
1
 10
0
 20
0
 30
0
  0
VERTEX
  8
LAYER_1
 10
96.6683
 20
-140.6838
  0
VERTEX
  8
LAYER_1
 10
96.554
 20
-140.7346
  0
SEQEND
  0
POLYLINE
  8
LAYER_1
 40
0.1058
 41
0.1058
 66
1
 10
0
 20
0
 30
0
  0
VERTEX
  8
LAYER_1
 10
91.5121
 20
-138.9058
  0
VERTEX
  8
LAYER_1
 10
91.4613
 20
-138.7788
  0
SEQEND
  0
POLYLINE
  8
LAYER_1
 40
0.1058
 41
0.1058
 66
1
 10
0
 20
0
 30
0
  0
VERTEX
  8
LAYER_1
 10
91.1311
 20
-131.87
  0
VERTEX
  8
LAYER_1
 10
91.1311
 20
-138.1819
  0
SEQEND
  0
POLYLINE
  8
LAYER_1
 40
0.1058
 41
0.1058
 66
1
 10
0
 20
0
 30
0
  0
VERTEX
  8
LAYER_1
 10
91.4613
 20
-138.7788
  0
VERTEX
  8
LAYER_1
 10
96.6683
 20
-140.6838
  0
SEQEND
  0
POLYLINE
  8
LAYER_1
 40
0.1058
 41
0.1058
 66
1
 10
0
 20
0
 30
0
  0
VERTEX
  8
LAYER_1
 10
125.7767
 20
-162.6294
  0
VERTEX
  8
LAYER_1
 10
125.7767
 20
-162.1722
  0
SEQEND
  0
POLYLINE
  8
LAYER_1
 40
0.1058
 41
0.1058
 66
1
 10
0
 20
0
 30
0
  0
VERTEX
  8
LAYER_1
 10
131.0345
 20
-162.6294
  0
VERTEX
  8
LAYER_1
 10
125.7767
 20
-162.6294
  0
SEQEND
  0
POLYLINE
  8
LAYER_1
 40
0.1058
 41
0.1058
 66
1
 10
0
 20
0
 30
0
  0
VERTEX
  8
LAYER_1
 10
127.9611
 20
-162.1722
  0
VERTEX
  8
LAYER_1
 10
127.9611
 20
-158.2733
  0
SEQEND
  0
POLYLINE
  8
LAYER_1
 40
0.1058
 41
0.1058
 66
1
 10
0
 20
0
 30
0
  0
VERTEX
  8
LAYER_1
 10
127.4277
 20
-165.2329
  0
VERTEX
  8
LAYER_1
 10
131.0345
 20
-165.2329
  0
SEQEND
  0
POLYLINE
  8
LAYER_1
 40
0.1058
 41
0.1058
 66
1
 10
0
 20
0
 30
0
  0
VERTEX
  8
LAYER_1
 10
126.907
 20
-164.9281
  0
VERTEX
  8
LAYER_1
 10
126.907
 20
-163.2898
  0
SEQEND
  0
POLYLINE
  8
LAYER_1
 40
0.1058
 41
0.1058
 66
1
 10
0
 20
0
 30
0
  0
VERTEX
  8
LAYER_1
 10
127.4277
 20
-165.2329
  0
VERTEX
  8
LAYER_1
 10
126.907
 20
-164.9281
  0
SEQEND
  0
POLYLINE
  8
LAYER_1
 40
0.1058
 41
0.1058
 66
1
 10
0
 20
0
 30
0
  0
VERTEX
  8
LAYER_1
 10
125.0274
 20
-163.1374
  0
VERTEX
  8
LAYER_1
 10
125.0274
 20
-162.7691
  0
SEQEND
  0
POLYLINE
  8
LAYER_1
 40
0.1058
 41
0.1058
 66
1
 10
0
 20
0
 30
0
  0
VERTEX
  8
LAYER_1
 10
131.0345
 20
-163.2898
  0
VERTEX
  8
LAYER_1
 10
126.7292
 20
-163.2898
  0
SEQEND
  0
POLYLINE
  8
LAYER_1
 40
0.1058
 41
0.1058
 66
1
 10
0
 20
0
 30
0
  0
VERTEX
  8
LAYER_1
 10
125.0274
 20
-162.7691
  0
VERTEX
  8
LAYER_1
 10
131.0345
 20
-162.7691
  0
SEQEND
  0
POLYLINE
  8
LAYER_1
 40
0.1058
 41
0.1058
 66
1
 10
0
 20
0
 30
0
  0
VERTEX
  8
LAYER_1
 10
125.0274
 20
-163.1374
  0
VERTEX
  8
LAYER_1
 10
131.0345
 20
-163.1374
  0
SEQEND
  0
POLYLINE
  8
LAYER_1
 40
0.1058
 41
0.1058
 66
1
 10
0
 20
0
 30
0
  0
VERTEX
  8
LAYER_1
 10
126.1323
 20
-163.1628
  0
VERTEX
  8
LAYER_1
 10
126.3863
 20
-163.239
  0
VERTEX
  8
LAYER_1
 10
126.6403
 20
-163.2771
  0
VERTEX
  8
LAYER_1
 10
126.7292
 20
-163.2898
  0
SEQEND
  0
POLYLINE
  8
LAYER_1
 40
0.1058
 41
0.1058
 66
1
 10
0
 20
0
 30
0
  0
VERTEX
  8
LAYER_1
 10
126.7292
 20
-162.6294
  0
VERTEX
  8
LAYER_1
 10
126.4752
 20
-162.6548
  0
VERTEX
  8
LAYER_1
 10
126.2212
 20
-162.7183
  0
VERTEX
  8
LAYER_1
 10
126.1323
 20
-162.7564
  0
SEQEND
  0
POLYLINE
  8
LAYER_1
 40
0.1058
 41
0.1058
 66
1
 10
0
 20
0
 30
0
  0
VERTEX
  8
LAYER_1
 10
126.1323
 20
-163.1628
  0
VERTEX
  8
LAYER_1
 10
126.0815
 20
-163.1374
  0
VERTEX
  8
LAYER_1
 10
126.0307
 20
-163.1374
  0
VERTEX
  8
LAYER_1
 10
126.018
 20
-163.1374
  0
SEQEND
  0
POLYLINE
  8
LAYER_1
 40
0.1058
 41
0.1058
 66
1
 10
0
 20
0
 30
0
  0
VERTEX
  8
LAYER_1
 10
126.018
 20
-162.7691
  0
VERTEX
  8
LAYER_1
 10
126.0688
 20
-162.7691
  0
VERTEX
  8
LAYER_1
 10
126.1196
 20
-162.7564
  0
VERTEX
  8
LAYER_1
 10
126.1323
 20
-162.7564
  0
SEQEND
  0
POLYLINE
  8
LAYER_1
 40
0.1058
 41
0.1058
 66
1
 10
0
 20
0
 30
0
  0
VERTEX
  8
LAYER_1
 10
128.9263
 20
-164.9281
  0
VERTEX
  8
LAYER_1
 10
128.9263
 20
-163.2898
  0
SEQEND
  0
POLYLINE
  8
LAYER_1
 40
0.1058
 41
0.1058
 66
1
 10
0
 20
0
 30
0
  0
VERTEX
  8
LAYER_1
 10
128.9263
 20
-164.9281
  0
VERTEX
  8
LAYER_1
 10
129.5105
 20
-165.0805
  0
VERTEX
  8
LAYER_1
 10
130.1074
 20
-165.1694
  0
VERTEX
  8
LAYER_1
 10
130.7043
 20
-165.2329
  0
VERTEX
  8
LAYER_1
 10
131.0345
 20
-165.2329
  0
SEQEND
  0
POLYLINE
  8
LAYER_1
 40
0.1058
 41
0.1058
 66
1
 10
0
 20
0
 30
0
  0
VERTEX
  8
LAYER_1
 10
126.907
 20
-164.9281
  0
VERTEX
  8
LAYER_1
 10
127.1864
 20
-165.0805
  0
VERTEX
  8
LAYER_1
 10
127.4912
 20
-165.1821
  0
VERTEX
  8
LAYER_1
 10
127.8087
 20
-165.2329
  0
VERTEX
  8
LAYER_1
 10
128.1262
 20
-165.2202
  0
VERTEX
  8
LAYER_1
 10
128.4437
 20
-165.1567
  0
VERTEX
  8
LAYER_1
 10
128.7485
 20
-165.0424
  0
VERTEX
  8
LAYER_1
 10
128.9263
 20
-164.9281
  0
SEQEND
  0
POLYLINE
  8
LAYER_1
 40
0.1058
 41
0.1058
 66
1
 10
0
 20
0
 30
0
  0
VERTEX
  8
LAYER_1
 10
129.828
 20
-163.1374
  0
VERTEX
  8
LAYER_1
 10
130.4249
 20
-163.2517
  0
VERTEX
  8
LAYER_1
 10
131.0218
 20
-163.2898
  0
VERTEX
  8
LAYER_1
 10
131.0345
 20
-163.2898
  0
SEQEND
  0
POLYLINE
  8
LAYER_1
 40
0.1058
 41
0.1058
 66
1
 10
0
 20
0
 30
0
  0
VERTEX
  8
LAYER_1
 10
127.3515
 20
-163.1374
  0
VERTEX
  8
LAYER_1
 10
127.9484
 20
-163.2517
  0
VERTEX
  8
LAYER_1
 10
128.5453
 20
-163.2898
  0
VERTEX
  8
LAYER_1
 10
129.1422
 20
-163.2517
  0
VERTEX
  8
LAYER_1
 10
129.1549
 20
-163.2517
  0
SEQEND
  0
POLYLINE
  8
LAYER_1
 40
0.1058
 41
0.1058
 66
1
 10
0
 20
0
 30
0
  0
VERTEX
  8
LAYER_1
 10
128.558
 20
-163.1374
  0
VERTEX
  8
LAYER_1
 10
129.1422
 20
-163.2517
  0
VERTEX
  8
LAYER_1
 10
129.7391
 20
-163.2898
  0
VERTEX
  8
LAYER_1
 10
130.3487
 20
-163.2517
  0
VERTEX
  8
LAYER_1
 10
130.3868
 20
-163.239
  0
SEQEND
  0
POLYLINE
  8
LAYER_1
 40
0.1058
 41
0.1058
 66
1
 10
0
 20
0
 30
0
  0
VERTEX
  8
LAYER_1
 10
127.3516
 20
-163.2898
  0
VERTEX
  8
LAYER_1
 10
127.9612
 20
-163.2517
  0
SEQEND
  0
POLYLINE
  8
LAYER_1
 40
0.1058
 41
0.1058
 66
1
 10
0
 20
0
 30
0
  0
VERTEX
  8
LAYER_1
 10
131.0346
 20
-162.6294
  0
VERTEX
  8
LAYER_1
 10
130.4377
 20
-162.6548
  0
VERTEX
  8
LAYER_1
 10
129.8408
 20
-162.7691
  0
VERTEX
  8
LAYER_1
 10
129.8281
 20
-162.7691
  0
SEQEND
  0
POLYLINE
  8
LAYER_1
 40
0.1058
 41
0.1058
 66
1
 10
0
 20
0
 30
0
  0
VERTEX
  8
LAYER_1
 10
130.3869
 20
-162.6675
  0
VERTEX
  8
LAYER_1
 10
129.79
 20
-162.6294
  0
VERTEX
  8
LAYER_1
 10
129.1931
 20
-162.6548
  0
VERTEX
  8
LAYER_1
 10
128.6089
 20
-162.7691
  0
VERTEX
  8
LAYER_1
 10
128.5581
 20
-162.7691
  0
SEQEND
  0
POLYLINE
  8
LAYER_1
 40
0.1058
 41
0.1058
 66
1
 10
0
 20
0
 30
0
  0
VERTEX
  8
LAYER_1
 10
129.155
 20
-162.6548
  0
VERTEX
  8
LAYER_1
 10
128.5581
 20
-162.6294
  0
VERTEX
  8
LAYER_1
 10
127.9612
 20
-162.6548
  0
VERTEX
  8
LAYER_1
 10
127.3643
 20
-162.7691
  0
VERTEX
  8
LAYER_1
 10
127.3516
 20
-162.7691
  0
SEQEND
  0
POLYLINE
  8
LAYER_1
 40
0.1058
 41
0.1058
 66
1
 10
0
 20
0
 30
0
  0
VERTEX
  8
LAYER_1
 10
127.9612
 20
-162.6548
  0
VERTEX
  8
LAYER_1
 10
127.3516
 20
-162.6294
  0
SEQEND
  0
POLYLINE
  8
LAYER_1
 40
0.1058
 41
0.1058
 66
1
 10
0
 20
0
 30
0
  0
VERTEX
  8
LAYER_1
 10
127.5802
 20
-174.7706
  0
VERTEX
  8
LAYER_1
 10
131.0346
 20
-174.7706
  0
SEQEND
  0
POLYLINE
  8
LAYER_1
 40
0.1058
 41
0.1058
 66
1
 10
0
 20
0
 30
0
  0
VERTEX
  8
LAYER_1
 10
127.5802
 20
-171.1765
  0
VERTEX
  8
LAYER_1
 10
127.377
 20
-171.7353
  0
VERTEX
  8
LAYER_1
 10
127.25
 20
-172.3322
  0
VERTEX
  8
LAYER_1
 10
127.2119
 20
-172.9164
  0
VERTEX
  8
LAYER_1
 10
127.2373
 20
-173.526
  0
VERTEX
  8
LAYER_1
 10
127.3516
 20
-174.1102
  0
VERTEX
  8
LAYER_1
 10
127.5421
 20
-174.6817
  0
VERTEX
  8
LAYER_1
 10
127.5802
 20
-174.7706
  0
SEQEND
  0
POLYLINE
  8
LAYER_1
 40
0.1058
 41
0.1058
 66
1
 10
0
 20
0
 30
0
  0
VERTEX
  8
LAYER_1
 10
127.5802
 20
-171.1765
  0
VERTEX
  8
LAYER_1
 10
131.0346
 20
-171.1765
  0
SEQEND
  0
POLYLINE
  8
LAYER_1
 40
0.1058
 41
0.1058
 66
1
 10
0
 20
0
 30
0
  0
VERTEX
  8
LAYER_1
 10
128.0374
 20
-171.1765
  0
VERTEX
  8
LAYER_1
 10
127.9612
 20
-171.1892
  0
VERTEX
  8
LAYER_1
 10
127.8723
 20
-171.2146
  0
VERTEX
  8
LAYER_1
 10
127.7834
 20
-171.2654
  0
VERTEX
  8
LAYER_1
 10
127.7072
 20
-171.3289
  0
VERTEX
  8
LAYER_1
 10
127.631
 20
-171.4178
  0
VERTEX
  8
LAYER_1
 10
127.5548
 20
-171.5194
  0
VERTEX
  8
LAYER_1
 10
127.4913
 20
-171.6337
  0
VERTEX
  8
LAYER_1
 10
127.4278
 20
-171.7734
  0
VERTEX
  8
LAYER_1
 10
127.377
 20
-171.9131
  0
VERTEX
  8
LAYER_1
 10
127.3262
 20
-172.0782
  0
VERTEX
  8
LAYER_1
 10
127.2881
 20
-172.2433
  0
VERTEX
  8
LAYER_1
 10
127.25
 20
-172.4211
  0
VERTEX
  8
LAYER_1
 10
127.2373
 20
-172.5989
  0
VERTEX
  8
LAYER_1
 10
127.2246
 20
-172.7894
  0
VERTEX
  8
LAYER_1
 10
127.2246
 20
-172.9799
  0
VERTEX
  8
LAYER_1
 10
127.2246
 20
-173.1577
  0
VERTEX
  8
LAYER_1
 10
127.2373
 20
-173.3482
  0
VERTEX
  8
LAYER_1
 10
127.25
 20
-173.5387
  0
VERTEX
  8
LAYER_1
 10
127.2881
 20
-173.7038
  0
VERTEX
  8
LAYER_1
 10
127.3262
 20
-173.8689
  0
VERTEX
  8
LAYER_1
 10
127.377
 20
-174.034
  0
VERTEX
  8
LAYER_1
 10
127.4278
 20
-174.1864
  0
VERTEX
  8
LAYER_1
 10
127.4913
 20
-174.3134
  0
VERTEX
  8
LAYER_1
 10
127.5548
 20
-174.4277
  0
VERTEX
  8
LAYER_1
 10
127.631
 20
-174.5293
  0
VERTEX
  8
LAYER_1
 10
127.7072
 20
-174.6182
  0
VERTEX
  8
LAYER_1
 10
127.7834
 20
-174.6817
  0
VERTEX
  8
LAYER_1
 10
127.8723
 20
-174.7325
  0
VERTEX
  8
LAYER_1
 10
127.9612
 20
-174.7579
  0
VERTEX
  8
LAYER_1
 10
128.0374
 20
-174.7706
  0
VERTEX
  8
LAYER_1
 10
128.1263
 20
-174.7579
  0
VERTEX
  8
LAYER_1
 10
128.2152
 20
-174.7325
  0
VERTEX
  8
LAYER_1
 10
128.3041
 20
-174.6817
  0
VERTEX
  8
LAYER_1
 10
128.3803
 20
-174.6182
  0
VERTEX
  8
LAYER_1
 10
128.4565
 20
-174.5293
  0
VERTEX
  8
LAYER_1
 10
128.5327
 20
-174.4277
  0
VERTEX
  8
LAYER_1
 10
128.5962
 20
-174.3134
  0
VERTEX
  8
LAYER_1
 10
128.6597
 20
-174.1864
  0
VERTEX
  8
LAYER_1
 10
128.7105
 20
-174.034
  0
VERTEX
  8
LAYER_1
 10
128.7613
 20
-173.8689
  0
VERTEX
  8
LAYER_1
 10
128.7994
 20
-173.7038
  0
VERTEX
  8
LAYER_1
 10
128.8248
 20
-173.5387
  0
VERTEX
  8
LAYER_1
 10
128.8502
 20
-173.3482
  0
VERTEX
  8
LAYER_1
 10
128.8629
 20
-173.1577
  0
VERTEX
  8
LAYER_1
 10
128.8629
 20
-172.9799
  0
VERTEX
  8
LAYER_1
 10
128.8629
 20
-172.7894
  0
VERTEX
  8
LAYER_1
 10
128.8502
 20
-172.5989
  0
VERTEX
  8
LAYER_1
 10
128.8248
 20
-172.4211
  0
VERTEX
  8
LAYER_1
 10
128.7994
 20
-172.2433
  0
VERTEX
  8
LAYER_1
 10
128.7613
 20
-172.0782
  0
VERTEX
  8
LAYER_1
 10
128.7105
 20
-171.9131
  0
VERTEX
  8
LAYER_1
 10
128.6597
 20
-171.7734
  0
VERTEX
  8
LAYER_1
 10
128.5962
 20
-171.6337
  0
VERTEX
  8
LAYER_1
 10
128.5327
 20
-171.5194
  0
VERTEX
  8
LAYER_1
 10
128.4565
 20
-171.4178
  0
VERTEX
  8
LAYER_1
 10
128.3803
 20
-171.3289
  0
VERTEX
  8
LAYER_1
 10
128.3041
 20
-171.2654
  0
VERTEX
  8
LAYER_1
 10
128.2152
 20
-171.2146
  0
VERTEX
  8
LAYER_1
 10
128.1263
 20
-171.1892
  0
VERTEX
  8
LAYER_1
 10
128.0374
 20
-171.1765
  0
SEQEND
  0
POLYLINE
  8
LAYER_1
 40
0.1058
 41
0.1058
 66
1
 10
0
 20
0
 30
0
  0
VERTEX
  8
LAYER_1
 10
131.0346
 20
-171.1765
  0
VERTEX
  8
LAYER_1
 10
130.8568
 20
-171.1892
  0
VERTEX
  8
LAYER_1
 10
130.6917
 20
-171.2146
  0
VERTEX
  8
LAYER_1
 10
130.5139
 20
-171.2654
  0
VERTEX
  8
LAYER_1
 10
130.3488
 20
-171.3289
  0
VERTEX
  8
LAYER_1
 10
130.1964
 20
-171.4178
  0
VERTEX
  8
LAYER_1
 10
130.0567
 20
-171.5194
  0
VERTEX
  8
LAYER_1
 10
129.917
 20
-171.6337
  0
VERTEX
  8
LAYER_1
 10
129.79
 20
-171.7734
  0
VERTEX
  8
LAYER_1
 10
129.6757
 20
-171.9131
  0
VERTEX
  8
LAYER_1
 10
129.5868
 20
-172.0782
  0
VERTEX
  8
LAYER_1
 10
129.5106
 20
-172.2433
  0
VERTEX
  8
LAYER_1
 10
129.4471
 20
-172.4211
  0
VERTEX
  8
LAYER_1
 10
129.3963
 20
-172.5989
  0
VERTEX
  8
LAYER_1
 10
129.3709
 20
-172.7894
  0
VERTEX
  8
LAYER_1
 10
129.3582
 20
-172.9799
  0
VERTEX
  8
LAYER_1
 10
129.3709
 20
-173.1577
  0
VERTEX
  8
LAYER_1
 10
129.3963
 20
-173.3482
  0
VERTEX
  8
LAYER_1
 10
129.4471
 20
-173.5387
  0
VERTEX
  8
LAYER_1
 10
129.5106
 20
-173.7038
  0
VERTEX
  8
LAYER_1
 10
129.5868
 20
-173.8689
  0
VERTEX
  8
LAYER_1
 10
129.6757
 20
-174.034
  0
VERTEX
  8
LAYER_1
 10
129.79
 20
-174.1864
  0
VERTEX
  8
LAYER_1
 10
129.917
 20
-174.3134
  0
VERTEX
  8
LAYER_1
 10
130.0567
 20
-174.4277
  0
VERTEX
  8
LAYER_1
 10
130.1964
 20
-174.5293
  0
VERTEX
  8
LAYER_1
 10
130.3488
 20
-174.6182
  0
VERTEX
  8
LAYER_1
 10
130.5139
 20
-174.6817
  0
VERTEX
  8
LAYER_1
 10
130.6917
 20
-174.7325
  0
VERTEX
  8
LAYER_1
 10
130.8568
 20
-174.7579
  0
VERTEX
  8
LAYER_1
 10
131.0346
 20
-174.7706
  0
VERTEX
  8
LAYER_1
 10
131.1997
 20
-174.7579
  0
VERTEX
  8
LAYER_1
 10
131.3775
 20
-174.7325
  0
VERTEX
  8
LAYER_1
 10
131.5426
 20
-174.6817
  0
VERTEX
  8
LAYER_1
 10
131.7077
 20
-174.6182
  0
VERTEX
  8
LAYER_1
 10
131.8601
 20
-174.5293
  0
VERTEX
  8
LAYER_1
 10
132.0125
 20
-174.4277
  0
VERTEX
  8
LAYER_1
 10
132.1395
 20
-174.3134
  0
VERTEX
  8
LAYER_1
 10
132.2665
 20
-174.1864
  0
VERTEX
  8
LAYER_1
 10
132.3808
 20
-174.034
  0
VERTEX
  8
LAYER_1
 10
132.4697
 20
-173.8689
  0
VERTEX
  8
LAYER_1
 10
132.5586
 20
-173.7038
  0
VERTEX
  8
LAYER_1
 10
132.6221
 20
-173.5387
  0
VERTEX
  8
LAYER_1
 10
132.6602
 20
-173.3482
  0
VERTEX
  8
LAYER_1
 10
132.6856
 20
-173.1577
  0
VERTEX
  8
LAYER_1
 10
132.6983
 20
-172.9799
  0
VERTEX
  8
LAYER_1
 10
132.6856
 20
-172.7894
  0
VERTEX
  8
LAYER_1
 10
132.6602
 20
-172.5989
  0
VERTEX
  8
LAYER_1
 10
132.6221
 20
-172.4211
  0
VERTEX
  8
LAYER_1
 10
132.5586
 20
-172.2433
  0
VERTEX
  8
LAYER_1
 10
132.4697
 20
-172.0782
  0
VERTEX
  8
LAYER_1
 10
132.3808
 20
-171.9131
  0
VERTEX
  8
LAYER_1
 10
132.2665
 20
-171.7734
  0
VERTEX
  8
LAYER_1
 10
132.1395
 20
-171.6337
  0
VERTEX
  8
LAYER_1
 10
132.0125
 20
-171.5194
  0
VERTEX
  8
LAYER_1
 10
131.8601
 20
-171.4178
  0
VERTEX
  8
LAYER_1
 10
131.7077
 20
-171.3289
  0
VERTEX
  8
LAYER_1
 10
131.5426
 20
-171.2654
  0
VERTEX
  8
LAYER_1
 10
131.3775
 20
-171.2146
  0
VERTEX
  8
LAYER_1
 10
131.1997
 20
-171.1892
  0
VERTEX
  8
LAYER_1
 10
131.0346
 20
-171.1765
  0
SEQEND
  0
POLYLINE
  8
LAYER_1
 40
0.1058
 41
0.1058
 66
1
 10
0
 20
0
 30
0
  0
VERTEX
  8
LAYER_1
 10
127.9612
 20
-171.1765
  0
VERTEX
  8
LAYER_1
 10
127.9612
 20
-165.2329
  0
SEQEND
  0
POLYLINE
  8
LAYER_1
 40
0.1058
 41
0.1058
 66
1
 10
0
 20
0
 30
0
  0
VERTEX
  8
LAYER_1
 10
136.2797
 20
-162.6294
  0
VERTEX
  8
LAYER_1
 10
136.2797
 20
-162.1722
  0
SEQEND
  0
POLYLINE
  8
LAYER_1
 40
0.1058
 41
0.1058
 66
1
 10
0
 20
0
 30
0
  0
VERTEX
  8
LAYER_1
 10
131.0346
 20
-162.6294
  0
VERTEX
  8
LAYER_1
 10
136.2797
 20
-162.6294
  0
SEQEND
  0
POLYLINE
  8
LAYER_1
 40
0.1058
 41
0.1058
 66
1
 10
0
 20
0
 30
0
  0
VERTEX
  8
LAYER_1
 10
134.108
 20
-162.1722
  0
VERTEX
  8
LAYER_1
 10
134.108
 20
-158.2733
  0
SEQEND
  0
POLYLINE
  8
LAYER_1
 40
0.1058
 41
0.1058
 66
1
 10
0
 20
0
 30
0
  0
VERTEX
  8
LAYER_1
 10
134.6287
 20
-165.2329
  0
VERTEX
  8
LAYER_1
 10
131.0346
 20
-165.2329
  0
SEQEND
  0
POLYLINE
  8
LAYER_1
 40
0.1058
 41
0.1058
 66
1
 10
0
 20
0
 30
0
  0
VERTEX
  8
LAYER_1
 10
135.1621
 20
-164.9281
  0
VERTEX
  8
LAYER_1
 10
135.1621
 20
-163.2898
  0
SEQEND
  0
POLYLINE
  8
LAYER_1
 40
0.1058
 41
0.1058
 66
1
 10
0
 20
0
 30
0
  0
VERTEX
  8
LAYER_1
 10
134.6287
 20
-165.2329
  0
VERTEX
  8
LAYER_1
 10
135.1621
 20
-164.9281
  0
SEQEND
  0
POLYLINE
  8
LAYER_1
 40
0.1058
 41
0.1058
 66
1
 10
0
 20
0
 30
0
  0
VERTEX
  8
LAYER_1
 10
137.029
 20
-163.1374
  0
VERTEX
  8
LAYER_1
 10
137.029
 20
-162.7691
  0
SEQEND
  0
POLYLINE
  8
LAYER_1
 40
0.1058
 41
0.1058
 66
1
 10
0
 20
0
 30
0
  0
VERTEX
  8
LAYER_1
 10
131.0346
 20
-163.2898
  0
VERTEX
  8
LAYER_1
 10
135.3272
 20
-163.2898
  0
SEQEND
  0
POLYLINE
  8
LAYER_1
 40
0.1058
 41
0.1058
 66
1
 10
0
 20
0
 30
0
  0
VERTEX
  8
LAYER_1
 10
137.029
 20
-162.7691
  0
VERTEX
  8
LAYER_1
 10
131.0346
 20
-162.7691
  0
SEQEND
  0
POLYLINE
  8
LAYER_1
 40
0.1058
 41
0.1058
 66
1
 10
0
 20
0
 30
0
  0
VERTEX
  8
LAYER_1
 10
137.029
 20
-163.1374
  0
VERTEX
  8
LAYER_1
 10
131.0346
 20
-163.1374
  0
SEQEND
  0
POLYLINE
  8
LAYER_1
 40
0.1058
 41
0.1058
 66
1
 10
0
 20
0
 30
0
  0
VERTEX
  8
LAYER_1
 10
135.3272
 20
-163.2898
  0
VERTEX
  8
LAYER_1
 10
135.5939
 20
-163.2644
  0
VERTEX
  8
LAYER_1
 10
135.8352
 20
-163.2009
  0
VERTEX
  8
LAYER_1
 10
135.9241
 20
-163.1628
  0
SEQEND
  0
POLYLINE
  8
LAYER_1
 40
0.1058
 41
0.1058
 66
1
 10
0
 20
0
 30
0
  0
VERTEX
  8
LAYER_1
 10
135.9241
 20
-162.7564
  0
VERTEX
  8
LAYER_1
 10
135.6828
 20
-162.6675
  0
VERTEX
  8
LAYER_1
 10
135.4161
 20
-162.6294
  0
VERTEX
  8
LAYER_1
 10
135.3272
 20
-162.6294
  0
SEQEND
  0
POLYLINE
  8
LAYER_1
 40
0.1058
 41
0.1058
 66
1
 10
0
 20
0
 30
0
  0
VERTEX
  8
LAYER_1
 10
136.0384
 20
-163.1374
  0
VERTEX
  8
LAYER_1
 10
136.0003
 20
-163.1374
  0
VERTEX
  8
LAYER_1
 10
135.9368
 20
-163.1501
  0
VERTEX
  8
LAYER_1
 10
135.9241
 20
-163.1628
  0
SEQEND
  0
POLYLINE
  8
LAYER_1
 40
0.1058
 41
0.1058
 66
1
 10
0
 20
0
 30
0
  0
VERTEX
  8
LAYER_1
 10
135.9241
 20
-162.7564
  0
VERTEX
  8
LAYER_1
 10
135.9749
 20
-162.7691
  0
VERTEX
  8
LAYER_1
 10
136.0257
 20
-162.7691
  0
VERTEX
  8
LAYER_1
 10
136.0384
 20
-162.7691
  0
SEQEND
  0
POLYLINE
  8
LAYER_1
 40
0.1058
 41
0.1058
 66
1
 10
0
 20
0
 30
0
  0
VERTEX
  8
LAYER_1
 10
133.1301
 20
-164.9281
  0
VERTEX
  8
LAYER_1
 10
133.1301
 20
-163.2898
  0
SEQEND
  0
POLYLINE
  8
LAYER_1
 40
0.1058
 41
0.1058
 66
1
 10
0
 20
0
 30
0
  0
VERTEX
  8
LAYER_1
 10
131.0346
 20
-165.2329
  0
VERTEX
  8
LAYER_1
 10
131.6315
 20
-165.2075
  0
VERTEX
  8
LAYER_1
 10
132.2284
 20
-165.144
  0
VERTEX
  8
LAYER_1
 10
132.8126
 20
-165.017
  0
VERTEX
  8
LAYER_1
 10
133.1301
 20
-164.9281
  0
VERTEX
  8
LAYER_1
 10
133.4095
 20
-165.0805
  0
VERTEX
  8
LAYER_1
 10
133.7143
 20
-165.1821
  0
VERTEX
  8
LAYER_1
 10
134.0318
 20
-165.2329
  0
VERTEX
  8
LAYER_1
 10
134.362
 20
-165.2202
  0
VERTEX
  8
LAYER_1
 10
134.6668
 20
-165.1567
  0
VERTEX
  8
LAYER_1
 10
134.9716
 20
-165.0424
  0
VERTEX
  8
LAYER_1
 10
135.1621
 20
-164.9281
  0
SEQEND
  0
POLYLINE
  8
LAYER_1
 40
0.1058
 41
0.1058
 66
1
 10
0
 20
0
 30
0
  0
VERTEX
  8
LAYER_1
 10
131.0346
 20
-163.2898
  0
VERTEX
  8
LAYER_1
 10
131.6315
 20
-163.2517
  0
VERTEX
  8
LAYER_1
 10
132.2157
 20
-163.1374
  0
VERTEX
  8
LAYER_1
 10
132.2284
 20
-163.1374
  0
SEQEND
  0
POLYLINE
  8
LAYER_1
 40
0.1058
 41
0.1058
 66
1
 10
0
 20
0
 30
0
  0
VERTEX
  8
LAYER_1
 10
132.9015
 20
-163.2517
  0
VERTEX
  8
LAYER_1
 10
133.5111
 20
-163.2898
  0
VERTEX
  8
LAYER_1
 10
134.0953
 20
-163.2517
  0
VERTEX
  8
LAYER_1
 10
134.6922
 20
-163.1374
  0
VERTEX
  8
LAYER_1
 10
134.7049
 20
-163.1374
  0
SEQEND
  0
POLYLINE
  8
LAYER_1
 40
0.1058
 41
0.1058
 66
1
 10
0
 20
0
 30
0
  0
VERTEX
  8
LAYER_1
 10
131.6696
 20
-163.239
  0
VERTEX
  8
LAYER_1
 10
132.2665
 20
-163.2898
  0
VERTEX
  8
LAYER_1
 10
132.8634
 20
-163.2517
  0
VERTEX
  8
LAYER_1
 10
133.4476
 20
-163.1501
  0
VERTEX
  8
LAYER_1
 10
133.5111
 20
-163.1374
  0
SEQEND
  0
POLYLINE
  8
LAYER_1
 40
0.1058
 41
0.1058
 66
1
 10
0
 20
0
 30
0
  0
VERTEX
  8
LAYER_1
 10
134.108
 20
-163.2517
  0
VERTEX
  8
LAYER_1
 10
134.7049
 20
-163.2898
  0
SEQEND
  0
POLYLINE
  8
LAYER_1
 40
0.1058
 41
0.1058
 66
1
 10
0
 20
0
 30
0
  0
VERTEX
  8
LAYER_1
 10
132.2284
 20
-162.7691
  0
VERTEX
  8
LAYER_1
 10
131.6442
 20
-162.6548
  0
VERTEX
  8
LAYER_1
 10
131.0346
 20
-162.6294
  0
SEQEND
  0
POLYLINE
  8
LAYER_1
 40
0.1058
 41
0.1058
 66
1
 10
0
 20
0
 30
0
  0
VERTEX
  8
LAYER_1
 10
133.5111
 20
-162.7691
  0
VERTEX
  8
LAYER_1
 10
132.9142
 20
-162.6548
  0
VERTEX
  8
LAYER_1
 10
132.3173
 20
-162.6294
  0
VERTEX
  8
LAYER_1
 10
131.7204
 20
-162.6548
  0
VERTEX
  8
LAYER_1
 10
131.6696
 20
-162.6675
  0
SEQEND
  0
POLYLINE
  8
LAYER_1
 40
0.1058
 41
0.1058
 66
1
 10
0
 20
0
 30
0
  0
VERTEX
  8
LAYER_1
 10
134.7049
 20
-162.7691
  0
VERTEX
  8
LAYER_1
 10
134.1207
 20
-162.6548
  0
SEQEND
  0
POLYLINE
  8
LAYER_1
 40
0.1058
 41
0.1058
 66
1
 10
0
 20
0
 30
0
  0
VERTEX
  8
LAYER_1
 10
134.1207
 20
-162.6548
  0
VERTEX
  8
LAYER_1
 10
133.5238
 20
-162.6294
  0
VERTEX
  8
LAYER_1
 10
132.9142
 20
-162.6548
  0
VERTEX
  8
LAYER_1
 10
132.9015
 20
-162.6548
  0
SEQEND
  0
POLYLINE
  8
LAYER_1
 40
0.1058
 41
0.1058
 66
1
 10
0
 20
0
 30
0
  0
VERTEX
  8
LAYER_1
 10
134.7049
 20
-162.6294
  0
VERTEX
  8
LAYER_1
 10
134.108
 20
-162.6548
  0
SEQEND
  0
POLYLINE
  8
LAYER_1
 40
0.1058
 41
0.1058
 66
1
 10
0
 20
0
 30
0
  0
VERTEX
  8
LAYER_1
 10
134.4763
 20
-174.7706
  0
VERTEX
  8
LAYER_1
 10
131.0346
 20
-174.7706
  0
SEQEND
  0
POLYLINE
  8
LAYER_1
 40
0.1058
 41
0.1058
 66
1
 10
0
 20
0
 30
0
  0
VERTEX
  8
LAYER_1
 10
134.4763
 20
-174.7706
  0
VERTEX
  8
LAYER_1
 10
134.6795
 20
-174.2118
  0
VERTEX
  8
LAYER_1
 10
134.8065
 20
-173.6276
  0
VERTEX
  8
LAYER_1
 10
134.8573
 20
-173.0307
  0
VERTEX
  8
LAYER_1
 10
134.8192
 20
-172.4338
  0
VERTEX
  8
LAYER_1
 10
134.7176
 20
-171.8369
  0
VERTEX
  8
LAYER_1
 10
134.5144
 20
-171.2654
  0
VERTEX
  8
LAYER_1
 10
134.4763
 20
-171.1765
  0
VERTEX
  8
LAYER_1
 10
131.0346
 20
-171.1765
  0
SEQEND
  0
POLYLINE
  8
LAYER_1
 40
0.1058
 41
0.1058
 66
1
 10
0
 20
0
 30
0
  0
VERTEX
  8
LAYER_1
 10
134.0191
 20
-171.1765
  0
VERTEX
  8
LAYER_1
 10
133.9302
 20
-171.1892
  0
VERTEX
  8
LAYER_1
 10
133.854
 20
-171.2146
  0
VERTEX
  8
LAYER_1
 10
133.7651
 20
-171.2654
  0
VERTEX
  8
LAYER_1
 10
133.6762
 20
-171.3289
  0
VERTEX
  8
LAYER_1
 10
133.6127
 20
-171.4178
  0
VERTEX
  8
LAYER_1
 10
133.5365
 20
-171.5194
  0
VERTEX
  8
LAYER_1
 10
133.4603
 20
-171.6337
  0
VERTEX
  8
LAYER_1
 10
133.4095
 20
-171.7734
  0
VERTEX
  8
LAYER_1
 10
133.346
 20
-171.9131
  0
VERTEX
  8
LAYER_1
 10
133.3079
 20
-172.0782
  0
VERTEX
  8
LAYER_1
 10
133.2698
 20
-172.2433
  0
VERTEX
  8
LAYER_1
 10
133.2317
 20
-172.4211
  0
VERTEX
  8
LAYER_1
 10
133.2063
 20
-172.5989
  0
VERTEX
  8
LAYER_1
 10
133.1936
 20
-172.7894
  0
VERTEX
  8
LAYER_1
 10
133.1936
 20
-172.9799
  0
VERTEX
  8
LAYER_1
 10
133.1936
 20
-173.1577
  0
VERTEX
  8
LAYER_1
 10
133.2063
 20
-173.3482
  0
VERTEX
  8
LAYER_1
 10
133.2317
 20
-173.5387
  0
VERTEX
  8
LAYER_1
 10
133.2698
 20
-173.7038
  0
VERTEX
  8
LAYER_1
 10
133.3079
 20
-173.8689
  0
VERTEX
  8
LAYER_1
 10
133.346
 20
-174.034
  0
VERTEX
  8
LAYER_1
 10
133.4095
 20
-174.1864
  0
VERTEX
  8
LAYER_1
 10
133.4603
 20
-174.3134
  0
VERTEX
  8
LAYER_1
 10
133.5365
 20
-174.4277
  0
VERTEX
  8
LAYER_1
 10
133.6127
 20
-174.5293
  0
VERTEX
  8
LAYER_1
 10
133.6762
 20
-174.6182
  0
VERTEX
  8
LAYER_1
 10
133.7651
 20
-174.6817
  0
VERTEX
  8
LAYER_1
 10
133.854
 20
-174.7325
  0
VERTEX
  8
LAYER_1
 10
133.9302
 20
-174.7579
  0
VERTEX
  8
LAYER_1
 10
134.0191
 20
-174.7706
  0
VERTEX
  8
LAYER_1
 10
134.108
 20
-174.7579
  0
VERTEX
  8
LAYER_1
 10
134.1842
 20
-174.7325
  0
VERTEX
  8
LAYER_1
 10
134.2731
 20
-174.6817
  0
VERTEX
  8
LAYER_1
 10
134.3493
 20
-174.6182
  0
VERTEX
  8
LAYER_1
 10
134.4255
 20
-174.5293
  0
VERTEX
  8
LAYER_1
 10
134.5017
 20
-174.4277
  0
VERTEX
  8
LAYER_1
 10
134.5652
 20
-174.3134
  0
VERTEX
  8
LAYER_1
 10
134.6287
 20
-174.1864
  0
VERTEX
  8
LAYER_1
 10
134.6922
 20
-174.034
  0
VERTEX
  8
LAYER_1
 10
134.7303
 20
-173.8689
  0
VERTEX
  8
LAYER_1
 10
134.7684
 20
-173.7038
  0
VERTEX
  8
LAYER_1
 10
134.8065
 20
-173.5387
  0
VERTEX
  8
LAYER_1
 10
134.8319
 20
-173.3482
  0
VERTEX
  8
LAYER_1
 10
134.8446
 20
-173.1577
  0
VERTEX
  8
LAYER_1
 10
134.8446
 20
-172.9799
  0
VERTEX
  8
LAYER_1
 10
134.8446
 20
-172.7894
  0
VERTEX
  8
LAYER_1
 10
134.8319
 20
-172.5989
  0
VERTEX
  8
LAYER_1
 10
134.8065
 20
-172.4211
  0
VERTEX
  8
LAYER_1
 10
134.7684
 20
-172.2433
  0
VERTEX
  8
LAYER_1
 10
134.7303
 20
-172.0782
  0
VERTEX
  8
LAYER_1
 10
134.6922
 20
-171.9131
  0
VERTEX
  8
LAYER_1
 10
134.6287
 20
-171.7734
  0
VERTEX
  8
LAYER_1
 10
134.5652
 20
-171.6337
  0
VERTEX
  8
LAYER_1
 10
134.5017
 20
-171.5194
  0
VERTEX
  8
LAYER_1
 10
134.4255
 20
-171.4178
  0
VERTEX
  8
LAYER_1
 10
134.3493
 20
-171.3289
  0
VERTEX
  8
LAYER_1
 10
134.2731
 20
-171.2654
  0
VERTEX
  8
LAYER_1
 10
134.1842
 20
-171.2146
  0
VERTEX
  8
LAYER_1
 10
134.108
 20
-171.1892
  0
VERTEX
  8
LAYER_1
 10
134.0191
 20
-171.1765
  0
SEQEND
  0
POLYLINE
  8
LAYER_1
 40
0.1058
 41
0.1058
 66
1
 10
0
 20
0
 30
0
  0
VERTEX
  8
LAYER_1
 10
134.108
 20
-171.1765
  0
VERTEX
  8
LAYER_1
 10
134.108
 20
-165.2329
  0
SEQEND
  0
POLYLINE
  8
LAYER_1
 40
0.1058
 41
0.1058
 66
1
 10
0
 20
0
 30
0
  0
VERTEX
  8
LAYER_1
 10
136.2797
 20
-162.1722
  0
VERTEX
  8
LAYER_1
 10
125.7768
 20
-162.1722
  0
SEQEND
  0
POLYLINE
  8
LAYER_1
 40
0.1058
 41
0.1058
 66
1
 10
0
 20
0
 30
0
  0
VERTEX
  8
LAYER_1
 10
124.7227
 20
-156.0254
  0
VERTEX
  8
LAYER_1
 10
137.3338
 20
-156.0254
  0
SEQEND
  0
POLYLINE
  8
LAYER_1
 40
0.1058
 41
0.1058
 66
1
 10
0
 20
0
 30
0
  0
VERTEX
  8
LAYER_1
 10
136.8766
 20
-157.6764
  0
VERTEX
  8
LAYER_1
 10
136.8766
 20
-158.2733
  0
VERTEX
  8
LAYER_1
 10
131.0346
 20
-158.2733
  0
SEQEND
  0
POLYLINE
  8
LAYER_1
 40
0.1058
 41
0.1058
 66
1
 10
0
 20
0
 30
0
  0
VERTEX
  8
LAYER_1
 10
137.3338
 20
-157.6764
  0
VERTEX
  8
LAYER_1
 10
131.0346
 20
-157.6764
  0
SEQEND
  0
POLYLINE
  8
LAYER_1
 40
0.1058
 41
0.1058
 66
1
 10
0
 20
0
 30
0
  0
VERTEX
  8
LAYER_1
 10
137.4735
 20
-157.524
  0
VERTEX
  8
LAYER_1
 10
137.3338
 20
-157.6764
  0
SEQEND
  0
POLYLINE
  8
LAYER_1
 40
0.1058
 41
0.1058
 66
1
 10
0
 20
0
 30
0
  0
VERTEX
  8
LAYER_1
 10
137.4735
 20
-156.1779
  0
VERTEX
  8
LAYER_1
 10
137.4735
 20
-157.524
  0
SEQEND
  0
POLYLINE
  8
LAYER_1
 40
0.1058
 41
0.1058
 66
1
 10
0
 20
0
 30
0
  0
VERTEX
  8
LAYER_1
 10
137.3338
 20
-156.0254
  0
VERTEX
  8
LAYER_1
 10
137.4735
 20
-156.1778
  0
SEQEND
  0
POLYLINE
  8
LAYER_1
 40
0.1058
 41
0.1058
 66
1
 10
0
 20
0
 30
0
  0
VERTEX
  8
LAYER_1
 10
124.7227
 20
-156.0254
  0
VERTEX
  8
LAYER_1
 10
124.583
 20
-156.1778
  0
VERTEX
  8
LAYER_1
 10
124.583
 20
-157.524
  0
VERTEX
  8
LAYER_1
 10
124.7227
 20
-157.6764
  0
VERTEX
  8
LAYER_1
 10
131.0346
 20
-157.6764
  0
SEQEND
  0
POLYLINE
  8
LAYER_1
 40
0.1058
 41
0.1058
 66
1
 10
0
 20
0
 30
0
  0
VERTEX
  8
LAYER_1
 10
125.1799
 20
-157.6765
  0
VERTEX
  8
LAYER_1
 10
125.1799
 20
-158.2733
  0
VERTEX
  8
LAYER_1
 10
131.0346
 20
-158.2733
  0
SEQEND
  0
POLYLINE
  8
LAYER_1
 40
0.1058
 41
0.1058
 66
1
 10
0
 20
0
 30
0
  0
VERTEX
  8
LAYER_1
 10
159.0634
 20
-162.6295
  0
VERTEX
  8
LAYER_1
 10
159.0634
 20
-162.1723
  0
SEQEND
  0
POLYLINE
  8
LAYER_1
 40
0.1058
 41
0.1058
 66
1
 10
0
 20
0
 30
0
  0
VERTEX
  8
LAYER_1
 10
164.3213
 20
-162.6295
  0
VERTEX
  8
LAYER_1
 10
159.0634
 20
-162.6295
  0
SEQEND
  0
POLYLINE
  8
LAYER_1
 40
0.1058
 41
0.1058
 66
1
 10
0
 20
0
 30
0
  0
VERTEX
  8
LAYER_1
 10
161.2351
 20
-162.1723
  0
VERTEX
  8
LAYER_1
 10
161.2351
 20
-158.2734
  0
SEQEND
  0
POLYLINE
  8
LAYER_1
 40
0.1058
 41
0.1058
 66
1
 10
0
 20
0
 30
0
  0
VERTEX
  8
LAYER_1
 10
160.7144
 20
-165.233
  0
VERTEX
  8
LAYER_1
 10
164.3212
 20
-165.233
  0
SEQEND
  0
POLYLINE
  8
LAYER_1
 40
0.1058
 41
0.1058
 66
1
 10
0
 20
0
 30
0
  0
VERTEX
  8
LAYER_1
 10
160.1937
 20
-164.9282
  0
VERTEX
  8
LAYER_1
 10
160.1937
 20
-163.2899
  0
SEQEND
  0
POLYLINE
  8
LAYER_1
 40
0.1058
 41
0.1058
 66
1
 10
0
 20
0
 30
0
  0
VERTEX
  8
LAYER_1
 10
160.7144
 20
-165.233
  0
VERTEX
  8
LAYER_1
 10
160.1937
 20
-164.9282
  0
SEQEND
  0
POLYLINE
  8
LAYER_1
 40
0.1058
 41
0.1058
 66
1
 10
0
 20
0
 30
0
  0
VERTEX
  8
LAYER_1
 10
158.3141
 20
-163.1375
  0
VERTEX
  8
LAYER_1
 10
158.3141
 20
-162.7692
  0
SEQEND
  0
POLYLINE
  8
LAYER_1
 40
0.1058
 41
0.1058
 66
1
 10
0
 20
0
 30
0
  0
VERTEX
  8
LAYER_1
 10
164.3212
 20
-163.2899
  0
VERTEX
  8
LAYER_1
 10
160.0286
 20
-163.2899
  0
SEQEND
  0
POLYLINE
  8
LAYER_1
 40
0.1058
 41
0.1058
 66
1
 10
0
 20
0
 30
0
  0
VERTEX
  8
LAYER_1
 10
158.3141
 20
-162.7692
  0
VERTEX
  8
LAYER_1
 10
164.3212
 20
-162.7692
  0
SEQEND
  0
POLYLINE
  8
LAYER_1
 40
0.1058
 41
0.1058
 66
1
 10
0
 20
0
 30
0
  0
VERTEX
  8
LAYER_1
 10
158.3141
 20
-163.1375
  0
VERTEX
  8
LAYER_1
 10
164.3212
 20
-163.1375
  0
SEQEND
  0
POLYLINE
  8
LAYER_1
 40
0.1058
 41
0.1058
 66
1
 10
0
 20
0
 30
0
  0
VERTEX
  8
LAYER_1
 10
159.419
 20
-163.1629
  0
VERTEX
  8
LAYER_1
 10
159.673
 20
-163.239
  0
VERTEX
  8
LAYER_1
 10
159.927
 20
-163.2771
  0
VERTEX
  8
LAYER_1
 10
160.0286
 20
-163.2898
  0
SEQEND
  0
POLYLINE
  8
LAYER_1
 40
0.1058
 41
0.1058
 66
1
 10
0
 20
0
 30
0
  0
VERTEX
  8
LAYER_1
 10
160.0286
 20
-162.6294
  0
VERTEX
  8
LAYER_1
 10
159.7619
 20
-162.6548
  0
VERTEX
  8
LAYER_1
 10
159.5079
 20
-162.7183
  0
VERTEX
  8
LAYER_1
 10
159.419
 20
-162.7564
  0
SEQEND
  0
POLYLINE
  8
LAYER_1
 40
0.1058
 41
0.1058
 66
1
 10
0
 20
0
 30
0
  0
VERTEX
  8
LAYER_1
 10
159.419
 20
-163.1629
  0
VERTEX
  8
LAYER_1
 10
159.3682
 20
-163.1374
  0
VERTEX
  8
LAYER_1
 10
159.3174
 20
-163.1374
  0
VERTEX
  8
LAYER_1
 10
159.3047
 20
-163.1374
  0
SEQEND
  0
POLYLINE
  8
LAYER_1
 40
0.1058
 41
0.1058
 66
1
 10
0
 20
0
 30
0
  0
VERTEX
  8
LAYER_1
 10
159.3047
 20
-162.7692
  0
VERTEX
  8
LAYER_1
 10
159.3555
 20
-162.7692
  0
VERTEX
  8
LAYER_1
 10
159.4063
 20
-162.7564
  0
VERTEX
  8
LAYER_1
 10
159.419
 20
-162.7564
  0
SEQEND
  0
POLYLINE
  8
LAYER_1
 40
0.1058
 41
0.1058
 66
1
 10
0
 20
0
 30
0
  0
VERTEX
  8
LAYER_1
 10
162.213
 20
-164.9282
  0
VERTEX
  8
LAYER_1
 10
162.213
 20
-163.2898
  0
SEQEND
  0
POLYLINE
  8
LAYER_1
 40
0.1058
 41
0.1058
 66
1
 10
0
 20
0
 30
0
  0
VERTEX
  8
LAYER_1
 10
162.213
 20
-164.9282
  0
VERTEX
  8
LAYER_1
 10
162.7972
 20
-165.0805
  0
VERTEX
  8
LAYER_1
 10
163.3941
 20
-165.1694
  0
VERTEX
  8
LAYER_1
 10
163.991
 20
-165.2329
  0
VERTEX
  8
LAYER_1
 10
164.3212
 20
-165.2329
  0
SEQEND
  0
POLYLINE
  8
LAYER_1
 40
0.1058
 41
0.1058
 66
1
 10
0
 20
0
 30
0
  0
VERTEX
  8
LAYER_1
 10
160.1937
 20
-164.9282
  0
VERTEX
  8
LAYER_1
 10
160.4731
 20
-165.0805
  0
VERTEX
  8
LAYER_1
 10
160.7779
 20
-165.1821
  0
VERTEX
  8
LAYER_1
 10
161.0954
 20
-165.2329
  0
VERTEX
  8
LAYER_1
 10
161.4256
 20
-165.2202
  0
VERTEX
  8
LAYER_1
 10
161.7304
 20
-165.1567
  0
VERTEX
  8
LAYER_1
 10
162.0352
 20
-165.0425
  0
VERTEX
  8
LAYER_1
 10
162.213
 20
-164.9282
  0
SEQEND
  0
POLYLINE
  8
LAYER_1
 40
0.1058
 41
0.1058
 66
1
 10
0
 20
0
 30
0
  0
VERTEX
  8
LAYER_1
 10
163.1147
 20
-163.1375
  0
VERTEX
  8
LAYER_1
 10
163.7116
 20
-163.2517
  0
VERTEX
  8
LAYER_1
 10
164.3085
 20
-163.2898
  0
VERTEX
  8
LAYER_1
 10
164.3212
 20
-163.2898
  0
SEQEND
  0
POLYLINE
  8
LAYER_1
 40
0.1058
 41
0.1058
 66
1
 10
0
 20
0
 30
0
  0
VERTEX
  8
LAYER_1
 10
160.6382
 20
-163.1375
  0
VERTEX
  8
LAYER_1
 10
161.2351
 20
-163.2517
  0
VERTEX
  8
LAYER_1
 10
161.832
 20
-163.2898
  0
VERTEX
  8
LAYER_1
 10
162.4289
 20
-163.2517
  0
VERTEX
  8
LAYER_1
 10
162.4416
 20
-163.2517
  0
SEQEND
  0
POLYLINE
  8
LAYER_1
 40
0.1058
 41
0.1058
 66
1
 10
0
 20
0
 30
0
  0
VERTEX
  8
LAYER_1
 10
161.8447
 20
-163.1375
  0
VERTEX
  8
LAYER_1
 10
162.4289
 20
-163.2517
  0
VERTEX
  8
LAYER_1
 10
163.0258
 20
-163.2898
  0
VERTEX
  8
LAYER_1
 10
163.6354
 20
-163.2517
  0
VERTEX
  8
LAYER_1
 10
163.6735
 20
-163.239
  0
SEQEND
  0
POLYLINE
  8
LAYER_1
 40
0.1058
 41
0.1058
 66
1
 10
0
 20
0
 30
0
  0
VERTEX
  8
LAYER_1
 10
160.6382
 20
-163.2898
  0
VERTEX
  8
LAYER_1
 10
161.2351
 20
-163.2517
  0
SEQEND
  0
POLYLINE
  8
LAYER_1
 40
0.1058
 41
0.1058
 66
1
 10
0
 20
0
 30
0
  0
VERTEX
  8
LAYER_1
 10
164.3212
 20
-162.6294
  0
VERTEX
  8
LAYER_1
 10
163.7243
 20
-162.6548
  0
VERTEX
  8
LAYER_1
 10
163.1274
 20
-162.7691
  0
VERTEX
  8
LAYER_1
 10
163.1147
 20
-162.7691
  0
SEQEND
  0
POLYLINE
  8
LAYER_1
 40
0.1058
 41
0.1058
 66
1
 10
0
 20
0
 30
0
  0
VERTEX
  8
LAYER_1
 10
163.6735
 20
-162.6675
  0
VERTEX
  8
LAYER_1
 10
163.0893
 20
-162.6294
  0
VERTEX
  8
LAYER_1
 10
162.4797
 20
-162.6548
  0
VERTEX
  8
LAYER_1
 10
161.8955
 20
-162.7691
  0
VERTEX
  8
LAYER_1
 10
161.8447
 20
-162.7691
  0
SEQEND
  0
POLYLINE
  8
LAYER_1
 40
0.1058
 41
0.1058
 66
1
 10
0
 20
0
 30
0
  0
VERTEX
  8
LAYER_1
 10
162.4416
 20
-162.6548
  0
VERTEX
  8
LAYER_1
 10
161.8447
 20
-162.6294
  0
VERTEX
  8
LAYER_1
 10
161.2478
 20
-162.6548
  0
VERTEX
  8
LAYER_1
 10
160.6509
 20
-162.7691
  0
VERTEX
  8
LAYER_1
 10
160.6382
 20
-162.7691
  0
SEQEND
  0
POLYLINE
  8
LAYER_1
 40
0.1058
 41
0.1058
 66
1
 10
0
 20
0
 30
0
  0
VERTEX
  8
LAYER_1
 10
161.2351
 20
-162.6548
  0
VERTEX
  8
LAYER_1
 10
160.6382
 20
-162.6294
  0
SEQEND
  0
POLYLINE
  8
LAYER_1
 40
0.1058
 41
0.1058
 66
1
 10
0
 20
0
 30
0
  0
VERTEX
  8
LAYER_1
 10
160.8668
 20
-174.7706
  0
VERTEX
  8
LAYER_1
 10
164.3212
 20
-174.7706
  0
SEQEND
  0
POLYLINE
  8
LAYER_1
 40
0.1058
 41
0.1058
 66
1
 10
0
 20
0
 30
0
  0
VERTEX
  8
LAYER_1
 10
160.8668
 20
-171.1765
  0
VERTEX
  8
LAYER_1
 10
160.6636
 20
-171.7353
  0
VERTEX
  8
LAYER_1
 10
160.5366
 20
-172.3322
  0
VERTEX
  8
LAYER_1
 10
160.4858
 20
-172.9164
  0
VERTEX
  8
LAYER_1
 10
160.5239
 20
-173.526
  0
VERTEX
  8
LAYER_1
 10
160.6382
 20
-174.1102
  0
VERTEX
  8
LAYER_1
 10
160.8287
 20
-174.6817
  0
VERTEX
  8
LAYER_1
 10
160.8668
 20
-174.7706
  0
SEQEND
  0
POLYLINE
  8
LAYER_1
 40
0.1058
 41
0.1058
 66
1
 10
0
 20
0
 30
0
  0
VERTEX
  8
LAYER_1
 10
160.8668
 20
-171.1765
  0
VERTEX
  8
LAYER_1
 10
164.3212
 20
-171.1765
  0
SEQEND
  0
POLYLINE
  8
LAYER_1
 40
0.1058
 41
0.1058
 66
1
 10
0
 20
0
 30
0
  0
VERTEX
  8
LAYER_1
 10
161.3367
 20
-171.1765
  0
VERTEX
  8
LAYER_1
 10
161.2351
 20
-171.1892
  0
VERTEX
  8
LAYER_1
 10
161.1589
 20
-171.2146
  0
VERTEX
  8
LAYER_1
 10
161.07
 20
-171.2654
  0
VERTEX
  8
LAYER_1
 10
160.9938
 20
-171.3289
  0
VERTEX
  8
LAYER_1
 10
160.9176
 20
-171.4178
  0
VERTEX
  8
LAYER_1
 10
160.8414
 20
-171.5194
  0
VERTEX
  8
LAYER_1
 10
160.7779
 20
-171.6337
  0
VERTEX
  8
LAYER_1
 10
160.7144
 20
-171.7734
  0
VERTEX
  8
LAYER_1
 10
160.6636
 20
-171.9131
  0
VERTEX
  8
LAYER_1
 10
160.6128
 20
-172.0782
  0
VERTEX
  8
LAYER_1
 10
160.5747
 20
-172.2433
  0
VERTEX
  8
LAYER_1
 10
160.5493
 20
-172.4211
  0
VERTEX
  8
LAYER_1
 10
160.5239
 20
-172.5989
  0
VERTEX
  8
LAYER_1
 10
160.5112
 20
-172.7894
  0
VERTEX
  8
LAYER_1
 10
160.4985
 20
-172.9799
  0
VERTEX
  8
LAYER_1
 10
160.5112
 20
-173.1577
  0
VERTEX
  8
LAYER_1
 10
160.5239
 20
-173.3482
  0
VERTEX
  8
LAYER_1
 10
160.5493
 20
-173.5387
  0
VERTEX
  8
LAYER_1
 10
160.5747
 20
-173.7038
  0
VERTEX
  8
LAYER_1
 10
160.6128
 20
-173.8689
  0
VERTEX
  8
LAYER_1
 10
160.6636
 20
-174.034
  0
VERTEX
  8
LAYER_1
 10
160.7144
 20
-174.1864
  0
VERTEX
  8
LAYER_1
 10
160.7779
 20
-174.3134
  0
VERTEX
  8
LAYER_1
 10
160.8414
 20
-174.4277
  0
VERTEX
  8
LAYER_1
 10
160.9176
 20
-174.5293
  0
VERTEX
  8
LAYER_1
 10
160.9938
 20
-174.6182
  0
VERTEX
  8
LAYER_1
 10
161.07
 20
-174.6817
  0
VERTEX
  8
LAYER_1
 10
161.1589
 20
-174.7325
  0
VERTEX
  8
LAYER_1
 10
161.2351
 20
-174.7579
  0
VERTEX
  8
LAYER_1
 10
161.3367
 20
-174.7706
  0
VERTEX
  8
LAYER_1
 10
161.4129
 20
-174.7579
  0
VERTEX
  8
LAYER_1
 10
161.5018
 20
-174.7325
  0
VERTEX
  8
LAYER_1
 10
161.578
 20
-174.6817
  0
VERTEX
  8
LAYER_1
 10
161.6669
 20
-174.6182
  0
VERTEX
  8
LAYER_1
 10
161.7431
 20
-174.5293
  0
VERTEX
  8
LAYER_1
 10
161.8193
 20
-174.4277
  0
VERTEX
  8
LAYER_1
 10
161.8828
 20
-174.3134
  0
VERTEX
  8
LAYER_1
 10
161.9463
 20
-174.1864
  0
VERTEX
  8
LAYER_1
 10
161.9971
 20
-174.034
  0
VERTEX
  8
LAYER_1
 10
162.0479
 20
-173.8689
  0
VERTEX
  8
LAYER_1
 10
162.086
 20
-173.7038
  0
VERTEX
  8
LAYER_1
 10
162.1114
 20
-173.5387
  0
SEQEND
  0
POLYLINE
  8
LAYER_1
 40
0.1058
 41
0.1058
 66
1
 10
0
 20
0
 30
0
  0
VERTEX
  8
LAYER_1
 10
162.1114
 20
-173.5387
  0
VERTEX
  8
LAYER_1
 10
162.1368
 20
-173.3482
  0
VERTEX
  8
LAYER_1
 10
162.1495
 20
-173.1577
  0
VERTEX
  8
LAYER_1
 10
162.1495
 20
-172.9799
  0
VERTEX
  8
LAYER_1
 10
162.1495
 20
-172.7894
  0
VERTEX
  8
LAYER_1
 10
162.1368
 20
-172.5989
  0
VERTEX
  8
LAYER_1
 10
162.1114
 20
-172.4211
  0
VERTEX
  8
LAYER_1
 10
162.086
 20
-172.2433
  0
VERTEX
  8
LAYER_1
 10
162.0479
 20
-172.0782
  0
VERTEX
  8
LAYER_1
 10
161.9971
 20
-171.9131
  0
VERTEX
  8
LAYER_1
 10
161.9463
 20
-171.7734
  0
VERTEX
  8
LAYER_1
 10
161.8828
 20
-171.6337
  0
VERTEX
  8
LAYER_1
 10
161.8193
 20
-171.5194
  0
VERTEX
  8
LAYER_1
 10
161.7431
 20
-171.4178
  0
VERTEX
  8
LAYER_1
 10
161.6669
 20
-171.3289
  0
VERTEX
  8
LAYER_1
 10
161.578
 20
-171.2654
  0
VERTEX
  8
LAYER_1
 10
161.5018
 20
-171.2146
  0
VERTEX
  8
LAYER_1
 10
161.4129
 20
-171.1892
  0
VERTEX
  8
LAYER_1
 10
161.3367
 20
-171.1765
  0
SEQEND
  0
POLYLINE
  8
LAYER_1
 40
0.1058
 41
0.1058
 66
1
 10
0
 20
0
 30
0
  0
VERTEX
  8
LAYER_1
 10
164.3212
 20
-171.1765
  0
VERTEX
  8
LAYER_1
 10
164.1434
 20
-171.1892
  0
VERTEX
  8
LAYER_1
 10
163.9656
 20
-171.2146
  0
VERTEX
  8
LAYER_1
 10
163.8005
 20
-171.2654
  0
VERTEX
  8
LAYER_1
 10
163.6354
 20
-171.3289
  0
VERTEX
  8
LAYER_1
 10
163.483
 20
-171.4178
  0
VERTEX
  8
LAYER_1
 10
163.3306
 20
-171.5194
  0
VERTEX
  8
LAYER_1
 10
163.2036
 20
-171.6337
  0
VERTEX
  8
LAYER_1
 10
163.0766
 20
-171.7734
  0
VERTEX
  8
LAYER_1
 10
162.975
 20
-171.9131
  0
VERTEX
  8
LAYER_1
 10
162.8734
 20
-172.0782
  0
VERTEX
  8
LAYER_1
 10
162.7972
 20
-172.2433
  0
VERTEX
  8
LAYER_1
 10
162.7337
 20
-172.4211
  0
VERTEX
  8
LAYER_1
 10
162.6829
 20
-172.5989
  0
VERTEX
  8
LAYER_1
 10
162.6575
 20
-172.7894
  0
VERTEX
  8
LAYER_1
 10
162.6575
 20
-172.9799
  0
VERTEX
  8
LAYER_1
 10
162.6575
 20
-173.1577
  0
VERTEX
  8
LAYER_1
 10
162.6829
 20
-173.3482
  0
VERTEX
  8
LAYER_1
 10
162.7337
 20
-173.5387
  0
VERTEX
  8
LAYER_1
 10
162.7972
 20
-173.7038
  0
VERTEX
  8
LAYER_1
 10
162.8734
 20
-173.8689
  0
VERTEX
  8
LAYER_1
 10
162.975
 20
-174.034
  0
VERTEX
  8
LAYER_1
 10
163.0766
 20
-174.1864
  0
VERTEX
  8
LAYER_1
 10
163.2036
 20
-174.3134
  0
VERTEX
  8
LAYER_1
 10
163.3306
 20
-174.4277
  0
VERTEX
  8
LAYER_1
 10
163.483
 20
-174.5293
  0
VERTEX
  8
LAYER_1
 10
163.6354
 20
-174.6182
  0
VERTEX
  8
LAYER_1
 10
163.8005
 20
-174.6817
  0
VERTEX
  8
LAYER_1
 10
163.9656
 20
-174.7325
  0
VERTEX
  8
LAYER_1
 10
164.1434
 20
-174.7579
  0
VERTEX
  8
LAYER_1
 10
164.3212
 20
-174.7706
  0
VERTEX
  8
LAYER_1
 10
164.499
 20
-174.7579
  0
VERTEX
  8
LAYER_1
 10
164.6641
 20
-174.7325
  0
VERTEX
  8
LAYER_1
 10
164.8292
 20
-174.6817
  0
VERTEX
  8
LAYER_1
 10
164.9943
 20
-174.6182
  0
VERTEX
  8
LAYER_1
 10
165.1594
 20
-174.5293
  0
VERTEX
  8
LAYER_1
 10
165.2991
 20
-174.4277
  0
VERTEX
  8
LAYER_1
 10
165.4388
 20
-174.3134
  0
VERTEX
  8
LAYER_1
 10
165.5531
 20
-174.1864
  0
VERTEX
  8
LAYER_1
 10
165.6674
 20
-174.034
  0
VERTEX
  8
LAYER_1
 10
165.7563
 20
-173.8689
  0
VERTEX
  8
LAYER_1
 10
165.8452
 20
-173.7038
  0
VERTEX
  8
LAYER_1
 10
165.9087
 20
-173.5387
  0
VERTEX
  8
LAYER_1
 10
165.9468
 20
-173.3482
  0
VERTEX
  8
LAYER_1
 10
165.9722
 20
-173.1577
  0
VERTEX
  8
LAYER_1
 10
165.9849
 20
-172.9799
  0
VERTEX
  8
LAYER_1
 10
165.9722
 20
-172.7894
  0
VERTEX
  8
LAYER_1
 10
165.9468
 20
-172.5989
  0
VERTEX
  8
LAYER_1
 10
165.9087
 20
-172.4211
  0
VERTEX
  8
LAYER_1
 10
165.8452
 20
-172.2433
  0
VERTEX
  8
LAYER_1
 10
165.7563
 20
-172.0782
  0
VERTEX
  8
LAYER_1
 10
165.6674
 20
-171.9131
  0
VERTEX
  8
LAYER_1
 10
165.5531
 20
-171.7734
  0
VERTEX
  8
LAYER_1
 10
165.4388
 20
-171.6337
  0
VERTEX
  8
LAYER_1
 10
165.2991
 20
-171.5194
  0
VERTEX
  8
LAYER_1
 10
165.1594
 20
-171.4178
  0
VERTEX
  8
LAYER_1
 10
164.9943
 20
-171.3289
  0
VERTEX
  8
LAYER_1
 10
164.8292
 20
-171.2654
  0
VERTEX
  8
LAYER_1
 10
164.6641
 20
-171.2146
  0
VERTEX
  8
LAYER_1
 10
164.499
 20
-171.1892
  0
VERTEX
  8
LAYER_1
 10
164.3212
 20
-171.1765
  0
SEQEND
  0
POLYLINE
  8
LAYER_1
 40
0.1058
 41
0.1058
 66
1
 10
0
 20
0
 30
0
  0
VERTEX
  8
LAYER_1
 10
161.2351
 20
-171.1765
  0
VERTEX
  8
LAYER_1
 10
161.2351
 20
-165.2329
  0
SEQEND
  0
POLYLINE
  8
LAYER_1
 40
0.1058
 41
0.1058
 66
1
 10
0
 20
0
 30
0
  0
VERTEX
  8
LAYER_1
 10
169.5663
 20
-162.6294
  0
VERTEX
  8
LAYER_1
 10
169.5663
 20
-162.1722
  0
SEQEND
  0
POLYLINE
  8
LAYER_1
 40
0.1058
 41
0.1058
 66
1
 10
0
 20
0
 30
0
  0
VERTEX
  8
LAYER_1
 10
164.3212
 20
-162.6294
  0
VERTEX
  8
LAYER_1
 10
169.5663
 20
-162.6294
  0
SEQEND
  0
POLYLINE
  8
LAYER_1
 40
0.1058
 41
0.1058
 66
1
 10
0
 20
0
 30
0
  0
VERTEX
  8
LAYER_1
 10
167.3946
 20
-162.1722
  0
VERTEX
  8
LAYER_1
 10
167.3946
 20
-158.2733
  0
SEQEND
  0
POLYLINE
  8
LAYER_1
 40
0.1058
 41
0.1058
 66
1
 10
0
 20
0
 30
0
  0
VERTEX
  8
LAYER_1
 10
167.9153
 20
-165.2329
  0
VERTEX
  8
LAYER_1
 10
164.3212
 20
-165.2329
  0
SEQEND
  0
POLYLINE
  8
LAYER_1
 40
0.1058
 41
0.1058
 66
1
 10
0
 20
0
 30
0
  0
VERTEX
  8
LAYER_1
 10
168.436
 20
-164.9281
  0
VERTEX
  8
LAYER_1
 10
168.436
 20
-163.2898
  0
SEQEND
  0
POLYLINE
  8
LAYER_1
 40
0.1058
 41
0.1058
 66
1
 10
0
 20
0
 30
0
  0
VERTEX
  8
LAYER_1
 10
167.9153
 20
-165.2329
  0
VERTEX
  8
LAYER_1
 10
168.436
 20
-164.9281
  0
SEQEND
  0
POLYLINE
  8
LAYER_1
 40
0.1058
 41
0.1058
 66
1
 10
0
 20
0
 30
0
  0
VERTEX
  8
LAYER_1
 10
170.3156
 20
-163.1374
  0
VERTEX
  8
LAYER_1
 10
170.3156
 20
-162.7691
  0
SEQEND
  0
POLYLINE
  8
LAYER_1
 40
0.1058
 41
0.1058
 66
1
 10
0
 20
0
 30
0
  0
VERTEX
  8
LAYER_1
 10
164.3212
 20
-163.2898
  0
VERTEX
  8
LAYER_1
 10
168.6138
 20
-163.2898
  0
SEQEND
  0
POLYLINE
  8
LAYER_1
 40
0.1058
 41
0.1058
 66
1
 10
0
 20
0
 30
0
  0
VERTEX
  8
LAYER_1
 10
170.3156
 20
-162.7691
  0
VERTEX
  8
LAYER_1
 10
164.3212
 20
-162.7691
  0
SEQEND
  0
POLYLINE
  8
LAYER_1
 40
0.1058
 41
0.1058
 66
1
 10
0
 20
0
 30
0
  0
VERTEX
  8
LAYER_1
 10
170.3156
 20
-163.1374
  0
VERTEX
  8
LAYER_1
 10
164.3212
 20
-163.1374
  0
SEQEND
  0
POLYLINE
  8
LAYER_1
 40
0.1058
 41
0.1058
 66
1
 10
0
 20
0
 30
0
  0
VERTEX
  8
LAYER_1
 10
168.6138
 20
-163.2898
  0
VERTEX
  8
LAYER_1
 10
168.8678
 20
-163.2644
  0
VERTEX
  8
LAYER_1
 10
169.1218
 20
-163.2009
  0
VERTEX
  8
LAYER_1
 10
169.2107
 20
-163.1628
  0
SEQEND
  0
POLYLINE
  8
LAYER_1
 40
0.1058
 41
0.1058
 66
1
 10
0
 20
0
 30
0
  0
VERTEX
  8
LAYER_1
 10
169.2107
 20
-162.7564
  0
VERTEX
  8
LAYER_1
 10
168.9694
 20
-162.6675
  0
VERTEX
  8
LAYER_1
 10
168.7027
 20
-162.6294
  0
VERTEX
  8
LAYER_1
 10
168.6138
 20
-162.6294
  0
SEQEND
  0
POLYLINE
  8
LAYER_1
 40
0.1058
 41
0.1058
 66
1
 10
0
 20
0
 30
0
  0
VERTEX
  8
LAYER_1
 10
169.3377
 20
-163.1374
  0
VERTEX
  8
LAYER_1
 10
169.2869
 20
-163.1374
  0
VERTEX
  8
LAYER_1
 10
169.2234
 20
-163.1501
  0
VERTEX
  8
LAYER_1
 10
169.2107
 20
-163.1628
  0
SEQEND
  0
POLYLINE
  8
LAYER_1
 40
0.1058
 41
0.1058
 66
1
 10
0
 20
0
 30
0
  0
VERTEX
  8
LAYER_1
 10
169.2107
 20
-162.7564
  0
VERTEX
  8
LAYER_1
 10
169.2615
 20
-162.7691
  0
VERTEX
  8
LAYER_1
 10
169.3123
 20
-162.7691
  0
VERTEX
  8
LAYER_1
 10
169.3377
 20
-162.7691
  0
SEQEND
  0
POLYLINE
  8
LAYER_1
 40
0.1058
 41
0.1058
 66
1
 10
0
 20
0
 30
0
  0
VERTEX
  8
LAYER_1
 10
166.4167
 20
-164.9281
  0
VERTEX
  8
LAYER_1
 10
166.4167
 20
-163.2898
  0
SEQEND
  0
POLYLINE
  8
LAYER_1
 40
0.1058
 41
0.1058
 66
1
 10
0
 20
0
 30
0
  0
VERTEX
  8
LAYER_1
 10
164.3212
 20
-165.2329
  0
VERTEX
  8
LAYER_1
 10
164.9181
 20
-165.2075
  0
VERTEX
  8
LAYER_1
 10
165.515
 20
-165.144
  0
VERTEX
  8
LAYER_1
 10
166.0992
 20
-165.017
  0
VERTEX
  8
LAYER_1
 10
166.4167
 20
-164.9281
  0
VERTEX
  8
LAYER_1
 10
166.6961
 20
-165.0805
  0
VERTEX
  8
LAYER_1
 10
167.0009
 20
-165.1821
  0
VERTEX
  8
LAYER_1
 10
167.3311
 20
-165.2329
  0
VERTEX
  8
LAYER_1
 10
167.6486
 20
-165.2202
  0
VERTEX
  8
LAYER_1
 10
167.9661
 20
-165.1567
  0
VERTEX
  8
LAYER_1
 10
168.2582
 20
-165.0424
  0
VERTEX
  8
LAYER_1
 10
168.436
 20
-164.9281
  0
SEQEND
  0
POLYLINE
  8
LAYER_1
 40
0.1058
 41
0.1058
 66
1
 10
0
 20
0
 30
0
  0
VERTEX
  8
LAYER_1
 10
164.3212
 20
-163.2898
  0
VERTEX
  8
LAYER_1
 10
164.9181
 20
-163.2517
  0
VERTEX
  8
LAYER_1
 10
165.5023
 20
-163.1374
  0
VERTEX
  8
LAYER_1
 10
165.515
 20
-163.1374
  0
SEQEND
  0
POLYLINE
  8
LAYER_1
 40
0.1058
 41
0.1058
 66
1
 10
0
 20
0
 30
0
  0
VERTEX
  8
LAYER_1
 10
166.1881
 20
-163.2517
  0
VERTEX
  8
LAYER_1
 10
166.785
 20
-163.2898
  0
VERTEX
  8
LAYER_1
 10
167.3946
 20
-163.2517
  0
VERTEX
  8
LAYER_1
 10
167.9788
 20
-163.1374
  0
VERTEX
  8
LAYER_1
 10
167.9915
 20
-163.1374
  0
SEQEND
  0
POLYLINE
  8
LAYER_1
 40
0.1058
 41
0.1058
 66
1
 10
0
 20
0
 30
0
  0
VERTEX
  8
LAYER_1
 10
164.9562
 20
-163.239
  0
VERTEX
  8
LAYER_1
 10
165.5531
 20
-163.2898
  0
VERTEX
  8
LAYER_1
 10
166.15
 20
-163.2517
  0
VERTEX
  8
LAYER_1
 10
166.7469
 20
-163.1501
  0
VERTEX
  8
LAYER_1
 10
166.785
 20
-163.1374
  0
SEQEND
  0
POLYLINE
  8
LAYER_1
 40
0.1058
 41
0.1058
 66
1
 10
0
 20
0
 30
0
  0
VERTEX
  8
LAYER_1
 10
167.3946
 20
-163.2517
  0
VERTEX
  8
LAYER_1
 10
167.9915
 20
-163.2898
  0
SEQEND
  0
POLYLINE
  8
LAYER_1
 40
0.1058
 41
0.1058
 66
1
 10
0
 20
0
 30
0
  0
VERTEX
  8
LAYER_1
 10
165.515
 20
-162.7691
  0
VERTEX
  8
LAYER_1
 10
164.9308
 20
-162.6548
  0
VERTEX
  8
LAYER_1
 10
164.3339
 20
-162.6294
  0
VERTEX
  8
LAYER_1
 10
164.3212
 20
-162.6294
  0
SEQEND
  0
POLYLINE
  8
LAYER_1
 40
0.1058
 41
0.1058
 66
1
 10
0
 20
0
 30
0
  0
VERTEX
  8
LAYER_1
 10
166.785
 20
-162.7691
  0
VERTEX
  8
LAYER_1
 10
166.2008
 20
-162.6548
  0
VERTEX
  8
LAYER_1
 10
165.6039
 20
-162.6294
  0
VERTEX
  8
LAYER_1
 10
165.007
 20
-162.6548
  0
VERTEX
  8
LAYER_1
 10
164.9562
 20
-162.6675
  0
SEQEND
  0
POLYLINE
  8
LAYER_1
 40
0.1058
 41
0.1058
 66
1
 10
0
 20
0
 30
0
  0
VERTEX
  8
LAYER_1
 10
167.9915
 20
-162.7691
  0
VERTEX
  8
LAYER_1
 10
167.4073
 20
-162.6548
  0
VERTEX
  8
LAYER_1
 10
166.7977
 20
-162.6294
  0
VERTEX
  8
LAYER_1
 10
166.2008
 20
-162.6548
  0
VERTEX
  8
LAYER_1
 10
166.1881
 20
-162.6548
  0
SEQEND
  0
POLYLINE
  8
LAYER_1
 40
0.1058
 41
0.1058
 66
1
 10
0
 20
0
 30
0
  0
VERTEX
  8
LAYER_1
 10
167.9915
 20
-162.6294
  0
VERTEX
  8
LAYER_1
 10
167.3946
 20
-162.6548
  0
SEQEND
  0
POLYLINE
  8
LAYER_1
 40
0.1058
 41
0.1058
 66
1
 10
0
 20
0
 30
0
  0
VERTEX
  8
LAYER_1
 10
167.7629
 20
-174.7706
  0
VERTEX
  8
LAYER_1
 10
164.3212
 20
-174.7706
  0
SEQEND
  0
POLYLINE
  8
LAYER_1
 40
0.1058
 41
0.1058
 66
1
 10
0
 20
0
 30
0
  0
VERTEX
  8
LAYER_1
 10
167.7629
 20
-174.7706
  0
VERTEX
  8
LAYER_1
 10
167.9661
 20
-174.2118
  0
VERTEX
  8
LAYER_1
 10
168.0931
 20
-173.6276
  0
VERTEX
  8
LAYER_1
 10
168.1439
 20
-173.0307
  0
VERTEX
  8
LAYER_1
 10
168.1058
 20
-172.4338
  0
VERTEX
  8
LAYER_1
 10
167.9915
 20
-171.8369
  0
VERTEX
  8
LAYER_1
 10
167.801
 20
-171.2654
  0
VERTEX
  8
LAYER_1
 10
167.7629
 20
-171.1765
  0
VERTEX
  8
LAYER_1
 10
164.3212
 20
-171.1765
  0
SEQEND
  0
POLYLINE
  8
LAYER_1
 40
0.1058
 41
0.1058
 66
1
 10
0
 20
0
 30
0
  0
VERTEX
  8
LAYER_1
 10
167.3057
 20
-171.1765
  0
VERTEX
  8
LAYER_1
 10
167.2168
 20
-171.1892
  0
VERTEX
  8
LAYER_1
 10
167.1279
 20
-171.2146
  0
VERTEX
  8
LAYER_1
 10
167.0517
 20
-171.2654
  0
VERTEX
  8
LAYER_1
 10
166.9755
 20
-171.3289
  0
VERTEX
  8
LAYER_1
 10
166.8993
 20
-171.4178
  0
VERTEX
  8
LAYER_1
 10
166.8231
 20
-171.5194
  0
VERTEX
  8
LAYER_1
 10
166.7596
 20
-171.6337
  0
VERTEX
  8
LAYER_1
 10
166.6834
 20
-171.7734
  0
VERTEX
  8
LAYER_1
 10
166.6326
 20
-171.9131
  0
VERTEX
  8
LAYER_1
 10
166.5818
 20
-172.0782
  0
VERTEX
  8
LAYER_1
 10
166.5564
 20
-172.2433
  0
VERTEX
  8
LAYER_1
 10
166.5183
 20
-172.4211
  0
VERTEX
  8
LAYER_1
 10
166.4929
 20
-172.5989
  0
VERTEX
  8
LAYER_1
 10
166.4802
 20
-172.7894
  0
VERTEX
  8
LAYER_1
 10
166.4802
 20
-172.9799
  0
VERTEX
  8
LAYER_1
 10
166.4802
 20
-173.1577
  0
VERTEX
  8
LAYER_1
 10
166.4929
 20
-173.3482
  0
VERTEX
  8
LAYER_1
 10
166.5183
 20
-173.5387
  0
VERTEX
  8
LAYER_1
 10
166.5564
 20
-173.7038
  0
VERTEX
  8
LAYER_1
 10
166.5818
 20
-173.8689
  0
VERTEX
  8
LAYER_1
 10
166.6326
 20
-174.034
  0
VERTEX
  8
LAYER_1
 10
166.6834
 20
-174.1864
  0
VERTEX
  8
LAYER_1
 10
166.7596
 20
-174.3134
  0
VERTEX
  8
LAYER_1
 10
166.8231
 20
-174.4277
  0
VERTEX
  8
LAYER_1
 10
166.8993
 20
-174.5293
  0
VERTEX
  8
LAYER_1
 10
166.9755
 20
-174.6182
  0
VERTEX
  8
LAYER_1
 10
167.0517
 20
-174.6817
  0
VERTEX
  8
LAYER_1
 10
167.1279
 20
-174.7325
  0
VERTEX
  8
LAYER_1
 10
167.2168
 20
-174.7579
  0
VERTEX
  8
LAYER_1
 10
167.3057
 20
-174.7706
  0
VERTEX
  8
LAYER_1
 10
167.3946
 20
-174.7579
  0
VERTEX
  8
LAYER_1
 10
167.4708
 20
-174.7325
  0
VERTEX
  8
LAYER_1
 10
167.5597
 20
-174.6817
  0
VERTEX
  8
LAYER_1
 10
167.6486
 20
-174.6182
  0
VERTEX
  8
LAYER_1
 10
167.7121
 20
-174.5293
  0
VERTEX
  8
LAYER_1
 10
167.7883
 20
-174.4277
  0
VERTEX
  8
LAYER_1
 10
167.8645
 20
-174.3134
  0
VERTEX
  8
LAYER_1
 10
167.9153
 20
-174.1864
  0
VERTEX
  8
LAYER_1
 10
167.9788
 20
-174.034
  0
VERTEX
  8
LAYER_1
 10
168.0169
 20
-173.8689
  0
VERTEX
  8
LAYER_1
 10
168.055
 20
-173.7038
  0
VERTEX
  8
LAYER_1
 10
168.0931
 20
-173.5387
  0
VERTEX
  8
LAYER_1
 10
168.1058
 20
-173.3482
  0
VERTEX
  8
LAYER_1
 10
168.1312
 20
-173.1577
  0
VERTEX
  8
LAYER_1
 10
168.1312
 20
-172.9799
  0
VERTEX
  8
LAYER_1
 10
168.1312
 20
-172.7894
  0
VERTEX
  8
LAYER_1
 10
168.1058
 20
-172.5989
  0
VERTEX
  8
LAYER_1
 10
168.0931
 20
-172.4211
  0
VERTEX
  8
LAYER_1
 10
168.055
 20
-172.2433
  0
VERTEX
  8
LAYER_1
 10
168.0169
 20
-172.0782
  0
VERTEX
  8
LAYER_1
 10
167.9788
 20
-171.9131
  0
VERTEX
  8
LAYER_1
 10
167.9153
 20
-171.7734
  0
SEQEND
  0
POLYLINE
  8
LAYER_1
 40
0.1058
 41
0.1058
 66
1
 10
0
 20
0
 30
0
  0
VERTEX
  8
LAYER_1
 10
167.9153
 20
-171.7734
  0
VERTEX
  8
LAYER_1
 10
167.8645
 20
-171.6337
  0
VERTEX
  8
LAYER_1
 10
167.7883
 20
-171.5194
  0
VERTEX
  8
LAYER_1
 10
167.7121
 20
-171.4178
  0
VERTEX
  8
LAYER_1
 10
167.6486
 20
-171.3289
  0
VERTEX
  8
LAYER_1
 10
167.5597
 20
-171.2654
  0
VERTEX
  8
LAYER_1
 10
167.4708
 20
-171.2146
  0
VERTEX
  8
LAYER_1
 10
167.3946
 20
-171.1892
  0
VERTEX
  8
LAYER_1
 10
167.3057
 20
-171.1765
  0
SEQEND
  0
POLYLINE
  8
LAYER_1
 40
0.1058
 41
0.1058
 66
1
 10
0
 20
0
 30
0
  0
VERTEX
  8
LAYER_1
 10
167.3946
 20
-171.1765
  0
VERTEX
  8
LAYER_1
 10
167.3946
 20
-165.2329
  0
SEQEND
  0
POLYLINE
  8
LAYER_1
 40
0.1058
 41
0.1058
 66
1
 10
0
 20
0
 30
0
  0
VERTEX
  8
LAYER_1
 10
169.5663
 20
-162.1722
  0
VERTEX
  8
LAYER_1
 10
159.0634
 20
-162.1722
  0
SEQEND
  0
POLYLINE
  8
LAYER_1
 40
0.1058
 41
0.1058
 66
1
 10
0
 20
0
 30
0
  0
VERTEX
  8
LAYER_1
 10
158.0221
 20
-156.0254
  0
VERTEX
  8
LAYER_1
 10
170.6204
 20
-156.0254
  0
SEQEND
  0
POLYLINE
  8
LAYER_1
 40
0.1058
 41
0.1058
 66
1
 10
0
 20
0
 30
0
  0
VERTEX
  8
LAYER_1
 10
170.1632
 20
-157.6764
  0
VERTEX
  8
LAYER_1
 10
170.1632
 20
-158.2733
  0
VERTEX
  8
LAYER_1
 10
164.3212
 20
-158.2733
  0
SEQEND
  0
POLYLINE
  8
LAYER_1
 40
0.1058
 41
0.1058
 66
1
 10
0
 20
0
 30
0
  0
VERTEX
  8
LAYER_1
 10
170.6204
 20
-157.6764
  0
VERTEX
  8
LAYER_1
 10
164.3212
 20
-157.6764
  0
SEQEND
  0
POLYLINE
  8
LAYER_1
 40
0.1058
 41
0.1058
 66
1
 10
0
 20
0
 30
0
  0
VERTEX
  8
LAYER_1
 10
170.7728
 20
-157.524
  0
VERTEX
  8
LAYER_1
 10
170.6204
 20
-157.6764
  0
SEQEND
  0
POLYLINE
  8
LAYER_1
 40
0.1058
 41
0.1058
 66
1
 10
0
 20
0
 30
0
  0
VERTEX
  8
LAYER_1
 10
170.7728
 20
-156.1778
  0
VERTEX
  8
LAYER_1
 10
170.7728
 20
-157.524
  0
SEQEND
  0
POLYLINE
  8
LAYER_1
 40
0.1058
 41
0.1058
 66
1
 10
0
 20
0
 30
0
  0
VERTEX
  8
LAYER_1
 10
170.6204
 20
-156.0254
  0
VERTEX
  8
LAYER_1
 10
170.7728
 20
-156.1778
  0
SEQEND
  0
POLYLINE
  8
LAYER_1
 40
0.1058
 41
0.1058
 66
1
 10
0
 20
0
 30
0
  0
VERTEX
  8
LAYER_1
 10
158.022
 20
-156.0254
  0
VERTEX
  8
LAYER_1
 10
157.8696
 20
-156.1778
  0
VERTEX
  8
LAYER_1
 10
157.8696
 20
-157.524
  0
VERTEX
  8
LAYER_1
 10
158.022
 20
-157.6764
  0
VERTEX
  8
LAYER_1
 10
164.3212
 20
-157.6764
  0
SEQEND
  0
POLYLINE
  8
LAYER_1
 40
0.1058
 41
0.1058
 66
1
 10
0
 20
0
 30
0
  0
VERTEX
  8
LAYER_1
 10
158.4665
 20
-157.6764
  0
VERTEX
  8
LAYER_1
 10
158.4665
 20
-158.2733
  0
VERTEX
  8
LAYER_1
 10
164.3212
 20
-158.2733
  0
SEQEND
  0
POLYLINE
  8
LAYER_1
 40
0.1058
 41
0.1058
 66
1
 10
0
 20
0
 30
0
  0
VERTEX
  8
LAYER_1
 10
136.5845
 20
-116.3125
  0
VERTEX
  8
LAYER_1
 10
136.5845
 20
-118.7128
  0
SEQEND
  0
POLYLINE
  8
LAYER_1
 40
0.1058
 41
0.1058
 66
1
 10
0
 20
0
 30
0
  0
VERTEX
  8
LAYER_1
 10
136.2797
 20
-123.1705
  0
VERTEX
  8
LAYER_1
 10
125.7768
 20
-123.1705
  0
SEQEND
  0
POLYLINE
  8
LAYER_1
 40
0.1058
 41
0.1058
 66
1
 10
0
 20
0
 30
0
  0
VERTEX
  8
LAYER_1
 10
125.7768
 20
-155.9365
  0
VERTEX
  8
LAYER_1
 10
136.2797
 20
-155.9365
  0
SEQEND
  0
POLYLINE
  8
LAYER_1
 40
0.1058
 41
0.1058
 66
1
 10
0
 20
0
 30
0
  0
VERTEX
  8
LAYER_1
 10
158.7713
 20
-116.3125
  0
VERTEX
  8
LAYER_1
 10
158.7713
 20
-118.7128
  0
SEQEND
  0
POLYLINE
  8
LAYER_1
 40
0.1058
 41
0.1058
 66
1
 10
0
 20
0
 30
0
  0
VERTEX
  8
LAYER_1
 10
159.0634
 20
-123.1705
  0
VERTEX
  8
LAYER_1
 10
169.5663
 20
-123.1705
  0
SEQEND
  0
POLYLINE
  8
LAYER_1
 40
0.1058
 41
0.1058
 66
1
 10
0
 20
0
 30
0
  0
VERTEX
  8
LAYER_1
 10
169.5663
 20
-155.9365
  0
VERTEX
  8
LAYER_1
 10
159.0634
 20
-155.9365
  0
SEQEND
  0
POLYLINE
  8
LAYER_1
 40
0.1058
 41
0.1058
 66
1
 10
0
 20
0
 30
0
  0
VERTEX
  8
LAYER_1
 10
108.2254
 20
-116.3125
  0
VERTEX
  8
LAYER_1
 10
108.2254
 20
-118.7128
  0
SEQEND
  0
POLYLINE
  8
LAYER_1
 40
0.1058
 41
0.1058
 66
1
 10
0
 20
0
 30
0
  0
VERTEX
  8
LAYER_1
 10
111.3496
 20
-110.4451
  0
VERTEX
  8
LAYER_1
 10
111.7179
 20
-110.5975
  0
SEQEND
  0
POLYLINE
  8
LAYER_1
 40
0.1058
 41
0.1058
 66
1
 10
0
 20
0
 30
0
  0
VERTEX
  8
LAYER_1
 10
112.1624
 20
-110.7753
  0
VERTEX
  8
LAYER_1
 10
112.8355
 20
-111.042
  0
SEQEND
  0
POLYLINE
  8
LAYER_1
 40
0.1058
 41
0.1058
 66
1
 10
0
 20
0
 30
0
  0
VERTEX
  8
LAYER_1
 10
113.28
 20
-111.2198
  0
VERTEX
  8
LAYER_1
 10
113.9404
 20
-111.4992
  0
SEQEND
  0
POLYLINE
  8
LAYER_1
 40
0.1058
 41
0.1058
 66
1
 10
0
 20
0
 30
0
  0
VERTEX
  8
LAYER_1
 10
114.3849
 20
-111.677
  0
VERTEX
  8
LAYER_1
 10
115.058
 20
-111.9437
  0
SEQEND
  0
POLYLINE
  8
LAYER_1
 40
0.1058
 41
0.1058
 66
1
 10
0
 20
0
 30
0
  0
VERTEX
  8
LAYER_1
 10
115.5025
 20
-112.1215
  0
VERTEX
  8
LAYER_1
 10
116.1629
 20
-112.4009
  0
SEQEND
  0
POLYLINE
  8
LAYER_1
 40
0.1058
 41
0.1058
 66
1
 10
0
 20
0
 30
0
  0
VERTEX
  8
LAYER_1
 10
116.6074
 20
-112.5787
  0
VERTEX
  8
LAYER_1
 10
117.2805
 20
-112.8454
  0
SEQEND
  0
POLYLINE
  8
LAYER_1
 40
0.1058
 41
0.1058
 66
1
 10
0
 20
0
 30
0
  0
VERTEX
  8
LAYER_1
 10
117.725
 20
-113.0232
  0
VERTEX
  8
LAYER_1
 10
118.3981
 20
-113.2899
  0
SEQEND
  0
POLYLINE
  8
LAYER_1
 40
0.1058
 41
0.1058
 66
1
 10
0
 20
0
 30
0
  0
VERTEX
  8
LAYER_1
 10
118.8426
 20
-113.4804
  0
VERTEX
  8
LAYER_1
 10
119.503
 20
-113.7471
  0
SEQEND
  0
POLYLINE
  8
LAYER_1
 40
0.1058
 41
0.1058
 66
1
 10
0
 20
0
 30
0
  0
VERTEX
  8
LAYER_1
 10
119.9475
 20
-113.9249
  0
VERTEX
  8
LAYER_1
 10
120.6206
 20
-114.1916
  0
SEQEND
  0
POLYLINE
  8
LAYER_1
 40
0.1058
 41
0.1058
 66
1
 10
0
 20
0
 30
0
  0
VERTEX
  8
LAYER_1
 10
121.0651
 20
-114.3694
  0
VERTEX
  8
LAYER_1
 10
121.7255
 20
-114.6488
  0
SEQEND
  0
POLYLINE
  8
LAYER_1
 40
0.1058
 41
0.1058
 66
1
 10
0
 20
0
 30
0
  0
VERTEX
  8
LAYER_1
 10
122.1827
 20
-114.8266
  0
VERTEX
  8
LAYER_1
 10
122.8431
 20
-115.0933
  0
SEQEND
  0
POLYLINE
  8
LAYER_1
 40
0.1058
 41
0.1058
 66
1
 10
0
 20
0
 30
0
  0
VERTEX
  8
LAYER_1
 10
123.2876
 20
-115.2711
  0
VERTEX
  8
LAYER_1
 10
123.9607
 20
-115.5505
  0
SEQEND
  0
POLYLINE
  8
LAYER_1
 40
0.1058
 41
0.1058
 66
1
 10
0
 20
0
 30
0
  0
VERTEX
  8
LAYER_1
 10
124.4052
 20
-115.7283
  0
VERTEX
  8
LAYER_1
 10
124.7608
 20
-115.868
  0
SEQEND
  0
POLYLINE
  8
LAYER_1
 40
0.1058
 41
0.1058
 66
1
 10
0
 20
0
 30
0
  0
VERTEX
  8
LAYER_1
 10
112.2513
 20
-108.2226
  0
VERTEX
  8
LAYER_1
 10
112.4672
 20
-108.3115
  0
SEQEND
  0
POLYLINE
  8
LAYER_1
 40
0.1058
 41
0.1058
 66
1
 10
0
 20
0
 30
0
  0
VERTEX
  8
LAYER_1
 10
112.9244
 20
-108.4893
  0
VERTEX
  8
LAYER_1
 10
113.5848
 20
-108.7687
  0
SEQEND
  0
POLYLINE
  8
LAYER_1
 40
0.1058
 41
0.1058
 66
1
 10
0
 20
0
 30
0
  0
VERTEX
  8
LAYER_1
 10
114.0293
 20
-108.9465
  0
VERTEX
  8
LAYER_1
 10
114.7024
 20
-109.2132
  0
SEQEND
  0
POLYLINE
  8
LAYER_1
 40
0.1058
 41
0.1058
 66
1
 10
0
 20
0
 30
0
  0
VERTEX
  8
LAYER_1
 10
115.1469
 20
-109.391
  0
VERTEX
  8
LAYER_1
 10
115.8073
 20
-109.6704
  0
SEQEND
  0
POLYLINE
  8
LAYER_1
 40
0.1058
 41
0.1058
 66
1
 10
0
 20
0
 30
0
  0
VERTEX
  8
LAYER_1
 10
116.2518
 20
-109.8482
  0
VERTEX
  8
LAYER_1
 10
116.9249
 20
-110.1149
  0
SEQEND
  0
POLYLINE
  8
LAYER_1
 40
0.1058
 41
0.1058
 66
1
 10
0
 20
0
 30
0
  0
VERTEX
  8
LAYER_1
 10
117.3694
 20
-110.2928
  0
VERTEX
  8
LAYER_1
 10
118.0425
 20
-110.5594
  0
SEQEND
  0
POLYLINE
  8
LAYER_1
 40
0.1058
 41
0.1058
 66
1
 10
0
 20
0
 30
0
  0
VERTEX
  8
LAYER_1
 10
118.487
 20
-110.7373
  0
VERTEX
  8
LAYER_1
 10
119.1474
 20
-111.0039
  0
SEQEND
  0
POLYLINE
  8
LAYER_1
 40
0.1058
 41
0.1058
 66
1
 10
0
 20
0
 30
0
  0
VERTEX
  8
LAYER_1
 10
119.5919
 20
-111.1945
  0
VERTEX
  8
LAYER_1
 10
120.265
 20
-111.4611
  0
SEQEND
  0
POLYLINE
  8
LAYER_1
 40
0.1058
 41
0.1058
 66
1
 10
0
 20
0
 30
0
  0
VERTEX
  8
LAYER_1
 10
120.7095
 20
-111.639
  0
VERTEX
  8
LAYER_1
 10
121.3699
 20
-111.9056
  0
SEQEND
  0
POLYLINE
  8
LAYER_1
 40
0.1058
 41
0.1058
 66
1
 10
0
 20
0
 30
0
  0
VERTEX
  8
LAYER_1
 10
121.8144
 20
-112.0835
  0
VERTEX
  8
LAYER_1
 10
122.4875
 20
-112.3629
  0
SEQEND
  0
POLYLINE
  8
LAYER_1
 40
0.1058
 41
0.1058
 66
1
 10
0
 20
0
 30
0
  0
VERTEX
  8
LAYER_1
 10
122.932
 20
-112.5407
  0
VERTEX
  8
LAYER_1
 10
123.6051
 20
-112.8074
  0
SEQEND
  0
POLYLINE
  8
LAYER_1
 40
0.1058
 41
0.1058
 66
1
 10
0
 20
0
 30
0
  0
VERTEX
  8
LAYER_1
 10
124.0496
 20
-112.9852
  0
VERTEX
  8
LAYER_1
 10
124.71
 20
-113.2646
  0
SEQEND
  0
POLYLINE
  8
LAYER_1
 40
0.1058
 41
0.1058
 66
1
 10
0
 20
0
 30
0
  0
VERTEX
  8
LAYER_1
 10
125.1545
 20
-113.4424
  0
VERTEX
  8
LAYER_1
 10
125.8276
 20
-113.7091
  0
SEQEND
  0
POLYLINE
  8
LAYER_1
 40
0.1058
 41
0.1058
 66
1
 10
0
 20
0
 30
0
  0
VERTEX
  8
LAYER_1
 10
126.2721
 20
-113.8869
  0
VERTEX
  8
LAYER_1
 10
126.9325
 20
-114.1536
  0
SEQEND
  0
POLYLINE
  8
LAYER_1
 40
0.1058
 41
0.1058
 66
1
 10
0
 20
0
 30
0
  0
VERTEX
  8
LAYER_1
 10
127.377
 20
-114.3441
  0
VERTEX
  8
LAYER_1
 10
127.6056
 20
-114.433
  0
SEQEND
  0
POLYLINE
  8
LAYER_1
 40
0.1058
 41
0.1058
 66
1
 10
0
 20
0
 30
0
  0
VERTEX
  8
LAYER_1
 10
111.2734
 20
-110.2547
  0
VERTEX
  8
LAYER_1
 10
111.3496
 20
-110.0642
  0
SEQEND
  0
POLYLINE
  8
LAYER_1
 40
0.1058
 41
0.1058
 66
1
 10
0
 20
0
 30
0
  0
VERTEX
  8
LAYER_1
 10
111.5274
 20
-109.6197
  0
VERTEX
  8
LAYER_1
 10
111.7941
 20
-108.9466
  0
SEQEND
  0
POLYLINE
  8
LAYER_1
 40
0.1058
 41
0.1058
 66
1
 10
0
 20
0
 30
0
  0
VERTEX
  8
LAYER_1
 10
111.9846
 20
-108.5021
  0
VERTEX
  8
LAYER_1
 10
112.0608
 20
-108.3116
  0
SEQEND
  0
POLYLINE
  8
LAYER_1
 40
0.1058
 41
0.1058
 66
1
 10
0
 20
0
 30
0
  0
VERTEX
  8
LAYER_1
 10
112.2513
 20
-108.2227
  0
VERTEX
  8
LAYER_1
 10
112.0608
 20
-108.3116
  0
SEQEND
  0
POLYLINE
  8
LAYER_1
 40
0.1058
 41
0.1058
 66
1
 10
0
 20
0
 30
0
  0
VERTEX
  8
LAYER_1
 10
111.2734
 20
-110.2547
  0
VERTEX
  8
LAYER_1
 10
111.3496
 20
-110.4452
  0
SEQEND
  0
POLYLINE
  8
LAYER_1
 40
0.1058
 41
0.1058
 66
1
 10
0
 20
0
 30
0
  0
VERTEX
  8
LAYER_1
 10
112.2513
 20
-108.2227
  0
VERTEX
  8
LAYER_1
 10
112.1116
 20
-108.5656
  0
SEQEND
  0
POLYLINE
  8
LAYER_1
 40
0.1058
 41
0.1058
 66
1
 10
0
 20
0
 30
0
  0
VERTEX
  8
LAYER_1
 10
111.9338
 20
-109.0101
  0
VERTEX
  8
LAYER_1
 10
111.6671
 20
-109.6705
  0
SEQEND
  0
POLYLINE
  8
LAYER_1
 40
0.1058
 41
0.1058
 66
1
 10
0
 20
0
 30
0
  0
VERTEX
  8
LAYER_1
 10
111.4893
 20
-110.115
  0
VERTEX
  8
LAYER_1
 10
111.3496
 20
-110.4452
  0
SEQEND
  0
POLYLINE
  8
LAYER_1
 40
0.1058
 41
0.1058
 66
1
 10
0
 20
0
 30
0
  0
VERTEX
  8
LAYER_1
 10
138.426
 20
-117.5064
  0
VERTEX
  8
LAYER_1
 10
138.1593
 20
-117.4048
  0
SEQEND
  0
POLYLINE
  8
LAYER_1
 40
0.1058
 41
0.1058
 66
1
 10
0
 20
0
 30
0
  0
VERTEX
  8
LAYER_1
 10
137.7148
 20
-117.2143
  0
VERTEX
  8
LAYER_1
 10
137.4481
 20
-117.1127
  0
SEQEND
  0
POLYLINE
  8
LAYER_1
 40
0.1058
 41
0.1058
 66
1
 10
0
 20
0
 30
0
  0
VERTEX
  8
LAYER_1
 10
135.886
 20
-122.7515
  0
VERTEX
  8
LAYER_1
 10
136.013
 20
-122.7515
  0
SEQEND
  0
POLYLINE
  8
LAYER_1
 40
0.1058
 41
0.1058
 66
1
 10
0
 20
0
 30
0
  0
VERTEX
  8
LAYER_1
 10
136.4956
 20
-122.7515
  0
VERTEX
  8
LAYER_1
 10
136.6353
 20
-122.7515
  0
SEQEND
  0
POLYLINE
  8
LAYER_1
 40
0.1058
 41
0.1058
 66
1
 10
0
 20
0
 30
0
  0
VERTEX
  8
LAYER_1
 10
138.5911
 20
-117.9001
  0
VERTEX
  8
LAYER_1
 10
138.6165
 20
-117.8493
  0
VERTEX
  8
LAYER_1
 10
138.6165
 20
-117.7985
  0
VERTEX
  8
LAYER_1
 10
138.6165
 20
-117.735
  0
VERTEX
  8
LAYER_1
 10
138.6038
 20
-117.6969
  0
VERTEX
  8
LAYER_1
 10
138.5784
 20
-117.6461
  0
VERTEX
  8
LAYER_1
 10
138.553
 20
-117.608
  0
VERTEX
  8
LAYER_1
 10
138.5149
 20
-117.5572
  0
VERTEX
  8
LAYER_1
 10
138.5022
 20
-117.5445
  0
SEQEND
  0
POLYLINE
  8
LAYER_1
 40
0.1058
 41
0.1058
 66
1
 10
0
 20
0
 30
0
  0
VERTEX
  8
LAYER_1
 10
138.3879
 20
-120.0718
  0
VERTEX
  8
LAYER_1
 10
138.5149
 20
-119.6781
  0
VERTEX
  8
LAYER_1
 10
138.5276
 20
-119.5257
  0
SEQEND
  0
POLYLINE
  8
LAYER_1
 40
0.1058
 41
0.1058
 66
1
 10
0
 20
0
 30
0
  0
VERTEX
  8
LAYER_1
 10
138.5403
 20
-119.0431
  0
VERTEX
  8
LAYER_1
 10
138.5403
 20
-118.8399
  0
VERTEX
  8
LAYER_1
 10
138.2609
 20
-118.7256
  0
SEQEND
  0
POLYLINE
  8
LAYER_1
 40
0.1058
 41
0.1058
 66
1
 10
0
 20
0
 30
0
  0
VERTEX
  8
LAYER_1
 10
138.172
 20
-118.9415
  0
VERTEX
  8
LAYER_1
 10
138.2609
 20
-118.7256
  0
SEQEND
  0
POLYLINE
  8
LAYER_1
 40
0.1058
 41
0.1058
 66
1
 10
0
 20
0
 30
0
  0
VERTEX
  8
LAYER_1
 10
137.6386
 20
-121.0751
  0
VERTEX
  8
LAYER_1
 10
137.9434
 20
-120.783
  0
VERTEX
  8
LAYER_1
 10
138.0323
 20
-120.6687
  0
SEQEND
  0
POLYLINE
  8
LAYER_1
 40
0.1058
 41
0.1058
 66
1
 10
0
 20
0
 30
0
  0
VERTEX
  8
LAYER_1
 10
138.299
 20
-120.2623
  0
VERTEX
  8
LAYER_1
 10
138.3879
 20
-120.0718
  0
SEQEND
  0
POLYLINE
  8
LAYER_1
 40
0.1058
 41
0.1058
 66
1
 10
0
 20
0
 30
0
  0
VERTEX
  8
LAYER_1
 10
137.6386
 20
-121.0751
  0
VERTEX
  8
LAYER_1
 10
137.3592
 20
-120.9608
  0
SEQEND
  0
POLYLINE
  8
LAYER_1
 40
0.1058
 41
0.1058
 66
1
 10
0
 20
0
 30
0
  0
VERTEX
  8
LAYER_1
 10
137.4481
 20
-120.7449
  0
VERTEX
  8
LAYER_1
 10
137.3592
 20
-120.9608
  0
SEQEND
  0
POLYLINE
  8
LAYER_1
 40
0.1058
 41
0.1058
 66
1
 10
0
 20
0
 30
0
  0
VERTEX
  8
LAYER_1
 10
136.6353
 20
-122.7515
  0
VERTEX
  8
LAYER_1
 10
136.6861
 20
-122.6372
  0
SEQEND
  0
POLYLINE
  8
LAYER_1
 40
0.1058
 41
0.1058
 66
1
 10
0
 20
0
 30
0
  0
VERTEX
  8
LAYER_1
 10
136.8639
 20
-122.1927
  0
VERTEX
  8
LAYER_1
 10
137.1305
 20
-121.5196
  0
SEQEND
  0
POLYLINE
  8
LAYER_1
 40
0.1058
 41
0.1058
 66
1
 10
0
 20
0
 30
0
  0
VERTEX
  8
LAYER_1
 10
137.3084
 20
-121.0751
  0
VERTEX
  8
LAYER_1
 10
137.575
 20
-120.4147
  0
SEQEND
  0
POLYLINE
  8
LAYER_1
 40
0.1058
 41
0.1058
 66
1
 10
0
 20
0
 30
0
  0
VERTEX
  8
LAYER_1
 10
137.7655
 20
-119.9702
  0
VERTEX
  8
LAYER_1
 10
137.8036
 20
-119.8432
  0
VERTEX
  8
LAYER_1
 10
137.8798
 20
-119.6527
  0
SEQEND
  0
POLYLINE
  8
LAYER_1
 40
0.1058
 41
0.1058
 66
1
 10
0
 20
0
 30
0
  0
VERTEX
  8
LAYER_1
 10
138.0703
 20
-119.2082
  0
VERTEX
  8
LAYER_1
 10
138.337
 20
-118.5351
  0
SEQEND
  0
POLYLINE
  8
LAYER_1
 40
0.1058
 41
0.1058
 66
1
 10
0
 20
0
 30
0
  0
VERTEX
  8
LAYER_1
 10
138.5148
 20
-118.0906
  0
VERTEX
  8
LAYER_1
 10
138.591
 20
-117.9001
  0
SEQEND
  0
POLYLINE
  8
LAYER_1
 40
0.1058
 41
0.1058
 66
1
 10
0
 20
0
 30
0
  0
VERTEX
  8
LAYER_1
 10
138.5402
 20
-118.8399
  0
VERTEX
  8
LAYER_1
 10
138.4005
 20
-119.1828
  0
SEQEND
  0
POLYLINE
  8
LAYER_1
 40
0.1058
 41
0.1058
 66
1
 10
0
 20
0
 30
0
  0
VERTEX
  8
LAYER_1
 10
138.2227
 20
-119.6273
  0
VERTEX
  8
LAYER_1
 10
137.956
 20
-120.2877
  0
SEQEND
  0
POLYLINE
  8
LAYER_1
 40
0.1058
 41
0.1058
 66
1
 10
0
 20
0
 30
0
  0
VERTEX
  8
LAYER_1
 10
137.7782
 20
-120.7322
  0
VERTEX
  8
LAYER_1
 10
137.6385
 20
-121.0751
  0
SEQEND
  0
POLYLINE
  8
LAYER_1
 40
0.1058
 41
0.1058
 66
1
 10
0
 20
0
 30
0
  0
VERTEX
  8
LAYER_1
 10
169.3504
 20
-132.1876
  0
VERTEX
  8
LAYER_1
 10
169.0583
 20
-132.7083
  0
VERTEX
  8
LAYER_1
 10
168.8297
 20
-133.2544
  0
VERTEX
  8
LAYER_1
 10
168.6519
 20
-133.8259
  0
VERTEX
  8
LAYER_1
 10
168.5503
 20
-134.4228
  0
VERTEX
  8
LAYER_1
 10
168.5249
 20
-135.0197
  0
VERTEX
  8
LAYER_1
 10
168.5503
 20
-135.6166
  0
VERTEX
  8
LAYER_1
 10
168.6519
 20
-136.2135
  0
VERTEX
  8
LAYER_1
 10
168.817
 20
-136.785
  0
VERTEX
  8
LAYER_1
 10
169.0583
 20
-137.3311
  0
VERTEX
  8
LAYER_1
 10
169.325
 20
-137.8391
  0
SEQEND
  0
POLYLINE
  8
LAYER_1
 40
0.1058
 41
0.1058
 66
1
 10
0
 20
0
 30
0
  0
VERTEX
  8
LAYER_1
 10
200.1098
 20
-136.5183
  0
VERTEX
  8
LAYER_1
 10
199.6653
 20
-136.5564
  0
VERTEX
  8
LAYER_1
 10
199.2462
 20
-136.6706
  0
VERTEX
  8
LAYER_1
 10
198.8525
 20
-136.8612
  0
VERTEX
  8
LAYER_1
 10
198.4969
 20
-137.1025
  0
VERTEX
  8
LAYER_1
 10
198.1794
 20
-137.42
  0
VERTEX
  8
LAYER_1
 10
197.9254
 20
-137.7755
  0
VERTEX
  8
LAYER_1
 10
197.8873
 20
-137.8518
  0
SEQEND
  0
POLYLINE
  8
LAYER_1
 40
0.1058
 41
0.1058
 66
1
 10
0
 20
0
 30
0
  0
VERTEX
  8
LAYER_1
 10
203.361
 20
-137.8518
  0
VERTEX
  8
LAYER_1
 10
202.9165
 20
-137.458
  0
VERTEX
  8
LAYER_1
 10
202.4085
 20
-137.1279
  0
VERTEX
  8
LAYER_1
 10
201.8751
 20
-136.8611
  0
VERTEX
  8
LAYER_1
 10
201.3036
 20
-136.6706
  0
VERTEX
  8
LAYER_1
 10
200.7194
 20
-136.5563
  0
VERTEX
  8
LAYER_1
 10
200.1225
 20
-136.5182
  0
VERTEX
  8
LAYER_1
 10
200.1098
 20
-136.5182
  0
SEQEND
  0
POLYLINE
  8
LAYER_1
 40
0.1058
 41
0.1058
 66
1
 10
0
 20
0
 30
0
  0
VERTEX
  8
LAYER_1
 10
125.9926
 20
-137.8645
  0
VERTEX
  8
LAYER_1
 10
126.2847
 20
-137.3437
  0
VERTEX
  8
LAYER_1
 10
126.526
 20
-136.7977
  0
VERTEX
  8
LAYER_1
 10
126.6911
 20
-136.2261
  0
VERTEX
  8
LAYER_1
 10
126.7927
 20
-135.6292
  0
VERTEX
  8
LAYER_1
 10
126.8308
 20
-135.0324
  0
VERTEX
  8
LAYER_1
 10
126.7927
 20
-134.4354
  0
VERTEX
  8
LAYER_1
 10
126.6911
 20
-133.8385
  0
VERTEX
  8
LAYER_1
 10
126.526
 20
-133.2671
  0
VERTEX
  8
LAYER_1
 10
126.2974
 20
-132.7209
  0
VERTEX
  8
LAYER_1
 10
126.018
 20
-132.2129
  0
SEQEND
  0
POLYLINE
  8
LAYER_1
 40
0.1058
 41
0.1058
 66
1
 10
0
 20
0
 30
0
  0
VERTEX
  8
LAYER_1
 10
97.4684
 20
-137.8518
  0
VERTEX
  8
LAYER_1
 10
97.2271
 20
-137.4961
  0
VERTEX
  8
LAYER_1
 10
96.935
 20
-137.1659
  0
VERTEX
  8
LAYER_1
 10
96.5794
 20
-136.8993
  0
VERTEX
  8
LAYER_1
 10
96.1857
 20
-136.7087
  0
VERTEX
  8
LAYER_1
 10
95.7793
 20
-136.569
  0
VERTEX
  8
LAYER_1
 10
95.3348
 20
-136.5182
  0
VERTEX
  8
LAYER_1
 10
95.2332
 20
-136.5182
  0
VERTEX
  8
LAYER_1
 10
94.6363
 20
-136.5563
  0
VERTEX
  8
LAYER_1
 10
94.0521
 20
-136.6706
  0
VERTEX
  8
LAYER_1
 10
93.4806
 20
-136.8611
  0
VERTEX
  8
LAYER_1
 10
92.9472
 20
-137.1279
  0
VERTEX
  8
LAYER_1
 10
92.4392
 20
-137.4454
  0
VERTEX
  8
LAYER_1
 10
91.982
 20
-137.8518
  0
VERTEX
  8
LAYER_1
 10
91.855
 20
-137.9787
  0
SEQEND
  0
POLYLINE
  8
LAYER_1
 40
0.1058
 41
0.1058
 66
1
 10
0
 20
0
 30
0
  0
VERTEX
  8
LAYER_1
 10
128.2532
 20
-171.1765
  0
VERTEX
  8
LAYER_1
 10
128.2532
 20
-165.2329
  0
SEQEND
  0
POLYLINE
  8
LAYER_1
 40
0.1058
 41
0.1058
 66
1
 10
0
 20
0
 30
0
  0
VERTEX
  8
LAYER_1
 10
128.2532
 20
-162.1723
  0
VERTEX
  8
LAYER_1
 10
128.2532
 20
-158.2733
  0
SEQEND
  0
POLYLINE
  8
LAYER_1
 40
0.1058
 41
0.1058
 66
1
 10
0
 20
0
 30
0
  0
VERTEX
  8
LAYER_1
 10
133.8031
 20
-171.1765
  0
VERTEX
  8
LAYER_1
 10
133.8031
 20
-165.2329
  0
SEQEND
  0
POLYLINE
  8
LAYER_1
 40
0.1058
 41
0.1058
 66
1
 10
0
 20
0
 30
0
  0
VERTEX
  8
LAYER_1
 10
133.8031
 20
-162.1723
  0
VERTEX
  8
LAYER_1
 10
133.8031
 20
-158.2733
  0
SEQEND
  0
POLYLINE
  8
LAYER_1
 40
0.1058
 41
0.1058
 66
1
 10
0
 20
0
 30
0
  0
VERTEX
  8
LAYER_1
 10
124.5829
 20
-156.1779
  0
VERTEX
  8
LAYER_1
 10
137.4734
 20
-156.1779
  0
SEQEND
  0
POLYLINE
  8
LAYER_1
 40
0.1058
 41
0.1058
 66
1
 10
0
 20
0
 30
0
  0
VERTEX
  8
LAYER_1
 10
137.4734
 20
-157.524
  0
VERTEX
  8
LAYER_1
 10
124.5829
 20
-157.524
  0
SEQEND
  0
POLYLINE
  8
LAYER_1
 40
0.1058
 41
0.1058
 66
1
 10
0
 20
0
 30
0
  0
VERTEX
  8
LAYER_1
 10
125.4846
 20
-157.6764
  0
VERTEX
  8
LAYER_1
 10
125.1798
 20
-157.9812
  0
SEQEND
  0
POLYLINE
  8
LAYER_1
 40
0.1058
 41
0.1058
 66
1
 10
0
 20
0
 30
0
  0
VERTEX
  8
LAYER_1
 10
125.7259
 20
-158.2733
  0
VERTEX
  8
LAYER_1
 10
126.3355
 20
-157.6764
  0
SEQEND
  0
POLYLINE
  8
LAYER_1
 40
0.1058
 41
0.1058
 66
1
 10
0
 20
0
 30
0
  0
VERTEX
  8
LAYER_1
 10
126.5768
 20
-158.2733
  0
VERTEX
  8
LAYER_1
 10
127.1737
 20
-157.6764
  0
SEQEND
  0
POLYLINE
  8
LAYER_1
 40
0.1058
 41
0.1058
 66
1
 10
0
 20
0
 30
0
  0
VERTEX
  8
LAYER_1
 10
127.4277
 20
-158.2733
  0
VERTEX
  8
LAYER_1
 10
128.0246
 20
-157.6764
  0
SEQEND
  0
POLYLINE
  8
LAYER_1
 40
0.1058
 41
0.1058
 66
1
 10
0
 20
0
 30
0
  0
VERTEX
  8
LAYER_1
 10
128.2786
 20
-158.2733
  0
VERTEX
  8
LAYER_1
 10
128.8755
 20
-157.6764
  0
SEQEND
  0
POLYLINE
  8
LAYER_1
 40
0.1058
 41
0.1058
 66
1
 10
0
 20
0
 30
0
  0
VERTEX
  8
LAYER_1
 10
129.1168
 20
-158.2733
  0
VERTEX
  8
LAYER_1
 10
129.7264
 20
-157.6764
  0
SEQEND
  0
POLYLINE
  8
LAYER_1
 40
0.1058
 41
0.1058
 66
1
 10
0
 20
0
 30
0
  0
VERTEX
  8
LAYER_1
 10
129.9677
 20
-158.2733
  0
VERTEX
  8
LAYER_1
 10
130.5773
 20
-157.6764
  0
SEQEND
  0
POLYLINE
  8
LAYER_1
 40
0.1058
 41
0.1058
 66
1
 10
0
 20
0
 30
0
  0
VERTEX
  8
LAYER_1
 10
130.8186
 20
-158.2733
  0
VERTEX
  8
LAYER_1
 10
131.4155
 20
-157.6764
  0
SEQEND
  0
POLYLINE
  8
LAYER_1
 40
0.1058
 41
0.1058
 66
1
 10
0
 20
0
 30
0
  0
VERTEX
  8
LAYER_1
 10
131.6695
 20
-158.2733
  0
VERTEX
  8
LAYER_1
 10
132.2664
 20
-157.6764
  0
SEQEND
  0
POLYLINE
  8
LAYER_1
 40
0.1058
 41
0.1058
 66
1
 10
0
 20
0
 30
0
  0
VERTEX
  8
LAYER_1
 10
132.5204
 20
-158.2733
  0
VERTEX
  8
LAYER_1
 10
133.1173
 20
-157.6764
  0
SEQEND
  0
POLYLINE
  8
LAYER_1
 40
0.1058
 41
0.1058
 66
1
 10
0
 20
0
 30
0
  0
VERTEX
  8
LAYER_1
 10
133.3713
 20
-158.2733
  0
VERTEX
  8
LAYER_1
 10
133.9682
 20
-157.6764
  0
SEQEND
  0
POLYLINE
  8
LAYER_1
 40
0.1058
 41
0.1058
 66
1
 10
0
 20
0
 30
0
  0
VERTEX
  8
LAYER_1
 10
134.2095
 20
-158.2733
  0
VERTEX
  8
LAYER_1
 10
134.8191
 20
-157.6764
  0
SEQEND
  0
POLYLINE
  8
LAYER_1
 40
0.1058
 41
0.1058
 66
1
 10
0
 20
0
 30
0
  0
VERTEX
  8
LAYER_1
 10
135.0604
 20
-158.2733
  0
VERTEX
  8
LAYER_1
 10
135.6573
 20
-157.6764
  0
SEQEND
  0
POLYLINE
  8
LAYER_1
 40
0.1058
 41
0.1058
 66
1
 10
0
 20
0
 30
0
  0
VERTEX
  8
LAYER_1
 10
135.9113
 20
-158.2733
  0
VERTEX
  8
LAYER_1
 10
136.5082
 20
-157.6764
  0
SEQEND
  0
POLYLINE
  8
LAYER_1
 40
0.1058
 41
0.1058
 66
1
 10
0
 20
0
 30
0
  0
VERTEX
  8
LAYER_1
 10
136.7623
 20
-158.2733
  0
VERTEX
  8
LAYER_1
 10
136.8765
 20
-158.159
  0
SEQEND
  0
POLYLINE
  8
LAYER_1
 40
0.1058
 41
0.1058
 66
1
 10
0
 20
0
 30
0
  0
VERTEX
  8
LAYER_1
 10
126.0053
 20
-162.1722
  0
VERTEX
  8
LAYER_1
 10
125.7767
 20
-162.4008
  0
SEQEND
  0
POLYLINE
  8
LAYER_1
 40
0.1058
 41
0.1058
 66
1
 10
0
 20
0
 30
0
  0
VERTEX
  8
LAYER_1
 10
126.8562
 20
-162.1722
  0
VERTEX
  8
LAYER_1
 10
126.399
 20
-162.6294
  0
SEQEND
  0
POLYLINE
  8
LAYER_1
 40
0.1058
 41
0.1058
 66
1
 10
0
 20
0
 30
0
  0
VERTEX
  8
LAYER_1
 10
127.7071
 20
-162.1722
  0
VERTEX
  8
LAYER_1
 10
127.2499
 20
-162.6294
  0
SEQEND
  0
POLYLINE
  8
LAYER_1
 40
0.1058
 41
0.1058
 66
1
 10
0
 20
0
 30
0
  0
VERTEX
  8
LAYER_1
 10
128.5453
 20
-162.1722
  0
VERTEX
  8
LAYER_1
 10
128.1008
 20
-162.6294
  0
SEQEND
  0
POLYLINE
  8
LAYER_1
 40
0.1058
 41
0.1058
 66
1
 10
0
 20
0
 30
0
  0
VERTEX
  8
LAYER_1
 10
129.3962
 20
-162.1722
  0
VERTEX
  8
LAYER_1
 10
128.9517
 20
-162.6294
  0
SEQEND
  0
POLYLINE
  8
LAYER_1
 40
0.1058
 41
0.1058
 66
1
 10
0
 20
0
 30
0
  0
VERTEX
  8
LAYER_1
 10
130.2471
 20
-162.1722
  0
VERTEX
  8
LAYER_1
 10
129.8026
 20
-162.6294
  0
SEQEND
  0
POLYLINE
  8
LAYER_1
 40
0.1058
 41
0.1058
 66
1
 10
0
 20
0
 30
0
  0
VERTEX
  8
LAYER_1
 10
131.098
 20
-162.1722
  0
VERTEX
  8
LAYER_1
 10
130.6408
 20
-162.6294
  0
SEQEND
  0
POLYLINE
  8
LAYER_1
 40
0.1058
 41
0.1058
 66
1
 10
0
 20
0
 30
0
  0
VERTEX
  8
LAYER_1
 10
131.9489
 20
-162.1722
  0
VERTEX
  8
LAYER_1
 10
131.4917
 20
-162.6294
  0
SEQEND
  0
POLYLINE
  8
LAYER_1
 40
0.1058
 41
0.1058
 66
1
 10
0
 20
0
 30
0
  0
VERTEX
  8
LAYER_1
 10
132.7871
 20
-162.1722
  0
VERTEX
  8
LAYER_1
 10
132.3426
 20
-162.6294
  0
SEQEND
  0
POLYLINE
  8
LAYER_1
 40
0.1058
 41
0.1058
 66
1
 10
0
 20
0
 30
0
  0
VERTEX
  8
LAYER_1
 10
133.638
 20
-162.1722
  0
VERTEX
  8
LAYER_1
 10
133.1935
 20
-162.6294
  0
SEQEND
  0
POLYLINE
  8
LAYER_1
 40
0.1058
 41
0.1058
 66
1
 10
0
 20
0
 30
0
  0
VERTEX
  8
LAYER_1
 10
134.4889
 20
-162.1722
  0
VERTEX
  8
LAYER_1
 10
134.0444
 20
-162.6294
  0
SEQEND
  0
POLYLINE
  8
LAYER_1
 40
0.1058
 41
0.1058
 66
1
 10
0
 20
0
 30
0
  0
VERTEX
  8
LAYER_1
 10
135.3398
 20
-162.1722
  0
VERTEX
  8
LAYER_1
 10
134.8953
 20
-162.6294
  0
SEQEND
  0
POLYLINE
  8
LAYER_1
 40
0.1058
 41
0.1058
 66
1
 10
0
 20
0
 30
0
  0
VERTEX
  8
LAYER_1
 10
136.1907
 20
-162.1722
  0
VERTEX
  8
LAYER_1
 10
135.7335
 20
-162.6294
  0
SEQEND
  0
POLYLINE
  8
LAYER_1
 40
0.1058
 41
0.1058
 66
1
 10
0
 20
0
 30
0
  0
VERTEX
  8
LAYER_1
 10
161.5399
 20
-171.1765
  0
VERTEX
  8
LAYER_1
 10
161.5399
 20
-165.2329
  0
SEQEND
  0
POLYLINE
  8
LAYER_1
 40
0.1058
 41
0.1058
 66
1
 10
0
 20
0
 30
0
  0
VERTEX
  8
LAYER_1
 10
161.5399
 20
-162.1722
  0
VERTEX
  8
LAYER_1
 10
161.5399
 20
-158.2733
  0
SEQEND
  0
POLYLINE
  8
LAYER_1
 40
0.1058
 41
0.1058
 66
1
 10
0
 20
0
 30
0
  0
VERTEX
  8
LAYER_1
 10
167.0898
 20
-171.1765
  0
VERTEX
  8
LAYER_1
 10
167.0898
 20
-165.2329
  0
SEQEND
  0
POLYLINE
  8
LAYER_1
 40
0.1058
 41
0.1058
 66
1
 10
0
 20
0
 30
0
  0
VERTEX
  8
LAYER_1
 10
167.0898
 20
-162.1722
  0
VERTEX
  8
LAYER_1
 10
167.0898
 20
-158.2733
  0
SEQEND
  0
POLYLINE
  8
LAYER_1
 40
0.1058
 41
0.1058
 66
1
 10
0
 20
0
 30
0
  0
VERTEX
  8
LAYER_1
 10
157.8696
 20
-156.1778
  0
VERTEX
  8
LAYER_1
 10
170.7728
 20
-156.1778
  0
SEQEND
  0
POLYLINE
  8
LAYER_1
 40
0.1058
 41
0.1058
 66
1
 10
0
 20
0
 30
0
  0
VERTEX
  8
LAYER_1
 10
170.7728
 20
-157.524
  0
VERTEX
  8
LAYER_1
 10
157.8696
 20
-157.524
  0
SEQEND
  0
POLYLINE
  8
LAYER_1
 40
0.1058
 41
0.1058
 66
1
 10
0
 20
0
 30
0
  0
VERTEX
  8
LAYER_1
 10
158.7713
 20
-157.6764
  0
VERTEX
  8
LAYER_1
 10
158.4665
 20
-157.9812
  0
SEQEND
  0
POLYLINE
  8
LAYER_1
 40
0.1058
 41
0.1058
 66
1
 10
0
 20
0
 30
0
  0
VERTEX
  8
LAYER_1
 10
159.0126
 20
-158.2733
  0
VERTEX
  8
LAYER_1
 10
159.6095
 20
-157.6764
  0
SEQEND
  0
POLYLINE
  8
LAYER_1
 40
0.1058
 41
0.1058
 66
1
 10
0
 20
0
 30
0
  0
VERTEX
  8
LAYER_1
 10
159.8635
 20
-158.2733
  0
VERTEX
  8
LAYER_1
 10
160.4731
 20
-157.6764
  0
SEQEND
  0
POLYLINE
  8
LAYER_1
 40
0.1058
 41
0.1058
 66
1
 10
0
 20
0
 30
0
  0
VERTEX
  8
LAYER_1
 10
160.7144
 20
-158.2733
  0
VERTEX
  8
LAYER_1
 10
161.3113
 20
-157.6764
  0
SEQEND
  0
POLYLINE
  8
LAYER_1
 40
0.1058
 41
0.1058
 66
1
 10
0
 20
0
 30
0
  0
VERTEX
  8
LAYER_1
 10
161.5653
 20
-158.2733
  0
VERTEX
  8
LAYER_1
 10
162.1622
 20
-157.6764
  0
SEQEND
  0
POLYLINE
  8
LAYER_1
 40
0.1058
 41
0.1058
 66
1
 10
0
 20
0
 30
0
  0
VERTEX
  8
LAYER_1
 10
162.4162
 20
-158.2733
  0
VERTEX
  8
LAYER_1
 10
163.0131
 20
-157.6764
  0
SEQEND
  0
POLYLINE
  8
LAYER_1
 40
0.1058
 41
0.1058
 66
1
 10
0
 20
0
 30
0
  0
VERTEX
  8
LAYER_1
 10
163.2544
 20
-158.2733
  0
VERTEX
  8
LAYER_1
 10
163.8513
 20
-157.6764
  0
SEQEND
  0
POLYLINE
  8
LAYER_1
 40
0.1058
 41
0.1058
 66
1
 10
0
 20
0
 30
0
  0
VERTEX
  8
LAYER_1
 10
164.1053
 20
-158.2733
  0
VERTEX
  8
LAYER_1
 10
164.7149
 20
-157.6764
  0
SEQEND
  0
POLYLINE
  8
LAYER_1
 40
0.1058
 41
0.1058
 66
1
 10
0
 20
0
 30
0
  0
VERTEX
  8
LAYER_1
 10
164.9563
 20
-158.2733
  0
VERTEX
  8
LAYER_1
 10
165.5531
 20
-157.6764
  0
SEQEND
  0
POLYLINE
  8
LAYER_1
 40
0.1058
 41
0.1058
 66
1
 10
0
 20
0
 30
0
  0
VERTEX
  8
LAYER_1
 10
165.8072
 20
-158.2733
  0
VERTEX
  8
LAYER_1
 10
166.404
 20
-157.6764
  0
SEQEND
  0
POLYLINE
  8
LAYER_1
 40
0.1058
 41
0.1058
 66
1
 10
0
 20
0
 30
0
  0
VERTEX
  8
LAYER_1
 10
166.6581
 20
-158.2733
  0
VERTEX
  8
LAYER_1
 10
167.2549
 20
-157.6764
  0
SEQEND
  0
POLYLINE
  8
LAYER_1
 40
0.1058
 41
0.1058
 66
1
 10
0
 20
0
 30
0
  0
VERTEX
  8
LAYER_1
 10
167.4963
 20
-158.2733
  0
VERTEX
  8
LAYER_1
 10
168.0932
 20
-157.6764
  0
SEQEND
  0
POLYLINE
  8
LAYER_1
 40
0.1058
 41
0.1058
 66
1
 10
0
 20
0
 30
0
  0
VERTEX
  8
LAYER_1
 10
168.3472
 20
-158.2733
  0
VERTEX
  8
LAYER_1
 10
168.9568
 20
-157.6764
  0
SEQEND
  0
POLYLINE
  8
LAYER_1
 40
0.1058
 41
0.1058
 66
1
 10
0
 20
0
 30
0
  0
VERTEX
  8
LAYER_1
 10
169.1981
 20
-158.2733
  0
VERTEX
  8
LAYER_1
 10
169.795
 20
-157.6764
  0
SEQEND
  0
POLYLINE
  8
LAYER_1
 40
0.1058
 41
0.1058
 66
1
 10
0
 20
0
 30
0
  0
VERTEX
  8
LAYER_1
 10
170.049
 20
-158.2733
  0
VERTEX
  8
LAYER_1
 10
170.1633
 20
-158.159
  0
SEQEND
  0
POLYLINE
  8
LAYER_1
 40
0.1058
 41
0.1058
 66
1
 10
0
 20
0
 30
0
  0
VERTEX
  8
LAYER_1
 10
159.2921
 20
-162.1722
  0
VERTEX
  8
LAYER_1
 10
159.0635
 20
-162.4008
  0
SEQEND
  0
POLYLINE
  8
LAYER_1
 40
0.1058
 41
0.1058
 66
1
 10
0
 20
0
 30
0
  0
VERTEX
  8
LAYER_1
 10
160.143
 20
-162.1722
  0
VERTEX
  8
LAYER_1
 10
159.6985
 20
-162.6294
  0
SEQEND
  0
POLYLINE
  8
LAYER_1
 40
0.1058
 41
0.1058
 66
1
 10
0
 20
0
 30
0
  0
VERTEX
  8
LAYER_1
 10
160.9939
 20
-162.1722
  0
VERTEX
  8
LAYER_1
 10
160.5367
 20
-162.6294
  0
SEQEND
  0
POLYLINE
  8
LAYER_1
 40
0.1058
 41
0.1058
 66
1
 10
0
 20
0
 30
0
  0
VERTEX
  8
LAYER_1
 10
161.8321
 20
-162.1722
  0
VERTEX
  8
LAYER_1
 10
161.3876
 20
-162.6294
  0
SEQEND
  0
POLYLINE
  8
LAYER_1
 40
0.1058
 41
0.1058
 66
1
 10
0
 20
0
 30
0
  0
VERTEX
  8
LAYER_1
 10
162.683
 20
-162.1722
  0
VERTEX
  8
LAYER_1
 10
162.2385
 20
-162.6294
  0
SEQEND
  0
POLYLINE
  8
LAYER_1
 40
0.1058
 41
0.1058
 66
1
 10
0
 20
0
 30
0
  0
VERTEX
  8
LAYER_1
 10
163.5339
 20
-162.1722
  0
VERTEX
  8
LAYER_1
 10
163.0894
 20
-162.6294
  0
SEQEND
  0
POLYLINE
  8
LAYER_1
 40
0.1058
 41
0.1058
 66
1
 10
0
 20
0
 30
0
  0
VERTEX
  8
LAYER_1
 10
164.3848
 20
-162.1722
  0
VERTEX
  8
LAYER_1
 10
163.9403
 20
-162.6294
  0
SEQEND
  0
POLYLINE
  8
LAYER_1
 40
0.1058
 41
0.1058
 66
1
 10
0
 20
0
 30
0
  0
VERTEX
  8
LAYER_1
 10
165.2357
 20
-162.1722
  0
VERTEX
  8
LAYER_1
 10
164.7785
 20
-162.6294
  0
SEQEND
  0
POLYLINE
  8
LAYER_1
 40
0.1058
 41
0.1058
 66
1
 10
0
 20
0
 30
0
  0
VERTEX
  8
LAYER_1
 10
166.0866
 20
-162.1722
  0
VERTEX
  8
LAYER_1
 10
165.6294
 20
-162.6294
  0
SEQEND
  0
POLYLINE
  8
LAYER_1
 40
0.1058
 41
0.1058
 66
1
 10
0
 20
0
 30
0
  0
VERTEX
  8
LAYER_1
 10
166.9248
 20
-162.1722
  0
VERTEX
  8
LAYER_1
 10
166.4803
 20
-162.6294
  0
SEQEND
  0
POLYLINE
  8
LAYER_1
 40
0.1058
 41
0.1058
 66
1
 10
0
 20
0
 30
0
  0
VERTEX
  8
LAYER_1
 10
167.7757
 20
-162.1722
  0
VERTEX
  8
LAYER_1
 10
167.3312
 20
-162.6294
  0
SEQEND
  0
POLYLINE
  8
LAYER_1
 40
0.1058
 41
0.1058
 66
1
 10
0
 20
0
 30
0
  0
VERTEX
  8
LAYER_1
 10
168.6266
 20
-162.1722
  0
VERTEX
  8
LAYER_1
 10
168.1821
 20
-162.6294
  0
SEQEND
  0
POLYLINE
  8
LAYER_1
 40
0.1058
 41
0.1058
 66
1
 10
0
 20
0
 30
0
  0
VERTEX
  8
LAYER_1
 10
169.4775
 20
-162.1722
  0
VERTEX
  8
LAYER_1
 10
169.0203
 20
-162.6294
  0
SEQEND
  0
POLYLINE
  8
LAYER_1
 40
0.1058
 41
0.1058
 66
1
 10
0
 20
0
 30
0
  0
VERTEX
  8
LAYER_1
 10
131.0346
 20
-175.2913
  0
VERTEX
  8
LAYER_1
 10
131.0346
 20
-170.9733
  0
SEQEND
  0
POLYLINE
  8
LAYER_1
 40
0.1058
 41
0.1058
 66
1
 10
0
 20
0
 30
0
  0
VERTEX
  8
LAYER_1
 10
131.0346
 20
-170.3764
  0
VERTEX
  8
LAYER_1
 10
131.0346
 20
-169.7795
  0
SEQEND
  0
POLYLINE
  8
LAYER_1
 40
0.1058
 41
0.1058
 66
1
 10
0
 20
0
 30
0
  0
VERTEX
  8
LAYER_1
 10
131.0346
 20
-169.1826
  0
VERTEX
  8
LAYER_1
 10
131.0346
 20
-163.7724
  0
SEQEND
  0
POLYLINE
  8
LAYER_1
 40
0.1058
 41
0.1058
 66
1
 10
0
 20
0
 30
0
  0
VERTEX
  8
LAYER_1
 10
131.0346
 20
-163.1755
  0
VERTEX
  8
LAYER_1
 10
131.0346
 20
-162.5786
  0
SEQEND
  0
POLYLINE
  8
LAYER_1
 40
0.1058
 41
0.1058
 66
1
 10
0
 20
0
 30
0
  0
VERTEX
  8
LAYER_1
 10
131.0346
 20
-161.9817
  0
VERTEX
  8
LAYER_1
 10
131.0346
 20
-156.5715
  0
SEQEND
  0
POLYLINE
  8
LAYER_1
 40
0.1058
 41
0.1058
 66
1
 10
0
 20
0
 30
0
  0
VERTEX
  8
LAYER_1
 10
131.0346
 20
-155.9746
  0
VERTEX
  8
LAYER_1
 10
131.0346
 20
-155.3777
  0
SEQEND
  0
POLYLINE
  8
LAYER_1
 40
0.1058
 41
0.1058
 66
1
 10
0
 20
0
 30
0
  0
VERTEX
  8
LAYER_1
 10
131.0346
 20
-154.7808
  0
VERTEX
  8
LAYER_1
 10
131.0346
 20
-149.3833
  0
SEQEND
  0
POLYLINE
  8
LAYER_1
 40
0.1058
 41
0.1058
 66
1
 10
0
 20
0
 30
0
  0
VERTEX
  8
LAYER_1
 10
131.0346
 20
-148.7737
  0
VERTEX
  8
LAYER_1
 10
131.0346
 20
-148.1768
  0
SEQEND
  0
POLYLINE
  8
LAYER_1
 40
0.1058
 41
0.1058
 66
1
 10
0
 20
0
 30
0
  0
VERTEX
  8
LAYER_1
 10
131.0346
 20
-147.5799
  0
VERTEX
  8
LAYER_1
 10
131.0346
 20
-142.1824
  0
SEQEND
  0
POLYLINE
  8
LAYER_1
 40
0.1058
 41
0.1058
 66
1
 10
0
 20
0
 30
0
  0
VERTEX
  8
LAYER_1
 10
131.0346
 20
-141.5728
  0
VERTEX
  8
LAYER_1
 10
131.0346
 20
-140.9759
  0
SEQEND
  0
POLYLINE
  8
LAYER_1
 40
0.1058
 41
0.1058
 66
1
 10
0
 20
0
 30
0
  0
VERTEX
  8
LAYER_1
 10
131.0346
 20
-140.379
  0
VERTEX
  8
LAYER_1
 10
131.0346
 20
-134.9815
  0
SEQEND
  0
POLYLINE
  8
LAYER_1
 40
0.1058
 41
0.1058
 66
1
 10
0
 20
0
 30
0
  0
VERTEX
  8
LAYER_1
 10
131.0346
 20
-134.3719
  0
VERTEX
  8
LAYER_1
 10
131.0346
 20
-133.775
  0
SEQEND
  0
POLYLINE
  8
LAYER_1
 40
0.1058
 41
0.1058
 66
1
 10
0
 20
0
 30
0
  0
VERTEX
  8
LAYER_1
 10
131.0346
 20
-133.1781
  0
VERTEX
  8
LAYER_1
 10
131.0346
 20
-127.7806
  0
SEQEND
  0
POLYLINE
  8
LAYER_1
 40
0.1058
 41
0.1058
 66
1
 10
0
 20
0
 30
0
  0
VERTEX
  8
LAYER_1
 10
131.0346
 20
-127.1837
  0
VERTEX
  8
LAYER_1
 10
131.0346
 20
-126.5741
  0
SEQEND
  0
POLYLINE
  8
LAYER_1
 40
0.1058
 41
0.1058
 66
1
 10
0
 20
0
 30
0
  0
VERTEX
  8
LAYER_1
 10
131.0346
 20
-125.9772
  0
VERTEX
  8
LAYER_1
 10
131.0346
 20
-120.5797
  0
SEQEND
  0
POLYLINE
  8
LAYER_1
 40
0.1058
 41
0.1058
 66
1
 10
0
 20
0
 30
0
  0
VERTEX
  8
LAYER_1
 10
131.0346
 20
-119.9828
  0
VERTEX
  8
LAYER_1
 10
131.0346
 20
-119.3732
  0
SEQEND
  0
POLYLINE
  8
LAYER_1
 40
0.1058
 41
0.1058
 66
1
 10
0
 20
0
 30
0
  0
VERTEX
  8
LAYER_1
 10
131.0346
 20
-118.7763
  0
VERTEX
  8
LAYER_1
 10
131.0346
 20
-114.471
  0
SEQEND
  0
POLYLINE
  8
LAYER_1
 40
0.1058
 41
0.1058
 66
1
 10
0
 20
0
 30
0
  0
VERTEX
  8
LAYER_1
 10
164.3212
 20
-175.2913
  0
VERTEX
  8
LAYER_1
 10
164.3212
 20
-170.9733
  0
SEQEND
  0
POLYLINE
  8
LAYER_1
 40
0.1058
 41
0.1058
 66
1
 10
0
 20
0
 30
0
  0
VERTEX
  8
LAYER_1
 10
164.3212
 20
-170.3764
  0
VERTEX
  8
LAYER_1
 10
164.3212
 20
-169.7795
  0
SEQEND
  0
POLYLINE
  8
LAYER_1
 40
0.1058
 41
0.1058
 66
1
 10
0
 20
0
 30
0
  0
VERTEX
  8
LAYER_1
 10
164.3212
 20
-169.1826
  0
VERTEX
  8
LAYER_1
 10
164.3212
 20
-163.7724
  0
SEQEND
  0
POLYLINE
  8
LAYER_1
 40
0.1058
 41
0.1058
 66
1
 10
0
 20
0
 30
0
  0
VERTEX
  8
LAYER_1
 10
164.3212
 20
-163.1755
  0
VERTEX
  8
LAYER_1
 10
164.3212
 20
-162.5786
  0
SEQEND
  0
POLYLINE
  8
LAYER_1
 40
0.1058
 41
0.1058
 66
1
 10
0
 20
0
 30
0
  0
VERTEX
  8
LAYER_1
 10
164.3212
 20
-161.9817
  0
VERTEX
  8
LAYER_1
 10
164.3212
 20
-156.5715
  0
SEQEND
  0
POLYLINE
  8
LAYER_1
 40
0.1058
 41
0.1058
 66
1
 10
0
 20
0
 30
0
  0
VERTEX
  8
LAYER_1
 10
164.3212
 20
-155.9746
  0
VERTEX
  8
LAYER_1
 10
164.3212
 20
-155.3777
  0
SEQEND
  0
POLYLINE
  8
LAYER_1
 40
0.1058
 41
0.1058
 66
1
 10
0
 20
0
 30
0
  0
VERTEX
  8
LAYER_1
 10
164.3212
 20
-154.7808
  0
VERTEX
  8
LAYER_1
 10
164.3212
 20
-149.3833
  0
SEQEND
  0
POLYLINE
  8
LAYER_1
 40
0.1058
 41
0.1058
 66
1
 10
0
 20
0
 30
0
  0
VERTEX
  8
LAYER_1
 10
164.3212
 20
-148.7737
  0
VERTEX
  8
LAYER_1
 10
164.3212
 20
-148.1768
  0
SEQEND
  0
POLYLINE
  8
LAYER_1
 40
0.1058
 41
0.1058
 66
1
 10
0
 20
0
 30
0
  0
VERTEX
  8
LAYER_1
 10
164.3212
 20
-147.5799
  0
VERTEX
  8
LAYER_1
 10
164.3212
 20
-142.1824
  0
SEQEND
  0
POLYLINE
  8
LAYER_1
 40
0.1058
 41
0.1058
 66
1
 10
0
 20
0
 30
0
  0
VERTEX
  8
LAYER_1
 10
164.3212
 20
-141.5728
  0
VERTEX
  8
LAYER_1
 10
164.3212
 20
-140.9759
  0
SEQEND
  0
POLYLINE
  8
LAYER_1
 40
0.1058
 41
0.1058
 66
1
 10
0
 20
0
 30
0
  0
VERTEX
  8
LAYER_1
 10
164.3212
 20
-140.379
  0
VERTEX
  8
LAYER_1
 10
164.3212
 20
-134.9815
  0
SEQEND
  0
POLYLINE
  8
LAYER_1
 40
0.1058
 41
0.1058
 66
1
 10
0
 20
0
 30
0
  0
VERTEX
  8
LAYER_1
 10
164.3212
 20
-134.3719
  0
VERTEX
  8
LAYER_1
 10
164.3212
 20
-133.775
  0
SEQEND
  0
POLYLINE
  8
LAYER_1
 40
0.1058
 41
0.1058
 66
1
 10
0
 20
0
 30
0
  0
VERTEX
  8
LAYER_1
 10
164.3212
 20
-133.1781
  0
VERTEX
  8
LAYER_1
 10
164.3212
 20
-127.7806
  0
SEQEND
  0
POLYLINE
  8
LAYER_1
 40
0.1058
 41
0.1058
 66
1
 10
0
 20
0
 30
0
  0
VERTEX
  8
LAYER_1
 10
164.3212
 20
-127.1837
  0
VERTEX
  8
LAYER_1
 10
164.3212
 20
-126.5741
  0
SEQEND
  0
POLYLINE
  8
LAYER_1
 40
0.1058
 41
0.1058
 66
1
 10
0
 20
0
 30
0
  0
VERTEX
  8
LAYER_1
 10
164.3212
 20
-125.9772
  0
VERTEX
  8
LAYER_1
 10
164.3212
 20
-120.5797
  0
SEQEND
  0
POLYLINE
  8
LAYER_1
 40
0.1058
 41
0.1058
 66
1
 10
0
 20
0
 30
0
  0
VERTEX
  8
LAYER_1
 10
164.3212
 20
-119.9828
  0
VERTEX
  8
LAYER_1
 10
164.3212
 20
-119.3732
  0
SEQEND
  0
POLYLINE
  8
LAYER_1
 40
0.1058
 41
0.1058
 66
1
 10
0
 20
0
 30
0
  0
VERTEX
  8
LAYER_1
 10
164.3212
 20
-118.7763
  0
VERTEX
  8
LAYER_1
 10
164.3212
 20
-114.471
  0
SEQEND
  0
TEXT
  8
LAYER_1
 10
109.0207
 20
-122.9775
 11
109.0207
 21
-122.9775
 40
4.6571
 41
0.5
  1
止水
  0
TEXT
  8
LAYER_1
 10
120.0106
 20
-109.9371
 11
120.0106
 21
-109.9371
 40
4.6571
 41
0.5
  1
吐水
  0
TEXT
  8
LAYER_1
 10
131.9892
 20
-108.3396
 11
131.9892
 21
-108.3396
 40
5.542
 41
0.5
  1
26
  0
TEXT
  8
LAYER_1
 10
138.2834
 20
-126.333
 11
138.2834
 21
-126.333
 40
5.542
 41
0.5
  1
%%c35
  0
TEXT
  8
LAYER_1
 10
108.7045
 20
-150.0518
 11
108.7045
 21
-150.0518
 40
5.542
 41
0.5
 50
89.99999999
  1
%%c21
  0
TEXT
  8
LAYER_1
 10
138.7161
 20
-168.9272
 11
138.7161
 21
-168.9272
 40
5.542
 41
0.5
  1
PJ1/2
  0
TEXT
  8
LAYER_1
 10
110.8652
 20
-163.9772
 11
110.8652
 21
-163.9772
 40
5.542
 41
0.5
  1
24六角
  0
TEXT
  8
LAYER_1
 10
108.6873
 20
-177.996
 11
108.6873
 21
-177.996
 40
5.542
 41
0.5
  1
23六角
  0
TEXT
  8
LAYER_1
 10
85.7963
 20
-150.8442
 11
85.7963
 21
-150.8442
 40
5.542
 41
0.5
 50
89.99999999
  1
60
  0
TEXT
  8
LAYER_1
 10
77.9132
 20
-140.1375
 11
77.9132
 21
-140.1375
 40
5.542
 41
0.5
 50
89.99999999
  1
138
  0
TEXT
  8
LAYER_1
 10
70.775
 20
-136.0489
 11
70.775
 21
-136.0489
 40
5.542
 41
0.5
 50
89.99999999
  1
165
  0
TEXT
  8
LAYER_1
 10
153.0263
 20
-157.445
 11
153.0263
 21
-157.445
 40
5.542
 41
0.5
 50
89.99999999
  1
天板厚 0030mm
  0
TEXT
  8
LAYER_1
 10
114.8932
 20
-145.197
 11
114.8932
 21
-145.197
 40
5.542
 41
0.5
  1
%%c43
  0
TEXT
  8
LAYER_1
 10
111.1643
 20
-169.0119
 11
111.1643
 21
-169.0119
 40
5.542
 41
0.5
  1
123
  0
POLYLINE
  8
LAYER_1
 40
0.1058
 41
0.1058
 66
1
 10
0
 20
0
 30
0
  0
VERTEX
  8
LAYER_1
 10
131.0345
 20
-113.9503
  0
VERTEX
  8
LAYER_1
 10
131.0345
 20
-109.7339
  0
SEQEND
  0
POLYLINE
  8
LAYER_1
 40
0.1058
 41
0.1058
 66
1
 10
0
 20
0
 30
0
  0
VERTEX
  8
LAYER_1
 10
132.1902
 20
-110.3308
  0
VERTEX
  8
LAYER_1
 10
132.1902
 20
-110.026
  0
VERTEX
  8
LAYER_1
 10
131.0345
 20
-110.3308
  0
VERTEX
  8
LAYER_1
 10
132.1902
 20
-110.6483
  0
VERTEX
  8
LAYER_1
 10
132.1902
 20
-110.3308
  0
SEQEND
  0
POLYLINE
  8
LAYER_1
 40
0.1058
 41
0.1058
 66
1
 10
0
 20
0
 30
0
  0
VERTEX
  8
LAYER_1
 10
131.0345
 20
-110.3308
  0
VERTEX
  8
LAYER_1
 10
138.7053
 20
-110.3308
  0
SEQEND
  0
POLYLINE
  8
LAYER_1
 40
0.1058
 41
0.1058
 66
1
 10
0
 20
0
 30
0
  0
VERTEX
  8
LAYER_1
 10
137.5496
 20
-110.3308
  0
VERTEX
  8
LAYER_1
 10
137.5496
 20
-110.6483
  0
VERTEX
  8
LAYER_1
 10
138.7053
 20
-110.3308
  0
VERTEX
  8
LAYER_1
 10
137.5496
 20
-110.026
  0
VERTEX
  8
LAYER_1
 10
137.5496
 20
-110.3308
  0
SEQEND
  0
POLYLINE
  8
LAYER_1
 40
0.1058
 41
0.1058
 66
1
 10
0
 20
0
 30
0
  0
VERTEX
  8
LAYER_1
 10
138.7053
 20
-109.7339
  0
VERTEX
  8
LAYER_1
 10
138.7053
 20
-116.9602
  0
SEQEND
  0
POLYLINE
  8
LAYER_1
 40
0.1058
 41
0.1058
 66
1
 10
0
 20
0
 30
0
  0
VERTEX
  8
LAYER_1
 10
111.6924
 20
-107.9432
  0
VERTEX
  8
LAYER_1
 10
105.6726
 20
-105.5048
  0
SEQEND
  0
POLYLINE
  8
LAYER_1
 40
0.1058
 41
0.1058
 66
1
 10
0
 20
0
 30
0
  0
VERTEX
  8
LAYER_1
 10
107.6284
 20
-116.249
  0
VERTEX
  8
LAYER_1
 10
103.5771
 20
-116.249
  0
SEQEND
  0
POLYLINE
  8
LAYER_1
 40
0.1058
 41
0.1058
 66
1
 10
0
 20
0
 30
0
  0
VERTEX
  8
LAYER_1
 10
106.2187
 20
-105.7334
  0
VERTEX
  8
LAYER_1
 10
105.5202
 20
-106.6986
  0
SEQEND
  0
POLYLINE
  8
LAYER_1
 40
0.1058
 41
0.1058
 66
1
 10
0
 20
0
 30
0
  0
VERTEX
  8
LAYER_1
 10
106.2187
 20
-105.7334
  0
VERTEX
  8
LAYER_1
 10
106.1044
 20
-106.9272
  0
SEQEND
  0
POLYLINE
  8
LAYER_1
 40
0.1058
 41
0.1058
 66
1
 10
0
 20
0
 30
0
  0
VERTEX
  8
LAYER_1
 10
105.5202
 20
-106.6986
  0
VERTEX
  8
LAYER_1
 10
106.1044
 20
-106.9272
  0
SEQEND
  0
POLYLINE
  8
LAYER_1
 40
0.1058
 41
0.1058
 66
1
 10
0
 20
0
 30
0
  0
VERTEX
  8
LAYER_1
 10
104.1741
 20
-116.249
  0
VERTEX
  8
LAYER_1
 10
104.5043
 20
-115.0933
  0
SEQEND
  0
POLYLINE
  8
LAYER_1
 40
0.1058
 41
0.1058
 66
1
 10
0
 20
0
 30
0
  0
VERTEX
  8
LAYER_1
 10
104.1741
 20
-116.249
  0
VERTEX
  8
LAYER_1
 10
103.8947
 20
-115.0806
  0
SEQEND
  0
POLYLINE
  8
LAYER_1
 40
0.1058
 41
0.1058
 66
1
 10
0
 20
0
 30
0
  0
VERTEX
  8
LAYER_1
 10
104.5043
 20
-115.0933
  0
VERTEX
  8
LAYER_1
 10
103.8947
 20
-115.0806
  0
SEQEND
  0
POLYLINE
  8
LAYER_1
 40
0.1058
 41
0.1058
 66
1
 10
0
 20
0
 30
0
  0
VERTEX
  8
LAYER_1
 10
106.2188
 20
-105.7334
  0
VERTEX
  8
LAYER_1
 10
106.0028
 20
-106.2922
  0
VERTEX
  8
LAYER_1
 10
105.787
 20
-106.851
  0
VERTEX
  8
LAYER_1
 10
105.5965
 20
-107.4098
  0
VERTEX
  8
LAYER_1
 10
105.4186
 20
-107.994
  0
VERTEX
  8
LAYER_1
 10
105.2408
 20
-108.5655
  0
VERTEX
  8
LAYER_1
 10
105.0884
 20
-109.137
  0
VERTEX
  8
LAYER_1
 10
104.936
 20
-109.7212
  0
VERTEX
  8
LAYER_1
 10
104.8091
 20
-110.3054
  0
VERTEX
  8
LAYER_1
 10
104.6948
 20
-110.8896
  0
VERTEX
  8
LAYER_1
 10
104.5804
 20
-111.4865
  0
VERTEX
  8
LAYER_1
 10
104.4789
 20
-112.0834
  0
VERTEX
  8
LAYER_1
 10
104.4026
 20
-112.6803
  0
VERTEX
  8
LAYER_1
 10
104.3392
 20
-113.2645
  0
VERTEX
  8
LAYER_1
 10
104.2756
 20
-113.8614
  0
VERTEX
  8
LAYER_1
 10
104.2375
 20
-114.471
  0
VERTEX
  8
LAYER_1
 10
104.1995
 20
-115.0679
  0
VERTEX
  8
LAYER_1
 10
104.1741
 20
-115.6648
  0
VERTEX
  8
LAYER_1
 10
104.1741
 20
-116.249
  0
SEQEND
  0
POLYLINE
  8
LAYER_1
 40
0.1058
 41
0.1058
 66
1
 10
0
 20
0
 30
0
  0
VERTEX
  8
LAYER_1
 10
124.6211
 20
-127.9076
  0
VERTEX
  8
LAYER_1
 10
124.6211
 20
-128.2251
  0
VERTEX
  8
LAYER_1
 10
125.7768
 20
-127.9076
  0
VERTEX
  8
LAYER_1
 10
124.6211
 20
-127.6028
  0
VERTEX
  8
LAYER_1
 10
124.6211
 20
-127.9076
  0
SEQEND
  0
POLYLINE
  8
LAYER_1
 40
0.1058
 41
0.1058
 66
1
 10
0
 20
0
 30
0
  0
VERTEX
  8
LAYER_1
 10
125.7768
 20
-127.9076
  0
VERTEX
  8
LAYER_1
 10
122.7796
 20
-127.9076
  0
SEQEND
  0
POLYLINE
  8
LAYER_1
 40
0.1058
 41
0.1058
 66
1
 10
0
 20
0
 30
0
  0
VERTEX
  8
LAYER_1
 10
125.7768
 20
-127.9076
  0
VERTEX
  8
LAYER_1
 10
136.2796
 20
-127.9076
  0
SEQEND
  0
POLYLINE
  8
LAYER_1
 40
0.1058
 41
0.1058
 66
1
 10
0
 20
0
 30
0
  0
VERTEX
  8
LAYER_1
 10
137.448
 20
-127.9076
  0
VERTEX
  8
LAYER_1
 10
137.448
 20
-127.6028
  0
VERTEX
  8
LAYER_1
 10
136.2796
 20
-127.9076
  0
VERTEX
  8
LAYER_1
 10
137.448
 20
-128.2251
  0
VERTEX
  8
LAYER_1
 10
137.448
 20
-127.9076
  0
SEQEND
  0
POLYLINE
  8
LAYER_1
 40
0.1058
 41
0.1058
 66
1
 10
0
 20
0
 30
0
  0
VERTEX
  8
LAYER_1
 10
136.2796
 20
-127.9076
  0
VERTEX
  8
LAYER_1
 10
144.9791
 20
-127.9076
  0
SEQEND
  0
POLYLINE
  8
LAYER_1
 40
0.1058
 41
0.1058
 66
1
 10
0
 20
0
 30
0
  0
VERTEX
  8
LAYER_1
 10
125.1798
 20
-131.87
  0
VERTEX
  8
LAYER_1
 10
110.1176
 20
-131.87
  0
SEQEND
  0
POLYLINE
  8
LAYER_1
 40
0.1058
 41
0.1058
 66
1
 10
0
 20
0
 30
0
  0
VERTEX
  8
LAYER_1
 10
110.7145
 20
-130.7143
  0
VERTEX
  8
LAYER_1
 10
110.4097
 20
-130.7143
  0
VERTEX
  8
LAYER_1
 10
110.7145
 20
-131.87
  0
VERTEX
  8
LAYER_1
 10
111.032
 20
-130.7143
  0
VERTEX
  8
LAYER_1
 10
110.7145
 20
-130.7143
  0
SEQEND
  0
POLYLINE
  8
LAYER_1
 40
0.1058
 41
0.1058
 66
1
 10
0
 20
0
 30
0
  0
VERTEX
  8
LAYER_1
 10
110.7145
 20
-131.87
  0
VERTEX
  8
LAYER_1
 10
110.7145
 20
-128.8728
  0
SEQEND
  0
POLYLINE
  8
LAYER_1
 40
0.1058
 41
0.1058
 66
1
 10
0
 20
0
 30
0
  0
VERTEX
  8
LAYER_1
 10
110.7145
 20
-131.87
  0
VERTEX
  8
LAYER_1
 10
110.7145
 20
-138.1819
  0
SEQEND
  0
POLYLINE
  8
LAYER_1
 40
0.1058
 41
0.1058
 66
1
 10
0
 20
0
 30
0
  0
VERTEX
  8
LAYER_1
 10
110.7145
 20
-139.3376
  0
VERTEX
  8
LAYER_1
 10
111.032
 20
-139.3376
  0
VERTEX
  8
LAYER_1
 10
110.7145
 20
-138.1819
  0
VERTEX
  8
LAYER_1
 10
110.4097
 20
-139.3376
  0
VERTEX
  8
LAYER_1
 10
110.7145
 20
-139.3376
  0
SEQEND
  0
POLYLINE
  8
LAYER_1
 40
0.1058
 41
0.1058
 66
1
 10
0
 20
0
 30
0
  0
VERTEX
  8
LAYER_1
 10
110.7145
 20
-138.1819
  0
VERTEX
  8
LAYER_1
 10
110.7145
 20
-146.8814
  0
SEQEND
  0
POLYLINE
  8
LAYER_1
 40
0.1058
 41
0.1058
 66
1
 10
0
 20
0
 30
0
  0
VERTEX
  8
LAYER_1
 10
110.1177
 20
-138.1819
  0
VERTEX
  8
LAYER_1
 10
125.1799
 20
-138.1819
  0
SEQEND
  0
POLYLINE
  8
LAYER_1
 40
0.1058
 41
0.1058
 66
1
 10
0
 20
0
 30
0
  0
VERTEX
  8
LAYER_1
 10
93.8236
 20
-140.379
  0
VERTEX
  8
LAYER_1
 10
90.7883
 20
-148.7356
  0
SEQEND
  0
POLYLINE
  8
LAYER_1
 40
0.1058
 41
0.1058
 66
1
 10
0
 20
0
 30
0
  0
VERTEX
  8
LAYER_1
 10
94.0395
 20
-140.4171
  0
VERTEX
  8
LAYER_1
 10
94.0395
 20
-149.3071
  0
SEQEND
  0
POLYLINE
  8
LAYER_1
 40
0.1058
 41
0.1058
 66
1
 10
0
 20
0
 30
0
  0
VERTEX
  8
LAYER_1
 10
90.9915
 20
-148.1768
  0
VERTEX
  8
LAYER_1
 10
92.0202
 20
-148.7864
  0
SEQEND
  0
POLYLINE
  8
LAYER_1
 40
0.1058
 41
0.1058
 66
1
 10
0
 20
0
 30
0
  0
VERTEX
  8
LAYER_1
 10
90.9915
 20
-148.1768
  0
VERTEX
  8
LAYER_1
 10
92.198
 20
-148.1895
  0
SEQEND
  0
POLYLINE
  8
LAYER_1
 40
0.1058
 41
0.1058
 66
1
 10
0
 20
0
 30
0
  0
VERTEX
  8
LAYER_1
 10
92.0202
 20
-148.7864
  0
VERTEX
  8
LAYER_1
 10
92.198
 20
-148.1895
  0
SEQEND
  0
POLYLINE
  8
LAYER_1
 40
0.1058
 41
0.1058
 66
1
 10
0
 20
0
 30
0
  0
VERTEX
  8
LAYER_1
 10
94.0395
 20
-148.7102
  0
VERTEX
  8
LAYER_1
 10
92.8965
 20
-148.3165
  0
SEQEND
  0
POLYLINE
  8
LAYER_1
 40
0.1058
 41
0.1058
 66
1
 10
0
 20
0
 30
0
  0
VERTEX
  8
LAYER_1
 10
94.0395
 20
-148.7102
  0
VERTEX
  8
LAYER_1
 10
92.8584
 20
-148.9388
  0
SEQEND
  0
POLYLINE
  8
LAYER_1
 40
0.1058
 41
0.1058
 66
1
 10
0
 20
0
 30
0
  0
VERTEX
  8
LAYER_1
 10
92.8965
 20
-148.3165
  0
VERTEX
  8
LAYER_1
 10
92.8584
 20
-148.9388
  0
SEQEND
  0
POLYLINE
  8
LAYER_1
 40
0.1058
 41
0.1058
 66
1
 10
0
 20
0
 30
0
  0
VERTEX
  8
LAYER_1
 10
90.9915
 20
-148.1768
  0
VERTEX
  8
LAYER_1
 10
91.563
 20
-148.3546
  0
VERTEX
  8
LAYER_1
 10
92.1472
 20
-148.507
  0
VERTEX
  8
LAYER_1
 10
92.7314
 20
-148.6086
  0
VERTEX
  8
LAYER_1
 10
93.341
 20
-148.6721
  0
VERTEX
  8
LAYER_1
 10
93.9379
 20
-148.7102
  0
VERTEX
  8
LAYER_1
 10
94.0395
 20
-148.7102
  0
SEQEND
  0
POLYLINE
  8
LAYER_1
 40
0.1058
 41
0.1058
 66
1
 10
0
 20
0
 30
0
  0
VERTEX
  8
LAYER_1
 10
134.108
 20
-168.1793
  0
VERTEX
  8
LAYER_1
 10
139.8357
 20
-170.605
  0
VERTEX
  8
LAYER_1
 10
150.1226
 20
-170.605
  0
SEQEND
  0
POLYLINE
  8
LAYER_1
 40
0.1058
 41
0.1058
 66
1
 10
0
 20
0
 30
0
  0
VERTEX
  8
LAYER_1
 10
135.1748
 20
-168.6238
  0
VERTEX
  8
LAYER_1
 10
135.289
 20
-168.3317
  0
VERTEX
  8
LAYER_1
 10
134.1079
 20
-168.1793
  0
VERTEX
  8
LAYER_1
 10
135.0604
 20
-168.9159
  0
VERTEX
  8
LAYER_1
 10
135.1748
 20
-168.6238
  0
SEQEND
  0
POLYLINE
  8
LAYER_1
 40
0.1058
 41
0.1058
 66
1
 10
0
 20
0
 30
0
  0
VERTEX
  8
LAYER_1
 10
127.377
 20
-164.1788
  0
VERTEX
  8
LAYER_1
 10
122.6145
 20
-165.5504
  0
SEQEND
  0
POLYLINE
  8
LAYER_1
 40
0.1058
 41
0.1058
 66
1
 10
0
 20
0
 30
0
  0
VERTEX
  8
LAYER_1
 10
126.2594
 20
-164.509
  0
VERTEX
  8
LAYER_1
 10
126.3482
 20
-164.8011
  0
VERTEX
  8
LAYER_1
 10
127.377
 20
-164.1788
  0
VERTEX
  8
LAYER_1
 10
126.1831
 20
-164.2042
  0
VERTEX
  8
LAYER_1
 10
126.2594
 20
-164.509
  0
SEQEND
  0
POLYLINE
  8
LAYER_1
 40
0.1058
 41
0.1058
 66
1
 10
0
 20
0
 30
0
  0
VERTEX
  8
LAYER_1
 10
127.8976
 20
-173.1323
  0
VERTEX
  8
LAYER_1
 10
124.0622
 20
-176.0533
  0
SEQEND
  0
POLYLINE
  8
LAYER_1
 40
0.1058
 41
0.1058
 66
1
 10
0
 20
0
 30
0
  0
VERTEX
  8
LAYER_1
 10
126.9832
 20
-173.8435
  0
VERTEX
  8
LAYER_1
 10
127.161
 20
-174.0848
  0
VERTEX
  8
LAYER_1
 10
127.8976
 20
-173.1323
  0
VERTEX
  8
LAYER_1
 10
126.7927
 20
-173.5895
  0
VERTEX
  8
LAYER_1
 10
126.9832
 20
-173.8435
  0
SEQEND
  0
POLYLINE
  8
LAYER_1
 40
0.1058
 41
0.1058
 66
1
 10
0
 20
0
 30
0
  0
VERTEX
  8
LAYER_1
 10
124.1257
 20
-157.6764
  0
VERTEX
  8
LAYER_1
 10
85.6574
 20
-157.6764
  0
SEQEND
  0
POLYLINE
  8
LAYER_1
 40
0.1058
 41
0.1058
 66
1
 10
0
 20
0
 30
0
  0
VERTEX
  8
LAYER_1
 10
86.2671
 20
-156.5207
  0
VERTEX
  8
LAYER_1
 10
85.9496
 20
-156.5207
  0
VERTEX
  8
LAYER_1
 10
86.2671
 20
-157.6764
  0
VERTEX
  8
LAYER_1
 10
86.5718
 20
-156.5207
  0
VERTEX
  8
LAYER_1
 10
86.2671
 20
-156.5207
  0
SEQEND
  0
POLYLINE
  8
LAYER_1
 40
0.1058
 41
0.1058
 66
1
 10
0
 20
0
 30
0
  0
VERTEX
  8
LAYER_1
 10
86.2671
 20
-157.6764
  0
VERTEX
  8
LAYER_1
 10
86.2671
 20
-139.8202
  0
SEQEND
  0
POLYLINE
  8
LAYER_1
 40
0.1058
 41
0.1058
 66
1
 10
0
 20
0
 30
0
  0
VERTEX
  8
LAYER_1
 10
86.2671
 20
-140.9759
  0
VERTEX
  8
LAYER_1
 10
86.5718
 20
-140.9759
  0
VERTEX
  8
LAYER_1
 10
86.2671
 20
-139.8202
  0
VERTEX
  8
LAYER_1
 10
85.9496
 20
-140.9759
  0
VERTEX
  8
LAYER_1
 10
86.2671
 20
-140.9759
  0
SEQEND
  0
POLYLINE
  8
LAYER_1
 40
0.1058
 41
0.1058
 66
1
 10
0
 20
0
 30
0
  0
VERTEX
  8
LAYER_1
 10
85.6574
 20
-139.8202
  0
VERTEX
  8
LAYER_1
 10
93.4425
 20
-139.8202
  0
SEQEND
  0
POLYLINE
  8
LAYER_1
 40
0.1058
 41
0.1058
 66
1
 10
0
 20
0
 30
0
  0
VERTEX
  8
LAYER_1
 10
124.1257
 20
-157.6764
  0
VERTEX
  8
LAYER_1
 10
78.6851
 20
-157.6764
  0
SEQEND
  0
POLYLINE
  8
LAYER_1
 40
0.1058
 41
0.1058
 66
1
 10
0
 20
0
 30
0
  0
VERTEX
  8
LAYER_1
 10
79.2821
 20
-156.5207
  0
VERTEX
  8
LAYER_1
 10
78.9646
 20
-156.5207
  0
VERTEX
  8
LAYER_1
 10
79.2821
 20
-157.6764
  0
VERTEX
  8
LAYER_1
 10
79.5868
 20
-156.5207
  0
VERTEX
  8
LAYER_1
 10
79.2821
 20
-156.5207
  0
SEQEND
  0
POLYLINE
  8
LAYER_1
 40
0.1058
 41
0.1058
 66
1
 10
0
 20
0
 30
0
  0
VERTEX
  8
LAYER_1
 10
79.2821
 20
-157.6764
  0
VERTEX
  8
LAYER_1
 10
79.2821
 20
-116.3125
  0
SEQEND
  0
POLYLINE
  8
LAYER_1
 40
0.1058
 41
0.1058
 66
1
 10
0
 20
0
 30
0
  0
VERTEX
  8
LAYER_1
 10
79.2821
 20
-117.4682
  0
VERTEX
  8
LAYER_1
 10
79.5868
 20
-117.4682
  0
VERTEX
  8
LAYER_1
 10
79.2821
 20
-116.3125
  0
VERTEX
  8
LAYER_1
 10
78.9646
 20
-117.4682
  0
VERTEX
  8
LAYER_1
 10
79.2821
 20
-117.4682
  0
SEQEND
  0
POLYLINE
  8
LAYER_1
 40
0.1058
 41
0.1058
 66
1
 10
0
 20
0
 30
0
  0
VERTEX
  8
LAYER_1
 10
78.6851
 20
-116.3125
  0
VERTEX
  8
LAYER_1
 10
107.6284
 20
-116.3125
  0
SEQEND
  0
POLYLINE
  8
LAYER_1
 40
0.1058
 41
0.1058
 66
1
 10
0
 20
0
 30
0
  0
VERTEX
  8
LAYER_1
 10
124.1257
 20
-157.6764
  0
VERTEX
  8
LAYER_1
 10
71.5477
 20
-157.6764
  0
SEQEND
  0
POLYLINE
  8
LAYER_1
 40
0.1058
 41
0.1058
 66
1
 10
0
 20
0
 30
0
  0
VERTEX
  8
LAYER_1
 10
72.1573
 20
-156.5207
  0
VERTEX
  8
LAYER_1
 10
71.8398
 20
-156.5207
  0
VERTEX
  8
LAYER_1
 10
72.1573
 20
-157.6764
  0
VERTEX
  8
LAYER_1
 10
72.4621
 20
-156.5207
  0
VERTEX
  8
LAYER_1
 10
72.1573
 20
-156.5207
  0
SEQEND
  0
POLYLINE
  8
LAYER_1
 40
0.1058
 41
0.1058
 66
1
 10
0
 20
0
 30
0
  0
VERTEX
  8
LAYER_1
 10
72.1573
 20
-157.6764
  0
VERTEX
  8
LAYER_1
 10
72.1573
 20
-108.1083
  0
SEQEND
  0
POLYLINE
  8
LAYER_1
 40
0.1058
 41
0.1058
 66
1
 10
0
 20
0
 30
0
  0
VERTEX
  8
LAYER_1
 10
72.1573
 20
-109.264
  0
VERTEX
  8
LAYER_1
 10
72.4621
 20
-109.264
  0
VERTEX
  8
LAYER_1
 10
72.1573
 20
-108.1083
  0
VERTEX
  8
LAYER_1
 10
71.8398
 20
-109.264
  0
VERTEX
  8
LAYER_1
 10
72.1573
 20
-109.264
  0
SEQEND
  0
POLYLINE
  8
LAYER_1
 40
0.1058
 41
0.1058
 66
1
 10
0
 20
0
 30
0
  0
VERTEX
  8
LAYER_1
 10
71.5477
 20
-108.1083
  0
VERTEX
  8
LAYER_1
 10
111.5146
 20
-108.1083
  0
SEQEND
  0
POLYLINE
  8
LAYER_1
 40
0.1058
 41
0.1058
 66
1
 10
0
 20
0
 30
0
  0
VERTEX
  8
LAYER_1
 10
136.8765
 20
-162.1722
  0
VERTEX
  8
LAYER_1
 10
148.4928
 20
-162.1722
  0
SEQEND
  0
POLYLINE
  8
LAYER_1
 40
0.1058
 41
0.1058
 66
1
 10
0
 20
0
 30
0
  0
VERTEX
  8
LAYER_1
 10
147.8832
 20
-163.3279
  0
VERTEX
  8
LAYER_1
 10
148.2007
 20
-163.3279
  0
VERTEX
  8
LAYER_1
 10
147.8832
 20
-162.1722
  0
VERTEX
  8
LAYER_1
 10
147.5784
 20
-163.3279
  0
VERTEX
  8
LAYER_1
 10
147.8832
 20
-163.3279
  0
SEQEND
  0
POLYLINE
  8
LAYER_1
 40
0.1058
 41
0.1058
 66
1
 10
0
 20
0
 30
0
  0
VERTEX
  8
LAYER_1
 10
147.8832
 20
-162.1722
  0
VERTEX
  8
LAYER_1
 10
147.8832
 20
-165.1694
  0
SEQEND
  0
POLYLINE
  8
LAYER_1
 40
0.1058
 41
0.1058
 66
1
 10
0
 20
0
 30
0
  0
VERTEX
  8
LAYER_1
 10
147.8832
 20
-162.1722
  0
VERTEX
  8
LAYER_1
 10
147.8832
 20
-158.2733
  0
SEQEND
  0
POLYLINE
  8
LAYER_1
 40
0.1058
 41
0.1058
 66
1
 10
0
 20
0
 30
0
  0
VERTEX
  8
LAYER_1
 10
147.8832
 20
-157.1176
  0
VERTEX
  8
LAYER_1
 10
147.5784
 20
-157.1176
  0
VERTEX
  8
LAYER_1
 10
147.8832
 20
-158.2733
  0
VERTEX
  8
LAYER_1
 10
148.2007
 20
-157.1176
  0
VERTEX
  8
LAYER_1
 10
147.8832
 20
-157.1176
  0
SEQEND
  0
POLYLINE
  8
LAYER_1
 40
0.1058
 41
0.1058
 66
1
 10
0
 20
0
 30
0
  0
VERTEX
  8
LAYER_1
 10
147.8832
 20
-158.2733
  0
VERTEX
  8
LAYER_1
 10
147.8832
 20
-132.7717
  0
SEQEND
  0
POLYLINE
  8
LAYER_1
 40
0.1058
 41
0.1058
 66
1
 10
0
 20
0
 30
0
  0
VERTEX
  8
LAYER_1
 10
148.4928
 20
-158.2733
  0
VERTEX
  8
LAYER_1
 10
137.4734
 20
-158.2733
  0
SEQEND
  0
POLYLINE
  8
LAYER_1
 40
0.1058
 41
0.1058
 66
1
 10
0
 20
0
 30
0
  0
VERTEX
  8
LAYER_1
 10
137.4734
 20
-155.5809
  0
VERTEX
  8
LAYER_1
 10
137.4734
 20
-146.3734
  0
SEQEND
  0
POLYLINE
  8
LAYER_1
 40
0.1058
 41
0.1058
 66
1
 10
0
 20
0
 30
0
  0
VERTEX
  8
LAYER_1
 10
138.6419
 20
-146.9703
  0
VERTEX
  8
LAYER_1
 10
138.6419
 20
-146.6655
  0
VERTEX
  8
LAYER_1
 10
137.4734
 20
-146.9703
  0
VERTEX
  8
LAYER_1
 10
138.6419
 20
-147.2878
  0
VERTEX
  8
LAYER_1
 10
138.6419
 20
-146.9703
  0
SEQEND
  0
POLYLINE
  8
LAYER_1
 40
0.1058
 41
0.1058
 66
1
 10
0
 20
0
 30
0
  0
VERTEX
  8
LAYER_1
 10
137.4734
 20
-146.9703
  0
VERTEX
  8
LAYER_1
 10
140.4833
 20
-146.9703
  0
SEQEND
  0
POLYLINE
  8
LAYER_1
 40
0.1058
 41
0.1058
 66
1
 10
0
 20
0
 30
0
  0
VERTEX
  8
LAYER_1
 10
137.4734
 20
-146.9703
  0
VERTEX
  8
LAYER_1
 10
124.5829
 20
-146.9703
  0
SEQEND
  0
POLYLINE
  8
LAYER_1
 40
0.1058
 41
0.1058
 66
1
 10
0
 20
0
 30
0
  0
VERTEX
  8
LAYER_1
 10
123.4146
 20
-146.9703
  0
VERTEX
  8
LAYER_1
 10
123.4146
 20
-147.2878
  0
VERTEX
  8
LAYER_1
 10
124.5829
 20
-146.9703
  0
VERTEX
  8
LAYER_1
 10
123.4146
 20
-146.6655
  0
VERTEX
  8
LAYER_1
 10
123.4146
 20
-146.9703
  0
SEQEND
  0
POLYLINE
  8
LAYER_1
 40
0.1058
 41
0.1058
 66
1
 10
0
 20
0
 30
0
  0
VERTEX
  8
LAYER_1
 10
124.5829
 20
-146.9703
  0
VERTEX
  8
LAYER_1
 10
115.8834
 20
-146.9703
  0
SEQEND
  0
POLYLINE
  8
LAYER_1
 40
0.1058
 41
0.1058
 66
1
 10
0
 20
0
 30
0
  0
VERTEX
  8
LAYER_1
 10
124.5829
 20
-146.3734
  0
VERTEX
  8
LAYER_1
 10
124.5829
 20
-155.5809
  0
SEQEND
  0
POLYLINE
  8
LAYER_1
 40
0.1058
 41
0.1058
 66
1
 10
0
 20
0
 30
0
  0
VERTEX
  8
LAYER_1
 10
94.0394
 20
-140.4171
  0
VERTEX
  8
LAYER_1
 10
94.0394
 20
-170.8209
  0
SEQEND
  0
POLYLINE
  8
LAYER_1
 40
0.1058
 41
0.1058
 66
1
 10
0
 20
0
 30
0
  0
VERTEX
  8
LAYER_1
 10
95.1951
 20
-170.224
  0
VERTEX
  8
LAYER_1
 10
95.1951
 20
-169.9192
  0
VERTEX
  8
LAYER_1
 10
94.0394
 20
-170.224
  0
VERTEX
  8
LAYER_1
 10
95.1951
 20
-170.5288
  0
VERTEX
  8
LAYER_1
 10
95.1951
 20
-170.224
  0
SEQEND
  0
POLYLINE
  8
LAYER_1
 40
0.1058
 41
0.1058
 66
1
 10
0
 20
0
 30
0
  0
VERTEX
  8
LAYER_1
 10
94.0394
 20
-170.224
  0
VERTEX
  8
LAYER_1
 10
131.0345
 20
-170.224
  0
SEQEND
  0
POLYLINE
  8
LAYER_1
 40
0.1058
 41
0.1058
 66
1
 10
0
 20
0
 30
0
  0
VERTEX
  8
LAYER_1
 10
129.8661
 20
-170.224
  0
VERTEX
  8
LAYER_1
 10
129.8661
 20
-170.5288
  0
VERTEX
  8
LAYER_1
 10
131.0345
 20
-170.224
  0
VERTEX
  8
LAYER_1
 10
129.8661
 20
-169.9192
  0
VERTEX
  8
LAYER_1
 10
129.8661
 20
-170.224
  0
SEQEND
  0
INSERT
  8
LAYER_6
  2
AIGNBL06010002
 10
0
 20
0
 30
0
  0
POLYLINE
  8
LAYER_6
 40
0.3528
 41
0.3528
 66
1
 10
0
 20
0
 30
0
  0
VERTEX
  8
LAYER_6
 10
34.7876
 20
-258.3332
  0
VERTEX
  8
LAYER_6
 10
229.7955
 20
-258.3332
  0
VERTEX
  8
LAYER_6
 10
229.7955
 20
21.6583
  0
VERTEX
  8
LAYER_6
 10
34.7876
 20
21.6583
  0
VERTEX
  8
LAYER_6
 10
34.7876
 20
-258.3332
  0
SEQEND
  0
TEXT
  8
LAYER_6
 10
166.4505
 20
-248.7955
 11
166.4505
 21
-248.7955
 40
3.3853
 41
0.5
  1
●TEL 0120-65-1232●FAX 06-6532-1580
  0
TEXT
  8
LAYER_6
 10
166.4505
 20
-252.3102
 11
166.4505
 21
-252.3102
 40
3.3853
 41
0.5
  1
hits@hiratatile.co.jp
  0
TEXT
  8
LAYER_6
 10
218.9756
 20
18.4461
 11
218.9756
 21
18.4461
 40
2.0732
 41
0.5
  1
190703RT
  0
TEXT
  8
LAYER_6
 10
37.8495
 20
-250.3797
 11
37.8495
 21
-250.3797
 40
3.2995
 41
0.5
  1
仕様
  0
POLYLINE
  8
LAYER_6
 40
0.3528
 41
0.3528
 66
1
 10
0
 20
0
 30
0
  0
VERTEX
  8
LAYER_6
 10
229.7955
 20
-241.6001
  0
VERTEX
  8
LAYER_6
 10
34.7874
 20
-241.6001
  0
SEQEND
  0
POLYLINE
  8
LAYER_6
 40
0.3528
 41
0.3528
 66
1
 10
0
 20
0
 30
0
  0
VERTEX
  8
LAYER_6
 10
229.7955
 20
-233.091
  0
VERTEX
  8
LAYER_6
 10
34.7874
 20
-233.091
  0
SEQEND
  0
TEXT
  8
LAYER_6
 10
35.9444
 20
-235.5675
 11
35.9444
 21
-235.5675
 40
2.1997
 41
0.5
  1
品名
  0
TEXT
  8
LAYER_6
 10
48.7579
 20
-238.6599
 11
48.7579
 21
-238.6599
 40
3.6373
 41
0.5
  1
シングルレバー洗面単水栓
  0
TEXT
  8
LAYER_6
 10
48.4217
 20
-250.3883
 11
48.4217
 21
-250.3883
 40
3.1177
 41
0.5
  1
●排水金具別途
  0
TEXT
  8
LAYER_6
 10
136.1566
 20
-235.5677
 11
136.1566
 21
-235.5677
 40
2.1997
 41
0.5
  1
品番
  0
TEXT
  8
LAYER_6
 10
142.1786
 20
-238.9121
 11
142.1786
 21
-238.9121
 40
5.3134
 41
0.5
  1
TD-ML054-（BL）(WH)
  0
ENDSEC
  0
EOF
