  0
SECTION
  2
HEADER
  9
$ACADVER
  1
AC1009
  9
$INSBASE
 10
0
 20
0
 30
0
  9
$EXTMIN
 10
0
 20
0
  9
$EXTMAX
 10
1485
 20
1050
  9
$LIMMIN
 10
0
 20
0
  9
$LIMMAX
 10
1485
 20
1050
  9
$LTSCALE
 40
5
  0
ENDSEC
  0
SECTION
  2
TABLES
  0
TABLE
  2
LTYPE
 70
     9
  0
LTYPE
  2
CONTINUOUS
 70
    64
  3
実線
 72
    65
 73
     0
 40
0.0
  0
LTYPE
  2
DASHED1
 70
    64
  3
--  --  --  --  --  --  --  --  
 72
    65
 73
     2
 40
2.5
 49
1.25
 49
-1.25
  0
LTYPE
  2
DASHED2
 70
    64
  3
----    ----    ----    ----    
 72
    65
 73
     2
 40
5.0
 49
2.5
 49
-2.5
  0
LTYPE
  2
DASHED3
 70
    64
  3
------  ------  ------  ------  
 72
    65
 73
     2
 40
5.0
 49
3.75
 49
-1.25
  0
LTYPE
  2
CENTER1
 70
    64
  3
----- - ----- - ----- - ----- - 
 72
    65
 73
     4
 40
10.0
 49
6.25
 49
-1.25
 49
1.25
 49
-1.25
  0
LTYPE
  2
CENTER2
 70
    64
  3
----------  --  ----------  --  
 72
    65
 73
     4
 40
20.0
 49
12.5
 49
-2.5
 49
2.5
 49
-2.5
  0
LTYPE
  2
PHANTOM1
 70
    64
  3
--- - - --- - - --- - - --- - - 
 72
    65
 73
     6
 40
10.0
 49
3.25
 49
-1.25
 49
1.25
 49
-1.25
 49
1.25
 49
-1.25
  0
LTYPE
  2
PHANTOM2
 70
    64
  3
--------  -  -  --------  -  -  
 72
    65
 73
     6
 40
20.0
 49
10.0
 49
-2.5
 49
1.25
 49
-2.5
 49
1.25
 49
-2.5
  0
LTYPE
  2
DOT
 70
    64
  3
-   -   -   -   -   -   -   -   
 72
    65
 73
     2
 40
2.5
 49
0.625
 49
-1.875
  0
LTYPE
  2
DUMMY
 70
    64
  3
ダミー
 72
    65
 73
     0
 40
0.0
  0
LTYPE
  2
RAND1
 70
    64
  3
ランダム線1
 72
    65
 73
     4
 40
10.0
 49
1.0
 49
-2.0
 49
3.0
 49
-4.0
  0
LTYPE
  2
RAND2
 70
    64
  3
ランダム線2
 72
    65
 73
     4
 40
14.0
 49
2.0
 49
-3.0
 49
4.0
 49
-5.0
  0
LTYPE
  2
RAND3
 70
    64
  3
ランダム線3
 72
    65
 73
     4
 40
18.0
 49
3.0
 49
-4.0
 49
5.0
 49
-6.0
  0
LTYPE
  2
RAND4
 70
    64
  3
ランダム線4
 72
    65
 73
     4
 40
22.0
 49
4.0
 49
-5.0
 49
6.0
 49
-7.0
  0
LTYPE
  2
RAND5
 70
    64
  3
ランダム線5
 72
    65
 73
     4
 40
26.0
 49
5.0
 49
-6.0
 49
7.0
 49
-8.0
  0
LTYPE
  2
LONG1
 70
    64
  3
----------  --  ----------  --  
 72
    65
 73
     4
 40
40.0
 49
32.5
 49
-2.5
 49
2.5
 49
-2.5
  0
LTYPE
  2
LONG2
 70
    64
  3
--------  -  -  --------  -  -  
 72
    65
 73
     6
 40
40.0
 49
30.0
 49
-2.5
 49
1.25
 49
-2.5
 49
1.25
 49
-2.5
  0
LTYPE
  2
LONG3
 70
    64
  3
+++++++++++++++..+++++++++++++++
 72
    65
 73
     2
 40
40.0
 49
37.5
 49
-2.5
  0
LTYPE
  2
LONG4
 70
    64
  3
+++++++++++++++..+++++++++++++++
 72
    65
 73
     2
 40
80.0
 49
75.0
 49
-5.0
  0
LTYPE
  2
LONG5
 70
    64
  3
----------  --  ----------  --  
 72
    65
 73
     4
 40
60.0
 49
37.5
 49
-7.5
 49
7.5
 49
-7.5
  0
LTYPE
  2
dashed
 70
   64
  3
-------   -------------   ------
 72
   65
 73
    2
 40
7.5
 49
6
 49
-1.5
  0
LTYPE
  2
dashed_spaced
 70
   64
  3
----        --------        ----
 72
   65
 73
    2
 40
12
 49
6
 49
-6
  0
LTYPE
  2
long_dashed_dotted
 70
   64
  3
------------- --- --------------
 72
   65
 73
    4
 40
15.25
 49
12
 49
-1.5
 49
0.25
 49
-1.5
  0
LTYPE
  2
long_dashed_double-dotted
 70
   64
  3
----------- --- --- ------------
 72
   65
 73
    6
 40
17
 49
12
 49
-1.5
 49
0.25
 49
-1.5
 49
0.25
 49
-1.5
  0
LTYPE
  2
long_dashed_triplicate-dotted
 70
   64
  3
--------- --- --- --- ----------
 72
   65
 73
    8
 40
18.75
 49
12
 49
-1.5
 49
0.25
 49
-1.5
 49
0.25
 49
-1.5
 49
0.25
 49
-1.5
  0
LTYPE
  2
dotted
 70
   64
  3
   -       -       -       -    
 72
   65
 73
    2
 40
1.75
 49
0.25
 49
-1.5
  0
LTYPE
  2
chain
 70
   64
  3
-------------- -- --------------
 72
   65
 73
    4
 40
18.5
 49
12
 49
-1.5
 49
3.5
 49
-1.5
  0
LTYPE
  2
chain_double_dash
 70
   64
  3
------------ -- -- -------------
 72
   65
 73
    6
 40
23.5
 49
12
 49
-1.5
 49
3.5
 49
-1.5
 49
3.5
 49
-1.5
  0
LTYPE
  2
dashed_dotted
 70
   64
  3
-----------     -     ----------
 72
   65
 73
    4
 40
9.25
 49
6
 49
-1.5
 49
0.25
 49
-1.5
  0
LTYPE
  2
double-dashed_dotted
 70
   64
  3
------   -----------   -   -----
 72
   65
 73
    6
 40
16.75
 49
6
 49
-1.5
 49
6
 49
-1.5
 49
0.25
 49
-1.5
  0
LTYPE
  2
dashed_double-dotted
 70
   64
  3
---------    -    -    ---------
 72
   65
 73
    6
 40
11
 49
6
 49
-1.5
 49
0.25
 49
-1.5
 49
0.25
 49
-1.5
  0
LTYPE
  2
double-dashed_double-dotted
 70
   64
  3
-----   ---------   -   -   ----
 72
   65
 73
    8
 40
18.5
 49
6
 49
-1.5
 49
6
 49
-1.5
 49
0.25
 49
-1.5
 49
0.25
 49
-1.5
  0
LTYPE
  2
dashed_triplicate-dotted
 70
   64
  3
-------    -    -    -    ------
 72
   65
 73
    8
 40
12.75
 49
6
 49
-1.5
 49
0.25
 49
-1.5
 49
0.25
 49
-1.5
 49
0.25
 49
-1.5
  0
LTYPE
  2
double-dashed_triplicate-dotted
 70
   64
  3
-----  ---------  -  -  -  -----
 72
   65
 73
   10
 40
20.25
 49
6
 49
-1.5
 49
6
 49
-1.5
 49
0.25
 49
-1.5
 49
0.25
 49
-1.5
 49
0.25
 49
-1.5
  0
LTYPE
  2
undefined
 70
   64
  3
--------------------------------
 72
   65
 73
    0
 40
0
  0
LTYPE
  2
STYLE_01
 70
   64
  3
----        --------        ----
 72
   65
 73
    2
 40
0.4166399999999997
 49
0.2082799999999999
 49
-0.2083599999999999
  0
LTYPE
  2
STYLE_02
 70
   64
  3
------     -----------     -----
 72
   65
 73
    2
 40
0.694425
 49
0.48607
 49
-0.2083550000000001
  0
LTYPE
  2
STYLE_03
 70
   64
  3
-------   -------------   ------
 72
   65
 73
    2
 40
1.25
 49
1.0416400000000001
 49
-0.2083599999999999
  0
LTYPE
  2
STYLE_04
 70
   64
  3
-------  --------------  -------
 72
   65
 73
    2
 40
1.5277099999999999
 49
1.3194249999999998
 49
-0.208285
  0
LTYPE
  2
STYLE_05
 70
   64
  3
---           -----           --
 72
   65
 73
    2
 40
0.20828
 49
0.069425
 49
-0.138855
  0
LTYPE
  2
STYLE_06
 70
   64
  3
----------      --    ----------
 72
   65
 73
    4
 40
1.0416399999999999
 49
0.625
 49
-0.2082799999999999
 49
0.06943
 49
-0.13893
  0
LTYPE
  2
STYLE_07
 70
   64
  3
-----    -----------    -  -----
 72
   65
 73
    6
 40
1.8749999999999998
 49
0.625
 49
-0.2082799999999999
 49
0.6250000000000001
 49
-0.2083599999999999
 49
0.06943
 49
-0.1389299999999998
  0
LTYPE
  2
STYLE_08
 70
   64
  3
--------     --    --    -------
 72
   65
 73
    6
 40
1.2499999999999996
 49
0.625
 49
-0.2082799999999999
 49
0.06943
 49
-0.13893
 49
0.0694299999999997
 49
-0.13893
  0
LTYPE
  2
STYLE_09
 70
   64
  3
------------  ----  ------------
 72
   65
 73
    4
 40
5
 49
3.75
 49
-0.2777849999999997
 49
0.6944300000000003
 49
-0.2777849999999997
  0
LTYPE
  2
STYLE_10
 70
   64
  3
----------- ---- ---  ----------
 72
   65
 73
    6
 40
5.9375
 49
3.75
 49
-0.2777849999999997
 49
0.6944300000000003
 49
-0.2777849999999997
 49
0.625
 49
-0.3125
  0
ENDTAB
  0
TABLE
  2
STYLE
  5
3
100
AcDbSymbolTable
 70
     1
  0
STYLE
  5
10
100
AcDbSymbolTableRecord
100
AcDbTextStyleTableRecord
  2
STANDARD
 70
     0
 40
0.0
 41
1.0
 50
0.0
 71
     0
 42
0.2
  3
txt
  4
bigfont.shx
  0
STYLE
  5
26
100
AcDbSymbolTableRecord
100
AcDbTextStyleTableRecord
  2
TATEGAKI
 70
    68
 40
0.0
 41
1.0
 50
0.0
 71
     0
 42
1.0
  3
txt
  4
bigfont.shx
  0
ENDTAB
  0
TABLE
  2
LAYER
 70
    5
  0
LAYER
  2
_0-0_0
 70
   64
 62
    7
  6
CONTINUOUS
  0
LAYER
  2
_0-1_1_5
 70
   64
 62
    7
  6
CONTINUOUS
  0
LAYER
  2
_0-2_ADD_LINE
 70
   64
 62
    7
  6
CONTINUOUS
  0
LAYER
  2
_0-3_
 70
   64
 62
    7
  6
CONTINUOUS
  0
LAYER
  2
ADD_LINE
 70
   64
 62
    7
  6
CONTINUOUS
  0
ENDTAB
  0
ENDSEC
  0
SECTION
  2
BLOCKS
  0
ENDSEC
  0
SECTION
  2
ENTITIES
  0
LINE
  8
_0-0_0
  6
CONTINUOUS
 62
    7
 10
-217.54976684701688
 20
-210.60157479105314
 11
1267.4502331529832
 21
-210.60157479105328
  0
LINE
  8
_0-0_0
  6
CONTINUOUS
 62
    7
 10
-217.54976684701688
 20
839.39842520894683
 11
-217.54976684701688
 21
-210.60157479105314
  0
LINE
  8
_0-0_0
  6
CONTINUOUS
 62
    7
 10
1267.4502331529832
 20
839.39842520894672
 11
-217.54976684701688
 21
839.39842520894683
  0
LINE
  8
_0-0_0
  6
CONTINUOUS
 62
    7
 10
1267.4502331529832
 20
-210.60157479105328
 11
1267.4502331529832
 21
839.39842520894672
  0
TEXT
  8
_0-3_
 62
    7
 10
303.1435361858484
 20
-157.2512975909325
 40
10
 41
1
 50
0
  1
材質
  0
TEXT
  8
_0-3_
 62
    7
 10
303.1435361858484
 20
-126.04446365427265
 40
10
 41
1
 50
0
  1
仕上げ
  0
TEXT
  8
_0-3_
 62
    7
 10
303.1435361858484
 20
-96.397971414445891
 40
10
 41
1
 50
0
  1
品名
  0
LINE
  8
_0-3_
  6
CONTINUOUS
 62
    7
 10
763.33333330012067
 20
-172.00135367935019
 11
763.33333330012067
 21
-82.001353679350046
  0
LINE
  8
_0-3_
  6
CONTINUOUS
 62
    7
 10
1230.0000000001207
 20
-82.001353679350046
 11
295.76393721191187
 21
-82.001353679350046
  0
LINE
  8
_0-3_
  6
CONTINUOUS
 62
    7
 10
1230.0000000001207
 20
-112.00135367935005
 11
295.76393721191187
 21
-112.00135367935005
  0
LINE
  8
_0-3_
  6
CONTINUOUS
 62
    7
 10
1230.0000000001207
 20
-142.00135367935005
 11
295.76393721191187
 21
-142.00135367935005
  0
LINE
  8
_0-3_
  6
CONTINUOUS
 62
    7
 10
295.76393721191187
 20
-172.00135367935005
 11
295.76393721191187
 21
-82.001353679350046
  0
TEXT
  8
_0-3_
 62
    7
 10
769.76611673267166
 20
-97.65079861352163
 40
10
 41
1
 50
0
  1
品番
  0
TEXT
  8
_0-3_
 62
    7
 10
769.76611673267166
 20
-126.84760541025184
 40
10
 41
1
 50
0
  1
縮尺
  0
TEXT
  8
_0-3_
 62
    7
 10
337.91727686287811
 20
-135.47238338108698
 40
15.270385742187502
 41
1
 50
0
  1
ポリッシュ
  0
TEXT
  8
_0-3_
 62
    7
 10
337.91727686287811
 20
-165.72561040232628
 40
15.270385742187502
 41
1
 50
0
  1
ステンレススチール
  0
TEXT
  8
_0-3_
 62
    7
 10
805.64122881175172
 20
-135.00091580972281
 40
15.270385742187502
 41
1
 50
0
  1
1/5
  0
LINE
  8
_0-3_
  6
CONTINUOUS
 62
    7
 10
-169.99999999987921
 20
-172.00135367935005
 11
1230.0000000001207
 21
-172.00135367935019
  0
LINE
  8
_0-3_
  6
CONTINUOUS
 62
    7
 10
1230.0000000001207
 20
-172.00135367935019
 11
1230.0000000001207
 21
802.9986463206501
  0
LINE
  8
_0-3_
  6
CONTINUOUS
 62
    7
 10
1230.0000000001207
 20
802.9986463206501
 11
-169.99999999987921
 21
802.99864632065021
  0
LINE
  8
_0-3_
  6
CONTINUOUS
 62
    7
 10
-169.99999999987921
 20
802.99864632065021
 11
-169.99999999987921
 21
-172.00135367935005
  0
TEXT
  8
_0-3_
 62
    7
 10
-167.22023496641157
 20
-191.8129578821069
 40
12.5
 41
1
 50
0
  1
120718SH
  0
TEXT
  8
_0-3_
 62
    7
 10
337.91727686287811
 20
-104.70437403928486
 40
15.270385742187502
 41
1
 50
0
  1
タオルバー
  0
TEXT
  8
_0-3_
 62
    7
 10
803.94170045940814
 20
-164.33549933780753
 40
15.5
 41
1
 50
0
  1
大洋金物株式会社  ティーエフプラス事業部
  0
POINT
  8
_0-2_ADD_LINE
 62
    7
 10
917.83951570662634
 20
477.00300722917791
  0
POINT
  8
_0-2_ADD_LINE
 62
    7
 10
917.83951570662634
 20
461.00300722917825
  0
LINE
  8
_0-3_
  6
CONTINUOUS
 62
    7
 10
917.83951570662634
 20
477.00300722917791
 11
917.83951570662634
 21
461.00300722917825
  0
TEXT
  8
_0-2_ADD_LINE
 62
    4
 10
915.33951570662634
 20
462.75300722917802
 40
12.5
 41
1
 50
90
  1
16
  0
LINE
  8
_0-2_ADD_LINE
  6
CONTINUOUS
 62
    7
 10
917.83951570662634
 20
461.00300722917825
 11
946.56488824055054
 21
461.00300722917825
  0
LINE
  8
_0-2_ADD_LINE
  6
CONTINUOUS
 62
    7
 10
917.83951570662634
 20
477.00300722917791
 11
946.564888240551
 21
477.00300722917791
  0
POINT
  8
_0-2_ADD_LINE
 62
    7
 10
675.14465793650811
 20
509.24944838592114
  0
LINE
  8
_0-2_ADD_LINE
  6
CONTINUOUS
 62
    7
 10
675.14465793650811
 20
509.24944838592114
 11
675.14465793650811
 21
481.44185941386979
  0
POINT
  8
_0-2_ADD_LINE
 62
    7
 10
683.14465793650834
 20
538.67927618395368
  0
LINE
  8
_0-2_ADD_LINE
  6
CONTINUOUS
 62
    7
 10
683.14465793650834
 20
538.67927618395368
 11
683.14465793650834
 21
486.44185941386945
  0
POINT
  8
_0-2_ADD_LINE
 62
    7
 10
712.85234921373672
 20
218.58307393488724
  0
POINT
  8
_0-2_ADD_LINE
 62
    7
 10
712.85234921373672
 20
148.58307393488715
  0
LINE
  8
_0-2_ADD_LINE
  6
CONTINUOUS
 62
    7
 10
712.85234921373672
 20
218.58307393488724
 11
693.14465793650834
 21
218.58307393488724
  0
LINE
  8
_0-2_ADD_LINE
  6
CONTINUOUS
 62
    7
 10
712.85234921373672
 20
148.58307393488715
 11
692.64465793650811
 21
148.58307393488715
  0
LINE
  8
_0-3_
  6
CONTINUOUS
 62
    7
 10
712.85234921373672
 20
218.58307393488724
 11
712.85234921373672
 21
148.58307393488715
  0
TEXT
  8
_0-2_ADD_LINE
 62
    4
 10
710.35234921373672
 20
177.33307393488715
 40
12.5
 41
1
 50
90
  1
70
  0
LINE
  8
_0-1_1_5
  6
STYLE_05
 62
    7
 10
667.14465793650834
 20
476.94185941386945
 11
667.14465793650834
 21
460.94185941387013
  0
LINE
  8
_0-1_1_5
  6
CONTINUOUS
 62
    7
 10
675.14465793650811
 20
471.44185941386979
 11
675.14465793650811
 21
466.44185941386979
  0
LINE
  8
_0-1_1_5
  6
CONTINUOUS
 62
    7
 10
672.64465793650811
 20
468.94185941386979
 11
677.64465793650811
 21
468.94185941386979
  0
LINE
  8
_0-1_1_5
  6
CONTINUOUS
 62
    7
 10
682.64465793650811
 20
476.94185941386945
 11
683.14465793650834
 21
476.44185941386945
  0
LINE
  8
_0-1_1_5
  6
CONTINUOUS
 62
    7
 10
683.14465793650834
 20
476.44185941386945
 11
683.14465793650834
 21
461.44185941387013
  0
LINE
  8
_0-1_1_5
  6
CONTINUOUS
 62
    7
 10
683.14465793650834
 20
461.44185941387013
 11
682.64465793650811
 21
460.94185941387013
  0
LINE
  8
_0-1_1_5
  6
CONTINUOUS
 62
    7
 10
683.14465793650834
 20
151.01216276151845
 11
683.14465793650834
 21
149.08307393488727
  0
LINE
  8
_0-1_1_5
  6
CONTINUOUS
 62
    7
 10
683.14465793650834
 20
156.58307393488727
 11
683.14465793650834
 21
151.01216276151845
  0
LINE
  8
_0-1_1_5
  6
CONTINUOUS
 62
    7
 10
682.64465793650811
 20
148.58307393488715
 11
683.14465793650834
 21
149.08307393488727
  0
LINE
  8
_0-1_1_5
  6
CONTINUOUS
 62
    7
 10
667.14465793650834
 20
156.58307393488727
 11
667.14465793650834
 21
218.58307393488724
  0
LINE
  8
_0-1_1_5
  6
CONTINUOUS
 62
    7
 10
683.14465793650834
 20
156.58307393488727
 11
667.14465793650834
 21
156.58307393488727
  0
LINE
  8
_0-1_1_5
  6
CONTINUOUS
 62
    7
 10
683.14465793650834
 20
218.58307393488724
 11
683.14465793650834
 21
156.58307393488727
  0
LINE
  8
_0-1_1_5
  6
CONTINUOUS
 62
    7
 10
667.14465793650834
 20
218.58307393488724
 11
683.14465793650834
 21
218.58307393488724
  0
CIRCLE
  8
_0-1_1_5
  6
CONTINUOUS
 62
    7
 10
956.564888240551
 20
469.00300722917814
 40
7.9999999999999849
  0
CIRCLE
  8
_0-1_1_5
  6
CONTINUOUS
 62
    7
 10
956.564888240551
 20
469.00300722917814
 40
7.5000000000000613
  0
LINE
  8
_0-1_1_5
  6
CONTINUOUS
 62
    7
 10
956.56488824055054
 20
477.00300722917791
 11
1018.5648882405499
 21
477.00300722917791
  0
LINE
  8
_0-1_1_5
  6
CONTINUOUS
 62
    7
 10
1018.5648882405499
 20
477.00300722917791
 11
1018.5648882405499
 21
461.00300722917825
  0
LINE
  8
_0-1_1_5
  6
CONTINUOUS
 62
    7
 10
1018.5648882405499
 20
461.00300722917825
 11
956.56488824055054
 21
461.00300722917825
  0
LINE
  8
_0-1_1_5
  6
CONTINUOUS
 62
    7
 10
1052.513935386783
 20
469.00300722917802
 11
1046.8890046278639
 21
470.75290922347398
  0
LINE
  8
_0-1_1_5
  6
CONTINUOUS
 62
    7
 10
1052.513935386783
 20
469.00300722917802
 11
1046.8890046278639
 21
467.25310523488218
  0
LINE
  8
_0-1_1_5
  6
CONTINUOUS
 62
    7
 10
1008.3149862462541
 20
467.25310523488218
 11
1046.8890046278639
 21
467.25310523488218
  0
LINE
  8
_0-1_1_5
  6
CONTINUOUS
 62
    7
 10
1008.351808523181
 20
470.75290922347398
 11
1046.8884506992163
 21
470.75290922347398
  0
LINE
  8
_0-1_1_5
  6
CONTINUOUS
 62
    7
 10
1020.1705835229986
 20
467.36991548792605
 11
1021.576816212729
 21
470.86971947651784
  0
LINE
  8
_0-1_1_5
  6
CONTINUOUS
 62
    7
 10
1021.576816212729
 20
467.36991548792605
 11
1022.9830489024584
 21
470.86971947651784
  0
LINE
  8
_0-1_1_5
  6
CONTINUOUS
 62
    7
 10
1022.9830489024584
 20
467.36991548792605
 11
1024.3892815921881
 21
470.86971947651784
  0
LINE
  8
_0-1_1_5
  6
CONTINUOUS
 62
    7
 10
1024.3892815921881
 20
467.36991548792605
 11
1025.7955142819176
 21
470.86971947651784
  0
LINE
  8
_0-1_1_5
  6
CONTINUOUS
 62
    7
 10
1025.7955142819176
 20
467.36991548792605
 11
1027.2017469716479
 21
470.86971947651784
  0
LINE
  8
_0-1_1_5
  6
CONTINUOUS
 62
    7
 10
1031.4204450408372
 20
467.36991548792605
 11
1032.8266777305669
 21
470.86971947651784
  0
LINE
  8
_0-1_1_5
  6
CONTINUOUS
 62
    7
 10
1032.8266777305669
 20
467.36991548792605
 11
1034.2329104202965
 21
470.86971947651784
  0
LINE
  8
_0-1_1_5
  6
CONTINUOUS
 62
    7
 10
1034.2329104202965
 20
467.36991548792605
 11
1035.639143110026
 21
470.86971947651784
  0
LINE
  8
_0-1_1_5
  6
CONTINUOUS
 62
    7
 10
1035.639143110026
 20
467.36991548792605
 11
1037.0453757997557
 21
470.86971947651784
  0
LINE
  8
_0-1_1_5
  6
CONTINUOUS
 62
    7
 10
1037.0453757997557
 20
467.36991548792605
 11
1038.4516084894858
 21
470.86971947651784
  0
LINE
  8
_0-1_1_5
  6
CONTINUOUS
 62
    7
 10
1038.4516084894858
 20
467.36991548792605
 11
1039.8578411792155
 21
470.86971947651784
  0
LINE
  8
_0-1_1_5
  6
CONTINUOUS
 62
    7
 10
1039.8578411792155
 20
467.36991548792605
 11
1041.2640738689449
 21
470.86971947651784
  0
LINE
  8
_0-1_1_5
  6
CONTINUOUS
 62
    7
 10
1027.2017469716479
 20
467.36991548792605
 11
1028.6079796613774
 21
470.86971947651784
  0
LINE
  8
_0-1_1_5
  6
CONTINUOUS
 62
    7
 10
1041.2640738689449
 20
467.36991548792605
 11
1042.6703065586751
 21
470.86971947651784
  0
LINE
  8
_0-1_1_5
  6
CONTINUOUS
 62
    7
 10
1044.0765392484047
 20
467.36991548792605
 11
1045.4827719381344
 21
470.86971947651784
  0
LINE
  8
_0-1_1_5
  6
CONTINUOUS
 62
    7
 10
1045.4827719381344
 20
467.36991548792605
 11
1046.8890046278639
 21
470.86971947651784
  0
LINE
  8
_0-1_1_5
  6
CONTINUOUS
 62
    7
 10
1042.6703065586751
 20
467.36991548792605
 11
1044.0765392484047
 21
470.86971947651784
  0
LINE
  8
_0-1_1_5
  6
CONTINUOUS
 62
    7
 10
1028.6079796613774
 20
467.36991548792605
 11
1030.0142123511071
 21
470.86971947651784
  0
LINE
  8
_0-1_1_5
  6
STYLE_01
 62
    7
 10
1017.3643508332692
 20
467.36991548792605
 11
1018.7705835229988
 21
470.86971947651784
  0
LINE
  8
_0-1_1_5
  6
STYLE_01
 62
    7
 10
1015.9643508332694
 20
467.36991548792605
 11
1017.3705835229989
 21
470.86971947651784
  0
LINE
  8
_0-1_1_5
  6
STYLE_01
 62
    7
 10
1014.5643508332694
 20
467.36991548792605
 11
1015.9705835229989
 21
470.86971947651784
  0
LINE
  8
_0-1_1_5
  6
STYLE_01
 62
    7
 10
1013.1643508332695
 20
467.36991548792605
 11
1014.5705835229991
 21
470.86971947651784
  0
LINE
  8
_0-1_1_5
  6
STYLE_01
 62
    7
 10
1011.7643508332696
 20
467.36991548792605
 11
1013.1705835229991
 21
470.86971947651784
  0
LINE
  8
_0-1_1_5
  6
STYLE_01
 62
    7
 10
1010.3643508332696
 20
467.36991548792605
 11
1011.7705835229992
 21
470.86971947651784
  0
LINE
  8
_0-1_1_5
  6
STYLE_01
 62
    7
 10
1008.9643508332694
 20
467.36991548792605
 11
1010.3705835229994
 21
470.86971947651784
  0
LINE
  8
_0-1_1_5
  6
STYLE_01
 62
    7
 10
1008.3149862462542
 20
469.23808199516861
 11
1008.9705835229989
 21
470.86971947651784
  0
LINE
  8
_0-1_1_5
  6
STYLE_01
 62
    7
 10
1006.5648882405503
 20
472.50300722917808
 11
1008.3149862462542
 21
470.75290922347398
  0
LINE
  8
_0-1_1_5
  6
STYLE_01
 62
    7
 10
1006.5648882405503
 20
465.50300722917814
 11
1008.3149862462541
 21
467.25310523488218
  0
LINE
  8
_0-1_1_5
  6
STYLE_01
 62
    7
 10
1008.3149862462542
 20
470.75290922347398
 11
1008.3149862462542
 21
467.25310523488218
  0
LINE
  8
_0-1_1_5
  6
CONTINUOUS
 62
    7
 10
1018.7643508332692
 20
467.36991548792605
 11
1020.1705835229986
 21
470.86971947651784
  0
LINE
  8
_0-1_1_5
  6
STYLE_01
 62
    7
 10
1014.0648882405503
 20
474.00300722917802
 11
1018.5648882405499
 21
474.00300722917802
  0
LINE
  8
_0-1_1_5
  6
STYLE_01
 62
    7
 10
1018.5648882405499
 20
474.00300722917802
 11
1018.5648882405499
 21
464.00300722917802
  0
LINE
  8
_0-1_1_5
  6
STYLE_01
 62
    7
 10
1018.5648882405499
 20
464.00300722917802
 11
1014.0648882405503
 21
464.00300722917802
  0
LINE
  8
_0-1_1_5
  6
STYLE_01
 62
    7
 10
1011.0648882405499
 20
464.00300722917802
 11
1006.5648882405503
 21
464.00300722917802
  0
LINE
  8
_0-1_1_5
  6
STYLE_01
 62
    7
 10
1006.5648882405503
 20
464.00300722917802
 11
1006.5648882405503
 21
474.00300722917802
  0
LINE
  8
_0-1_1_5
  6
STYLE_01
 62
    7
 10
1006.5648882405503
 20
474.00300722917802
 11
1011.0648882405499
 21
474.00300722917802
  0
LINE
  8
_0-1_1_5
  6
STYLE_01
 62
    7
 10
1011.0648882405499
 20
464.00300722917802
 11
1012.56488824055
 21
465.50300722917802
  0
LINE
  8
_0-1_1_5
  6
STYLE_01
 62
    7
 10
1014.0648882405503
 20
464.00300722917802
 11
1012.56488824055
 21
465.50300722917802
  0
LINE
  8
_0-1_1_5
  6
STYLE_01
 62
    7
 10
1011.0648882405499
 20
474.00300722917802
 11
1012.56488824055
 21
472.50300722917814
  0
LINE
  8
_0-1_1_5
  6
STYLE_01
 62
    7
 10
1014.0648882405503
 20
474.00300722917802
 11
1012.56488824055
 21
472.50300722917814
  0
LINE
  8
_0-1_1_5
  6
STYLE_01
 62
    7
 10
1011.0648882405499
 20
474.00300722917802
 11
1011.0648882405499
 21
464.00300722917802
  0
LINE
  8
_0-1_1_5
  6
STYLE_01
 62
    7
 10
1014.0648882405503
 20
464.00300722917802
 11
1014.0648882405503
 21
474.00300722917802
  0
LINE
  8
_0-1_1_5
  6
CONTINUOUS
 62
    7
 10
675.14465793650834
 20
252.53212108112038
 11
673.39475594221221
 21
246.90719032220125
  0
LINE
  8
_0-1_1_5
  6
CONTINUOUS
 62
    7
 10
675.14465793650834
 20
252.53212108112038
 11
676.89455993080401
 21
246.90719032220125
  0
LINE
  8
_0-1_1_5
  6
CONTINUOUS
 62
    7
 10
676.89455993080401
 20
208.33317194059134
 11
676.89455993080401
 21
246.90719032220125
  0
LINE
  8
_0-1_1_5
  6
CONTINUOUS
 62
    7
 10
673.39475594221221
 20
208.36999421751818
 11
673.39475594221221
 21
246.90663639355341
  0
LINE
  8
_0-1_1_5
  6
CONTINUOUS
 62
    7
 10
676.77774967776031
 20
220.18876921733602
 11
673.2779456891684
 21
221.59500190706615
  0
LINE
  8
_0-1_1_5
  6
CONTINUOUS
 62
    7
 10
676.77774967776031
 20
221.59500190706615
 11
673.2779456891684
 21
223.0012345967956
  0
LINE
  8
_0-1_1_5
  6
CONTINUOUS
 62
    7
 10
676.77774967776031
 20
223.0012345967956
 11
673.2779456891684
 21
224.4074672865255
  0
LINE
  8
_0-1_1_5
  6
CONTINUOUS
 62
    7
 10
676.77774967776031
 20
224.4074672865255
 11
673.2779456891684
 21
225.81369997625495
  0
LINE
  8
_0-1_1_5
  6
CONTINUOUS
 62
    7
 10
676.77774967776031
 20
225.81369997625495
 11
673.2779456891684
 21
227.21993266598508
  0
LINE
  8
_0-1_1_5
  6
CONTINUOUS
 62
    7
 10
676.77774967776031
 20
231.43863073517437
 11
673.2779456891684
 21
232.84486342490402
  0
LINE
  8
_0-1_1_5
  6
CONTINUOUS
 62
    7
 10
676.77774967776031
 20
230.03239804544444
 11
673.2779456891684
 21
231.43863073517437
  0
LINE
  8
_0-1_1_5
  6
CONTINUOUS
 62
    7
 10
676.77774967776031
 20
232.84486342490402
 11
673.2779456891684
 21
234.2510961146337
  0
LINE
  8
_0-1_1_5
  6
CONTINUOUS
 62
    7
 10
676.77774967776031
 20
234.2510961146337
 11
673.2779456891684
 21
235.65732880436337
  0
LINE
  8
_0-1_1_5
  6
CONTINUOUS
 62
    7
 10
676.77774967776031
 20
235.65732880436337
 11
673.2779456891684
 21
237.06356149409302
  0
LINE
  8
_0-1_1_5
  6
CONTINUOUS
 62
    7
 10
676.77774967776031
 20
237.06356149409302
 11
673.2779456891684
 21
238.46979418382296
  0
LINE
  8
_0-1_1_5
  6
CONTINUOUS
 62
    7
 10
676.77774967776031
 20
238.46979418382296
 11
673.2779456891684
 21
239.87602687355263
  0
LINE
  8
_0-1_1_5
  6
CONTINUOUS
 62
    7
 10
676.77774967776031
 20
239.87602687355263
 11
673.2779456891684
 21
241.28225956328231
  0
LINE
  8
_0-1_1_5
  6
CONTINUOUS
 62
    7
 10
676.77774967776031
 20
227.21993266598508
 11
673.2779456891684
 21
228.62616535571453
  0
LINE
  8
_0-1_1_5
  6
CONTINUOUS
 62
    7
 10
676.77774967776031
 20
241.28225956328231
 11
673.2779456891684
 21
242.68849225301224
  0
LINE
  8
_0-1_1_5
  6
CONTINUOUS
 62
    7
 10
676.77774967776031
 20
244.09472494274189
 11
673.2779456891684
 21
245.5009576324718
  0
LINE
  8
_0-1_1_5
  6
CONTINUOUS
 62
    7
 10
676.77774967776031
 20
245.5009576324718
 11
673.2779456891684
 21
246.90719032220125
  0
LINE
  8
_0-1_1_5
  6
CONTINUOUS
 62
    7
 10
676.77774967776031
 20
242.68849225301224
 11
673.2779456891684
 21
244.09472494274189
  0
LINE
  8
_0-1_1_5
  6
CONTINUOUS
 62
    7
 10
676.77774967776031
 20
228.62616535571453
 11
673.2779456891684
 21
230.03239804544444
  0
LINE
  8
_0-1_1_5
  6
STYLE_01
 62
    7
 10
676.77774967776031
 20
217.38253652760648
 11
673.2779456891684
 21
218.78876921733615
  0
LINE
  8
_0-1_1_5
  6
STYLE_01
 62
    7
 10
676.77774967776031
 20
215.98253652760661
 11
673.2779456891684
 21
217.38876921733629
  0
LINE
  8
_0-1_1_5
  6
STYLE_01
 62
    7
 10
676.77774967776031
 20
214.58253652760652
 11
673.2779456891684
 21
215.9887692173362
  0
LINE
  8
_0-1_1_5
  6
STYLE_01
 62
    7
 10
676.77774967776031
 20
213.18253652760666
 11
673.2779456891684
 21
214.58876921733633
  0
LINE
  8
_0-1_1_5
  6
STYLE_01
 62
    7
 10
676.77774967776031
 20
211.78253652760679
 11
673.2779456891684
 21
213.18876921733624
  0
LINE
  8
_0-1_1_5
  6
STYLE_01
 62
    7
 10
676.77774967776031
 20
210.38253652760673
 11
673.2779456891684
 21
211.78876921733638
  0
LINE
  8
_0-1_1_5
  6
STYLE_01
 62
    7
 10
676.77774967776031
 20
208.98253652760667
 11
673.2779456891684
 21
210.38876921733652
  0
LINE
  8
_0-1_1_5
  6
STYLE_01
 62
    7
 10
674.90958317051764
 20
208.33317194059157
 11
673.2779456891684
 21
208.98876921733626
  0
LINE
  8
_0-1_1_5
  6
STYLE_01
 62
    7
 10
671.64465793650822
 20
206.58307393488747
 11
673.39475594221221
 21
208.33317194059157
  0
LINE
  8
_0-1_1_5
  6
STYLE_01
 62
    7
 10
678.64465793650822
 20
206.58307393488747
 11
676.89455993080401
 21
208.33317194059134
  0
LINE
  8
_0-1_1_5
  6
STYLE_01
 62
    7
 10
673.39475594221221
 20
208.33317194059157
 11
676.89455993080401
 21
208.33317194059157
  0
LINE
  8
_0-1_1_5
  6
CONTINUOUS
 62
    7
 10
676.77774967776031
 20
218.78253652760657
 11
673.2779456891684
 21
220.18876921733602
  0
LINE
  8
_0-1_1_5
  6
STYLE_01
 62
    7
 10
670.14465793650834
 20
214.08307393488747
 11
670.14465793650834
 21
218.58307393488724
  0
LINE
  8
_0-1_1_5
  6
STYLE_01
 62
    7
 10
670.14465793650834
 20
218.58307393488724
 11
680.14465793650834
 21
218.58307393488724
  0
LINE
  8
_0-1_1_5
  6
STYLE_01
 62
    7
 10
680.14465793650834
 20
218.58307393488724
 11
680.14465793650834
 21
214.08307393488747
  0
LINE
  8
_0-1_1_5
  6
STYLE_01
 62
    7
 10
680.14465793650834
 20
211.08307393488724
 11
680.14465793650834
 21
206.58307393488747
  0
LINE
  8
_0-1_1_5
  6
STYLE_01
 62
    7
 10
680.14465793650834
 20
206.58307393488747
 11
670.14465793650834
 21
206.58307393488747
  0
LINE
  8
_0-1_1_5
  6
STYLE_01
 62
    7
 10
670.14465793650834
 20
206.58307393488747
 11
670.14465793650834
 21
211.08307393488724
  0
LINE
  8
_0-1_1_5
  6
STYLE_01
 62
    7
 10
680.14465793650834
 20
211.08307393488724
 11
678.64465793650822
 21
212.5830739348873
  0
LINE
  8
_0-1_1_5
  6
STYLE_01
 62
    7
 10
680.14465793650834
 20
214.08307393488747
 11
678.64465793650822
 21
212.5830739348873
  0
LINE
  8
_0-1_1_5
  6
STYLE_01
 62
    7
 10
670.14465793650834
 20
211.08307393488724
 11
671.64465793650811
 21
212.5830739348873
  0
LINE
  8
_0-1_1_5
  6
STYLE_01
 62
    7
 10
670.14465793650834
 20
214.08307393488747
 11
671.64465793650811
 21
212.5830739348873
  0
LINE
  8
_0-1_1_5
  6
STYLE_01
 62
    7
 10
670.14465793650834
 20
211.08307393488724
 11
680.14465793650834
 21
211.08307393488724
  0
LINE
  8
_0-1_1_5
  6
STYLE_01
 62
    7
 10
680.14465793650834
 20
214.08307393488747
 11
670.14465793650834
 21
214.08307393488747
  0
POINT
  8
_0-1_1_5
 62
    7
 10
553.78939784623469
 20
164.58307393488724
  0
POINT
  8
_0-1_1_5
 62
    7
 10
553.78939784623469
 20
148.58307393488715
  0
LINE
  8
_0-1_1_5
  6
CONTINUOUS
 62
    7
 10
553.78939784623469
 20
164.58307393488724
 11
553.78939784623469
 21
148.58307393488715
  0
TEXT
  8
_0-1_1_5
 62
    4
 10
551.42113287495738
 20
177.72350295596723
 40
12.5
 41
1
 50
90
  1
16
  0
LINE
  8
_0-1_1_5
  6
CONTINUOUS
 62
    7
 10
553.78939784623469
 20
164.58307393488724
 11
553.78939784623469
 21
190.34194657620878
  0
LINE
  8
_0-2_ADD_LINE
  6
CONTINUOUS
 62
    7
 10
1030.0142123511071
 20
467.36991548792605
 11
1030.0142123511071
 21
431.72936671581101
  0
LINE
  8
_0-1_1_5
  6
CONTINUOUS
 62
    7
 10
1030.0142123511071
 20
467.36991548792605
 11
1031.4204450408372
 21
470.86971947651784
  0
POINT
  8
_0-2_ADD_LINE
 62
    7
 10
91.14465793650794
 20
509.24944838592114
  0
LINE
  8
_0-2_ADD_LINE
  6
CONTINUOUS
 62
    7
 10
91.14465793650794
 20
509.24944838592114
 11
91.14465793650794
 21
481.44185941386979
  0
POINT
  8
_0-2_ADD_LINE
 62
    7
 10
83.144657936508111
 20
538.67927618395368
  0
LINE
  8
_0-2_ADD_LINE
  6
CONTINUOUS
 62
    7
 10
83.144657936508111
 20
538.67927618395368
 11
83.144657936508111
 21
486.44185941386945
  0
POINT
  8
_0-2_ADD_LINE
 62
    7
 10
83.144657936508111
 20
277.8940698796805
  0
POINT
  8
_0-2_ADD_LINE
 62
    7
 10
99.144657936508054
 20
277.8940698796805
  0
LINE
  8
_0-3_
  6
CONTINUOUS
 62
    7
 10
83.144657936508111
 20
277.8940698796805
 11
99.144657936508054
 21
277.8940698796805
  0
TEXT
  8
_0-2_ADD_LINE
 62
    4
 10
84.894657936508082
 20
280.3940698796805
 40
12.5
 41
1
 50
0
  1
16
  0
LINE
  8
_0-2_ADD_LINE
  6
CONTINUOUS
 62
    7
 10
83.144657936508111
 20
277.8940698796805
 11
83.144657936508111
 21
228.58307393488724
  0
LINE
  8
_0-2_ADD_LINE
  6
CONTINUOUS
 62
    7
 10
99.144657936508054
 20
277.8940698796805
 11
99.144657936508054
 21
228.58307393488724
  0
LINE
  8
_0-1_1_5
  6
CONTINUOUS
 62
    7
 10
91.14465793650794
 20
471.44185941386979
 11
91.14465793650794
 21
466.44185941386979
  0
LINE
  8
_0-1_1_5
  6
CONTINUOUS
 62
    7
 10
88.64465793650794
 20
468.94185941386979
 11
93.64465793650794
 21
468.94185941386979
  0
LINE
  8
_0-1_1_5
  6
CONTINUOUS
 62
    7
 10
83.64465793650794
 20
476.94185941386945
 11
83.144657936508111
 21
476.44185941386945
  0
LINE
  8
_0-1_1_5
  6
CONTINUOUS
 62
    7
 10
83.144657936508111
 20
476.44185941386945
 11
83.144657936508111
 21
461.44185941387013
  0
LINE
  8
_0-1_1_5
  6
CONTINUOUS
 62
    7
 10
83.144657936508111
 20
461.44185941387013
 11
83.64465793650794
 21
460.94185941387013
  0
LINE
  8
_0-1_1_5
  6
STYLE_05
 62
    7
 10
99.144657936508054
 20
476.94185941386945
 11
99.144657936508054
 21
460.94185941387013
  0
LINE
  8
_0-1_1_5
  6
CONTINUOUS
 62
    7
 10
83.144657936508111
 20
218.58307393488724
 11
99.144657936508054
 21
218.58307393488724
  0
LINE
  8
_0-1_1_5
  6
CONTINUOUS
 62
    7
 10
99.144657936508054
 20
218.58307393488724
 11
99.144657936508054
 21
156.58307393488727
  0
LINE
  8
_0-1_1_5
  6
CONTINUOUS
 62
    7
 10
99.144657936508054
 20
156.58307393488727
 11
83.144657936508111
 21
156.58307393488727
  0
LINE
  8
_0-1_1_5
  6
CONTINUOUS
 62
    7
 10
83.144657936508111
 20
156.58307393488727
 11
83.144657936508111
 21
218.58307393488724
  0
LINE
  8
_0-1_1_5
  6
CONTINUOUS
 62
    7
 10
83.144657936508111
 20
164.0830739348867
 11
83.144657936508111
 21
149.08307393488727
  0
LINE
  8
_0-1_1_5
  6
CONTINUOUS
 62
    7
 10
83.64465793650794
 20
148.58307393488715
 11
83.144657936508111
 21
149.08307393488727
  0
LINE
  8
_0-1_1_5
  6
CONTINUOUS
 62
    7
 10
91.144657936508082
 20
252.53212108112038
 11
89.394755942212214
 21
246.90719032220125
  0
LINE
  8
_0-1_1_5
  6
CONTINUOUS
 62
    7
 10
91.144657936508082
 20
252.53212108112038
 11
92.89455993080395
 21
246.90719032220125
  0
LINE
  8
_0-1_1_5
  6
CONTINUOUS
 62
    7
 10
92.89455993080395
 20
208.33317194059134
 11
92.89455993080395
 21
246.90719032220125
  0
LINE
  8
_0-1_1_5
  6
CONTINUOUS
 62
    7
 10
89.394755942212214
 20
208.36999421751818
 11
89.394755942212214
 21
246.90663639355341
  0
LINE
  8
_0-1_1_5
  6
CONTINUOUS
 62
    7
 10
92.777749677759971
 20
220.18876921733602
 11
89.277945689168234
 21
221.59500190706615
  0
LINE
  8
_0-1_1_5
  6
CONTINUOUS
 62
    7
 10
92.777749677759971
 20
221.59500190706615
 11
89.277945689168234
 21
223.0012345967956
  0
LINE
  8
_0-1_1_5
  6
CONTINUOUS
 62
    7
 10
92.777749677759971
 20
223.0012345967956
 11
89.277945689168234
 21
224.4074672865255
  0
LINE
  8
_0-1_1_5
  6
CONTINUOUS
 62
    7
 10
92.777749677759971
 20
224.4074672865255
 11
89.277945689168234
 21
225.81369997625495
  0
LINE
  8
_0-1_1_5
  6
CONTINUOUS
 62
    7
 10
92.777749677759971
 20
225.81369997625495
 11
89.277945689168234
 21
227.21993266598508
  0
LINE
  8
_0-1_1_5
  6
CONTINUOUS
 62
    7
 10
92.777749677759971
 20
231.43863073517437
 11
89.277945689168234
 21
232.84486342490402
  0
LINE
  8
_0-1_1_5
  6
CONTINUOUS
 62
    7
 10
92.777749677759971
 20
230.03239804544444
 11
89.277945689168234
 21
231.43863073517437
  0
LINE
  8
_0-1_1_5
  6
CONTINUOUS
 62
    7
 10
92.777749677759971
 20
232.84486342490402
 11
89.277945689168234
 21
234.2510961146337
  0
LINE
  8
_0-1_1_5
  6
CONTINUOUS
 62
    7
 10
92.777749677759971
 20
234.2510961146337
 11
89.277945689168234
 21
235.65732880436337
  0
LINE
  8
_0-1_1_5
  6
CONTINUOUS
 62
    7
 10
92.777749677759971
 20
235.65732880436337
 11
89.277945689168234
 21
237.06356149409302
  0
LINE
  8
_0-1_1_5
  6
CONTINUOUS
 62
    7
 10
92.777749677759971
 20
237.06356149409302
 11
89.277945689168234
 21
238.46979418382296
  0
LINE
  8
_0-1_1_5
  6
CONTINUOUS
 62
    7
 10
92.777749677759971
 20
238.46979418382296
 11
89.277945689168234
 21
239.87602687355263
  0
LINE
  8
_0-1_1_5
  6
CONTINUOUS
 62
    7
 10
92.777749677759971
 20
239.87602687355263
 11
89.277945689168234
 21
241.28225956328231
  0
LINE
  8
_0-1_1_5
  6
CONTINUOUS
 62
    7
 10
92.777749677759971
 20
227.21993266598508
 11
89.277945689168234
 21
228.62616535571453
  0
LINE
  8
_0-1_1_5
  6
CONTINUOUS
 62
    7
 10
92.777749677759971
 20
241.28225956328231
 11
89.277945689168234
 21
242.68849225301224
  0
LINE
  8
_0-1_1_5
  6
CONTINUOUS
 62
    7
 10
92.777749677759971
 20
244.09472494274189
 11
89.277945689168234
 21
245.5009576324718
  0
LINE
  8
_0-1_1_5
  6
CONTINUOUS
 62
    7
 10
92.777749677759971
 20
245.5009576324718
 11
89.277945689168234
 21
246.90719032220125
  0
LINE
  8
_0-1_1_5
  6
CONTINUOUS
 62
    7
 10
92.777749677759971
 20
242.68849225301224
 11
89.277945689168234
 21
244.09472494274189
  0
LINE
  8
_0-1_1_5
  6
CONTINUOUS
 62
    7
 10
92.777749677759971
 20
228.62616535571453
 11
89.277945689168234
 21
230.03239804544444
  0
LINE
  8
_0-1_1_5
  6
STYLE_01
 62
    7
 10
92.777749677759971
 20
217.38253652760648
 11
89.277945689168234
 21
218.78876921733615
  0
LINE
  8
_0-1_1_5
  6
STYLE_01
 62
    7
 10
92.777749677759971
 20
215.98253652760661
 11
89.277945689168234
 21
217.38876921733629
  0
LINE
  8
_0-1_1_5
  6
STYLE_01
 62
    7
 10
92.777749677759971
 20
214.58253652760652
 11
89.277945689168234
 21
215.9887692173362
  0
LINE
  8
_0-1_1_5
  6
STYLE_01
 62
    7
 10
92.777749677759971
 20
213.18253652760666
 11
89.277945689168234
 21
214.58876921733633
  0
LINE
  8
_0-1_1_5
  6
STYLE_01
 62
    7
 10
92.777749677759971
 20
211.78253652760679
 11
89.277945689168234
 21
213.18876921733624
  0
LINE
  8
_0-1_1_5
  6
STYLE_01
 62
    7
 10
92.777749677759971
 20
210.38253652760673
 11
89.277945689168234
 21
211.78876921733638
  0
LINE
  8
_0-1_1_5
  6
STYLE_01
 62
    7
 10
92.777749677759971
 20
208.98253652760667
 11
89.277945689168234
 21
210.38876921733652
  0
LINE
  8
_0-1_1_5
  6
STYLE_01
 62
    7
 10
90.909583170517578
 20
208.33317194059157
 11
89.277945689168234
 21
208.98876921733626
  0
LINE
  8
_0-1_1_5
  6
STYLE_01
 62
    7
 10
87.644657936507997
 20
206.58307393488747
 11
89.394755942212214
 21
208.33317194059157
  0
LINE
  8
_0-1_1_5
  6
STYLE_01
 62
    7
 10
94.644657936507883
 20
206.58307393488747
 11
92.89455993080395
 21
208.33317194059134
  0
LINE
  8
_0-1_1_5
  6
STYLE_01
 62
    7
 10
89.394755942212214
 20
208.33317194059157
 11
92.89455993080395
 21
208.33317194059157
  0
LINE
  8
_0-1_1_5
  6
CONTINUOUS
 62
    7
 10
92.777749677759971
 20
218.78253652760657
 11
89.277945689168234
 21
220.18876921733602
  0
LINE
  8
_0-1_1_5
  6
STYLE_01
 62
    7
 10
86.144657936508082
 20
214.08307393488747
 11
86.144657936508082
 21
218.58307393488724
  0
LINE
  8
_0-1_1_5
  6
STYLE_01
 62
    7
 10
86.144657936508082
 20
218.58307393488724
 11
96.144657936508082
 21
218.58307393488724
  0
LINE
  8
_0-1_1_5
  6
STYLE_01
 62
    7
 10
96.144657936508082
 20
218.58307393488724
 11
96.144657936508082
 21
214.08307393488747
  0
LINE
  8
_0-1_1_5
  6
STYLE_01
 62
    7
 10
96.144657936508082
 20
211.08307393488724
 11
96.144657936508082
 21
206.58307393488747
  0
LINE
  8
_0-1_1_5
  6
STYLE_01
 62
    7
 10
96.144657936508082
 20
206.58307393488747
 11
86.144657936508082
 21
206.58307393488747
  0
LINE
  8
_0-1_1_5
  6
STYLE_01
 62
    7
 10
86.144657936508082
 20
206.58307393488747
 11
86.144657936508082
 21
211.08307393488724
  0
LINE
  8
_0-1_1_5
  6
STYLE_01
 62
    7
 10
96.144657936508082
 20
211.08307393488724
 11
94.644657936508167
 21
212.5830739348873
  0
LINE
  8
_0-1_1_5
  6
STYLE_01
 62
    7
 10
96.144657936508082
 20
214.08307393488747
 11
94.644657936508167
 21
212.5830739348873
  0
LINE
  8
_0-1_1_5
  6
STYLE_01
 62
    7
 10
86.144657936508082
 20
211.08307393488724
 11
87.644657936507997
 21
212.5830739348873
  0
LINE
  8
_0-1_1_5
  6
STYLE_01
 62
    7
 10
86.144657936508082
 20
214.08307393488747
 11
87.644657936507997
 21
212.5830739348873
  0
LINE
  8
_0-1_1_5
  6
STYLE_01
 62
    7
 10
86.144657936508082
 20
211.08307393488724
 11
96.144657936508082
 21
211.08307393488724
  0
LINE
  8
_0-1_1_5
  6
STYLE_01
 62
    7
 10
96.144657936508082
 20
214.08307393488747
 11
86.144657936508082
 21
214.08307393488747
  0
LINE
  8
_0-3_
  6
CONTINUOUS
 62
    7
 10
91.14465793650794
 20
509.24944838592114
 11
675.14465793650811
 21
509.24944838592114
  0
TEXT
  8
_0-2_ADD_LINE
 62
    4
 10
373.76965793650805
 20
511.74944838592114
 40
12.5
 41
1
 50
0
  1
584
  0
LINE
  8
_0-3_
  6
CONTINUOUS
 62
    7
 10
83.144657936508111
 20
538.67927618395368
 11
683.14465793650834
 21
538.67927618395368
  0
TEXT
  8
_0-2_ADD_LINE
 62
    4
 10
373.76965793650822
 20
541.17927618395368
 40
12.5
 41
1
 50
0
  1
600
  0
LINE
  8
_0-1_1_5
  6
CONTINUOUS
 62
    7
 10
667.14465793650834
 20
164.58307393488724
 11
99.144657936508054
 21
164.58307393488724
  0
TEXT
  8
_0-2_ADD_LINE
 62
    7
 10
970.29502154463762
 20
414.3859125993518
 40
15.5
 41
1
 50
0
  1
タッピングビス
  0
TEXT
  8
_0-2_ADD_LINE
 62
    7
 10
970.29502154463762
 20
389.3859125993518
 40
15.5
 41
1
 50
0
  1
3.5x45
  0
TEXT
  8
_0-1_1_5
 62
    7
 10
551.7395550559695
 20
164.03047476960205
 40
15.270385742187502
 41
1
 50
90
  1
φ
  0
LINE
  8
_0-1_1_5
  6
CONTINUOUS
 62
    7
 10
83.64465793650794
 20
476.94185941386945
 11
682.64465793650811
 21
476.94185941386945
  0
LINE
  8
_0-1_1_5
  6
CONTINUOUS
 62
    7
 10
83.64465793650794
 20
460.94185941387013
 11
682.58113478018527
 21
460.94185941387013
  0
LINE
  8
_0-1_1_5
  6
CONTINUOUS
 62
    7
 10
682.64465793650811
 20
148.58307393488715
 11
83.644657936507798
 21
148.58307393488715
  0
TEXT
  8
_0-3_
 62
    7
 10
804.83041738030101
 20
-104.51409794816072
 40
15.270385742187502
 41
1
 50
0
  1
TFP40-D160-003
  0
ENDSEC
  0
EOF
