  0
SECTION
  2
HEADER
  9
$ACADVER
  1
AC1015
  9
$ACADMAINTVER
 70
     6
  9
$DWGCODEPAGE
  3
ANSI_1252
  9
$INSBASE
 10
0.0
 20
0.0
 30
0.0
  9
$EXTMIN
 10
-125.0
 20
-83.9994254245
 30
0.0
  9
$EXTMAX
 10
125.0
 20
823.8650625562
 30
0.0
  9
$LIMMIN
 10
0.0
 20
0.0
  9
$LIMMAX
 10
420.0
 20
297.0
  9
$ORTHOMODE
 70
     0
  9
$REGENMODE
 70
     1
  9
$FILLMODE
 70
     1
  9
$QTEXTMODE
 70
     0
  9
$MIRRTEXT
 70
     1
  9
$LTSCALE
 40
1.0
  9
$ATTMODE
 70
     1
  9
$TEXTSIZE
 40
3.5
  9
$TRACEWID
 40
1.0
  9
$TEXTSTYLE
  7
Standard
  9
$CLAYER
  8
0
  9
$CELTYPE
  6
ByLayer
  9
$CECOLOR
 62
   256
  9
$CELTSCALE
 40
1.0
  9
$DISPSILH
 70
     0
  9
$DIMSCALE
 40
1.0
  9
$DIMASZ
 40
2.0
  9
$DIMEXO
 40
1.0
  9
$DIMDLI
 40
3.75
  9
$DIMRND
 40
0.0
  9
$DIMDLE
 40
0.0
  9
$DIMEXE
 40
1.0
  9
$DIMTP
 40
0.0
  9
$DIMTM
 40
0.0
  9
$DIMTXT
 40
3.5
  9
$DIMCEN
 40
2.5
  9
$DIMTSZ
 40
0.0
  9
$DIMTOL
 70
     0
  9
$DIMLIM
 70
     0
  9
$DIMTIH
 70
     1
  9
$DIMTOH
 70
     1
  9
$DIMSE1
 70
     0
  9
$DIMSE2
 70
     0
  9
$DIMTAD
 70
     1
  9
$DIMZIN
 70
     0
  9
$DIMBLK
  1

  9
$DIMASO
 70
     1
  9
$DIMSHO
 70
     1
  9
$DIMPOST
  1

  9
$DIMAPOST
  1

  9
$DIMALT
 70
     0
  9
$DIMALTD
 70
     3
  9
$DIMALTF
 40
0.0393700787
  9
$DIMLFAC
 40
1.0
  9
$DIMTOFL
 70
     1
  9
$DIMTVP
 40
0.0
  9
$DIMTIX
 70
     0
  9
$DIMSOXD
 70
     0
  9
$DIMSAH
 70
     0
  9
$DIMBLK1
  1

  9
$DIMBLK2
  1

  9
$DIMSTYLE
  2
ISO-25
  9
$DIMCLRD
 70
     0
  9
$DIMCLRE
 70
     0
  9
$DIMCLRT
 70
     0
  9
$DIMTFAC
 40
1.0
  9
$DIMGAP
 40
1.524
  9
$DIMJUST
 70
     0
  9
$DIMSD1
 70
     0
  9
$DIMSD2
 70
     0
  9
$DIMTOLJ
 70
     0
  9
$DIMTZIN
 70
     0
  9
$DIMALTZ
 70
     0
  9
$DIMALTTZ
 70
     0
  9
$DIMUPT
 70
     0
  9
$DIMDEC
 70
     2
  9
$DIMTDEC
 70
     2
  9
$DIMALTU
 70
     2
  9
$DIMALTTD
 70
     3
  9
$DIMTXSTY
  7
Standard
  9
$DIMAUNIT
 70
     0
  9
$DIMADEC
 70
     2
  9
$DIMALTRND
 40
0.0
  9
$DIMAZIN
 70
     0
  9
$DIMDSEP
 70
    44
  9
$DIMATFIT
 70
     3
  9
$DIMFRAC
 70
     0
  9
$DIMLDRBLK
  1

  9
$DIMLUNIT
 70
     2
  9
$DIMLWD
 70
    -2
  9
$DIMLWE
 70
    -2
  9
$DIMTMOVE
 70
     0
  9
$LUNITS
 70
     2
  9
$LUPREC
 70
     2
  9
$SKETCHINC
 40
1.0
  9
$FILLETRAD
 40
10.0
  9
$AUNITS
 70
     0
  9
$AUPREC
 70
     2
  9
$MENU
  1
.
  9
$ELEVATION
 40
0.0
  9
$PELEVATION
 40
0.0
  9
$THICKNESS
 40
0.0
  9
$LIMCHECK
 70
     0
  9
$CHAMFERA
 40
0.0
  9
$CHAMFERB
 40
0.0
  9
$CHAMFERC
 40
0.0
  9
$CHAMFERD
 40
0.0
  9
$SKPOLY
 70
     0
  9
$TDCREATE
 40
2457358.572593831
  9
$TDUCREATE
 40
2457358.572593831
  9
$TDUPDATE
 40
2457358.572638796
  9
$TDUUPDATE
 40
2457358.572638796
  9
$TDINDWG
 40
0.0000000116
  9
$TDUSRTIMER
 40
0.0000000116
  9
$USRTIMER
 70
     1
  9
$ANGBASE
 50
0.0
  9
$ANGDIR
 70
     0
  9
$PDMODE
 70
     0
  9
$PDSIZE
 40
-1.0
  9
$PLINEWID
 40
0.0
  9
$SPLFRAME
 70
     0
  9
$SPLINETYPE
 70
     6
  9
$SPLINESEGS
 70
     8
  9
$HANDSEED
  5
32B
  9
$SURFTAB1
 70
     6
  9
$SURFTAB2
 70
     6
  9
$SURFTYPE
 70
     6
  9
$SURFU
 70
     6
  9
$SURFV
 70
     6
  9
$UCSBASE
  2

  9
$UCSNAME
  2

  9
$UCSORG
 10
0.0
 20
0.0
 30
0.0
  9
$UCSXDIR
 10
1.0
 20
0.0
 30
0.0
  9
$UCSYDIR
 10
0.0
 20
1.0
 30
0.0
  9
$UCSORTHOREF
  2

  9
$UCSORTHOVIEW
 70
     0
  9
$UCSORGTOP
 10
0.0
 20
0.0
 30
0.0
  9
$UCSORGBOTTOM
 10
0.0
 20
0.0
 30
0.0
  9
$UCSORGLEFT
 10
0.0
 20
0.0
 30
0.0
  9
$UCSORGRIGHT
 10
0.0
 20
0.0
 30
0.0
  9
$UCSORGFRONT
 10
0.0
 20
0.0
 30
0.0
  9
$UCSORGBACK
 10
0.0
 20
0.0
 30
0.0
  9
$PUCSBASE
  2

  9
$PUCSNAME
  2

  9
$PUCSORG
 10
0.0
 20
0.0
 30
0.0
  9
$PUCSXDIR
 10
1.0
 20
0.0
 30
0.0
  9
$PUCSYDIR
 10
0.0
 20
1.0
 30
0.0
  9
$PUCSORTHOREF
  2

  9
$PUCSORTHOVIEW
 70
     0
  9
$PUCSORGTOP
 10
0.0
 20
0.0
 30
0.0
  9
$PUCSORGBOTTOM
 10
0.0
 20
0.0
 30
0.0
  9
$PUCSORGLEFT
 10
0.0
 20
0.0
 30
0.0
  9
$PUCSORGRIGHT
 10
0.0
 20
0.0
 30
0.0
  9
$PUCSORGFRONT
 10
0.0
 20
0.0
 30
0.0
  9
$PUCSORGBACK
 10
0.0
 20
0.0
 30
0.0
  9
$USERI1
 70
     0
  9
$USERI2
 70
     0
  9
$USERI3
 70
     0
  9
$USERI4
 70
     0
  9
$USERI5
 70
     0
  9
$USERR1
 40
0.0
  9
$USERR2
 40
0.0
  9
$USERR3
 40
0.0
  9
$USERR4
 40
0.0
  9
$USERR5
 40
0.0
  9
$WORLDVIEW
 70
     1
  9
$SHADEDGE
 70
     3
  9
$SHADEDIF
 70
    70
  9
$TILEMODE
 70
     1
  9
$MAXACTVP
 70
    64
  9
$PINSBASE
 10
0.0
 20
0.0
 30
0.0
  9
$PLIMCHECK
 70
     0
  9
$PEXTMIN
 10
1.0000000000E+20
 20
1.0000000000E+20
 30
1.0000000000E+20
  9
$PEXTMAX
 10
-1.0000000000E+20
 20
-1.0000000000E+20
 30
-1.0000000000E+20
  9
$PLIMMIN
 10
0.0
 20
0.0
  9
$PLIMMAX
 10
420.0
 20
297.0
  9
$UNITMODE
 70
     0
  9
$VISRETAIN
 70
     1
  9
$PLINEGEN
 70
     0
  9
$PSLTSCALE
 70
     1
  9
$TREEDEPTH
 70
  3020
  9
$CMLSTYLE
  2
Standard
  9
$CMLJUST
 70
     0
  9
$CMLSCALE
 40
20.0
  9
$PROXYGRAPHICS
 70
     1
  9
$MEASUREMENT
 70
     1
  9
$CELWEIGHT
370
    -1
  9
$ENDCAPS
280
     0
  9
$JOINSTYLE
280
     0
  9
$LWDISPLAY
290
     1
  9
$INSUNITS
 70
     4
  9
$HYPERLINKBASE
  1

  9
$STYLESHEET
  1

  9
$XEDIT
290
     1
  9
$CEPSNTYPE
380
     0
  9
$PSTYLEMODE
290
     1
  9
$FINGERPRINTGUID
  2
{494C1DAE-8109-4D9B-87B4-C629F0DF469A}
  9
$VERSIONGUID
  2
{FAEB1C32-E019-11D5-929B-00C0DF256EC4}
  9
$EXTNAMES
290
     1
  9
$PSVPSCALE
 40
0.0
  9
$OLESTARTUP
290
     0
  0
ENDSEC
  0
SECTION
  2
CLASSES
  0
CLASS
  1
ACDBDICTIONARYWDFLT
  2
AcDbDictionaryWithDefault
  3
ObjectDBX Classes
 90
        0
280
     0
281
     0
  0
CLASS
  1
VISUALSTYLE
  2
AcDbVisualStyle
  3
ObjectDBX Classes
 90
     4095
280
     0
281
     0
  0
CLASS
  1
MATERIAL
  2
AcDbMaterial
  3
ObjectDBX Classes
 90
     1153
280
     0
281
     0
  0
CLASS
  1
SCALE
  2
AcDbScale
  3
ObjectDBX Classes
 90
     1153
280
     0
281
     0
  0
CLASS
  1
TABLESTYLE
  2
AcDbTableStyle
  3
ObjectDBX Classes
 90
     4095
280
     0
281
     0
  0
CLASS
  1
MLEADERSTYLE
  2
AcDbMLeaderStyle
  3
ACDB_MLEADERSTYLE_CLASS
 90
     4095
280
     0
281
     0
  0
CLASS
  1
SUN
  2
AcDbSun
  3
SCENEOE
 90
     1153
280
     0
281
     0
  0
CLASS
  1
ACDBPLACEHOLDER
  2
AcDbPlaceHolder
  3
ObjectDBX Classes
 90
        0
280
     0
281
     0
  0
CLASS
  1
LAYOUT
  2
AcDbLayout
  3
ObjectDBX Classes
 90
        0
280
     0
281
     0
  0
ENDSEC
  0
SECTION
  2
TABLES
  0
TABLE
  2
VPORT
  5
8
330
0
100
AcDbSymbolTable
 70
     1
  0
VPORT
  5
29
330
8
100
AcDbSymbolTableRecord
100
AcDbViewportTableRecord
  2
*Active
 70
     0
 10
0.0
 20
0.0
 11
1.0
 21
1.0
 12
0.0
 22
369.9328185659
 13
0.0
 23
0.0
 14
10.0
 24
10.0
 15
10.0
 25
10.0
 16
0.0
 26
0.0
 36
1.0
 17
0.0
 27
0.0
 37
0.0
 40
926.0217777402
 41
0.2753714936
 42
50.0
 43
0.0
 44
0.0
 50
0.0
 51
0.0
 71
     0
 72
   100
 73
     1
 74
     3
 75
     0
 76
     0
 77
     0
 78
     0
281
     0
 65
     1
110
0.0
120
0.0
130
0.0
111
1.0
121
0.0
131
0.0
112
0.0
122
1.0
132
0.0
 79
     0
146
0.0
  0
ENDTAB
  0
TABLE
  2
LTYPE
  5
5
330
0
100
AcDbSymbolTable
 70
     6
  0
LTYPE
  5
14
330
5
100
AcDbSymbolTableRecord
100
AcDbLinetypeTableRecord
  2
ByBlock
 70
     0
  3

 72
    65
 73
     0
 40
0.0
  0
LTYPE
  5
15
330
5
100
AcDbSymbolTableRecord
100
AcDbLinetypeTableRecord
  2
ByLayer
 70
     0
  3

 72
    65
 73
     0
 40
0.0
  0
LTYPE
  5
16
330
5
100
AcDbSymbolTableRecord
100
AcDbLinetypeTableRecord
  2
Continuous
 70
     0
  3
Solid line
 72
    65
 73
     0
 40
0.0
  0
LTYPE
  5
6E
330
5
100
AcDbSymbolTableRecord
100
AcDbLinetypeTableRecord
  2
HIDDEN
 70
     0
  3
Hidden __ __ __ __ __ __ __ __ __ __ __ __ __ __
 72
    65
 73
     2
 40
1.905
 49
1.27
 74
     0
 49
-0.635
 74
     0
  0
LTYPE
  5
6F
330
5
100
AcDbSymbolTableRecord
100
AcDbLinetypeTableRecord
  2
PHANTOM
 70
     0
  3
Phantom ______  __  __  ______  __  __  ______
 72
    65
 73
     6
 40
12.7
 49
6.35
 74
     0
 49
-1.27
 74
     0
 49
1.27
 74
     0
 49
-1.27
 74
     0
 49
1.27
 74
     0
 49
-1.27
 74
     0
  0
LTYPE
  5
70
330
5
100
AcDbSymbolTableRecord
100
AcDbLinetypeTableRecord
  2
CENTER
 70
     0
  3
Center ____ _ ____ _ ____ _ ____ _ ____ _ ____
 72
    65
 73
     4
 40
10.16
 49
6.35
 74
     0
 49
-1.27
 74
     0
 49
1.27
 74
     0
 49
-1.27
 74
     0
  0
LTYPE
  5
71
330
5
100
AcDbSymbolTableRecord
100
AcDbLinetypeTableRecord
  2
CENTERX2
 70
     0
  3
Center (2x) ________  __  ________  __  _____
 72
    65
 73
     4
 40
20.32
 49
12.7
 74
     0
 49
-2.54
 74
     0
 49
2.54
 74
     0
 49
-2.54
 74
     0
  0
LTYPE
  5
72
330
5
100
AcDbSymbolTableRecord
100
AcDbLinetypeTableRecord
  2
DOT2
 70
     0
  3
Dot (.5x) ........................................
 72
    65
 73
     2
 40
0.635
 49
0.0
 74
     0
 49
-0.635
 74
     0
  0
ENDTAB
  0
TABLE
  2
LAYER
  5
2
330
0
100
AcDbSymbolTable
 70
     1
  0
LAYER
  5
10
330
2
100
AcDbSymbolTableRecord
100
AcDbLayerTableRecord
  2
0
 70
     0
 62
     7
  6
Continuous
370
    -3
390
F
  0
ENDTAB
  0
TABLE
  2
STYLE
  5
3
330
0
100
AcDbSymbolTable
 70
     1
  0
STYLE
  5
11
330
3
100
AcDbSymbolTableRecord
100
AcDbTextStyleTableRecord
  2
Standard
 70
     0
 40
0.0
 41
1.0
 50
0.0
 71
     0
 42
3.5
  3
txt
  4

  0
ENDTAB
  0
TABLE
  2
VIEW
  5
6
330
0
100
AcDbSymbolTable
 70
     0
  0
ENDTAB
  0
TABLE
  2
UCS
  5
7
330
0
100
AcDbSymbolTable
 70
     0
  0
ENDTAB
  0
TABLE
  2
APPID
  5
9
330
0
100
AcDbSymbolTable
 70
     1
  0
APPID
  5
12
330
9
100
AcDbSymbolTableRecord
100
AcDbRegAppTableRecord
  2
ACAD
 70
     0
  0
ENDTAB
  0
TABLE
  2
DIMSTYLE
  5
A
330
0
100
AcDbSymbolTable
 70
     1
100
AcDbDimStyleTable
  0
DIMSTYLE
105
27
330
A
100
AcDbSymbolTableRecord
100
AcDbDimStyleTableRecord
  2
ISO-25
 70
     0
 41
2.5
 42
0.625
 43
3.75
 44
1.25
 73
     0
 74
     0
 77
     1
 78
     8
140
2.5
141
2.5
143
0.0393700787
147
0.625
171
     3
172
     1
178
     0
271
     2
272
     2
274
     3
278
    44
283
     0
284
     8
340
11
  0
ENDTAB
  0
TABLE
  2
BLOCK_RECORD
  5
1
330
0
100
AcDbSymbolTable
 70
     1
  0
BLOCK_RECORD
  5
1F
330
1
100
AcDbSymbolTableRecord
100
AcDbBlockTableRecord
  2
*Model_Space
340
22
  0
BLOCK_RECORD
  5
1B
330
1
100
AcDbSymbolTableRecord
100
AcDbBlockTableRecord
  2
*Paper_Space
340
1E
  0
BLOCK_RECORD
  5
23
330
1
100
AcDbSymbolTableRecord
100
AcDbBlockTableRecord
  2
*Paper_Space0
340
26
  0
ENDTAB
  0
ENDSEC
  0
SECTION
  2
BLOCKS
  0
BLOCK
  5
20
330
1F
100
AcDbEntity
  8
0
100
AcDbBlockBegin
  2
*Model_Space
 70
     0
 10
0.0
 20
0.0
 30
0.0
  3
*Model_Space
  1

  0
ENDBLK
  5
21
330
1F
100
AcDbEntity
  8
0
100
AcDbBlockEnd
  0
BLOCK
  5
1C
330
1B
100
AcDbEntity
 67
     1
  8
0
100
AcDbBlockBegin
  2
*Paper_Space
 70
     0
 10
0.0
 20
0.0
 30
0.0
  3
*Paper_Space
  1

  0
ENDBLK
  5
1D
330
1B
100
AcDbEntity
 67
     1
  8
0
100
AcDbBlockEnd
  0
BLOCK
  5
24
330
23
100
AcDbEntity
  8
0
100
AcDbBlockBegin
  2
*Paper_Space0
 70
     0
 10
0.0
 20
0.0
 30
0.0
  3
*Paper_Space0
  1

  0
ENDBLK
  5
25
330
23
100
AcDbEntity
  8
0
100
AcDbBlockEnd
  0
ENDSEC
  0
SECTION
  2
ENTITIES
  0
SPLINE
  5
92
330
1F
100
AcDbEntity
  8
0
  6
Continuous
 62
     7
370
    15
100
AcDbSpline
210
0.0
220
0.0
230
1.0
 70
     8
 71
     3
 72
    13
 73
     9
 74
     0
 42
0.000000001
 43
0.00000001
 40
0.0
 40
0.0
 40
0.0
 40
0.0
 40
0.2406141399070693
 40
0.3395007628565817
 40
0.4968067134779877
 40
0.6580249311267693
 40
0.8305114044060078
 40
1.0
 40
1.0
 40
1.0
 40
1.0
 10
4.444036046645327
 20
-1.539704838641631
 30
0.0
 10
4.45922366050758
 20
-1.568124217699807
 30
0.0
 10
4.480653018292611
 20
-1.608223277854315
 30
0.0
 10
4.502795626390375
 20
-1.66394648157836
 30
0.0
 10
4.516867562072106
 20
-1.706852321073371
 30
0.0
 10
4.526191001832215
 20
-1.746607169205328
 30
0.0
 10
4.529590059328892
 20
-1.773707542959357
 30
0.0
 10
4.529540528019585
 20
-1.776211470330469
 30
0.0
 10
4.529515979469656
 20
-1.777452458847528
 30
0.0
  0
SPLINE
  5
93
330
1F
100
AcDbEntity
  8
0
  6
Continuous
 62
     7
370
    15
100
AcDbSpline
210
0.0
220
0.0
230
1.0
 70
     8
 71
     3
 72
    10
 73
     6
 74
     0
 42
0.000000001
 43
0.00000001
 40
0.0
 40
0.0
 40
0.0
 40
0.0
 40
0.221428508029157
 40
0.5652305599023253
 40
0.9999999999999999
 40
0.9999999999999999
 40
0.9999999999999999
 40
0.9999999999999999
 10
4.350687753426911
 20
-1.410506253251398
 30
0.0
 10
4.357438852033667
 20
-1.417996492878271
 30
0.0
 10
4.374672076786056
 20
-1.437116489556911
 30
0.0
 10
4.40762328107249
 20
-1.480356022243556
 30
0.0
 10
4.430988470912823
 20
-1.518438720443605
 30
0.0
 10
4.444036046645327
 20
-1.539704838641631
 30
0.0
  0
SPLINE
  5
95
330
1F
100
AcDbEntity
  8
0
  6
Continuous
 62
     7
370
    15
100
AcDbSpline
210
0.0
220
0.0
230
1.0
 70
     8
 71
     3
 72
     9
 73
     5
 74
     0
 42
0.000000001
 43
0.00000001
 40
0.0
 40
0.0
 40
0.0
 40
0.0
 40
0.3276740049990974
 40
1.0
 40
1.0
 40
1.0
 40
1.0
 10
0.2032953014305692
 20
3.518751931382347
 30
0.0
 10
0.2640204462340792
 20
3.384308223337851
 30
0.0
 10
0.449342271820083
 20
2.974011080466188
 30
0.0
 10
0.7384250595784938
 20
2.630392569834661
 30
0.0
 10
0.9327829324958021
 20
2.399368912773647
 30
0.0
  0
SPLINE
  5
96
330
1F
100
AcDbEntity
  8
0
  6
Continuous
 62
     7
370
    15
100
AcDbSpline
210
0.0
220
0.0
230
1.0
 70
     8
 71
     3
 72
     9
 73
     5
 74
     0
 42
0.000000001
 43
0.00000001
 40
0.0
 40
0.0
 40
0.0
 40
0.0
 40
0.2930009542904641
 40
1.0
 40
1.0
 40
1.0
 40
1.0
 10
2.414536484741905
 20
3.731391266759088
 30
0.0
 10
2.384299870908468
 20
3.764308631596214
 30
0.0
 10
2.281103572771286
 20
3.876654220766163
 30
0.0
 10
2.191827441226466
 20
4.020675754572545
 30
0.0
 10
2.12870930141964
 20
4.122498841535316
 30
0.0
  0
SPLINE
  5
99
330
1F
100
AcDbEntity
  8
0
  6
Continuous
 62
     7
370
    15
100
AcDbSpline
210
0.0
220
0.0
230
1.0
 70
     8
 71
     3
 72
    13
 73
     9
 74
     0
 42
0.000000001
 43
0.00000001
 40
0.0
 40
0.0
 40
0.0
 40
0.0
 40
0.0074574422063537
 40
0.2243564476414154
 40
0.446179622057234
 40
0.6943154031852544
 40
0.9538572590538524
 40
1.0
 40
1.0
 40
1.0
 40
1.0
 10
-5.047881420323827
 20
6.136524077508698
 30
0.0
 10
-5.053669581493384
 20
6.137713153596791
 30
0.0
 10
-5.227805866085895
 20
6.173486395910921
 30
0.0
 10
-5.592980117289612
 20
6.083084851657983
 30
0.0
 10
-6.078448789988889
 20
5.813936948190657
 30
0.0
 10
-6.418612280576771
 20
5.322785753255232
 30
0.0
 10
-6.539777981363415
 20
4.888968095430712
 30
0.0
 10
-6.523426515390855
 20
4.642076064148792
 30
0.0
 10
-6.520958280267716
 20
4.604807993857318
 30
0.0
  0
SPLINE
  5
A3
330
1F
100
AcDbEntity
  8
0
  6
Continuous
 62
     7
370
    15
100
AcDbSpline
210
0.0
220
0.0
230
1.0
 70
     8
 71
     3
 72
    12
 73
     8
 74
     0
 42
0.000000001
 43
0.00000001
 40
0.0
 40
0.0
 40
0.0
 40
0.0
 40
0.2086392593010505
 40
0.4611738653398429
 40
0.7147794964843815
 40
0.9693673928401989
 40
0.9999999999999999
 40
0.9999999999999999
 40
0.9999999999999999
 40
0.9999999999999999
 10
2.484239259139795
 20
45.74687929033561
 30
0.0
 10
2.467868091837756
 20
46.51639313143402
 30
0.0
 10
2.431681448297613
 20
48.21731784579853
 30
0.0
 10
2.165517463294294
 20
50.73694658307687
 30
0.0
 10
1.702225745898042
 20
53.29790772720594
 30
0.0
 10
1.290069283208532
 20
55.05765054974626
 30
0.0
 10
0.9805300576612487
 20
55.91673209093062
 30
0.0
 10
0.9472856261429519
 20
56.00899722280217
 30
0.0
  0
SPLINE
  5
A4
330
1F
100
AcDbEntity
  8
0
  6
Continuous
 62
     7
370
    15
100
AcDbSpline
210
0.0
220
0.0
230
1.0
 70
     8
 71
     3
 72
    12
 73
     8
 74
     0
 42
0.000000001
 43
0.00000001
 40
0.0
 40
0.0
 40
0.0
 40
0.0
 40
0.2128235246285614
 40
0.4398467102149166
 40
0.6661627436455798
 40
0.8921240197933886
 40
1.0
 40
1.0
 40
1.0
 40
1.0
 10
-4.386658830862094
 20
56.09061651195302
 30
0.0
 10
-4.149252667660632
 20
55.46236040959707
 30
0.0
 10
-3.65860051794572
 20
54.16393073517084
 30
0.0
 10
-3.115192765733143
 20
51.96485293668568
 30
0.0
 10
-2.729545357723261
 20
49.56277530190273
 30
0.0
 10
-2.530194641962176
 20
47.47368864154189
 30
0.0
 10
-2.527140726381325
 20
46.14604679918394
 30
0.0
 10
-2.526153885846059
 20
45.71703337308625
 30
0.0
  0
SPLINE
  5
A9
330
1F
100
AcDbEntity
  8
0
  6
Continuous
 62
     7
370
    15
100
AcDbSpline
210
0.0
220
0.0
230
1.0
 70
     8
 71
     3
 72
    12
 73
     8
 74
     0
 42
0.000000001
 43
0.00000001
 40
0.0
 40
0.0
 40
0.0
 40
0.0
 40
0.2142938014352392
 40
0.4375181961309008
 40
0.6887704752153666
 40
0.9529149407958922
 40
1.0
 40
1.0
 40
1.0
 40
1.0
 10
-5.058925031047212
 20
5.987828656669469
 30
0.0
 10
-5.212889459817413
 20
5.979599365621979
 30
0.0
 10
-5.527234712422493
 20
5.962797831697896
 30
0.0
 10
-5.969481543540619
 20
5.700408299291359
 30
0.0
 10
-6.278434037040398
 20
5.262954404002373
 30
0.0
 10
-6.389361891835034
 20
4.866099974943971
 30
0.0
 10
-6.373775181444652
 20
4.639011126294445
 30
0.0
 10
-6.371417110879091
 20
4.604655478671837
 30
0.0
  0
SPLINE
  5
B0
330
1F
100
AcDbEntity
  8
0
  6
Continuous
 62
     7
370
    15
100
AcDbSpline
210
0.0
220
0.0
230
1.0
 70
     8
 71
     3
 72
    16
 73
    12
 74
     0
 42
0.000000001
 43
0.00000001
 40
0.0
 40
0.0
 40
0.0
 40
0.0
 40
0.1444684630622215
 40
0.2036334390738125
 40
0.3021514547415355
 40
0.4052769614919188
 40
0.5167084669561135
 40
0.6339035360785137
 40
0.7557678425681845
 40
0.8813731813089755
 40
1.0
 40
1.0
 40
1.0
 40
1.0
 10
-49.79780958688779
 20
118.986230689728
 30
0.0
 10
-50.49678555956152
 20
117.7156352519053
 30
0.0
 10
-51.48201706357645
 20
115.9246857727523
 30
0.0
 10
-52.74655501296727
 20
113.1685965062484
 30
0.0
 10
-53.74646564005585
 20
110.7495230444613
 30
0.0
 10
-54.78907897417974
 20
107.7849144950407
 30
0.0
 10
-55.71640169161469
 20
104.5865014789298
 30
0.0
 10
-56.49344775974485
 20
101.1545568164447
 30
0.0
 10
-57.0715677547263
 20
97.54015144655587
 30
0.0
 10
-57.43701796666764
 20
93.88122940189375
 30
0.0
 10
-57.47312170248564
 20
91.4303164232722
 30
0.0
 10
-57.49065776885783
 20
90.2398752766202
 30
0.0
  0
SPLINE
  5
B1
330
1F
100
AcDbEntity
  8
0
  6
Continuous
 62
     7
370
    15
100
AcDbSpline
210
0.0
220
0.0
230
1.0
 70
     8
 71
     3
 72
    28
 73
    24
 74
     0
 42
0.000000001
 43
0.00000001
 40
0.0
 40
0.0
 40
0.0
 40
0.0
 40
0.003590942259378
 40
0.050669548017418
 40
0.0984548299761016
 40
0.1468107116776192
 40
0.1956280330770085
 40
0.244819788132189
 40
0.2943170431732127
 40
0.3440654677626818
 40
0.3940224491093704
 40
0.4441547484084151
 40
0.4944366396252863
 40
0.5448484627592917
 40
0.5953755252103043
 40
0.6460072932213953
 40
0.6967368272357061
 40
0.7475604283630026
 40
0.79847747722522
 40
0.8494904614915331
 40
0.9006052055653968
 40
0.9518313372896913
 40
1.0
 40
1.0
 40
1.0
 40
1.0
 10
57.49065776902364
 20
90.23725898197388
 30
0.0
 10
57.49372890411004
 20
90.33750966666825
 30
0.0
 10
57.53706377710103
 20
91.75208459296574
 30
0.0
 10
57.36944401741716
 20
94.50298518184213
 30
0.0
 10
56.95849444020339
 20
98.4822448980413
 30
0.0
 10
56.23190270724745
 20
102.4698037556837
 30
0.0
 10
55.22328974222957
 20
106.4344158298801
 30
0.0
 10
53.92205733846735
 20
110.3471858837352
 30
0.0
 10
52.33363470895247
 20
114.1804450138653
 30
0.0
 10
50.46259079136883
 20
117.9080433483306
 30
0.0
 10
48.3168043858958
 20
121.5052473353782
 30
0.0
 10
45.90599392305616
 20
124.9487469288649
 30
0.0
 10
43.24182766807834
 20
128.2166426696653
 30
0.0
 10
40.33764774548324
 20
131.2884525003219
 30
0.0
 10
37.20832589495463
 20
134.1451188387684
 30
0.0
 10
33.87010496794292
 20
136.7690475248581
 30
0.0
 10
30.34044497482018
 20
139.1440563481713
 30
0.0
 10
26.63791104728153
 20
141.2556724946679
 30
0.0
 10
22.78190806241201
 20
143.0901179819952
 30
0.0
 10
18.79298692619465
 20
144.6381807492373
 30
0.0
 10
14.69099344057217
 20
145.8807550083058
 30
0.0
 10
10.5880356024776
 20
146.8230077540924
 30
0.0
 10
7.834444258040264
 20
147.185097514812
 30
0.0
 10
6.50000000000122
 20
147.3605732995769
 30
0.0
  0
SPLINE
  5
B2
330
1F
100
AcDbEntity
  8
0
  6
Continuous
 62
     7
370
    15
100
AcDbSpline
210
0.0
220
0.0
230
1.0
 70
     8
 71
     3
 72
    22
 73
    18
 74
     0
 42
0.000000001
 43
0.00000001
 40
0.0
 40
0.0
 40
0.0
 40
0.0
 40
0.0043057431857692
 40
0.085678241629335
 40
0.1675724850792745
 40
0.2501481073625771
 40
0.333638131834143
 40
0.4085051964521925
 40
0.4832251681650774
 40
0.5576825646308384
 40
0.6316679016170522
 40
0.7047214327892833
 40
0.7756437027934258
 40
0.8401259723641307
 40
0.8873123752875546
 40
0.9351654390495843
 40
1.0
 40
1.0
 40
1.0
 40
1.0
 10
-6.499999999998798
 20
147.3616666295162
 30
0.0
 10
-6.576830274254652
 20
147.3556778056842
 30
0.0
 10
-8.10564481755974
 20
147.2365086232194
 30
0.0
 10
-11.06459426702671
 20
146.6970573529429
 30
0.0
 10
-15.3539089943239
 20
145.71588986587
 30
0.0
 10
-19.58577511471845
 20
144.35963476784
 30
0.0
 10
-23.58495420181887
 20
142.7369795172795
 30
0.0
 10
-27.32591343606996
 20
140.8835577674001
 30
0.0
 10
-30.78893885881958
 20
138.8559164752868
 30
0.0
 10
-34.08932979135791
 20
136.6009135072008
 30
0.0
 10
-37.20214467742539
 20
134.1412900057926
 30
0.0
 10
-40.09202064526719
 20
131.5165477291655
 30
0.0
 10
-42.68061689596478
 20
128.8262045535311
 30
0.0
 10
-44.7951870913368
 20
126.3318893851904
 30
0.0
 10
-46.5235571079476
 20
124.0587535760093
 30
0.0
 10
-48.1620040280332
 20
121.7110702417533
 30
0.0
 10
-49.20038152564252
 20
119.9813951834291
 30
0.0
 10
-49.79780958688779
 20
118.986230689728
 30
0.0
  0
SPLINE
  5
B3
330
1F
100
AcDbEntity
  8
0
  6
Continuous
 62
     7
370
    15
100
AcDbSpline
210
0.0
220
0.0
230
1.0
 70
     8
 71
     3
 72
    56
 73
    52
 74
     0
 42
0.000000001
 43
0.00000001
 40
0.0
 40
0.0
 40
0.0
 40
0.0
 40
0.0057164891823179
 40
0.0288908837275806
 40
0.0526657103528819
 40
0.0771394104680287
 40
0.0992538183675481
 40
0.1214913098688246
 40
0.1438278746684663
 40
0.1662344897613613
 40
0.188681378972114
 40
0.2111424261622722
 40
0.2335965911579644
 40
0.2560252473233874
 40
0.2784131853072806
 40
0.3007487699132369
 40
0.3230169898832813
 40
0.3451955275709985
 40
0.3672469880062115
 40
0.3891021588290935
 40
0.4106173754570384
 40
0.4314409225173811
 40
0.4504227033309405
 40
0.465438392848981
 40
0.4794689103894419
 40
0.5018865403602928
 40
0.52652855591616
 40
0.5364628959582041
 40
0.5529382339792711
 40
0.5699992832231914
 40
0.5882553530405672
 40
0.6072551517129988
 40
0.6268170672801411
 40
0.6467970335808887
 40
0.667094139276132
 40
0.687635259571253
 40
0.7083670530923932
 40
0.72925050091979
 40
0.750257268754251
 40
0.7713672287335549
 40
0.7925667449806247
 40
0.813844553061358
 40
0.8351946370179799
 40
0.8566156440494083
 40
0.8781109148430571
 40
0.899690467617748
 40
0.9213745254340218
 40
0.9431984687565901
 40
0.9652181514777536
 40
0.9875135486984534
 40
1.0
 40
1.0
 40
1.0
 40
1.0
 10
-57.47106923260957
 20
90.1999116120572
 30
0.0
 10
-57.4793308957834
 20
89.9876357243753
 30
0.0
 10
-57.52108497639816
 20
88.91480276806408
 30
0.0
 10
-57.28023753923876
 20
86.96031043668711
 30
0.0
 10
-56.72013611652106
 20
84.33820964442262
 30
0.0
 10
-55.81604307043621
 20
81.8032202109918
 30
0.0
 10
-54.64094023269926
 20
79.3865703976333
 30
0.0
 10
-53.23595844056779
 20
77.1142130021673
 30
0.0
 10
-51.5687133622196
 20
74.91166116532366
 30
0.0
 10
-49.64866227981648
 20
72.79095030833615
 30
0.0
 10
-47.48764040218719
 20
70.7630183616656
 30
0.0
 10
-45.09857117114614
 20
68.83763398170656
 30
0.0
 10
-42.49549754108279
 20
67.02352732632627
 30
0.0
 10
-39.69339532274194
 20
65.32851148388546
 30
0.0
 10
-36.70811286720487
 20
63.75956352715484
 30
0.0
 10
-33.55647057073405
 20
62.32295320373738
 30
0.0
 10
-30.2566770192538
 20
61.02438340345323
 30
0.0
 10
-26.82925987892726
 20
59.86912413275353
 30
0.0
 10
-23.29865465737285
 20
58.86205978716136
 30
0.0
 10
-19.69707646503722
 20
58.00784830770789
 30
0.0
 10
-16.07580576700482
 20
57.31150645599836
 30
0.0
 10
-12.55021703629198
 20
56.78128814961941
 30
0.0
 10
-9.355001900073777
 20
56.42246002021162
 30
0.0
 10
-6.532086182807095
 20
56.19519985885024
 30
0.0
 10
-3.491843657574024
 20
56.03187642057572
 30
0.0
 10
0.1318502433787713
 20
55.95790020780317
 30
0.0
 10
3.513072029297251
 20
56.03377966927403
 30
0.0
 10
6.528244916522215
 20
56.19674084772491
 30
0.0
 10
9.084832734780692
 20
56.39714941812907
 30
0.0
 10
12.10554677059968
 20
56.72857239959961
 30
0.0
 10
15.23672063198918
 20
57.17754744052777
 30
0.0
 10
18.46073072421422
 20
57.75764904435204
 30
0.0
 10
21.71625943297335
 20
58.47120092020175
 30
0.0
 10
24.96222670546512
 20
59.31950757674298
 30
0.0
 10
28.16420168393205
 20
60.3018168080573
 30
0.0
 10
31.29347177049283
 20
61.41604554787533
 30
0.0
 10
34.32548345532063
 20
62.65909486844801
 30
0.0
 10
37.23890330558105
 20
64.02712302236053
 30
0.0
 10
40.01495683720286
 20
65.51576393982877
 30
0.0
 10
42.63693827960255
 20
67.12030864468204
 30
0.0
 10
45.08969900802578
 20
68.83577386518375
 30
0.0
 10
47.35936995147613
 20
70.65700734461133
 30
0.0
 10
49.43307402541336
 20
72.57875176842421
 30
0.0
 10
51.29875078867786
 20
74.59575036725997
 30
0.0
 10
52.94468851925641
 20
76.70272376381793
 30
0.0
 10
54.35978033318685
 20
78.89433610118351
 30
0.0
 10
55.53125236212919
 20
81.16523345053511
 30
0.0
 10
56.45192034734774
 20
83.509977754678
 30
0.0
 10
57.09119538330603
 20
85.92345448269523
 30
0.0
 10
57.44019759605808
 20
88.02277717714335
 30
0.0
 10
57.45256595365879
 20
89.31513353373327
 30
0.0
 10
57.45700611142563
 20
89.77908083373038
 30
0.0
  0
LWPOLYLINE
  5
C7
330
1F
100
AcDbEntity
  8
0
  6
Continuous
 62
     7
370
    15
100
AcDbPolyline
 90
        6
 70
   128
 43
0.0
 10
4.1132506858
 20
56.0808434239
 10
4.1888153884
 20
55.8788665453
 10
4.2426406871
 20
55.5353172212
 10
4.1888153884
 20
55.2539132642
 10
4.0355339059
 20
55.0774958758
 10
4.0354932723
 20
55.0774724147
  0
LWPOLYLINE
  5
D2
330
1F
100
AcDbEntity
  8
0
  6
Continuous
 62
     7
370
    15
100
AcDbPolyline
 90
       10
 70
   128
 43
0.0
 10
6.3639610307
 20
15.5250164889
 10
6.5132141795
 20
16.4163113994
 10
6.9429714934
 20
17.027778972
 10
7.6013978978
 20
17.2856671931
 10
8.4090774509
 20
17.1588709373
 10
9.2685920787
 20
16.6626837044
 10
10.0762716319
 20
15.8569529974
 10
10.7346980363
 20
14.8388618312
 10
11.1644553502
 20
13.7312070256
 10
11.313708499
 20
12.6675880975
  0
LWPOLYLINE
  5
D7
330
1F
100
AcDbEntity
  8
0
  6
Continuous
 62
     7
370
    15
100
AcDbPolyline
 90
       15
 70
   128
 43
0.0
 10
20.2444671454
 20
-6.3692229307
 10
21.4245626055
 20
-7.2040204111
 10
22.5454831517
 20
-8.304043404
 10
23.5510211471
 20
-9.6141321635
 10
24.3907547179
 20
-11.0685933687
 10
25.0225761164
 20
-12.5944942613
 10
25.4148031794
 20
-14.1153197991
 10
25.5477680043
 20
-15.5548094392
 10
25.4148031794
 20
-16.8407811602
 10
25.0225761164
 20
-17.9087509704
 10
24.3907547179
 20
-18.7051664038
 10
23.5510211471
 20
-19.1900918653
 10
22.5454831517
 20
-19.3392111672
 10
21.4245626055
 20
-19.1450468452
 10
20.2444671454
 20
-18.617335109
  0
LWPOLYLINE
  5
E0
330
1F
100
AcDbEntity
  8
0
  6
Continuous
 62
     7
370
    15
100
AcDbPolyline
 90
       22
 70
   128
 43
0.0
 10
20.2444671454
 20
-9.124340731
 10
21.1043941738
 20
-9.7704385135
 10
21.8879129121
 20
-10.658472624
 10
22.5254042818
 20
-11.7095373346
 10
22.9602243773
 20
-12.8302409334
 10
23.1537375248
 20
-13.9210039874
 10
23.0887492319
 20
-14.8849074126
 10
22.7710339938
 20
-15.6363041596
 10
22.2288222035
 20
-16.10842933
 10
21.510291758
 20
-16.2593325306
 10
20.6792872408
 20
-16.0756053496
 10
19.8096470499
 20
-15.5735727535
 10
18.9786425327
 20
-14.7978425415
 10
18.2601120873
 20
-13.8173417472
 10
17.717900297
 20
-12.719192169
 10
17.4001850588
 20
-11.6009692161
 10
17.335196766
 20
-10.5620319051
 10
17.5287099135
 20
-9.6946943754
 10
17.9635300089
 20
-9.0760233728
 10
18.6010213786
 20
-8.7609905307
 10
19.3845401169
 20
-8.7775878998
 10
20.2444671454
 20
-9.124340731
  0
LWPOLYLINE
  5
E1
330
1F
100
AcDbEntity
  8
0
  6
Continuous
 62
     7
370
    15
100
AcDbPolyline
 90
       17
 70
   128
 43
0.0
 10
8.8388347648
 20
15.6214359067
 10
9.344257367
 20
15.2135677654
 10
9.7727339597
 20
14.635606084
 10
10.0590328657
 20
13.9755402893
 10
10.159567672
 20
13.3338594149
 10
10.0590328657
 20
12.8082535572
 10
9.7727339597
 20
12.4787414433
 10
9.344257367
 20
12.3954883057
 10
8.8388347648
 20
12.5711686797
 10
8.3334121627
 20
12.9790368209
 10
7.90493557
 20
13.5569985023
 10
7.618636664
 20
14.2170642971
 10
7.5181018576
 20
14.8587451715
 10
7.618636664
 20
15.3843510292
 10
7.90493557
 20
15.713863143
 10
8.3334121627
 20
15.7971162807
 10
8.8388347648
 20
15.6214359067
  0
LWPOLYLINE
  5
EB
330
1F
100
AcDbEntity
  8
0
  6
Continuous
 62
     7
370
    15
100
AcDbPolyline
 90
       12
 70
   128
 43
0.0
 10
0.9142541961
 20
55.5849579717
 10
1.1436155123
 20
55.6295073821
 10
1.4142135624
 20
55.5354499212
 10
1.6848116124
 20
55.3170815237
 10
1.9142135624
 20
55.0076467985
 10
2.0674950448
 20
54.6542543776
 10
2.1213203436
 20
54.3107050534
 10
2.0674950448
 20
54.0293010964
 10
1.9142135624
 20
53.8528837081
 10
1.6848116124
 20
53.8083108366
 10
1.4142135624
 20
53.9023682975
 10
1.4142135624
 20
53.9023682975
  0
LWPOLYLINE
  5
F0
330
1F
100
AcDbEntity
  8
0
  6
Continuous
 62
     7
370
    15
100
AcDbPolyline
 90
        8
 70
   128
 43
0.0
 10
2.5
 20
37.6751328275
 10
2.5548658462
 20
37.6053175901
 10
2.668677342
 20
37.3887271952
 10
2.7071067812
 20
37.1634807039
 10
2.668677342
 20
36.9382342126
 10
2.5548658462
 20
36.7216438177
 10
2.3700460058
 20
36.5220329665
 10
2.1213203436
 20
36.3470725921
  0
LWPOLYLINE
  5
F1
330
1F
100
AcDbEntity
  8
0
  6
Continuous
 62
     7
370
    15
100
AcDbPolyline
 90
        3
 70
   128
 43
0.0
 10
2.5778920295
 20
36.755210298
 10
2.5548658462
 20
36.7887767783
 10
2.5
 20
36.8585920156
  0
LWPOLYLINE
  5
10D
330
1F
100
AcDbEntity
  8
0
  6
Continuous
 62
     7
370
    15
100
AcDbPolyline
 90
        8
 70
   128
 43
0.0
 10
12.1622366364
 20
13.1574329646
 10
12.0129834876
 20
14.2210518927
 10
11.5832261737
 20
15.3287066982
 10
10.9247997693
 20
16.3467978645
 10
10.1171202161
 20
17.1525285715
 10
9.2576055884
 20
17.6487158044
 10
8.4499260352
 20
17.7755120602
 10
7.9375051201
 20
17.6173181786
  0
LWPOLYLINE
  5
10F
330
1F
100
AcDbEntity
  8
0
  6
Continuous
 62
     7
370
    15
100
AcDbPolyline
 90
       12
 70
   128
 43
0.0
 10
24.8426905302
 20
-18.4988006206
 10
25.2392828553
 20
-18.2153215367
 10
25.8711042538
 20
-17.4189061033
 10
26.2633313168
 20
-16.3509362931
 10
26.3962961417
 20
-15.0649645721
 10
26.2633313168
 20
-13.625474932
 10
25.8711042538
 20
-12.1046493942
 10
25.2392828553
 20
-10.5787485016
 10
24.3995492845
 20
-9.1242872964
 10
23.3940112891
 20
-7.8141985369
 10
22.273090743
 20
-6.714175544
 10
21.0929952828
 20
-5.8793780636
  0
LWPOLYLINE
  5
117
330
1F
100
AcDbEntity
  8
0
  6
Continuous
 62
     7
370
    15
100
AcDbPolyline
 90
       11
 70
   128
 43
0.0
 10
22.6874090463
 20
-15.7451880448
 10
22.3588198955
 20
-15.7694876635
 10
21.5278153782
 20
-15.5857604825
 10
20.6581751874
 20
-15.0837278864
 10
19.8271706701
 20
-14.3079976744
 10
19.1086402247
 20
-13.3274968801
 10
18.5664284344
 20
-12.2293473019
 10
18.2487131963
 20
-11.111124349
 10
18.1837249034
 20
-10.072187038
 10
18.3772380509
 20
-9.2048495083
 10
18.6500533819
 20
-8.7515251278
  0
LWPOLYLINE
  5
150
330
1F
100
AcDbEntity
  8
0
  6
Continuous
 62
     7
370
    15
100
AcDbPolyline
 90
        9
 70
   128
 43
0.0
 10
2.3334523779
 20
-5.8827135509
 10
2.7028448614
 20
-6.2980817559
 10
2.997755696
 20
-6.7951815703
 10
3.187801632
 20
-7.3227991827
 10
3.2534031472
 20
-7.8265766789
 10
3.187801632
 20
-8.2546122778
 10
2.997755696
 20
-8.5628075231
 10
2.7028448614
 20
-8.7194105355
 10
2.3334523779
 20
-8.7082872572
  0
LWPOLYLINE
  5
154
330
1F
100
AcDbEntity
  8
0
  6
Continuous
 62
     7
370
    15
100
AcDbPolyline
 90
        9
 70
   128
 43
0.0
 10
1.6263455967
 20
-8.3000832013
 10
1.2569531133
 20
-7.8847149963
 10
0.9620422786
 20
-7.3876151819
 10
0.7719963427
 20
-6.8599975695
 10
0.7063948274
 20
-6.3562200733
 10
0.7719963427
 20
-5.9281844744
 10
0.9620422786
 20
-5.6199892291
 10
1.2569531133
 20
-5.4633862167
 10
1.6263455967
 20
-5.474509495
  0
LWPOLYLINE
  5
158
330
1F
100
AcDbEntity
  8
0
  6
Continuous
 62
     7
370
    15
100
AcDbPolyline
 90
        7
 70
   128
 43
0.0
 10
4.1014349678
 20
-7.2953922602
 10
4.0049915526
 20
-6.7179971241
 10
3.7289305521
 20
-6.0815349516
 10
3.3157760678
 20
-5.5242408905
 10
2.8284271247
 20
-5.1309579097
 10
2.3410781817
 20
-4.9615597779
 10
1.927996879
 20
-5.0417935714
  0
LWPOLYLINE
  5
163
330
1F
100
AcDbEntity
  8
0
  6
Continuous
 62
     7
370
    15
100
AcDbPolyline
 90
        9
 70
   128
 43
0.0
 10
2.3334523779
 20
-11.9268155466
 10
2.7028448614
 20
-12.3421837515
 10
2.997755696
 20
-12.839283566
 10
3.187801632
 20
-13.3669011783
 10
3.2534031472
 20
-13.8706786745
 10
3.187801632
 20
-14.2987142735
 10
2.997755696
 20
-14.6069095187
 10
2.7028448614
 20
-14.7635125311
 10
2.3334523779
 20
-14.7523892528
  0
LWPOLYLINE
  5
167
330
1F
100
AcDbEntity
  8
0
  6
Continuous
 62
     7
370
    15
100
AcDbPolyline
 90
        9
 70
   128
 43
0.0
 10
1.6263455967
 20
-14.3441851969
 10
1.2569531133
 20
-13.9288169919
 10
0.9620422786
 20
-13.4317171775
 10
0.7719963427
 20
-12.9040995651
 10
0.7063948274
 20
-12.4003220689
 10
0.7719963427
 20
-11.97228647
 10
0.9620422786
 20
-11.6640912248
 10
1.2569531133
 20
-11.5074882124
 10
1.6263455967
 20
-11.5186114907
  0
LWPOLYLINE
  5
16B
330
1F
100
AcDbEntity
  8
0
  6
Continuous
 62
     7
370
    15
100
AcDbPolyline
 90
        7
 70
   128
 43
0.0
 10
4.1014349678
 20
-13.3394942558
 10
4.0049915526
 20
-12.7620991198
 10
3.7289305521
 20
-12.1256369473
 10
3.3157760678
 20
-11.5683428861
 10
2.8284271247
 20
-11.1750599053
 10
2.3410781817
 20
-11.0056617735
 10
1.927996879
 20
-11.085895567
  0
LWPOLYLINE
  5
16D
330
1F
100
AcDbEntity
  8
0
  6
Continuous
 62
     7
370
    15
100
AcDbPolyline
 90
        9
 70
   128
 43
0.0
 10
-3.1819805153
 20
-2.6987219148
 10
-2.8125880319
 20
-3.1140901198
 10
-2.5176771972
 20
-3.6111899342
 10
-2.3276312613
 20
-4.1388075466
 10
-2.262029746
 20
-4.6425850428
 10
-2.3276312613
 20
-5.0706206417
 10
-2.5176771972
 20
-5.378815887
 10
-2.8125880319
 20
-5.5354188994
 10
-3.1819805153
 20
-5.5242956211
  0
LWPOLYLINE
  5
171
330
1F
100
AcDbEntity
  8
0
  6
Continuous
 62
     7
370
    15
100
AcDbPolyline
 90
        9
 70
   128
 43
0.0
 10
-3.8890872965
 20
-5.1160915651
 10
-4.25847978
 20
-4.7007233602
 10
-4.5533906146
 20
-4.2036235458
 10
-4.7434365506
 20
-3.6760059334
 10
-4.8090380658
 20
-3.1722284372
 10
-4.7434365506
 20
-2.7441928383
 10
-4.5533906146
 20
-2.435997593
 10
-4.25847978
 20
-2.2793945806
 10
-3.8890872965
 20
-2.2905178589
  0
LWPOLYLINE
  5
175
330
1F
100
AcDbEntity
  8
0
  6
Continuous
 62
     7
370
    15
100
AcDbPolyline
 90
        7
 70
   128
 43
0.0
 10
-1.4139979255
 20
-4.1114006241
 10
-1.5104413406
 20
-3.534005488
 10
-1.7865023412
 20
-2.8975433155
 10
-2.1996568255
 20
-2.3402492544
 10
-2.6870057685
 20
-1.9469662736
 10
-3.1743547115
 20
-1.7775681418
 10
-3.5874360143
 20
-1.8578019353
  0
LWPOLYLINE
  5
186
330
1F
100
AcDbEntity
  8
0
  6
Continuous
 62
     7
370
    15
100
AcDbPolyline
 90
        9
 70
   128
 43
0.0
 10
-3.1819805153
 20
-8.7428239105
 10
-2.8125880319
 20
-9.1581921154
 10
-2.5176771972
 20
-9.6552919298
 10
-2.3276312613
 20
-10.1829095422
 10
-2.262029746
 20
-10.6866870384
 10
-2.3276312613
 20
-11.1147226374
 10
-2.5176771972
 20
-11.4229178826
 10
-2.8125880319
 20
-11.579520895
 10
-3.1819805153
 20
-11.5683976167
  0
LWPOLYLINE
  5
18A
330
1F
100
AcDbEntity
  8
0
  6
Continuous
 62
     7
370
    15
100
AcDbPolyline
 90
        9
 70
   128
 43
0.0
 10
-3.8890872965
 20
-11.1601935608
 10
-4.25847978
 20
-10.7448253558
 10
-4.5533906146
 20
-10.2477255414
 10
-4.7434365506
 20
-9.720107929
 10
-4.8090380658
 20
-9.2163304328
 10
-4.7434365506
 20
-8.7882948339
 10
-4.5533906146
 20
-8.4800995887
 10
-4.25847978
 20
-8.3234965763
 10
-3.8890872965
 20
-8.3346198546
  0
LWPOLYLINE
  5
18E
330
1F
100
AcDbEntity
  8
0
  6
Continuous
 62
     7
370
    15
100
AcDbPolyline
 90
        7
 70
   128
 43
0.0
 10
-1.4139979255
 20
-10.1555026197
 10
-1.5104413406
 20
-9.5781074837
 10
-1.7865023412
 20
-8.9416453112
 10
-2.1996568255
 20
-8.38435125
 10
-2.6870057685
 20
-7.9910682692
 10
-3.1743547115
 20
-7.8216701374
 10
-3.5874360143
 20
-7.9019039309
  0
LWPOLYLINE
  5
190
330
1F
100
AcDbEntity
  8
0
  6
Continuous
 62
     7
370
    15
100
AcDbPolyline
 90
        9
 70
   128
 43
0.0
 10
-8.6974134086
 20
0.4852697213
 10
-8.3280209252
 20
0.0699015163
 10
-8.0331100905
 20
-0.4271982981
 10
-7.8430641545
 20
-0.9548159105
 10
-7.7774626393
 20
-1.4585934067
 10
-7.8430641545
 20
-1.8866290056
 10
-8.0331100905
 20
-2.1948242508
 10
-8.3280209252
 20
-2.3514272632
 10
-8.6974134086
 20
-2.340303985
  0
LWPOLYLINE
  5
194
330
1F
100
AcDbEntity
  8
0
  6
Continuous
 62
     7
370
    15
100
AcDbPolyline
 90
        9
 70
   128
 43
0.0
 10
-9.4045201898
 20
-1.932099929
 10
-9.7739126732
 20
-1.5167317241
 10
-10.0688235079
 20
-1.0196319097
 10
-10.2588694438
 20
-0.4920142973
 10
-10.3244709591
 20
0.0117631989
 10
-10.2588694438
 20
0.4397987979
 10
-10.0688235079
 20
0.7479940431
 10
-9.7739126732
 20
0.9045970555
 10
-9.4045201898
 20
0.8934737772
  0
LWPOLYLINE
  5
198
330
1F
100
AcDbEntity
  8
0
  6
Continuous
 62
     7
370
    15
100
AcDbPolyline
 90
        7
 70
   128
 43
0.0
 10
-6.9294308187
 20
-0.927408988
 10
-7.0258742339
 20
-0.3500138519
 10
-7.3019352344
 20
0.2864483206
 10
-7.7150897187
 20
0.8437423817
 10
-8.2024386618
 20
1.2370253625
 10
-8.6897876048
 20
1.4064234943
 10
-9.1028689075
 20
1.3261897008
  0
LWPOLYLINE
  5
1A9
330
1F
100
AcDbEntity
  8
0
  6
Continuous
 62
     7
370
    15
100
AcDbPolyline
 90
        9
 70
   128
 43
0.0
 10
-8.6974134086
 20
-5.5588322744
 10
-8.3280209252
 20
-5.9742004793
 10
-8.0331100905
 20
-6.4713002937
 10
-7.8430641545
 20
-6.9989179061
 10
-7.7774626393
 20
-7.5026954023
 10
-7.8430641545
 20
-7.9307310012
 10
-8.0331100905
 20
-8.2389262465
 10
-8.3280209252
 20
-8.3955292589
 10
-8.6974134086
 20
-8.3844059806
  0
LWPOLYLINE
  5
1AD
330
1F
100
AcDbEntity
  8
0
  6
Continuous
 62
     7
370
    15
100
AcDbPolyline
 90
        9
 70
   128
 43
0.0
 10
-9.4045201898
 20
-7.9762019247
 10
-9.7739126732
 20
-7.5608337197
 10
-10.0688235079
 20
-7.0637339053
 10
-10.2588694438
 20
-6.5361162929
 10
-10.3244709591
 20
-6.0323387967
 10
-10.2588694438
 20
-5.6043031978
 10
-10.0688235079
 20
-5.2961079525
 10
-9.7739126732
 20
-5.1395049401
 10
-9.4045201898
 20
-5.1506282184
  0
LWPOLYLINE
  5
1B1
330
1F
100
AcDbEntity
  8
0
  6
Continuous
 62
     7
370
    15
100
AcDbPolyline
 90
        7
 70
   128
 43
0.0
 10
-6.9294308187
 20
-6.9715109836
 10
-7.0258742339
 20
-6.3941158475
 10
-7.3019352344
 20
-5.757653675
 10
-7.7150897187
 20
-5.2003596139
 10
-8.2024386618
 20
-4.8070766331
 10
-8.6897876048
 20
-4.6376785013
 10
-9.1028689075
 20
-4.7179122948
  0
LWPOLYLINE
  5
1C0
330
1F
100
AcDbEntity
  8
0
  6
Continuous
 62
     7
370
    15
100
AcDbPolyline
 90
        7
 70
   128
 43
0.0
 10
-4.0656854249
 20
-17.1435405859
 10
-3.9911943836
 20
-17.5581796197
 10
-3.5723742652
 20
-18.1778079068
 10
-2.8277327575
 20
-18.6853572814
 10
-1.8379633219
 20
-19.0258268933
 10
-0.7103228348
 20
-19.162321577
 10
-0.2121320344
 20
-19.1537124363
  0
LWPOLYLINE
  5
1C1
330
1F
100
AcDbEntity
  8
0
  6
Continuous
 62
     7
370
    15
100
AcDbPolyline
 90
        3
 70
   128
 43
0.0
 10
2.8975742554
 20
-16.3653880728
 10
3.050897879
 20
-16.5186649702
 10
3.1880855296
 20
-16.6836956152
  0
LWPOLYLINE
  5
1C2
330
1F
100
AcDbEntity
  8
0
  6
Continuous
 62
     7
370
    15
100
AcDbPolyline
 90
       10
 70
   128
 43
0.0
 10
0.311362053
 20
-19.9286551115
 10
-0.7186387271
 20
-19.9819196805
 10
-1.9167327542
 20
-19.8510533935
 10
-2.9947802971
 20
-19.5221351977
 10
-3.8569921007
 20
-19.0243909183
 10
-4.4267568624
 20
-18.4020473188
 10
-4.653448483
 20
-17.710402359
 10
-4.516924417
 20
-17.010911729
 10
-4.0293154268
 20
-16.3657282408
 10
-4.0289451053
 20
-16.3653880728
  0
LWPOLYLINE
  5
1C3
330
1F
100
AcDbEntity
  8
0
  6
Continuous
 62
     7
370
    15
100
AcDbPolyline
 90
        9
 70
   128
 43
0.0
 10
-3.0405591591
 20
-15.2286652868
 10
-3.7100538616
 20
-15.7699797037
 10
-4.038807454
 20
-16.4074576561
 10
-3.9911943836
 20
-17.0720185163
 10
-3.5723742652
 20
-17.6916468034
 10
-2.8277327575
 20
-18.199196178
 10
-1.8379633219
 20
-18.5396657898
 10
-0.7103228348
 20
-18.6761604736
 10
-0.2121320344
 20
-18.6675513328
  0
LWPOLYLINE
  5
1C6
330
1F
100
AcDbEntity
  8
0
  6
Continuous
 62
     7
370
    15
100
AcDbPolyline
 90
        9
 70
   128
 43
0.0
 10
-2.6162950904
 20
-15.4735877203
 10
-1.7370563391
 20
-15.1258916303
 10
-0.699617455
 20
-14.9850314609
 10
0.3559096918
 20
-15.0700311587
 10
1.2869703114
 20
-15.3694110434
 10
1.9678195079
 20
-15.8427382027
 10
2.3065048246
 20
-16.4260871809
 10
2.2572849327
 20
-17.040673466
 10
2.1061471094
 20
-17.3082853704
  0
LWPOLYLINE
  5
1C7
330
1F
100
AcDbEntity
  8
0
  6
Continuous
 62
     7
370
    15
100
AcDbPolyline
 90
        9
 70
   128
 43
0.0
 10
0.5618388135
 20
-18.1997955733
 10
0.0982711699
 20
-18.2870455815
 10
-0.9663388543
 20
-18.3154596203
 10
-1.9768384128
 20
-18.1199407487
 10
-2.7967539408
 20
-17.7268948738
 10
-3.315351303
 20
-17.1894050189
 10
-3.4625910519
 20
-16.5800621672
 10
-3.2185876436
 20
-15.9811614474
 10
-2.6162950904
 20
-15.4735877203
  0
LWPOLYLINE
  5
1CB
330
1F
100
AcDbEntity
  8
0
  6
Continuous
 62
     7
370
    15
100
AcDbPolyline
 90
        9
 70
   128
 43
0.0
 10
-0.2027531066
 20
-22.4081015077
 10
-0.7209505214
 20
-22.4155988091
 10
-1.9371529962
 20
-22.2827545594
 10
-3.0314945588
 20
-21.9488649692
 10
-3.9067381588
 20
-21.4435975938
 10
-4.4851145614
 20
-20.8118476569
 10
-4.7152324851
 20
-20.1097489128
 10
-4.5766449426
 20
-19.3996859159
 10
-4.1252472942
 20
-18.7856965037
  0
LWPOLYLINE
  5
1CC
330
1F
100
AcDbEntity
  8
0
  6
Continuous
 62
     7
370
    15
100
AcDbPolyline
 90
       11
 70
   128
 43
0.0
 10
-4.0656854249
 20
-81.9806444333
 10
-3.9911943836
 20
-82.3952834671
 10
-3.5723742652
 20
-83.0149117542
 10
-2.8277327575
 20
-83.5224611288
 10
-1.8379633219
 20
-83.8629307407
 10
-0.7103228348
 20
-83.9994254245
 10
0.4329913599
 20
-83.9171538632
 10
1.468083429
 20
-83.6250314572
 10
2.2827850855
 20
-83.1547142019
 10
2.7888107637
 20
-82.5571682696
 10
2.9343145751
 20
-81.9806444333
  0
LWPOLYLINE
  5
1CD
330
1F
100
AcDbEntity
  8
0
  6
Continuous
 62
     7
370
    15
100
AcDbPolyline
 90
        8
 70
   128
 43
0.0
 10
-2.1920310217
 20
447.8428213769
 10
-1.3101166114
 20
447.4863328689
 10
-0.2701828025
 20
447.3254719803
 10
0.8023390398
 20
447.3796409083
 10
1.7780869527
 20
447.6423060808
 10
2.5393713373
 20
448.0817862014
 10
2.9943700615
 20
448.6450734816
 10
3.1
 20
449.1082539502
  0
LWPOLYLINE
  5
1CF
330
1F
100
AcDbEntity
  8
0
  6
Continuous
 62
     7
370
    15
100
AcDbPolyline
 90
       10
 70
   128
 43
0.0
 10
2.4133472463
 20
3.7282461304
 10
2.3798304574
 20
3.7509299264
 10
2.2146292646
 20
3.7421665877
 10
1.9665755224
 20
3.6293799405
 10
1.6734331645
 20
3.4297407293
 10
1.3798304574
 20
3.1736422143
 10
1.1304657519
 20
2.9000730729
 10
0.9633025639
 20
2.650681727
 10
0.9037899733
 20
2.4634357481
 10
0.9274714438
 20
2.3895254353
  0
LWPOLYLINE
  5
1D3
330
1F
100
AcDbEntity
  8
0
  6
Continuous
 62
     7
370
    15
100
AcDbPolyline
 90
       10
 70
   128
 43
0.0
 10
2.2273863607
 20
14.6475104687
 10
1.3312475245
 20
14.285272146
 10
0.2745405897
 20
14.121816727
 10
-0.8152799921
 20
14.1768593474
 10
-1.8067657745
 20
14.4437610549
 10
-2.5803289395
 20
14.8903295646
 10
-3.0426663528
 20
15.4627021235
 10
-3.138013299
 20
16.0918421537
 10
-2.8548695292
 20
16.7018660825
 10
-2.5
 20
17.0396540172
  0
LWPOLYLINE
  5
1D4
330
1F
100
AcDbEntity
  8
0
  6
Continuous
 62
     7
370
    15
100
AcDbPolyline
 90
        6
 70
   128
 43
0.0
 10
2.5
 20
17.0396540172
 10
2.5803289395
 20
16.9763769251
 10
3.0426663528
 20
16.4040043662
 10
3.138013299
 20
15.774864336
 10
2.8548695292
 20
15.1648404072
 10
2.2273863607
 20
14.6475104687
  0
LWPOLYLINE
  5
1D5
330
1F
100
AcDbEntity
  8
0
  6
Continuous
 62
     7
370
    15
100
AcDbPolyline
 90
        3
 70
   128
 43
0.0
 10
2.2273863607
 20
4.0324799142
 10
2.8548695292
 20
4.5498098527
 10
3.1351706124
 20
5.1420794546
  0
LWPOLYLINE
  5
1D6
330
1F
100
AcDbEntity
  8
0
  6
Continuous
 62
     7
370
    15
100
AcDbPolyline
 90
        8
 70
   128
 43
0.0
 10
-3.15
 20
5.3183226903
 10
-3.0426663528
 20
4.847671569
 10
-2.5803289395
 20
4.2752990101
 10
-1.8067657745
 20
3.8287305004
 10
-0.8152799921
 20
3.5618287929
 10
0.2745405897
 20
3.5067861725
 10
1.3312475245
 20
3.6702415915
 10
2.2273863607
 20
4.0324799142
  0
LWPOLYLINE
  5
1D7
330
1F
100
AcDbEntity
  8
0
  6
Continuous
 62
     7
370
    15
100
AcDbPolyline
 90
        4
 70
   128
 43
0.0
 10
1.803122292
 20
14.8924329023
 10
2.3558928079
 20
15.3700112149
 10
2.55
 20
15.9333532448
 10
2.5
 20
16.22343673
  0
LWPOLYLINE
  5
1D8
330
1F
100
AcDbEntity
  8
0
  6
Continuous
 62
     7
370
    15
100
AcDbPolyline
 90
        8
 70
   128
 43
0.0
 10
-2.5
 20
16.22343673
 10
-2.55
 20
15.9333532448
 10
-2.3558928079
 20
15.3700112149
 10
-1.803122292
 20
14.8924329023
 10
-0.9758427525
 20
14.5733252758
 10
0.0
 20
14.461269579
 10
0.9758427525
 20
14.5733252758
 10
1.803122292
 20
14.8924329023
  0
LWPOLYLINE
  5
1D9
330
1F
100
AcDbEntity
  8
0
  6
Continuous
 62
     7
370
    15
100
AcDbPolyline
 90
       15
 70
   128
 43
0.0
 10
2.5
 20
156.2598624438
 10
2.8548695292
 20
155.922074509
 10
3.138013299
 20
155.3120505802
 10
3.0426663528
 20
154.68291055
 10
2.5803289395
 20
154.1105379911
 10
1.8067657745
 20
153.6639694814
 10
0.8152799921
 20
153.3970677739
 10
-0.2745405897
 20
153.3420251535
 10
-1.3312475245
 20
153.5054805726
 10
-2.2273863607
 20
153.8677188952
 10
-2.8548695292
 20
154.3850488337
 10
-3.138013299
 20
154.9950727625
 10
-3.0426663528
 20
155.6242127927
 10
-2.5803289395
 20
156.1965853516
 10
-2.5
 20
156.2598624438
  0
LWPOLYLINE
  5
1DA
330
1F
100
AcDbEntity
  8
0
  6
Continuous
 62
     7
370
    15
100
AcDbPolyline
 90
       11
 70
   128
 43
0.0
 10
-2.5
 20
155.4436451566
 10
-2.55
 20
155.1535616714
 10
-2.3558928079
 20
154.5902196414
 10
-1.803122292
 20
154.1126413288
 10
-0.9758427525
 20
153.7935337024
 10
0.0
 20
153.6814780055
 10
0.9758427525
 20
153.7935337024
 10
1.803122292
 20
154.1126413288
 10
2.3558928079
 20
154.5902196414
 10
2.55
 20
155.1535616714
 10
2.5
 20
155.4436451566
  0
SPLINE
  5
1DB
330
1F
100
AcDbEntity
  8
0
  6
Continuous
 62
     7
370
    15
100
AcDbSpline
210
0.0
220
0.0
230
1.0
 70
     8
 71
     3
 72
    12
 73
     8
 74
     0
 42
0.000000001
 43
0.00000001
 40
0.0
 40
0.0
 40
0.0
 40
0.0
 40
0.2192345655710664
 40
0.4384691311421326
 40
0.657703696713199
 40
0.8769382622842652
 40
1.0
 40
1.0
 40
1.0
 40
1.0
 10
-4.242640687138364
 20
148.6216332764033
 30
0.0
 10
-4.733830179714407
 20
148.9787158191547
 30
0.0
 10
-5.716209164866492
 20
149.6928809046574
 30
0.0
 10
-6.152185823953701
 20
151.0789248237971
 30
0.0
 10
-5.675047539483479
 20
152.4165654714536
 30
0.0
 10
-4.592665647982468
 20
153.455146230758
 30
0.0
 10
-3.531506122040237
 20
153.8129211113938
 30
0.0
 10
-3.149999999998831
 20
153.9415476787838
 30
0.0
  0
LWPOLYLINE
  5
1DD
330
1F
100
AcDbEntity
  8
0
  6
Continuous
 62
     7
370
    15
100
AcDbPolyline
 90
       13
 70
   128
 43
0.0
 10
4.2426406871
 20
153.5200819474
 10
5.1961524227
 20
152.8027207481
 10
5.7955549578
 20
151.9673359382
 10
6.0
 20
151.0708576119
 10
5.7955549578
 20
150.1743792855
 10
5.1961524227
 20
149.3389944756
 10
4.2426406871
 20
148.6216332764
 10
3.0
 20
148.0711826681
 10
1.5529142706
 20
147.7251549501
 10
0.0
 20
147.6071313394
 10
-1.5529142706
 20
147.7251549501
 10
-3.0
 20
148.0711826681
 10
-4.2426406871
 20
148.6216332764
  0
LWPOLYLINE
  5
1DE
330
1F
100
AcDbEntity
  8
0
  6
Continuous
 62
     7
370
    15
100
AcDbPolyline
 90
        8
 70
   128
 43
0.0
 10
-4.5961940777
 20
148.0092608426
 10
-5.5322583708
 20
148.6926807677
 10
-6.1700771832
 20
149.4822988589
 10
-6.4752655376
 20
150.3355466004
 10
-6.4313706508
 20
151.2064251855
 10
-6.0407589075
 20
152.0479853244
 10
-5.3244882879
 20
152.8148582922
 10
-4.5969409064
 20
153.3154823643
  0
LWPOLYLINE
  5
1DF
330
1F
100
AcDbEntity
  8
0
  6
Continuous
 62
     7
370
    15
100
AcDbPolyline
 90
       15
 70
   128
 43
0.0
 10
4.5969409064
 20
153.3154823643
 10
5.098701822
 20
152.9899403361
 10
5.8910006157
 20
152.2484073471
 10
6.3657140415
 20
151.4213823839
 10
6.4972501755
 20
150.5534505762
 10
6.2785178709
 20
149.6914023524
 10
5.7213090427
 20
148.8817109555
 10
4.8556629631
 20
148.1680270583
 10
3.7282468363
 20
147.5888255443
 10
2.3998399575
 20
147.175331317
 10
0.9420570855
 20
146.9498359574
 10
-0.5665123279
 20
146.9244959786
 10
-2.044540915
 20
147.1006774655
 10
-3.4123477722
 20
147.4688824284
 10
-4.5961940777
 20
148.0092608426
  0
LWPOLYLINE
  5
1E0
330
1F
100
AcDbEntity
  8
0
  6
Continuous
 62
     7
370
    15
100
AcDbPolyline
 90
       12
 70
   128
 43
0.0
 10
-4.5961940777
 20
134.9446078524
 10
-3.4123477722
 20
134.4042294382
 10
-2.044540915
 20
134.0360244753
 10
-0.5665123279
 20
133.8598429885
 10
0.9420570855
 20
133.8851829673
 10
2.3998399575
 20
134.1106783269
 10
3.7282468363
 20
134.5241725541
 10
4.8556629631
 20
135.1033740681
 10
5.7213090427
 20
135.8170579654
 10
6.2785178709
 20
136.6267493623
 10
6.4972501755
 20
137.488797586
 10
6.5
 20
137.5979342158
  0
SPLINE
  5
1E3
330
1F
100
AcDbEntity
  8
0
  6
Continuous
 62
     7
370
    15
100
AcDbSpline
210
0.0
220
0.0
230
1.0
 70
     8
 71
     3
 72
    21
 73
    17
 74
     0
 42
0.000000001
 43
0.00000001
 40
0.0
 40
0.0
 40
0.0
 40
0.0
 40
0.0769093801030843
 40
0.1538187602061683
 40
0.2307281403092526
 40
0.3076375204123369
 40
0.3845469005154211
 40
0.4614562806185051
 40
0.5383656607215894
 40
0.6152750408246738
 40
0.692184420927758
 40
0.7690938010308421
 40
0.8460031811339265
 40
0.9229125612370106
 40
0.9998219413400948
 40
1.0
 40
1.0
 40
1.0
 40
1.0
 10
-3.251554568105686
 20
150.3231880297633
 30
0.0
 10
-3.125653725532938
 20
150.1729722493225
 30
0.0
 10
-2.873852040387444
 20
149.8725406884407
 30
0.0
 10
-2.268562365383787
 20
149.5068885333964
 30
0.0
 10
-1.539600314483855
 20
149.2330155750749
 30
0.0
 10
-0.71327717947721
 20
149.0717008038055
 30
0.0
 10
0.1553749648517382
 20
149.0316398752294
 30
0.0
 10
1.014849667473743
 20
149.1155606289972
 30
0.0
 10
1.812610698888434
 20
149.318297121323
 30
0.0
 10
2.500124136965908
 20
149.6275004028229
 30
0.0
 10
3.036135158172529
 20
150.0245617648247
 30
0.0
 10
3.386025883477482
 20
150.4846554908025
 30
0.0
 10
3.536188378722664
 20
150.9824270317227
 30
0.0
 10
3.448923589085493
 20
151.4779037303667
 30
0.0
 10
3.306927029314167
 20
151.8111963510881
 30
0.0
 10
3.15036163899238
 20
151.9509280522061
 30
0.0
 10
3.150000000001183
 20
151.9512508082847
 30
0.0
  0
LWPOLYLINE
  5
1E5
330
1F
100
AcDbEntity
  8
0
  6
Continuous
 62
     7
370
    15
100
AcDbPolyline
 90
       12
 70
   128
 43
0.0
 10
4.5961940777
 20
462.7857438245
 10
3.4123477722
 20
462.2453654104
 10
2.044540915
 20
461.8771604474
 10
0.5665123279
 20
461.7009789606
 10
-0.9420570855
 20
461.7263189394
 10
-2.3998399575
 20
461.951814299
 10
-3.7282468363
 20
462.3653085262
 10
-4.8556629631
 20
462.9445100402
 10
-5.7213090427
 20
463.6581939375
 10
-6.2785178709
 20
464.4678853344
 10
-6.4972501755
 20
465.3299335581
 10
-6.5
 20
465.4390701879
  0
LWPOLYLINE
  5
1E8
330
1F
100
AcDbEntity
  8
0
  6
Continuous
 62
     7
370
    15
100
AcDbPolyline
 90
       12
 70
   128
 43
0.0
 10
-6.5
 20
453.1909580097
 10
-6.4972501755
 20
453.0818213798
 10
-6.2785178709
 20
452.2197731561
 10
-5.7213090427
 20
451.4100817592
 10
-4.8556629631
 20
450.6963978619
 10
-3.7282468363
 20
450.1171963479
 10
-2.3998399575
 20
449.7037021207
 10
-0.9420570855
 20
449.4782067611
 10
0.5665123279
 20
449.4528667823
 10
2.044540915
 20
449.6290482692
 10
3.4123477722
 20
449.9972532321
 10
4.5961940777
 20
450.5376316462
  0
SPLINE
  5
1EA
330
1F
100
AcDbEntity
  8
0
  6
Continuous
 62
     7
370
    15
100
AcDbSpline
210
0.0
220
0.0
230
1.0
 70
     8
 71
     3
 72
    22
 73
    18
 74
     0
 42
0.000000001
 43
0.00000001
 40
0.0
 40
0.0
 40
0.0
 40
0.0
 40
0.125
 40
0.125
 40
0.2500000000000001
 40
0.2500000000000001
 40
0.375
 40
0.375
 40
0.5
 40
0.5
 40
0.625
 40
0.625
 40
0.75
 40
0.75
 40
0.8750000000000001
 40
0.8750000000000001
 40
1.0
 40
1.0
 40
1.0
 40
1.0
 10
-6.500000000000715
 20
465.4390701879421
 30
0.0
 10
-6.500000000000717
 20
465.0706821120228
 30
0.0
 10
-6.405353287317261
 20
464.702340045285
 30
0.0
 10
-6.034871077202889
 20
463.9972892271849
 30
0.0
 10
-5.75908185049692
 20
463.660668531906
 30
0.0
 10
-5.050023109437604
 20
463.0480615505829
 30
0.0
 10
-4.616842151730393
 20
462.7721517750115
 30
0.0
 10
-3.630270542398444
 20
462.3047459323532
 30
0.0
 10
-3.077003106902129
 20
462.1133082410977
 30
0.0
 10
-1.897881513845485
 20
461.8313562144272
 30
0.0
 10
-1.272174620605616
 20
461.7408770929154
 30
0.0
 10
-0.0020482036801228
 20
461.6686604014492
 30
0.0
 10
0.6422126897974011
 20
461.6869318508716
 30
0.0
 10
1.893961496410819
 20
461.8306697475878
 30
0.0
 10
2.501293074577972
 20
461.9561182429889
 30
0.0
 10
3.626864504158549
 20
462.3034321167372
 30
0.0
 10
4.144963779305129
 20
462.5252541179273
 30
0.0
 10
4.596194077711838
 20
462.7857438245184
 30
0.0
  0
LWPOLYLINE
  5
1EC
330
1F
100
AcDbEntity
  8
0
  6
Continuous
 62
     7
370
    15
100
AcDbPolyline
 90
       92
 70
   128
 43
0.0
 10
53.033008589
 20
811.1983007286
 10
56.5654533242
 20
809.0131679227
 10
59.8283379146
 20
806.6925524031
 10
62.8061132292
 20
804.2475129596
 10
65.4845888124
 20
801.6897013186
 10
67.8510005085
 20
799.0313066173
 10
69.894071288
 20
796.2849973171
 10
71.6040649881
 20
793.4638608326
 10
72.9728327103
 20
790.5813411638
 10
73.993851653
 20
787.6511748297
 10
74.662256196
 20
784.6873254071
 10
74.9748610872
 20
781.7039169883
 10
74.9301766219
 20
778.7151668731
 10
74.528415742
 20
775.7353178169
 10
73.771493021
 20
772.7785701574
 10
72.6630155405
 20
769.8590141437
 10
71.2082657003
 20
766.9905627897
 10
69.414176046
 20
764.1868855725
 10
67.2892962318
 20
761.4613432908
 10
64.8437522777
 20
758.8269243948
 10
62.0891983143
 20
756.2961830902
 10
59.0387610457
 20
753.8811795118
 10
55.7069771946
 20
751.5934222514
 10
52.1097242283
 20
749.4438135143
 10
48.2641446954
 20
747.442597165
 10
44.1885645337
 20
745.5993099108
 10
39.9024057386
 20
743.9227358547
 10
35.4260938088
 20
742.4208646359
 10
30.780960409
 20
741.1008533545
 10
25.9891417152
 20
739.9689924653
 10
21.0734729258
 20
739.0306758012
 10
16.0573794411
 20
738.2903748681
 10
10.9647652309
 20
737.7516175372
 10
5.819898921
 20
737.4169712326
 10
0.6472981424
 20
737.2880306962
 10
-4.5283873067
 20
737.3654103884
 10
-9.682492928
 20
737.6487415599
 10
-14.7904570611
 20
738.1366740084
 10
-19.8279379308
 20
738.8268825138
 10
-24.7709296466
 20
739.716077918
 10
-29.5958766021
 20
740.8000228002
 10
-34.2797857277
 20
742.0735516693
 10
-38.8003360633
 20
743.5305955803
 10
-43.1359851281
 20
745.1642110554
 10
-47.2660715796
 20
746.966613173
 10
-51.1709136753
 20
748.929212666
 10
-54.8319030642
 20
751.0426568543
 10
-58.2315934646
 20
753.2968742138
 10
-61.3537838037
 20
755.6811223721
 10
-64.1835954226
 20
758.1840393011
 10
-66.7075429803
 20
760.7936974617
 10
-68.9135987172
 20
763.4976606445
 10
-70.7912497731
 20
766.2830432333
 10
-72.3315482857
 20
769.1365716118
 10
-73.5271540312
 20
772.0446474177
 10
-74.3723694036
 20
774.9934123456
 10
-74.8631665668
 20
777.9688141875
 10
-74.9972066488
 20
780.9566737989
 10
-74.7738508875
 20
783.9427526679
 10
-74.194163675
 20
786.9128207689
 10
-73.2609074847
 20
789.8527243749
 10
-71.9785297074
 20
792.7484535063
 10
-70.3531414573
 20
795.5862086951
 10
-68.3924884494
 20
798.3524667455
 10
-66.1059140883
 20
801.0340451782
 10
-63.5043149421
 20
803.6181650508
 10
-60.6000888155
 20
806.0925118553
 10
-57.4070756686
 20
808.4452942022
 10
-53.9404916631
 20
810.6653000124
 10
-50.2168566504
 20
812.7419499471
 10
-46.2539154471
 20
814.6653478237
 10
-42.0705532729
 20
816.4263277753
 10
-37.6867057534
 20
818.0164979307
 10
-33.1232639187
 20
819.4282804048
 10
-28.401974647
 20
820.6549474112
 10
-23.5453370321
 20
821.690653323
 10
-18.5764951636
 20
822.5304625298
 10
-13.519127836
 20
823.1703729585
 10
-8.3973357077
 20
823.6073351443
 10
-3.2355264507
 20
823.8392667635
 10
1.9417015634
 20
823.8650625562
 10
7.1096764852
 20
823.6845995938
 10
12.2437705609
 20
823.2987378644
 10
17.3195174941
 20
822.709316175
 10
22.3127290391
 20
821.9191433883
 10
27.1996102692
 20
820.9319850374
 10
31.9568729696
 20
819.7525453815
 10
36.5618466173
 20
818.3864449876
 10
40.9925864156
 20
816.8401939463
 10
45.2279778718
 20
815.1211608479
 10
49.2478374167
 20
813.2375376679
 10
53.033008589
 20
811.1983007286
  0
LWPOLYLINE
  5
1ED
330
1F
100
AcDbEntity
  8
0
  6
Continuous
 62
     7
370
    15
100
AcDbPolyline
 90
       90
 70
   128
 43
0.0
 10
50.6408925672
 20
809.8173615433
 10
54.0869032241
 20
807.6823777994
 10
57.2634556498
 20
805.4123863012
 10
60.1547244199
 20
803.0186960321
 10
62.7463053789
 20
800.5132322367
 10
65.0252874006
 20
797.9084770095
 10
66.9803167115
 20
795.2174071102
 10
68.6016534536
 20
792.4534293134
 10
69.8812202091
 20
789.6303136177
 10
70.8126422405
 20
786.7621246433
 10
71.3912792504
 20
783.8631515636
 10
71.614248498
 20
780.9478369164
 10
71.480439162
 20
778.0307046529
 10
70.9905178737
 20
775.1262877791
 10
70.1469253962
 20
772.2490559539
 10
68.9538644649
 20
769.4133434014
 10
67.4172788493
 20
766.633277499
 10
65.5448237417
 20
763.9227083952
 10
63.3458276192
 20
761.2951400088
 10
60.8312457699
 20
758.7636627534
 10
58.0136057141
 20
756.3408883214
 10
54.9069447928
 20
754.0388868531
 10
51.5267402344
 20
751.869126804
 10
47.8898320481
 20
749.8424178096
 10
44.0143391274
 20
747.968856832
 10
39.9195689832
 20
746.257777858
 10
35.6259215543
 20
744.7177053968
 10
31.1547875763
 20
743.3563120119
 10
26.5284420137
 20
742.1803800968
 10
21.7699330874
 20
741.1957680851
 10
16.9029674496
 20
740.4073812642
 10
11.9517920781
 20
739.8191473378
 10
6.9410734797
 20
739.4339968576
 10
1.8957748024
 20
739.2538486239
 10
-3.1589685296
 20
739.2796001262
 10
-8.1979740393
 20
739.5111230718
 10
-13.1961376548
 20
739.947264025
 10
-18.1285587762
 20
740.5858501535
 10
-22.9706643296
 20
741.4237000533
 10
-27.6983311889
 20
742.4566395985
 10
-32.2880063554
 20
743.6795227361
 10
-36.7168242984
 20
745.0862571239
 10
-40.9627208697
 20
746.6698344819
 10
-45.0045432261
 20
748.4223655074
 10
-48.8221552119
 20
750.3351191789
 10
-52.3965376763
 20
752.3985662539
 10
-55.7098832256
 20
754.6024267428
 10
-58.745684939
 20
756.9357211236
 10
-61.488818605
 20
759.386825041
 10
-63.9256180697
 20
761.9435272185
 10
-66.0439433207
 20
764.5930902946
 10
-67.8332409682
 20
767.3223142793
 10
-69.2845968214
 20
770.1176023159
 10
-70.3907802983
 20
772.9650284202
 10
-71.1462804485
 20
775.8504068583
 10
-71.5473334082
 20
778.7593628202
 10
-71.5919411519
 20
781.6774040336
 10
-71.279881446
 20
784.5899929638
 10
-70.6127089561
 20
787.4826192393
 10
-69.5937475022
 20
790.3408719417
 10
-68.2280734989
 20
793.1505113995
 10
-66.5224906654
 20
795.8975401305
 10
-64.4854961296
 20
798.5682725757
 10
-62.1272380957
 20
801.1494032803
 10
-59.4594652868
 20
803.628073181
 10
-56.4954684128
 20
805.9919336691
 10
-53.2500139569
 20
808.2292081105
 10
-49.73927061
 20
810.3287505164
 10
-45.9807287189
 20
812.2801010723
 10
-41.9931131502
 20
814.0735382478
 10
-37.7962900042
 20
815.7001272291
 10
-33.4111676425
 20
817.1517644317
 10
-28.8595925243
 20
818.4212178721
 10
-24.1642403678
 20
819.5021631972
 10
-19.3485031813
 20
820.3892151916
 10
-14.4363727252
 20
821.077954607
 10
-9.4523209864
 20
821.5649501783
 10
-4.4211782599
 20
821.847775718
 10
0.6319905544
 20
821.9250222034
 10
5.6820108234
 20
821.7963047965
 10
10.7037236004
 20
821.462264761
 10
15.6721109648
 20
820.9245662675
 10
20.5624206607
 20
820.1858881028
 10
25.3502894112
 20
819.2499103244
 10
30.011864295
 20
818.1212959265
 10
34.5239215805
 20
816.8056676092
 10
38.8639824254
 20
815.3095797668
 10
43.0104248647
 20
813.6404858335
 10
46.9425915308
 20
811.8067011513
 10
50.6408925672
 20
809.8173615433
  0
LWPOLYLINE
  5
1EF
330
1F
100
AcDbEntity
  8
0
  6
Continuous
 62
     8
370
    15
100
AcDbPolyline
 90
        5
 70
   128
 43
0.0
 10
4.3510400876
 20
-1.410369363
 10
4.3273586171
 20
-1.3364590501
 10
4.3868712076
 20
-1.1492130713
 10
4.5540343957
 20
-0.8998217253
 10
4.5961940777
 20
-0.8483394559
  0
LWPOLYLINE
  5
1F1
330
1F
100
AcDbEntity
  8
0
  6
Continuous
 62
     8
370
    15
100
AcDbPolyline
 90
       10
 70
   128
 43
0.0
 10
-5.049369203
 20
6.1393773144
 10
-5.0970018082
 20
6.1395706727
 10
-5.3901441662
 20
6.0528131293
 10
-5.6381979084
 20
5.8271448143
 10
-5.8033991012
 20
5.4969216829
 10
-5.8605973606
 20
5.1124172135
 10
-5.80108477
 20
4.7321687259
 10
-5.633921582
 20
4.4140656054
 10
-5.3845568765
 20
4.2065361686
 10
-5.1546320512
 20
4.1423050065
  0
LWPOLYLINE
  5
1F2
330
1F
100
AcDbEntity
  8
0
  6
Continuous
 62
     8
370
    15
100
AcDbPolyline
 90
        7
 70
   128
 43
0.0
 10
-6.5295741893
 20
4.6051342473
 10
-6.4534545614
 20
4.3849638696
 10
-6.2366818101
 20
4.1976782568
 10
-5.9122584612
 20
4.0725380111
 10
-5.5295750289
 20
4.0285946006
 10
-5.1468915965
 20
4.0725380111
 10
-4.9555105552
 20
4.1331933034
  0
SPLINE
  5
1F3
330
1F
100
AcDbEntity
  8
0
  6
Continuous
 62
     8
370
    15
100
AcDbSpline
210
0.0
220
0.0
230
1.0
 70
     8
 71
     3
 72
    13
 73
     9
 74
     0
 42
0.000000001
 43
0.00000001
 40
0.0
 40
0.0
 40
0.0
 40
0.0
 40
0.1606386231847681
 40
0.3285108985478146
 40
0.4963831739108612
 40
0.664255449273907
 40
0.8321277246369536
 40
1.0
 40
1.0
 40
1.0
 40
1.0
 10
-2.49179988201755
 20
45.72145972961228
 30
0.0
 10
-2.455317194850136
 20
45.54079081052198
 30
0.0
 10
-2.380708983542071
 20
45.17131734409568
 30
0.0
 10
-1.808861418432957
 20
44.69840764979632
 30
0.0
 10
-0.9821136870180663
 20
44.37664935899976
 30
0.0
 10
-0.0029353189602112
 20
44.2663801114358
 30
0.0
 10
0.9938549628698194
 20
44.37006423469669
 30
0.0
 10
1.509796289602067
 20
44.60652017623806
 30
0.0
 10
1.76776695296819
 20
44.72474814700877
 30
0.0
  0
SPLINE
  5
1F4
330
1F
100
AcDbEntity
  8
0
  6
Continuous
 62
     8
370
    15
100
AcDbSpline
210
0.0
220
0.0
230
1.0
 70
     8
 71
     3
 72
    10
 73
     6
 74
     0
 42
0.000000001
 43
0.00000001
 40
0.0
 40
0.0
 40
0.0
 40
0.0
 40
0.4983720338181233
 40
0.9967440676362465
 40
1.0
 40
1.0
 40
1.0
 40
1.0
 10
1.76776695296819
 20
44.72474814700872
 30
0.0
 10
1.9638789254106
 20
44.87281909260066
 30
0.0
 10
2.35610287029542
 20
45.16896098378448
 30
0.0
 10
2.563385557528527
 20
45.5623886295527
 30
0.0
 10
2.49917351963899
 20
45.74766394020313
 30
0.0
 10
2.498756736551918
 20
45.74886651246951
 30
0.0
  0
LWPOLYLINE
  5
1F5
330
1F
100
AcDbEntity
  8
0
  6
Continuous
 62
     8
370
    15
100
AcDbPolyline
 90
       32
 70
   128
 43
0.0
 10
-57.4999999969
 20
90.2389144136
 10
-57.5
 20
90.2385671264
 10
-57.3227466897
 20
87.6341924942
 10
-56.7920795842
 20
85.0458746976
 10
-55.9112704229
 20
82.4895715766
 10
-54.685749687
 20
79.9810435899
 10
-53.1230731194
 20
77.5357566469
 10
-51.2328751408
 20
75.1687867545
 10
-49.0268094504
 20
72.8947270694
 10
-46.5184771766
 20
70.7275979256
 10
-43.723343022
 20
68.680760395
 10
-40.6586399182
 20
66.7668339115
 10
-37.343262779
 20
64.9976184685
 10
-33.7976520068
 20
63.3840218675
 10
-30.0436674712
 20
61.935992468
 10
-26.104453735
 20
60.6624578528
 10
-22.004297361
 20
59.5712697864
 10
-17.7684771766
 20
58.669155806
 10
-13.4231084217
 20
57.9616777442
 10
-8.9949817398
 20
57.4531974387
 10
-4.5113980043
 20
57.1468498395
 10
0.0
 20
57.0445236815
 10
4.5113980044
 20
57.1468498395
 10
8.9949817398
 20
57.4531974387
 10
13.4231084217
 20
57.9616777442
 10
17.7684771766
 20
58.669155806
 10
22.004297361
 20
59.5712697864
 10
26.104453735
 20
60.6624578528
 10
30.0436674712
 20
61.935992468
 10
33.7976520068
 20
63.3840218675
 10
37.343262779
 20
64.9976184685
 10
40.6586399182
 20
66.7668339115
  0
LWPOLYLINE
  5
1F6
330
1F
100
AcDbEntity
  8
0
  6
Continuous
 62
     8
370
    15
100
AcDbPolyline
 90
       11
 70
   128
 43
0.0
 10
40.6586399182
 20
66.7668339115
 10
43.723343022
 20
68.6807603954
 10
46.5184771766
 20
70.7275979264
 10
49.0268094504
 20
72.8947270706
 10
51.2328751408
 20
75.1687867562
 10
53.1230731194
 20
77.5357566489
 10
54.685749687
 20
79.9810435924
 10
55.9112704229
 20
82.4895715794
 10
56.7920795842
 20
85.0458747008
 10
57.3227466897
 20
87.6341924977
 10
57.4999999969
 20
90.238219845
  0
LINE
  5
1F7
330
1F
100
AcDbEntity
  8
0
  6
Continuous
 62
     7
370
    15
100
AcDbLine
 10
1.9141729287
 20
53.852860247
 30
0.0
 11
4.0354932723
 21
55.0774724147
 31
0.0
  0
LINE
  5
1F8
330
1F
100
AcDbEntity
  8
0
  6
Continuous
 62
     7
370
    15
100
AcDbLine
 10
1.6771587504
 20
56.0253733965
 30
0.0
 11
0.9142541961
 21
55.5849579717
 31
0.0
  0
LINE
  5
1F9
330
1F
100
AcDbEntity
  8
0
  6
Continuous
 62
     7
370
    15
100
AcDbLine
 10
5.2425594198
 20
30.1248629524
 30
0.0
 11
13.162155369
 21
34.6967483786
 31
0.0
  0
LINE
  5
1FA
330
1F
100
AcDbEntity
  8
0
  6
Continuous
 62
     7
370
    15
100
AcDbLine
 10
7.9375051201
 20
17.6173181786
 30
0.0
 11
7.0889769827
 21
17.1274733115
 31
0.0
  0
LINE
  5
1FB
330
1F
100
AcDbEntity
  8
0
  6
Continuous
 62
     7
370
    15
100
AcDbLine
 10
23.9941623928
 20
-18.9886454877
 30
0.0
 11
24.8426905302
 21
-18.4988006206
 31
0.0
  0
LINE
  5
1FC
330
1F
100
AcDbEntity
  8
0
  6
Continuous
 62
     7
370
    15
100
AcDbLine
 10
2.8803292331
 20
-8.6511583137
 30
0.0
 11
3.7288573705
 21
-8.1613134466
 31
0.0
  0
LINE
  5
1FD
330
1F
100
AcDbEntity
  8
0
  6
Continuous
 62
     7
370
    15
100
AcDbLine
 10
1.927996879
 20
-5.0417935714
 30
0.0
 11
1.0794687415
 21
-5.5316384385
 31
0.0
  0
LINE
  5
1FE
330
1F
100
AcDbEntity
  8
0
  6
Continuous
 62
     7
370
    15
100
AcDbLine
 10
-4.6426081802
 20
17.8499419521
 30
0.0
 11
-11.2187012452
 21
14.0536442321
 31
0.0
  0
LINE
  5
1FF
330
1F
100
AcDbEntity
  8
0
  6
Continuous
 62
     7
370
    15
100
AcDbLine
 10
2.8803292331
 20
-14.6952603093
 30
0.0
 11
3.7288573705
 21
-14.2054154422
 31
0.0
  0
LINE
  5
200
330
1F
100
AcDbEntity
  8
0
  6
Continuous
 62
     7
370
    15
100
AcDbLine
 10
1.927996879
 20
-11.085895567
 30
0.0
 11
1.0794687415
 21
-11.5757404341
 31
0.0
  0
LINE
  5
201
330
1F
100
AcDbEntity
  8
0
  6
Continuous
 62
     7
370
    15
100
AcDbLine
 10
-2.6351036601
 20
-5.4671666776
 30
0.0
 11
-1.7865755227
 21
-4.9773218105
 31
0.0
  0
LINE
  5
202
330
1F
100
AcDbEntity
  8
0
  6
Continuous
 62
     7
370
    15
100
AcDbLine
 10
-3.5874360143
 20
-1.8578019353
 30
0.0
 11
-4.4359641517
 21
-2.3476468024
 31
0.0
  0
LINE
  5
203
330
1F
100
AcDbEntity
  8
0
  6
Continuous
 62
     7
370
    15
100
AcDbLine
 10
-4.3940312823
 20
19.379045454
 30
0.0
 11
-5.2425594198
 21
18.8892005869
 31
0.0
  0
LINE
  5
204
330
1F
100
AcDbEntity
  8
0
  6
Continuous
 62
     7
370
    15
100
AcDbLine
 10
-2.6351036601
 20
-11.5112686732
 30
0.0
 11
-1.7865755227
 21
-11.0214238061
 31
0.0
  0
LINE
  5
205
330
1F
100
AcDbEntity
  8
0
  6
Continuous
 62
     7
370
    15
100
AcDbLine
 10
-3.5874360143
 20
-7.9019039309
 30
0.0
 11
-4.4359641517
 21
-8.391748798
 31
0.0
  0
LINE
  5
206
330
1F
100
AcDbEntity
  8
0
  6
Continuous
 62
     7
370
    15
100
AcDbLine
 10
-8.1505365534
 20
-2.2831750415
 30
0.0
 11
-7.302008416
 21
-1.7933301744
 31
0.0
  0
LINE
  5
207
330
1F
100
AcDbEntity
  8
0
  6
Continuous
 62
     7
370
    15
100
AcDbLine
 10
-9.1028689075
 20
1.3261897008
 30
0.0
 11
-9.951397045
 21
0.8363448337
 31
0.0
  0
LINE
  5
208
330
1F
100
AcDbEntity
  8
0
  6
Continuous
 62
     7
370
    15
100
AcDbLine
 10
5.137582927
 20
-27.3410740294
 30
0.0
 11
11.713675992
 21
-23.5447763095
 31
0.0
  0
LINE
  5
209
330
1F
100
AcDbEntity
  8
0
  6
Continuous
 62
     7
370
    15
100
AcDbLine
 10
-8.1505365534
 20
-8.3272770371
 30
0.0
 11
-7.302008416
 21
-7.83743217
 31
0.0
  0
LINE
  5
20A
330
1F
100
AcDbEntity
  8
0
  6
Continuous
 62
     7
370
    15
100
AcDbLine
 10
-9.1028689075
 20
-4.7179122948
 30
0.0
 11
-9.951397045
 21
-5.2077571619
 31
0.0
  0
LINE
  5
20B
330
1F
100
AcDbEntity
  8
0
  6
Continuous
 62
     7
370
    15
100
AcDbLine
 10
12.3136272316
 20
-24.5840349443
 30
0.0
 11
13.162155369
 21
-24.0941900772
 31
0.0
  0
LINE
  5
20C
330
1F
100
AcDbEntity
  8
0
  6
Continuous
 62
     7
370
    15
100
AcDbLine
 10
-4.0656854249
 20
-16.6573794824
 30
0.0
 11
-4.0656854249
 21
-17.1435405859
 31
0.0
  0
LINE
  5
20D
330
1F
100
AcDbEntity
  8
0
  6
Continuous
 62
     7
370
    15
100
AcDbLine
 10
2.9343145751
 20
-16.8301944689
 30
0.0
 11
2.9343145751
 21
-16.6573794824
 31
0.0
  0
LINE
  5
20E
330
1F
100
AcDbEntity
  8
0
  6
Continuous
 62
     7
370
    15
100
AcDbLine
 10
-2.0710080203
 20
-19.8178631243
 30
0.0
 11
-1.8536624143
 21
-19.8675201193
 31
0.0
  0
LINE
  5
20F
330
1F
100
AcDbEntity
  8
0
  6
Continuous
 62
     7
370
    15
100
AcDbLine
 10
-4.0656854249
 20
-18.8444285934
 30
0.0
 11
-4.0656854249
 21
-19.6664195878
 31
0.0
  0
LINE
  5
210
330
1F
100
AcDbEntity
  8
0
  6
Continuous
 62
     7
370
    15
100
AcDbLine
 10
-4.0656854249
 20
-21.3100473048
 30
0.0
 11
-4.0656854249
 21
-81.9806444333
 31
0.0
  0
LINE
  5
211
330
1F
100
AcDbEntity
  8
0
  6
Continuous
 62
     7
370
    15
100
AcDbLine
 10
2.9343145751
 20
-81.9806444333
 30
0.0
 11
2.9343145751
 21
-26.260444162
 31
0.0
  0
LINE
  5
212
330
1F
100
AcDbEntity
  8
0
  6
Continuous
 62
     7
370
    15
100
AcDbLine
 10
3.1
 20
449.1082539502
 30
0.0
 11
3.1
 21
449.8928309068
 31
0.0
  0
LINE
  5
213
330
1F
100
AcDbEntity
  8
0
  6
Continuous
 62
     7
370
    15
100
AcDbLine
 10
-3.1
 20
449.8928309068
 30
0.0
 11
-3.1
 21
449.1082539502
 31
0.0
  0
LINE
  5
214
330
1F
100
AcDbEntity
  8
0
  6
Continuous
 62
     7
370
    15
100
AcDbLine
 10
0.9274714438
 20
2.3895254353
 30
0.0
 11
4.3510400876
 21
-1.410369363
 31
0.0
  0
LINE
  5
215
330
1F
100
AcDbEntity
  8
0
  6
Continuous
 62
     7
370
    15
100
AcDbLine
 10
4.5961940777
 20
1.3054560003
 30
0.0
 11
2.4133472463
 21
3.7282461304
 31
0.0
  0
LINE
  5
216
330
1F
100
AcDbEntity
  8
0
  6
Continuous
 62
     7
370
    15
100
AcDbLine
 10
4.5295750289
 20
-1.7784291217
 30
0.0
 11
4.5295750289
 21
-3.5242954452
 31
0.0
  0
LINE
  5
217
330
1F
100
AcDbEntity
  8
0
  6
Continuous
 62
     7
370
    15
100
AcDbLine
 10
-5.1385867746
 20
4.1413682492
 30
0.0
 11
-2.1869799149
 21
4.0095694496
 31
0.0
  0
LINE
  5
218
330
1F
100
AcDbEntity
  8
0
  6
Continuous
 62
     7
370
    15
100
AcDbLine
 10
-3.15
 20
6.0545643319
 30
0.0
 11
-5.049369203
 21
6.1393773144
 31
0.0
  0
LINE
  5
219
330
1F
100
AcDbEntity
  8
0
  6
Continuous
 62
     7
370
    15
100
AcDbLine
 10
-4.5295750289
 20
3.3559176743
 30
0.0
 11
-4.5295750289
 21
4.1141739036
 31
0.0
  0
LINE
  5
21A
330
1F
100
AcDbEntity
  8
0
  6
Continuous
 62
     7
370
    15
100
AcDbLine
 10
-6.5295750289
 20
4.6058823127
 30
0.0
 11
-6.5295750289
 21
2.8600159893
 31
0.0
  0
LINE
  5
21B
330
1F
100
AcDbEntity
  8
0
  6
Continuous
 62
     7
370
    15
100
AcDbLine
 10
3.15
 20
10.6483025747
 30
0.0
 11
3.15
 21
15.9333532448
 31
0.0
  0
LINE
  5
21C
330
1F
100
AcDbEntity
  8
0
  6
Continuous
 62
     7
370
    15
100
AcDbLine
 10
-3.15
 20
15.9333532448
 30
0.0
 11
-3.15
 21
10.1648214002
 31
0.0
  0
LINE
  5
21D
330
1F
100
AcDbEntity
  8
0
  6
Continuous
 62
     7
370
    15
100
AcDbLine
 10
-3.15
 20
8.4575918281
 30
0.0
 11
-3.15
 21
5.3183226903
 31
0.0
  0
LINE
  5
21E
330
1F
100
AcDbEntity
  8
0
  6
Continuous
 62
     7
370
    15
100
AcDbLine
 10
3.15
 20
150.2250673343
 30
0.0
 11
3.15
 21
155.1535616714
 31
0.0
  0
LINE
  5
21F
330
1F
100
AcDbEntity
  8
0
  6
Continuous
 62
     7
370
    15
100
AcDbLine
 10
-3.15
 20
155.1535616714
 30
0.0
 11
-3.15
 21
151.0708576119
 31
0.0
  0
LINE
  5
220
330
1F
100
AcDbEntity
  8
0
  6
Continuous
 62
     7
370
    15
100
AcDbLine
 10
-2.5
 20
448.0500680949
 30
0.0
 11
-2.5
 21
154.8634781862
 31
0.0
  0
LINE
  5
221
330
1F
100
AcDbEntity
  8
0
  6
Continuous
 62
     7
370
    15
100
AcDbLine
 10
2.5
 20
154.8634781862
 30
0.0
 11
2.5
 21
448.0500680949
 31
0.0
  0
LINE
  5
222
330
1F
100
AcDbEntity
  8
0
  6
Continuous
 62
     7
370
    15
100
AcDbLine
 10
-2.5
 20
45.7658163998
 30
0.0
 11
-2.5
 21
15.6432697596
 31
0.0
  0
LINE
  5
223
330
1F
100
AcDbEntity
  8
0
  6
Continuous
 62
     7
370
    15
100
AcDbLine
 10
2.5
 20
15.6432697596
 30
0.0
 11
2.5
 21
31.2298841086
 31
0.0
  0
LINE
  5
224
330
1F
100
AcDbEntity
  8
0
  6
Continuous
 62
     7
370
    15
100
AcDbLine
 10
2.5
 20
36.6518285803
 30
0.0
 11
2.5
 21
45.7658163998
 31
0.0
  0
LINE
  5
225
330
1F
100
AcDbEntity
  8
0
  6
Continuous
 62
     7
370
    15
100
AcDbLine
 10
0.3632351558
 20
3.5134958366
 30
0.0
 11
0.526518906
 21
3.1975740138
 31
0.0
  0
LINE
  5
226
330
1F
100
AcDbEntity
  8
0
  6
Continuous
 62
     7
370
    15
100
AcDbLine
 10
4.5969409064
 20
153.3154823643
 30
0.0
 11
4.242443216
 21
153.5201960468
 31
0.0
  0
LINE
  5
227
330
1F
100
AcDbEntity
  8
0
  6
Continuous
 62
     7
370
    15
100
AcDbLine
 10
-4.242443216
 20
153.5201960468
 30
0.0
 11
-4.5969409064
 21
153.3154823643
 31
0.0
  0
LINE
  5
228
330
1F
100
AcDbEntity
  8
0
  6
Continuous
 62
     7
370
    15
100
AcDbLine
 10
6.5
 20
137.5979342158
 30
0.0
 11
6.5
 21
150.662587206
 31
0.0
  0
LINE
  5
229
330
1F
100
AcDbEntity
  8
0
  6
Continuous
 62
     7
370
    15
100
AcDbLine
 10
-6.5
 20
150.662587206
 30
0.0
 11
-6.5
 21
137.5979342158
 31
0.0
  0
LINE
  5
22A
330
1F
100
AcDbEntity
  8
0
  6
Continuous
 62
     7
370
    15
100
AcDbLine
 10
-4.5969409064
 20
134.9450390575
 30
0.0
 11
-4.242443216
 21
134.7403253751
 31
0.0
  0
LINE
  5
22B
330
1F
100
AcDbEntity
  8
0
  6
Continuous
 62
     7
370
    15
100
AcDbLine
 10
4.2433300675
 20
134.74083751
 30
0.0
 11
4.5969409064
 21
134.9450390575
 31
0.0
  0
LINE
  5
22C
330
1F
100
AcDbEntity
  8
0
  6
Continuous
 62
     7
370
    15
100
AcDbLine
 10
-6.5
 20
574.0980297454
 30
0.0
 11
-6.5
 21
453.1909580097
 31
0.0
  0
LINE
  5
22D
330
1F
100
AcDbEntity
  8
0
  6
Continuous
 62
     7
370
    15
100
AcDbLine
 10
6.5
 20
453.1909580097
 30
0.0
 11
6.5
 21
574.0980297454
 31
0.0
  0
LINE
  5
22E
330
1F
100
AcDbEntity
  8
0
  6
Continuous
 62
     7
370
    15
100
AcDbLine
 10
5.6568542495
 20
56.1549951188
 30
0.0
 11
5.6568542495
 21
31.0405525653
 31
0.0
  0
LINE
  5
22F
330
1F
100
AcDbEntity
  8
0
  6
Continuous
 62
     7
370
    15
100
AcDbLine
 10
4.2426406871
 20
30.2238790533
 30
0.0
 11
-1.4142135624
 21
33.4895115006
 31
0.0
  0
LINE
  5
230
330
1F
100
AcDbEntity
  8
0
  6
Continuous
 62
     7
370
    15
100
AcDbLine
 10
-1.4142135624
 20
34.3060523125
 30
0.0
 11
-1.4142135624
 21
33.4895115006
 31
0.0
  0
LINE
  5
231
330
1F
100
AcDbEntity
  8
0
  6
Continuous
 62
     7
370
    15
100
AcDbLine
 10
4.2426406871
 20
31.0404198652
 30
0.0
 11
-1.4142135624
 21
34.3060523125
 31
0.0
  0
LINE
  5
232
330
1F
100
AcDbEntity
  8
0
  6
Continuous
 62
     7
370
    15
100
AcDbLine
 10
4.9497474683
 20
56.1167789394
 30
0.0
 11
4.9497474683
 21
31.4487566212
 31
0.0
  0
LINE
  5
233
330
1F
100
AcDbEntity
  8
0
  6
Continuous
 62
     7
370
    15
100
AcDbLine
 10
5.6568542495
 20
31.0405525653
 30
0.0
 11
13.5764501988
 21
35.6124379915
 31
0.0
  0
LINE
  5
234
330
1F
100
AcDbEntity
  8
0
  6
Continuous
 62
     7
370
    15
100
AcDbLine
 10
13.5764501988
 20
35.6124379915
 30
0.0
 11
13.5764501988
 21
56.958024426
 31
0.0
  0
LINE
  5
235
330
1F
100
AcDbEntity
  8
0
  6
Continuous
 62
     7
370
    15
100
AcDbLine
 10
4.9497474683
 20
38.7962969275
 30
0.0
 11
2.5
 21
40.2105060387
 31
0.0
  0
LINE
  5
236
330
1F
100
AcDbEntity
  8
0
  6
Continuous
 62
     7
370
    15
100
AcDbLine
 10
-2.5
 20
43.0969445991
 30
0.0
 11
-4.2426406871
 21
44.1029496544
 31
0.0
  0
LINE
  5
237
330
1F
100
AcDbEntity
  8
0
  6
Continuous
 62
     7
370
    15
100
AcDbLine
 10
-4.9497474683
 20
45.3276945222
 30
0.0
 11
-4.9497474683
 21
56.120865811
 31
0.0
  0
LINE
  5
238
330
1F
100
AcDbEntity
  8
0
  6
Continuous
 62
     7
370
    15
100
AcDbLine
 10
-12.0208152802
 20
41.2456539631
 30
0.0
 11
-12.0208152802
 21
56.741656222
 31
0.0
  0
LINE
  5
239
330
1F
100
AcDbEntity
  8
0
  6
Continuous
 62
     7
370
    15
100
AcDbLine
 10
-5.6568542495
 20
36.755276648
 30
0.0
 11
-11.313708499
 21
40.0209090953
 31
0.0
  0
LINE
  5
23A
330
1F
100
AcDbEntity
  8
0
  6
Continuous
 62
     7
370
    15
100
AcDbLine
 10
-5.6568542495
 20
35.9387358361
 30
0.0
 11
-5.6568542495
 21
36.755276648
 31
0.0
  0
LINE
  5
23B
330
1F
100
AcDbEntity
  8
0
  6
Continuous
 62
     7
370
    15
100
AcDbLine
 10
-5.6568542495
 20
35.9387358361
 30
0.0
 11
-11.313708499
 21
39.2043682834
 31
0.0
  0
LINE
  5
23C
330
1F
100
AcDbEntity
  8
0
  6
Continuous
 62
     7
370
    15
100
AcDbLine
 10
-12.7279220614
 20
41.653858019
 30
0.0
 11
-12.7279220614
 21
56.8321994576
 31
0.0
  0
LINE
  5
23D
330
1F
100
AcDbEntity
  8
0
  6
Continuous
 62
     7
370
    15
100
AcDbLine
 10
-12.0208152802
 20
41.2456539631
 30
0.0
 11
-4.9497474683
 21
45.3276945222
 31
0.0
  0
LINE
  5
23E
330
1F
100
AcDbEntity
  8
0
  6
Continuous
 62
     7
370
    15
100
AcDbLine
 10
3.15
 20
14.5225038574
 30
0.0
 11
6.3639610307
 21
12.6671236473
 31
0.0
  0
LINE
  5
23F
330
1F
100
AcDbEntity
  8
0
  6
Continuous
 62
     7
370
    15
100
AcDbLine
 10
6.3639610307
 20
12.6671236473
 30
0.0
 11
6.3639610307
 21
15.5250164889
 31
0.0
  0
LINE
  5
240
330
1F
100
AcDbEntity
  8
0
  6
Continuous
 62
     7
370
    15
100
AcDbLine
 10
11.313708499
 20
12.6675880975
 30
0.0
 11
11.313708499
 21
9.8096952559
 31
0.0
  0
LINE
  5
241
330
1F
100
AcDbEntity
  8
0
  6
Continuous
 62
     7
370
    15
100
AcDbLine
 10
12.7279220614
 20
7.3602055203
 30
0.0
 11
12.7279220614
 21
-2.0300138164
 31
0.0
  0
LINE
  5
242
330
1F
100
AcDbEntity
  8
0
  6
Continuous
 62
     7
370
    15
100
AcDbLine
 10
12.7279220614
 20
-2.0300138164
 30
0.0
 11
20.2444671454
 21
-6.3692229307
 31
0.0
  0
LINE
  5
243
330
1F
100
AcDbEntity
  8
0
  6
Continuous
 62
     7
370
    15
100
AcDbLine
 10
20.2444671454
 20
-18.617335109
 30
0.0
 11
12.7279220614
 21
-14.2781259947
 31
0.0
  0
LINE
  5
244
330
1F
100
AcDbEntity
  8
0
  6
Continuous
 62
     7
370
    15
100
AcDbLine
 10
12.7279220614
 20
-14.2781259947
 30
0.0
 11
12.7279220614
 21
-23.6683453314
 31
0.0
  0
LINE
  5
245
330
1F
100
AcDbEntity
  8
0
  6
Continuous
 62
     7
370
    15
100
AcDbLine
 10
11.313708499
 20
-24.4850188433
 30
0.0
 11
10.6993300876
 21
-24.1303457359
 31
0.0
  0
LINE
  5
246
330
1F
100
AcDbEntity
  8
0
  6
Continuous
 62
     7
370
    15
100
AcDbLine
 10
-5.6568542495
 20
17.2644301592
 30
0.0
 11
-5.6568542495
 21
17.973510974
 31
0.0
  0
LINE
  5
247
330
1F
100
AcDbEntity
  8
0
  6
Continuous
 62
     7
370
    15
100
AcDbLine
 10
-4.2426406871
 20
18.7901844859
 30
0.0
 11
-2.9619582933
 21
18.0508622769
 31
0.0
  0
LINE
  5
248
330
1F
100
AcDbEntity
  8
0
  6
Continuous
 62
     7
370
    15
100
AcDbLine
 10
-2.9619582933
 20
18.0508622769
 30
0.0
 11
-2.9619582933
 21
37.494466157
 31
0.0
  0
LINE
  5
249
330
1F
100
AcDbEntity
  8
0
  6
Continuous
 62
     7
370
    15
100
AcDbLine
 10
-4.2426406871
 20
17.8103355117
 30
0.0
 11
-2.6671733385
 21
16.9008375705
 31
0.0
  0
LINE
  5
24A
330
1F
100
AcDbEntity
  8
0
  6
Continuous
 62
     7
370
    15
100
AcDbLine
 10
11.8793939239
 20
7.8500503874
 30
0.0
 11
11.8793939239
 21
-23.1785004643
 31
0.0
  0
LINE
  5
24B
330
1F
100
AcDbEntity
  8
0
  6
Continuous
 62
     7
370
    15
100
AcDbLine
 10
5.6568542495
 20
12.0954787289
 30
0.0
 11
11.313708499
 21
8.8298462816
 31
0.0
  0
LINE
  5
24C
330
1F
100
AcDbEntity
  8
0
  6
Continuous
 62
     7
370
    15
100
AcDbLine
 10
-4.1012193309
 20
7.6852427143
 30
0.0
 11
-3.15
 21
7.1361154831
 31
0.0
  0
LINE
  5
24D
330
1F
100
AcDbEntity
  8
0
  6
Continuous
 62
     7
370
    15
100
AcDbLine
 10
2.2268116162
 20
4.0321482068
 30
0.0
 11
4.5961940777
 21
2.6643328266
 31
0.0
  0
LINE
  5
24E
330
1F
100
AcDbEntity
  8
0
  6
Continuous
 62
     7
370
    15
100
AcDbLine
 10
-4.1012193309
 20
7.9185551203
 30
0.0
 11
-4.1012193309
 21
7.6852427143
 31
0.0
  0
LINE
  5
24F
330
1F
100
AcDbEntity
  8
0
  6
Continuous
 62
     7
370
    15
100
AcDbLine
 10
-5.6568542495
 20
36.755276648
 30
0.0
 11
-2.5
 21
38.5776898151
 31
0.0
  0
LINE
  5
250
330
1F
100
AcDbEntity
  8
0
  6
Continuous
 62
     7
370
    15
100
AcDbLine
 10
-4.2426406871
 20
44.1029496544
 30
0.0
 11
-11.313708499
 21
40.0209090953
 31
0.0
  0
LINE
  5
251
330
1F
100
AcDbEntity
  8
0
  6
Continuous
 62
     7
370
    15
100
AcDbLine
 10
2.1213203436
 20
36.3470725921
 30
0.0
 11
-1.4142135624
 21
34.3060523125
 31
0.0
  0
LINE
  5
252
330
1F
100
AcDbEntity
  8
0
  6
Continuous
 62
     7
370
    15
100
AcDbLine
 10
-2.5
 20
37.7611490032
 30
0.0
 11
-5.6568542495
 21
35.9387358361
 31
0.0
  0
LINE
  5
253
330
1F
100
AcDbEntity
  8
0
  6
Continuous
 62
     7
370
    15
100
AcDbLine
 10
-2.0000491427
 20
6.7187497405
 30
0.0
 11
-1.6968812477
 21
6.3455207742
 31
0.0
  0
LINE
  5
254
330
1F
100
AcDbEntity
  8
0
  6
Continuous
 62
     7
370
    15
100
AcDbLine
 10
-2.0000491427
 20
6.7187497405
 30
0.0
 11
-0.9192388155
 21
8.2991810089
 31
0.0
  0
LINE
  5
255
330
1F
100
AcDbEntity
  8
0
  6
Continuous
 62
     7
370
    15
100
AcDbLine
 10
-0.9192388155
 20
8.2991810089
 30
0.0
 11
4.737615434
 21
5.0335485616
 31
0.0
  0
LINE
  5
256
330
1F
100
AcDbEntity
  8
0
  6
Continuous
 62
     7
370
    15
100
AcDbLine
 10
5.3033008589
 20
4.0537526674
 30
0.0
 11
5.3033008589
 21
-26.9747981843
 31
0.0
  0
LINE
  5
257
330
1F
100
AcDbEntity
  8
0
  6
Continuous
 62
     7
370
    15
100
AcDbLine
 10
4.737615434
 20
-27.301467589
 30
0.0
 11
-0.2121320344
 21
-24.4440391977
 31
0.0
  0
LINE
  5
258
330
1F
100
AcDbEntity
  8
0
  6
Continuous
 62
     7
370
    15
100
AcDbLine
 10
-0.2121320344
 20
-23.6274983858
 30
0.0
 11
-0.2121320344
 21
-24.4440391977
 31
0.0
  0
LINE
  5
259
330
1F
100
AcDbEntity
  8
0
  6
Continuous
 62
     7
370
    15
100
AcDbLine
 10
4.5961940777
 20
-26.403285966
 30
0.0
 11
-0.2121320344
 21
-23.6274983858
 31
0.0
  0
LINE
  5
25A
330
1F
100
AcDbEntity
  8
0
  6
Continuous
 62
     7
370
    15
100
AcDbLine
 10
4.5961940777
 20
-26.403285966
 30
0.0
 11
4.5961940777
 21
-25.1784747481
 31
0.0
  0
LINE
  5
25B
330
1F
100
AcDbEntity
  8
0
  6
Continuous
 62
     7
370
    15
100
AcDbLine
 10
-0.2121320344
 20
-22.4026871679
 30
0.0
 11
4.5961940777
 21
-25.1784747481
 31
0.0
  0
LINE
  5
25C
330
1F
100
AcDbEntity
  8
0
  6
Continuous
 62
     7
370
    15
100
AcDbLine
 10
-0.2121320344
 20
-21.4228381937
 30
0.0
 11
-0.2121320344
 21
-22.4026871679
 31
0.0
  0
LINE
  5
25D
330
1F
100
AcDbEntity
  8
0
  6
Continuous
 62
     7
370
    15
100
AcDbLine
 10
4.5961940777
 20
-24.1986257739
 30
0.0
 11
-0.2121320344
 21
-21.4228381937
 31
0.0
  0
LINE
  5
25E
330
1F
100
AcDbEntity
  8
0
  6
Continuous
 62
     7
370
    15
100
AcDbLine
 10
4.5961940777
 20
-22.4022359877
 30
0.0
 11
4.5961940777
 21
-24.1986257739
 31
0.0
  0
LINE
  5
25F
330
1F
100
AcDbEntity
  8
0
  6
Continuous
 62
     7
370
    15
100
AcDbLine
 10
-0.2121320344
 20
-19.6264484075
 30
0.0
 11
4.5961940777
 21
-22.4022359877
 31
0.0
  0
LINE
  5
260
330
1F
100
AcDbEntity
  8
0
  6
Continuous
 62
     7
370
    15
100
AcDbLine
 10
-0.2121320344
 20
-18.6465994333
 30
0.0
 11
-0.2121320344
 21
-19.6264484075
 31
0.0
  0
LINE
  5
261
330
1F
100
AcDbEntity
  8
0
  6
Continuous
 62
     7
370
    15
100
AcDbLine
 10
4.5961940777
 20
-21.4223870135
 30
0.0
 11
-0.2121320344
 21
-18.6465994333
 31
0.0
  0
LINE
  5
262
330
1F
100
AcDbEntity
  8
0
  6
Continuous
 62
     7
370
    15
100
AcDbLine
 10
4.5961940777
 20
-21.4223870135
 30
0.0
 11
4.5961940777
 21
4.2986485609
 31
0.0
  0
LINE
  5
263
330
1F
100
AcDbEntity
  8
0
  6
Continuous
 62
     7
370
    15
100
AcDbLine
 10
4.5961940777
 20
4.2986485609
 30
0.0
 11
-0.9192388155
 21
7.4826401971
 31
0.0
  0
LINE
  5
264
330
1F
100
AcDbEntity
  8
0
  6
Continuous
 62
     7
370
    15
100
AcDbLine
 10
-0.9192388155
 20
7.4826401971
 30
0.0
 11
-1.6968812477
 21
6.3455207742
 31
0.0
  0
LINE
  5
265
330
1F
100
AcDbEntity
  8
0
  6
Continuous
 62
     7
370
    15
100
AcDbLine
 10
4.737615434
 20
5.0335485616
 30
0.0
 11
11.313708499
 21
8.8298462816
 31
0.0
  0
LINE
  5
266
330
1F
100
AcDbEntity
  8
0
  6
Continuous
 62
     7
370
    15
100
AcDbLine
 10
11.8793939239
 20
7.8500503874
 30
0.0
 11
5.3033008589
 21
4.0537526674
 31
0.0
  0
LINE
  5
267
330
1F
100
AcDbEntity
  8
0
  6
Continuous
 62
     7
370
    15
100
AcDbLine
 10
5.6568542495
 20
12.0954787289
 30
0.0
 11
2.8004742289
 21
10.446525642
 31
0.0
  0
LINE
  5
268
330
1F
100
AcDbEntity
  8
0
  6
Continuous
 62
     7
370
    15
100
AcDbLine
 10
1.4421664582
 20
9.6623912567
 30
0.0
 11
-0.9192388155
 21
8.2991810089
 31
0.0
  0
LINE
  5
269
330
1F
100
AcDbEntity
  8
0
  6
Continuous
 62
     7
370
    15
100
AcDbLine
 10
5.3033008589
 20
-26.9747981843
 30
0.0
 11
11.8793939239
 21
-23.1785004643
 31
0.0
  0
LINE
  5
26A
330
1F
100
AcDbEntity
  8
0
  6
Continuous
 62
     7
370
    15
100
AcDbLine
 10
11.313708499
 20
12.6675880975
 30
0.0
 11
12.1622366364
 21
13.1574329646
 31
0.0
  0
LINE
  5
26B
330
1F
100
AcDbEntity
  8
0
  6
Continuous
 62
     7
370
    15
100
AcDbLine
 10
20.2444671454
 20
-6.3692229307
 30
0.0
 11
21.0929952828
 21
-5.8793780636
 31
0.0
  0
LINE
  5
26C
330
1F
100
AcDbEntity
  8
0
  6
Continuous
 62
     7
370
    15
100
AcDbLine
 10
11.313708499
 20
9.8096952559
 30
0.0
 11
12.1622366364
 21
10.299540123
 31
0.0
  0
LINE
  5
26D
330
1F
100
AcDbEntity
  8
0
  6
Continuous
 62
     7
370
    15
100
AcDbLine
 10
12.1622366364
 20
10.299540123
 30
0.0
 11
12.1622366364
 21
13.1574329646
 31
0.0
  0
LINE
  5
26E
330
1F
100
AcDbEntity
  8
0
  6
Continuous
 62
     7
370
    15
100
AcDbLine
 10
12.7279220614
 20
7.3602055203
 30
0.0
 11
13.5764501988
 21
7.8500503874
 31
0.0
  0
LINE
  5
26F
330
1F
100
AcDbEntity
  8
0
  6
Continuous
 62
     7
370
    15
100
AcDbLine
 10
12.7279220614
 20
-2.0300138164
 30
0.0
 11
13.5764501988
 21
-1.5401689493
 31
0.0
  0
LINE
  5
270
330
1F
100
AcDbEntity
  8
0
  6
Continuous
 62
     7
370
    15
100
AcDbLine
 10
13.5764501988
 20
-1.5401689493
 30
0.0
 11
13.5764501988
 21
7.8500503874
 31
0.0
  0
LINE
  5
271
330
1F
100
AcDbEntity
  8
0
  6
Continuous
 62
     7
370
    15
100
AcDbLine
 10
21.0929952828
 20
-5.8793780636
 30
0.0
 11
13.5764501988
 21
-1.5401689493
 31
0.0
  0
LINE
  5
272
330
1F
100
AcDbEntity
  8
0
  6
Continuous
 62
     7
370
    15
100
AcDbLine
 10
-1.6968812477
 20
6.3455207742
 30
0.0
 11
-0.4327735151
 21
7.075274635
 31
0.0
  0
LINE
  5
273
330
1F
100
AcDbEntity
  8
0
  6
Continuous
 62
     7
370
    15
100
AcDbLine
 10
-5.1618795027
 20
10.7484053444
 30
0.0
 11
-4.0810691755
 21
7.920097034
 31
0.0
  0
LINE
  5
274
330
1F
100
AcDbEntity
  8
0
  6
Continuous
 62
     7
370
    15
100
AcDbLine
 10
-3.15
 20
11.9098386595
 30
0.0
 11
-5.1618795027
 21
10.7484053444
 31
0.0
  0
LINE
  5
275
330
1F
100
AcDbEntity
  8
0
  6
Continuous
 62
     7
370
    15
100
AcDbLine
 10
-4.0810691755
 20
7.920097034
 30
0.0
 11
-3.0099233569
 21
8.5384563529
 31
0.0
  0
LINE
  5
276
330
1F
100
AcDbEntity
  8
0
  6
Continuous
 62
     7
370
    15
100
AcDbLine
 10
-4.3842370705
 20
7.8968982686
 30
0.0
 11
-4.0810691755
 21
7.920097034
 31
0.0
  0
LINE
  5
277
330
1F
100
AcDbEntity
  8
0
  6
Continuous
 62
     7
370
    15
100
AcDbLine
 10
-4.3842370705
 20
7.8968982686
 30
0.0
 11
-5.1618795027
 21
9.9318645325
 31
0.0
  0
LINE
  5
278
330
1F
100
AcDbEntity
  8
0
  6
Continuous
 62
     7
370
    15
100
AcDbLine
 10
-5.1618795027
 20
9.9318645325
 30
0.0
 11
-10.6773123959
 21
13.1158561686
 31
0.0
  0
LINE
  5
279
330
1F
100
AcDbEntity
  8
0
  6
Continuous
 62
     7
370
    15
100
AcDbLine
 10
-10.6773123959
 20
13.1158561686
 30
0.0
 11
-10.6773123959
 21
-12.6051794058
 31
0.0
  0
LINE
  5
27A
330
1F
100
AcDbEntity
  8
0
  6
Continuous
 62
     7
370
    15
100
AcDbLine
 10
-10.6773123959
 20
-12.6051794058
 30
0.0
 11
-5.8689862838
 21
-15.380966986
 31
0.0
  0
LINE
  5
27B
330
1F
100
AcDbEntity
  8
0
  6
Continuous
 62
     7
370
    15
100
AcDbLine
 10
-5.8689862838
 20
-16.3608159602
 30
0.0
 11
-5.8689862838
 21
-15.380966986
 31
0.0
  0
LINE
  5
27C
330
1F
100
AcDbEntity
  8
0
  6
Continuous
 62
     7
370
    15
100
AcDbLine
 10
-10.6773123959
 20
-13.58502838
 30
0.0
 11
-5.8689862838
 21
-16.3608159602
 31
0.0
  0
LINE
  5
27D
330
1F
100
AcDbEntity
  8
0
  6
Continuous
 62
     7
370
    15
100
AcDbLine
 10
-10.6773123959
 20
-15.3814181662
 30
0.0
 11
-10.6773123959
 21
-13.58502838
 31
0.0
  0
LINE
  5
27E
330
1F
100
AcDbEntity
  8
0
  6
Continuous
 62
     7
370
    15
100
AcDbLine
 10
-5.8689862838
 20
-18.1572057464
 30
0.0
 11
-10.6773123959
 21
-15.3814181662
 31
0.0
  0
LINE
  5
27F
330
1F
100
AcDbEntity
  8
0
  6
Continuous
 62
     7
370
    15
100
AcDbLine
 10
-5.8689862838
 20
-19.1370547206
 30
0.0
 11
-5.8689862838
 21
-18.1572057464
 31
0.0
  0
LINE
  5
280
330
1F
100
AcDbEntity
  8
0
  6
Continuous
 62
     7
370
    15
100
AcDbLine
 10
-10.6773123959
 20
-16.3612671404
 30
0.0
 11
-5.8689862838
 21
-19.1370547206
 31
0.0
  0
LINE
  5
281
330
1F
100
AcDbEntity
  8
0
  6
Continuous
 62
     7
370
    15
100
AcDbLine
 10
-10.6773123959
 20
-16.3612671404
 30
0.0
 11
-10.6773123959
 21
-17.5860783583
 31
0.0
  0
LINE
  5
282
330
1F
100
AcDbEntity
  8
0
  6
Continuous
 62
     7
370
    15
100
AcDbLine
 10
-5.8689862838
 20
-20.3618659385
 30
0.0
 11
-10.6773123959
 21
-17.5860783583
 31
0.0
  0
LINE
  5
283
330
1F
100
AcDbEntity
  8
0
  6
Continuous
 62
     7
370
    15
100
AcDbLine
 10
-5.8689862838
 20
-21.1784067504
 30
0.0
 11
-5.8689862838
 21
-20.3618659385
 31
0.0
  0
LINE
  5
284
330
1F
100
AcDbEntity
  8
0
  6
Continuous
 62
     7
370
    15
100
AcDbLine
 10
-5.8689862838
 20
-21.1784067504
 30
0.0
 11
-10.8187337522
 21
-18.320978359
 31
0.0
  0
LINE
  5
285
330
1F
100
AcDbEntity
  8
0
  6
Continuous
 62
     7
370
    15
100
AcDbLine
 10
-11.3844191771
 20
-17.3411824647
 30
0.0
 11
-11.3844191771
 21
13.6873683869
 31
0.0
  0
LINE
  5
286
330
1F
100
AcDbEntity
  8
0
  6
Continuous
 62
     7
370
    15
100
AcDbLine
 10
-10.8187337522
 20
14.0140377917
 30
0.0
 11
-5.1618795027
 21
10.7484053444
 31
0.0
  0
LINE
  5
287
330
1F
100
AcDbEntity
  8
0
  6
Continuous
 62
     7
370
    15
100
AcDbLine
 10
-10.4651803616
 20
4.0114062111
 30
0.0
 11
4.5961940777
 21
-4.6833401798
 31
0.0
  0
LINE
  5
288
330
1F
100
AcDbEntity
  8
0
  6
Continuous
 62
     7
370
    15
100
AcDbLine
 10
-4.1012193309
 20
7.6852427143
 30
0.0
 11
-10.4651803616
 21
4.0114062111
 31
0.0
  0
LINE
  5
289
330
1F
100
AcDbEntity
  8
0
  6
Continuous
 62
     7
370
    15
100
AcDbLine
 10
2.261807593
 20
0.9085161378
 30
0.0
 11
-0.5656854249
 21
-0.7237608375
 31
0.0
  0
LINE
  5
28A
330
1F
100
AcDbEntity
  8
0
  6
Continuous
 62
     7
370
    15
100
AcDbLine
 10
-0.2121320344
 20
2.7459736378
 30
0.0
 11
1.4933959118
 21
1.7613933118
 31
0.0
  0
LINE
  5
28B
330
1F
100
AcDbEntity
  8
0
  6
Continuous
 62
     7
370
    15
100
AcDbLine
 10
-3.3941125497
 20
0.9090553862
 30
0.0
 11
-0.2121320344
 21
2.7459736378
 31
0.0
  0
LINE
  5
28C
330
1F
100
AcDbEntity
  8
0
  6
Continuous
 62
     7
370
    15
100
AcDbLine
 10
-0.5656854249
 20
-0.7237608375
 30
0.0
 11
-3.3941125497
 21
0.9090553862
 31
0.0
  0
LINE
  5
28D
330
1F
100
AcDbEntity
  8
0
  6
Continuous
 62
     7
370
    15
100
AcDbLine
 10
2.1213203436
 20
-2.2749362499
 30
0.0
 11
4.1005538127
 21
-1.1323490888
 31
0.0
  0
LINE
  5
28E
330
1F
100
AcDbEntity
  8
0
  6
Continuous
 62
     7
370
    15
100
AcDbLine
 10
4.5961940777
 20
-3.7036504456
 30
0.0
 11
2.1213203436
 21
-2.2749362499
 31
0.0
  0
LINE
  5
28F
330
1F
100
AcDbEntity
  8
0
  6
Continuous
 62
     7
370
    15
100
AcDbLine
 10
-3.3103978212
 20
4.0597336952
 30
0.0
 11
-6.0811183182
 21
2.4602307986
 31
0.0
  0
LINE
  5
290
330
1F
100
AcDbEntity
  8
0
  6
Continuous
 62
     7
370
    15
100
AcDbLine
 10
-8.9095454429
 20
4.0930470223
 30
0.0
 11
-5.7275649276
 21
5.9299652739
 31
0.0
  0
LINE
  5
291
330
1F
100
AcDbEntity
  8
0
  6
Continuous
 62
     7
370
    15
100
AcDbLine
 10
-6.0811183182
 20
2.4602307986
 30
0.0
 11
-8.9095454429
 21
4.0930470223
 31
0.0
  0
LINE
  5
292
330
1F
100
AcDbEntity
  8
0
  6
Continuous
 62
     7
370
    15
100
AcDbLine
 10
-10.4651803616
 20
-8.2367059672
 30
0.0
 11
-10.4651803616
 21
4.0114062111
 31
0.0
  0
LINE
  5
293
330
1F
100
AcDbEntity
  8
0
  6
Continuous
 62
     7
370
    15
100
AcDbLine
 10
-10.4651803616
 20
-8.2367059672
 30
0.0
 11
4.5961940777
 21
-16.9314523581
 31
0.0
  0
LINE
  5
294
330
1F
100
AcDbEntity
  8
0
  6
Continuous
 62
     7
370
    15
100
AcDbLine
 10
-1.4142135624
 20
-12.8093352272
 30
0.0
 11
-4.2426406871
 21
-11.1765190035
 31
0.0
  0
LINE
  5
295
330
1F
100
AcDbEntity
  8
0
  6
Continuous
 62
     7
370
    15
100
AcDbLine
 10
-1.4142135624
 20
-1.8659883602
 30
0.0
 11
-1.4142135624
 21
-12.8093352272
 31
0.0
  0
LINE
  5
296
330
1F
100
AcDbEntity
  8
0
  6
Continuous
 62
     7
370
    15
100
AcDbLine
 10
-4.2426406871
 20
-0.2331721366
 30
0.0
 11
-1.4142135624
 21
-1.8659883602
 31
0.0
  0
LINE
  5
297
330
1F
100
AcDbEntity
  8
0
  6
Continuous
 62
     7
370
    15
100
AcDbLine
 10
-4.2426406871
 20
-11.1765190035
 30
0.0
 11
-4.2426406871
 21
-10.7663797057
 31
0.0
  0
LINE
  5
298
330
1F
100
AcDbEntity
  8
0
  6
Continuous
 62
     7
370
    15
100
AcDbLine
 10
-4.2426406871
 20
-8.2801455374
 30
0.0
 11
-4.2426406871
 21
-4.7222777101
 31
0.0
  0
LINE
  5
299
330
1F
100
AcDbEntity
  8
0
  6
Continuous
 62
     7
370
    15
100
AcDbLine
 10
-4.2426406871
 20
-2.2360435418
 30
0.0
 11
-4.2426406871
 21
-0.2331721366
 31
0.0
  0
LINE
  5
29A
330
1F
100
AcDbEntity
  8
0
  6
Continuous
 62
     7
370
    15
100
AcDbLine
 10
4.1012193309
 20
-5.0499799964
 30
0.0
 11
4.1012193309
 21
-15.9933268633
 31
0.0
  0
LINE
  5
29B
330
1F
100
AcDbEntity
  8
0
  6
Continuous
 62
     7
370
    15
100
AcDbLine
 10
1.2727922061
 20
-3.4171637727
 30
0.0
 11
4.1012193309
 21
-5.0499799964
 31
0.0
  0
LINE
  5
29C
330
1F
100
AcDbEntity
  8
0
  6
Continuous
 62
     7
370
    15
100
AcDbLine
 10
1.2727922061
 20
-14.3605106397
 30
0.0
 11
1.2727922061
 21
-13.9503713418
 31
0.0
  0
LINE
  5
29D
330
1F
100
AcDbEntity
  8
0
  6
Continuous
 62
     7
370
    15
100
AcDbLine
 10
1.2727922061
 20
-11.4641371736
 30
0.0
 11
1.2727922061
 21
-7.9062693462
 31
0.0
  0
LINE
  5
29E
330
1F
100
AcDbEntity
  8
0
  6
Continuous
 62
     7
370
    15
100
AcDbLine
 10
1.2727922061
 20
-5.4200351779
 30
0.0
 11
1.2727922061
 21
-3.4171637727
 31
0.0
  0
LINE
  5
29F
330
1F
100
AcDbEntity
  8
0
  6
Continuous
 62
     7
370
    15
100
AcDbLine
 10
4.1012193309
 20
-15.9933268633
 30
0.0
 11
1.2727922061
 21
-14.3605106397
 31
0.0
  0
LINE
  5
2A0
330
1F
100
AcDbEntity
  8
0
  6
Continuous
 62
     7
370
    15
100
AcDbLine
 10
-6.9296464556
 20
-9.6253435911
 30
0.0
 11
-9.7580735804
 21
-7.9925273674
 31
0.0
  0
LINE
  5
2A1
330
1F
100
AcDbEntity
  8
0
  6
Continuous
 62
     7
370
    15
100
AcDbLine
 10
-6.9296464556
 20
1.3180032759
 30
0.0
 11
-6.9296464556
 21
-9.6253435911
 31
0.0
  0
LINE
  5
2A2
330
1F
100
AcDbEntity
  8
0
  6
Continuous
 62
     7
370
    15
100
AcDbLine
 10
-9.7580735804
 20
2.9508194995
 30
0.0
 11
-6.9296464556
 21
1.3180032759
 31
0.0
  0
LINE
  5
2A3
330
1F
100
AcDbEntity
  8
0
  6
Continuous
 62
     7
370
    15
100
AcDbLine
 10
-9.7580735804
 20
-7.9925273674
 30
0.0
 11
-9.7580735804
 21
-7.5823880696
 31
0.0
  0
LINE
  5
2A4
330
1F
100
AcDbEntity
  8
0
  6
Continuous
 62
     7
370
    15
100
AcDbLine
 10
-9.7580735804
 20
-5.0961539013
 30
0.0
 11
-9.7580735804
 21
-1.538286074
 31
0.0
  0
LINE
  5
2A5
330
1F
100
AcDbEntity
  8
0
  6
Continuous
 62
     7
370
    15
100
AcDbLine
 10
-9.7580735804
 20
0.9479480943
 30
0.0
 11
-9.7580735804
 21
2.9508194995
 31
0.0
  0
LINE
  5
2A6
330
1F
100
AcDbEntity
  8
0
  6
Continuous
 62
     7
370
    15
100
AcDbLine
 10
-4.2426406871
 20
17.8103355117
 30
0.0
 11
-10.8187337522
 21
14.0140377917
 31
0.0
  0
LINE
  5
2A7
330
1F
100
AcDbEntity
  8
0
  6
Continuous
 62
     7
370
    15
100
AcDbLine
 10
2.8284271247
 20
-5.5969707118
 30
0.0
 11
2.3334523779
 21
-5.8827135509
 31
0.0
  0
LINE
  5
2A8
330
1F
100
AcDbEntity
  8
0
  6
Continuous
 62
     7
370
    15
100
AcDbLine
 10
1.6263455967
 20
-5.474509495
 30
0.0
 11
2.1213203436
 21
-5.1887666559
 31
0.0
  0
LINE
  5
2A9
330
1F
100
AcDbEntity
  8
0
  6
Continuous
 62
     7
370
    15
100
AcDbLine
 10
2.1213203436
 20
-8.0143403621
 30
0.0
 11
1.6263455967
 21
-8.3000832013
 31
0.0
  0
LINE
  5
2AA
330
1F
100
AcDbEntity
  8
0
  6
Continuous
 62
     7
370
    15
100
AcDbLine
 10
2.3334523779
 20
-5.8827135509
 30
0.0
 11
2.3334523779
 21
-8.7082872572
 31
0.0
  0
LINE
  5
2AB
330
1F
100
AcDbEntity
  8
0
  6
Continuous
 62
     7
370
    15
100
AcDbLine
 10
6.3639610307
 20
13.6468133815
 30
0.0
 11
3.15
 21
15.5021935916
 31
0.0
  0
LINE
  5
2AC
330
1F
100
AcDbEntity
  8
0
  6
Continuous
 62
     7
370
    15
100
AcDbLine
 10
3.0736006335
 20
-14.5836871048
 30
0.0
 11
4.1012193309
 21
-15.1769187515
 31
0.0
  0
LINE
  5
2AD
330
1F
100
AcDbEntity
  8
0
  6
Continuous
 62
     7
370
    15
100
AcDbLine
 10
1.9798989873
 20
-3.8253678286
 30
0.0
 11
1.9798989873
 21
-5.0151014176
 31
0.0
  0
LINE
  5
2AE
330
1F
100
AcDbEntity
  8
0
  6
Continuous
 62
     7
370
    15
100
AcDbLine
 10
1.9798989873
 20
-8.0959811733
 30
0.0
 11
1.9798989873
 21
-11.0592034133
 31
0.0
  0
LINE
  5
2AF
330
1F
100
AcDbEntity
  8
0
  6
Continuous
 62
     7
370
    15
100
AcDbLine
 10
2.1213203436
 20
-5.1887666559
 30
0.0
 11
2.1213203436
 21
-8.0143403621
 31
0.0
  0
LINE
  5
2B0
330
1F
100
AcDbEntity
  8
0
  6
Continuous
 62
     7
370
    15
100
AcDbLine
 10
1.6263455967
 20
-8.3000832013
 30
0.0
 11
1.6263455967
 21
-5.474509495
 31
0.0
  0
LINE
  5
2B1
330
1F
100
AcDbEntity
  8
0
  6
Continuous
 62
     7
370
    15
100
AcDbLine
 10
1.5053666576
 20
-14.2262482667
 30
0.0
 11
1.2727922061
 21
-14.3605106397
 31
0.0
  0
LINE
  5
2B2
330
1F
100
AcDbEntity
  8
0
  6
Continuous
 62
     7
370
    15
100
AcDbLine
 10
2.8284271247
 20
-11.6410727074
 30
0.0
 11
2.3334523779
 21
-11.9268155466
 31
0.0
  0
LINE
  5
2B3
330
1F
100
AcDbEntity
  8
0
  6
Continuous
 62
     7
370
    15
100
AcDbLine
 10
1.6263455967
 20
-11.5186114907
 30
0.0
 11
2.1213203436
 21
-11.2328686515
 31
0.0
  0
LINE
  5
2B4
330
1F
100
AcDbEntity
  8
0
  6
Continuous
 62
     7
370
    15
100
AcDbLine
 10
2.1213203436
 20
-14.0584423577
 30
0.0
 11
1.6263455967
 21
-14.3441851969
 31
0.0
  0
LINE
  5
2B5
330
1F
100
AcDbEntity
  8
0
  6
Continuous
 62
     7
370
    15
100
AcDbLine
 10
2.3334523779
 20
-11.9268155466
 30
0.0
 11
2.3334523779
 21
-14.7523892528
 31
0.0
  0
LINE
  5
2B6
330
1F
100
AcDbEntity
  8
0
  6
Continuous
 62
     7
370
    15
100
AcDbLine
 10
-2.6870057685
 20
-2.4129790757
 30
0.0
 11
-3.1819805153
 21
-2.6987219148
 31
0.0
  0
LINE
  5
2B7
330
1F
100
AcDbEntity
  8
0
  6
Continuous
 62
     7
370
    15
100
AcDbLine
 10
-3.8890872965
 20
-2.2905178589
 30
0.0
 11
-3.3941125497
 21
-2.0047750198
 31
0.0
  0
LINE
  5
2B8
330
1F
100
AcDbEntity
  8
0
  6
Continuous
 62
     7
370
    15
100
AcDbLine
 10
-3.3941125497
 20
-4.830348726
 30
0.0
 11
-3.8890872965
 21
-5.1160915651
 31
0.0
  0
LINE
  5
2B9
330
1F
100
AcDbEntity
  8
0
  6
Continuous
 62
     7
370
    15
100
AcDbLine
 10
-10.6773123959
 20
-12.6051794058
 30
0.0
 11
-6.7876274422
 21
-10.3597120781
 31
0.0
  0
LINE
  5
2BA
330
1F
100
AcDbEntity
  8
0
  6
Continuous
 62
     7
370
    15
100
AcDbLine
 10
-3.1819805153
 20
-2.6987219148
 30
0.0
 11
-3.1819805153
 21
-5.5242956211
 31
0.0
  0
LINE
  5
2BB
330
1F
100
AcDbEntity
  8
0
  6
Continuous
 62
     7
370
    15
100
AcDbLine
 10
-2.4418322597
 20
-11.3996954687
 30
0.0
 11
-1.4142135624
 21
-11.9929271154
 31
0.0
  0
LINE
  5
2BC
330
1F
100
AcDbEntity
  8
0
  6
Continuous
 62
     7
370
    15
100
AcDbLine
 10
-3.5355339059
 20
-0.6413761925
 30
0.0
 11
-3.5355339059
 21
-1.8311097815
 31
0.0
  0
LINE
  5
2BD
330
1F
100
AcDbEntity
  8
0
  6
Continuous
 62
     7
370
    15
100
AcDbLine
 10
-3.5355339059
 20
-4.9119895372
 30
0.0
 11
-3.5355339059
 21
-7.8752117772
 31
0.0
  0
LINE
  5
2BE
330
1F
100
AcDbEntity
  8
0
  6
Continuous
 62
     7
370
    15
100
AcDbLine
 10
2.1213203436
 20
-11.2328686515
 30
0.0
 11
2.1213203436
 21
-14.0584423577
 31
0.0
  0
LINE
  5
2BF
330
1F
100
AcDbEntity
  8
0
  6
Continuous
 62
     7
370
    15
100
AcDbLine
 10
1.6263455967
 20
-14.3441851969
 30
0.0
 11
1.6263455967
 21
-11.5186114907
 31
0.0
  0
LINE
  5
2C0
330
1F
100
AcDbEntity
  8
0
  6
Continuous
 62
     7
370
    15
100
AcDbLine
 10
-3.3941125497
 20
-2.0047750198
 30
0.0
 11
-3.3941125497
 21
-4.830348726
 31
0.0
  0
LINE
  5
2C1
330
1F
100
AcDbEntity
  8
0
  6
Continuous
 62
     7
370
    15
100
AcDbLine
 10
-3.8890872965
 20
-5.1160915651
 30
0.0
 11
-3.8890872965
 21
-2.2905178589
 31
0.0
  0
LINE
  5
2C2
330
1F
100
AcDbEntity
  8
0
  6
Continuous
 62
     7
370
    15
100
AcDbLine
 10
-4.0100662357
 20
-11.0422566306
 30
0.0
 11
-4.2426406871
 21
-11.1765190035
 31
0.0
  0
LINE
  5
2C3
330
1F
100
AcDbEntity
  8
0
  6
Continuous
 62
     7
370
    15
100
AcDbLine
 10
-0.2121320344
 20
2.7459736378
 30
0.0
 11
-0.2121320344
 21
-0.5196588095
 31
0.0
  0
LINE
  5
2C4
330
1F
100
AcDbEntity
  8
0
  6
Continuous
 62
     7
370
    15
100
AcDbLine
 10
-4.2426406871
 20
18.7901844859
 30
0.0
 11
-3.3941125497
 21
19.280029353
 31
0.0
  0
LINE
  5
2C5
330
1F
100
AcDbEntity
  8
0
  6
Continuous
 62
     7
370
    15
100
AcDbLine
 10
-2.9619582933
 20
19.0305520111
 30
0.0
 11
-3.3941125497
 21
19.280029353
 31
0.0
  0
LINE
  5
2C6
330
1F
100
AcDbEntity
  8
0
  6
Continuous
 62
     7
370
    15
100
AcDbLine
 10
-2.6870057685
 20
-8.4570810713
 30
0.0
 11
-3.1819805153
 21
-8.7428239105
 31
0.0
  0
LINE
  5
2C7
330
1F
100
AcDbEntity
  8
0
  6
Continuous
 62
     7
370
    15
100
AcDbLine
 10
-3.8890872965
 20
-8.3346198546
 30
0.0
 11
-3.3941125497
 21
-8.0488770154
 31
0.0
  0
LINE
  5
2C8
330
1F
100
AcDbEntity
  8
0
  6
Continuous
 62
     7
370
    15
100
AcDbLine
 10
-3.3941125497
 20
-10.8744507216
 30
0.0
 11
-3.8890872965
 21
-11.1601935608
 31
0.0
  0
LINE
  5
2C9
330
1F
100
AcDbEntity
  8
0
  6
Continuous
 62
     7
370
    15
100
AcDbLine
 10
-3.1819805153
 20
-8.7428239105
 30
0.0
 11
-3.1819805153
 21
-11.5683976167
 31
0.0
  0
LINE
  5
2CA
330
1F
100
AcDbEntity
  8
0
  6
Continuous
 62
     7
370
    15
100
AcDbLine
 10
-8.2024386618
 20
0.7710125604
 30
0.0
 11
-8.6974134086
 21
0.4852697213
 31
0.0
  0
LINE
  5
2CB
330
1F
100
AcDbEntity
  8
0
  6
Continuous
 62
     7
370
    15
100
AcDbLine
 10
-9.4045201898
 20
0.8934737772
 30
0.0
 11
-8.9095454429
 21
1.1792166163
 31
0.0
  0
LINE
  5
2CC
330
1F
100
AcDbEntity
  8
0
  6
Continuous
 62
     7
370
    15
100
AcDbLine
 10
-8.9095454429
 20
-1.6463570899
 30
0.0
 11
-9.4045201898
 21
-1.932099929
 31
0.0
  0
LINE
  5
2CD
330
1F
100
AcDbEntity
  8
0
  6
Continuous
 62
     7
370
    15
100
AcDbLine
 10
-8.6974134086
 20
0.4852697213
 30
0.0
 11
-8.6974134086
 21
-2.340303985
 31
0.0
  0
LINE
  5
2CE
330
1F
100
AcDbEntity
  8
0
  6
Continuous
 62
     7
370
    15
100
AcDbLine
 10
-7.957265153
 20
-8.2157038326
 30
0.0
 11
-6.9296464556
 21
-8.8089354793
 31
0.0
  0
LINE
  5
2CF
330
1F
100
AcDbEntity
  8
0
  6
Continuous
 62
     7
370
    15
100
AcDbLine
 10
-9.0509667992
 20
2.5426154436
 30
0.0
 11
-9.0509667992
 21
1.3528818546
 31
0.0
  0
LINE
  5
2D0
330
1F
100
AcDbEntity
  8
0
  6
Continuous
 62
     7
370
    15
100
AcDbLine
 10
-9.0509667992
 20
-1.7279979011
 30
0.0
 11
-9.0509667992
 21
-4.691220141
 31
0.0
  0
LINE
  5
2D1
330
1F
100
AcDbEntity
  8
0
  6
Continuous
 62
     7
370
    15
100
AcDbLine
 10
-3.3941125497
 20
-8.0488770154
 30
0.0
 11
-3.3941125497
 21
-10.8744507216
 31
0.0
  0
LINE
  5
2D2
330
1F
100
AcDbEntity
  8
0
  6
Continuous
 62
     7
370
    15
100
AcDbLine
 10
-3.8890872965
 20
-11.1601935608
 30
0.0
 11
-3.8890872965
 21
-8.3346198546
 31
0.0
  0
LINE
  5
2D3
330
1F
100
AcDbEntity
  8
0
  6
Continuous
 62
     7
370
    15
100
AcDbLine
 10
-8.9095454429
 20
1.1792166163
 30
0.0
 11
-8.9095454429
 21
-1.6463570899
 31
0.0
  0
LINE
  5
2D4
330
1F
100
AcDbEntity
  8
0
  6
Continuous
 62
     7
370
    15
100
AcDbLine
 10
3.6775529194
 20
-16.4011321056
 30
0.0
 11
-0.2121320344
 21
-18.6465994333
 31
0.0
  0
LINE
  5
2D5
330
1F
100
AcDbEntity
  8
0
  6
Continuous
 62
     7
370
    15
100
AcDbLine
 10
-9.4045201898
 20
-1.932099929
 30
0.0
 11
-9.4045201898
 21
0.8934737772
 31
0.0
  0
LINE
  5
2D6
330
1F
100
AcDbEntity
  8
0
  6
Continuous
 62
     7
370
    15
100
AcDbLine
 10
-9.5254991289
 20
-7.8582649945
 30
0.0
 11
-9.7580735804
 21
-7.9925273674
 31
0.0
  0
LINE
  5
2D7
330
1F
100
AcDbEntity
  8
0
  6
Continuous
 62
     7
370
    15
100
AcDbLine
 10
12.7279220614
 20
-23.6683453314
 30
0.0
 11
13.5764501988
 21
-23.1785004643
 31
0.0
  0
LINE
  5
2D8
330
1F
100
AcDbEntity
  8
0
  6
Continuous
 62
     7
370
    15
100
AcDbLine
 10
13.5764501988
 20
-23.1785004643
 30
0.0
 11
13.5764501988
 21
-14.7679708618
 31
0.0
  0
LINE
  5
2D9
330
1F
100
AcDbEntity
  8
0
  6
Continuous
 62
     7
370
    15
100
AcDbLine
 10
1.3437557392
 20
-20.5246433006
 30
0.0
 11
-0.2121320344
 21
-21.4228381937
 31
0.0
  0
LINE
  5
2DA
330
1F
100
AcDbEntity
  8
0
  6
Continuous
 62
     7
370
    15
100
AcDbLine
 10
0.7071067812
 20
-14.6863300506
 30
0.0
 11
0.7071067812
 21
-14.7752090545
 31
0.0
  0
LINE
  5
2DB
330
1F
100
AcDbEntity
  8
0
  6
Continuous
 62
     7
370
    15
100
AcDbLine
 10
-8.2024386618
 20
-5.2730894352
 30
0.0
 11
-8.6974134086
 21
-5.5588322744
 31
0.0
  0
LINE
  5
2DC
330
1F
100
AcDbEntity
  8
0
  6
Continuous
 62
     7
370
    15
100
AcDbLine
 10
-9.4045201898
 20
-5.1506282184
 30
0.0
 11
-8.9095454429
 21
-4.8648853793
 31
0.0
  0
LINE
  5
2DD
330
1F
100
AcDbEntity
  8
0
  6
Continuous
 62
     7
370
    15
100
AcDbLine
 10
-8.9095454429
 20
-7.6904590855
 30
0.0
 11
-9.4045201898
 21
-7.9762019247
 31
0.0
  0
LINE
  5
2DE
330
1F
100
AcDbEntity
  8
0
  6
Continuous
 62
     7
370
    15
100
AcDbLine
 10
-8.6974134086
 20
-5.5588322744
 30
0.0
 11
-8.6974134086
 21
-8.3844059806
 31
0.0
  0
LINE
  5
2DF
330
1F
100
AcDbEntity
  8
0
  6
Continuous
 62
     7
370
    15
100
AcDbLine
 10
-5.8689862838
 20
-20.3618659385
 30
0.0
 11
-4.6741422349
 21
-19.6720971511
 31
0.0
  0
LINE
  5
2E0
330
1F
100
AcDbEntity
  8
0
  6
Continuous
 62
     7
370
    15
100
AcDbLine
 10
-9.616479823
 20
-16.9736727494
 30
0.0
 11
-10.6773123959
 21
-17.5860783583
 31
0.0
  0
LINE
  5
2E1
330
1F
100
AcDbEntity
  8
0
  6
Continuous
 62
     7
370
    15
100
AcDbLine
 10
0.8487005385
 20
-23.0150927769
 30
0.0
 11
-0.2121320344
 21
-23.6274983858
 31
0.0
  0
LINE
  5
2E2
330
1F
100
AcDbEntity
  8
0
  6
Continuous
 62
     7
370
    15
100
AcDbLine
 10
-8.9095454429
 20
-4.8648853793
 30
0.0
 11
-8.9095454429
 21
-7.6904590855
 31
0.0
  0
LINE
  5
2E3
330
1F
100
AcDbEntity
  8
0
  6
Continuous
 62
     7
370
    15
100
AcDbLine
 10
-9.4045201898
 20
-7.9762019247
 30
0.0
 11
-9.4045201898
 21
-5.1506282184
 31
0.0
  0
LINE
  5
2E4
330
1F
100
AcDbEntity
  8
0
  6
Continuous
 62
     7
370
    15
100
AcDbLine
 10
-5.8689862838
 20
-15.380966986
 30
0.0
 11
-1.9793013301
 21
-13.1354996583
 31
0.0
  0
LINE
  5
2E5
330
1F
100
AcDbEntity
  8
0
  6
Continuous
 62
     7
370
    15
100
AcDbLine
 10
-1.1306352718
 20
-13.6254241454
 30
0.0
 11
-5.8689862838
 21
-16.3608159602
 31
0.0
  0
LINE
  5
2E6
330
1F
100
AcDbEntity
  8
0
  6
Continuous
 62
     7
370
    15
100
AcDbLine
 10
-4.4688539108
 20
-18.3287755064
 30
0.0
 11
-5.8689862838
 21
-19.1370547206
 31
0.0
  0
LINE
  5
2E7
330
1F
100
AcDbEntity
  8
0
  6
Continuous
 62
     7
370
    15
100
AcDbLine
 10
-5.8689862838
 20
-18.1572057464
 30
0.0
 11
-4.6455482356
 21
-17.4509299946
 31
0.0
  0
LINE
  5
2E8
330
1F
100
AcDbEntity
  8
0
  6
Continuous
 62
     7
370
    15
100
AcDbLine
 10
0.1542305148
 20
-14.6800767013
 30
0.0
 11
0.4252525018
 21
-14.5236190385
 31
0.0
  0
LINE
  5
2E9
330
1F
100
AcDbEntity
  8
0
  6
Continuous
 62
     7
370
    15
100
AcDbLine
 10
-9.1214246223
 20
-14.4832232731
 30
0.0
 11
-10.6773123959
 21
-15.3814181662
 31
0.0
  0
LINE
  5
2EA
330
1F
100
AcDbEntity
  8
0
  6
Continuous
 62
     7
370
    15
100
AcDbLine
 10
-4.6439522242
 20
-20.4712096408
 30
0.0
 11
-5.8689862838
 21
-21.1784067504
 31
0.0
  0
LINE
  5
2EB
330
1F
100
AcDbEntity
  8
0
  6
Continuous
 62
     7
370
    15
100
AcDbLine
 10
4.5295750289
 20
-3.5242954452
 30
0.0
 11
4.5712760941
 21
-3.6892655999
 31
0.0
  0
LINE
  5
2EC
330
1F
100
AcDbEntity
  8
0
  6
Continuous
 62
     7
370
    15
100
AcDbLine
 10
-5.1546320512
 20
4.1423050065
 30
0.0
 11
-5.1385867746
 21
4.1413682492
 31
0.0
  0
LINE
  5
2ED
330
1F
100
AcDbEntity
  8
0
  6
Continuous
 62
     7
370
    15
100
AcDbLine
 10
-6.5295750289
 20
2.8600159893
 30
0.0
 11
-6.4878739636
 21
2.6950458346
 31
0.0
  0
LINE
  5
2EE
330
1F
100
AcDbEntity
  8
0
  6
Continuous
 62
     7
370
    15
100
AcDbLine
 10
3.15
 20
153.9415476788
 30
0.0
 11
4.2426406871
 21
153.5200819474
 31
0.0
  0
LINE
  5
2EF
330
1F
100
AcDbEntity
  8
0
  6
Continuous
 62
     7
370
    15
100
AcDbLine
 10
-2.9792965944
 20
150.4803592125
 30
0.0
 11
-3.2515545681
 21
150.3231880298
 31
0.0
  0
LINE
  5
2F0
330
1F
100
AcDbEntity
  8
0
  6
Continuous
 62
     8
370
    15
100
AcDbLine
 10
4.2426406871
 20
31.0404198652
 30
0.0
 11
4.949747459
 21
31.4486239157
 31
0.0
  0
LINE
  5
2F1
330
1F
100
AcDbEntity
  8
0
  6
Continuous
 62
     8
370
    15
100
AcDbLine
 10
4.529575588
 20
-1.7790396032
 30
0.0
 11
4.5961940777
 21
-1.9856102744
 31
0.0
  0
ARC
  5
2F2
330
1F
100
AcDbEntity
  8
0
  6
Continuous
 62
     7
370
    15
100
AcDbCircle
 10
0.0
 20
698.9289153467
 30
0.0
 40
125.0000000000003
100
AcDbArc
 50
101.5521538221
 51
78.4478461779
  0
ARC
  5
2F3
330
1F
100
AcDbEntity
  8
0
  6
Continuous
 62
     7
370
    15
100
AcDbCircle
 10
4.7947055146
 20
30.9006981715
 30
0.0
 40
0.8734183948569673
100
AcDbArc
 50
230.7967147643
 51
9.2140369905
  0
ARC
  5
2F4
330
1F
100
AcDbEntity
  8
0
  6
Continuous
 62
     7
370
    15
100
AcDbCircle
 10
4.5186731009
 20
31.3788294243
 30
0.0
 40
0.4367091974284883
100
AcDbArc
 50
230.7967147643
 51
9.2140369905
  0
ARC
  5
2F5
330
1F
100
AcDbEntity
  8
0
  6
Continuous
 62
     7
370
    15
100
AcDbCircle
 10
-3.4145313669
 20
45.3975553745
 30
0.0
 40
1.536804807572054
100
AcDbArc
 50
182.6054784857
 51
237.39452166
  0
ARC
  5
2F6
330
1F
100
AcDbEntity
  8
0
  6
Continuous
 62
     7
370
    15
100
AcDbCircle
 10
-10.4855991788
 20
41.3155148153
 30
0.0
 40
1.536804807572043
100
AcDbArc
 50
182.6054784857
 51
237.39452166
  0
ARC
  5
2F7
330
1F
100
AcDbEntity
  8
0
  6
Continuous
 62
     7
370
    15
100
AcDbCircle
 10
-9.6574898586
 20
41.7935797235
 30
0.0
 40
3.07360961514412
100
AcDbArc
 50
182.6054784857
 51
237.39452166
  0
ARC
  5
2F8
330
1F
100
AcDbEntity
  8
0
  6
Continuous
 62
     7
370
    15
100
AcDbCircle
 10
9.6574898586
 20
7.2204838158
 30
0.0
 40
3.073609615144304
100
AcDbArc
 50
2.6054784857
 51
57.39452166
  0
ARC
  5
2F9
330
1F
100
AcDbEntity
  8
0
  6
Continuous
 62
     7
370
    15
100
AcDbCircle
 10
11.8657733265
 20
-23.8081997252
 30
0.0
 40
0.87341839485695
100
AcDbArc
 50
230.7967147643
 51
9.2140369905
  0
ARC
  5
2FA
330
1F
100
AcDbEntity
  8
0
  6
Continuous
 62
     7
370
    15
100
AcDbCircle
 10
-4.7947055146
 20
18.1133653678
 30
0.0
 40
0.8734183948569518
100
AcDbArc
 50
50.7967147643
 51
189.2140369905
  0
ARC
  5
2FB
330
1F
100
AcDbEntity
  8
0
  6
Continuous
 62
     7
370
    15
100
AcDbCircle
 10
-4.476976731
 20
17.4832304484
 30
0.0
 40
0.4023817887213919
100
AcDbArc
 50
54.3824225248
 51
114.3071190461
  0
ARC
  5
2FC
330
1F
100
AcDbEntity
  8
0
  6
Continuous
 62
     7
370
    15
100
AcDbCircle
 10
11.4873924022
 20
-23.2217698542
 30
0.0
 40
0.3943823438885471
100
AcDbArc
 50
305.0133328652
 51
6.2988475282
  0
ARC
  5
2FD
330
1F
100
AcDbEntity
  8
0
  6
Continuous
 62
     7
370
    15
100
AcDbCircle
 10
10.6512210428
 20
7.7941617056
 30
0.0
 40
1.229443846057763
100
AcDbArc
 50
2.6054784857
 51
57.39452166
  0
ARC
  5
2FE
330
1F
100
AcDbEntity
  8
0
  6
Continuous
 62
     7
370
    15
100
AcDbCircle
 10
12.5964463941
 20
35.5042645168
 30
0.0
 40
0.9859558600022864
100
AcDbArc
 50
305.0133328749
 51
6.2988475185
  0
ARC
  5
2FF
330
1F
100
AcDbEntity
  8
0
  6
Continuous
 62
     7
370
    15
100
AcDbCircle
 10
4.0751279778
 20
3.9978639856
 30
0.0
 40
1.229443846057773
100
AcDbArc
 50
2.6054784857
 51
57.39452166
  0
ARC
  5
300
330
1F
100
AcDbEntity
  8
0
  6
Continuous
 62
     7
370
    15
100
AcDbCircle
 10
4.958441365
 20
-27.0307399418
 30
0.0
 40
0.3493673579427529
100
AcDbArc
 50
230.7967147643
 51
9.2140369905
  0
ARC
  5
301
330
1F
100
AcDbEntity
  8
0
  6
Continuous
 62
     7
370
    15
100
AcDbCircle
 10
10.8630409928
 20
15.2648516753
 30
0.0
 40
2.486300359695875
100
AcDbArc
 50
167.9877654048
 51
252.0068580625
  0
ARC
  5
302
330
1F
100
AcDbEntity
  8
0
  6
Continuous
 62
     7
370
    15
100
AcDbCircle
 10
10.506017996
 20
7.7103286829
 30
0.0
 40
3.07360961514404
100
AcDbArc
 50
2.6054784857
 51
57.39452166
  0
ARC
  5
303
330
1F
100
AcDbEntity
  8
0
  6
Continuous
 62
     7
370
    15
100
AcDbCircle
 10
-10.156246296
 20
-17.2852937829
 30
0.0
 40
1.22944384605777
100
AcDbArc
 50
182.6054784857
 51
237.39452166
  0
ARC
  5
304
330
1F
100
AcDbEntity
  8
0
  6
Continuous
 62
     7
370
    15
100
AcDbCircle
 10
-11.0395596832
 20
13.7433101444
 30
0.0
 40
0.3493673579427804
100
AcDbArc
 50
50.7967147643
 51
189.2140369905
  0
ARC
  5
305
330
1F
100
AcDbEntity
  8
0
  6
Continuous
 62
     7
370
    15
100
AcDbCircle
 10
1.6594240353
 20
-6.8054220464
 30
0.0
 40
1.681345547827919
100
AcDbArc
 50
45.9506010051
 51
74.0547755276
  0
ARC
  5
306
330
1F
100
AcDbEntity
  8
0
  6
Continuous
 62
     7
370
    15
100
AcDbCircle
 10
3.5982904504
 20
-6.4009995922
 30
0.0
 40
2.187306365438872
100
AcDbArc
 50
227.5267353035
 51
234.6715447901
  0
ARC
  5
307
330
1F
100
AcDbEntity
  8
0
  6
Continuous
 62
     7
370
    15
100
AcDbCircle
 10
3.2832731952
 20
-7.4701813158
 30
0.0
 40
0.8223192078120526
100
AcDbArc
 50
302.8105368822
 51
5.911577453
  0
ARC
  5
308
330
1F
100
AcDbEntity
  8
0
  6
Continuous
 62
     7
370
    15
100
AcDbCircle
 10
2.8193240619
 20
-6.5048157059
 30
0.0
 40
1.353379072080209
100
AcDbArc
 50
18.7051883805
 51
88.1004455333
  0
ARC
  5
309
330
1F
100
AcDbEntity
  8
0
  6
Continuous
 62
     7
370
    15
100
AcDbCircle
 10
2.8193240619
 20
-12.5489177015
 30
0.0
 40
1.353379072080502
100
AcDbArc
 50
18.7051883805
 51
88.1004455332
  0
ARC
  5
30A
330
1F
100
AcDbEntity
  8
0
  6
Continuous
 62
     7
370
    15
100
AcDbCircle
 10
1.6594240353
 20
-12.849524042
 30
0.0
 40
1.681345547829846
100
AcDbArc
 50
45.9506010051
 51
74.0547755276
  0
ARC
  5
30B
330
1F
100
AcDbEntity
  8
0
  6
Continuous
 62
     7
370
    15
100
AcDbCircle
 10
3.5982904505
 20
-12.4451015877
 30
0.0
 40
2.187306365592671
100
AcDbArc
 50
227.5267353037
 51
234.6715447898
  0
ARC
  5
30C
330
1F
100
AcDbEntity
  8
0
  6
Continuous
 62
     7
370
    15
100
AcDbCircle
 10
3.2832731948
 20
-13.5142833113
 30
0.0
 40
0.8223192081279629
100
AcDbArc
 50
302.8105368957
 51
5.9115774395
  0
ARC
  5
30D
330
1F
100
AcDbEntity
  8
0
  6
Continuous
 62
     7
370
    15
100
AcDbCircle
 10
-3.856008858
 20
-3.6214304103
 30
0.0
 40
1.681345547829141
100
AcDbArc
 50
45.9506010051
 51
74.0547755276
  0
ARC
  5
30E
330
1F
100
AcDbEntity
  8
0
  6
Continuous
 62
     7
370
    15
100
AcDbCircle
 10
-1.9171424429
 20
-3.2170079561
 30
0.0
 40
2.187306365450468
100
AcDbArc
 50
227.5267353035
 51
234.6715447901
  0
ARC
  5
30F
330
1F
100
AcDbEntity
  8
0
  6
Continuous
 62
     7
370
    15
100
AcDbCircle
 10
-2.2321596984
 20
-4.2861896795
 30
0.0
 40
0.8223192081287003
100
AcDbArc
 50
302.8105368958
 51
5.9115774395
  0
ARC
  5
310
330
1F
100
AcDbEntity
  8
0
  6
Continuous
 62
     7
370
    15
100
AcDbCircle
 10
-2.6961088314
 20
-3.3208240698
 30
0.0
 40
1.353379072079959
100
AcDbArc
 50
18.7051883805
 51
88.1004455333
  0
ARC
  5
311
330
1F
100
AcDbEntity
  8
0
  6
Continuous
 62
     7
370
    15
100
AcDbCircle
 10
-2.6961088314
 20
-9.3649260654
 30
0.0
 40
1.3533790720802
100
AcDbArc
 50
18.7051883805
 51
88.1004455333
  0
ARC
  5
312
330
1F
100
AcDbEntity
  8
0
  6
Continuous
 62
     7
370
    15
100
AcDbCircle
 10
-3.9799526594
 20
18.4622666948
 30
0.0
 40
1.005954471803788
100
AcDbArc
 50
54.3824225248
 51
114.3071190461
  0
ARC
  5
313
330
1F
100
AcDbEntity
  8
0
  6
Continuous
 62
     7
370
    15
100
AcDbCircle
 10
-3.856008858
 20
-9.6655324059
 30
0.0
 40
1.681345547829161
100
AcDbArc
 50
45.9506010051
 51
74.0547755276
  0
ARC
  5
314
330
1F
100
AcDbEntity
  8
0
  6
Continuous
 62
     7
370
    15
100
AcDbCircle
 10
-1.9171424428
 20
-9.2611099516
 30
0.0
 40
2.187306365604859
100
AcDbArc
 50
227.5267353037
 51
234.6715447898
  0
ARC
  5
315
330
1F
100
AcDbEntity
  8
0
  6
Continuous
 62
     7
370
    15
100
AcDbCircle
 10
-2.2321596981
 20
-10.3302916753
 30
0.0
 40
0.8223192078150575
100
AcDbArc
 50
302.8105368823
 51
5.9115774529
  0
ARC
  5
316
330
1F
100
AcDbEntity
  8
0
  6
Continuous
 62
     7
370
    15
100
AcDbCircle
 10
-9.3714417512
 20
-0.4374387742
 30
0.0
 40
1.681345547828474
100
AcDbArc
 50
45.9506010051
 51
74.0547755276
  0
ARC
  5
317
330
1F
100
AcDbEntity
  8
0
  6
Continuous
 62
     7
370
    15
100
AcDbCircle
 10
-7.4325753361
 20
-0.03301632
 30
0.0
 40
2.187306365450756
100
AcDbArc
 50
227.5267353035
 51
234.6715447901
  0
ARC
  5
318
330
1F
100
AcDbEntity
  8
0
  6
Continuous
 62
     7
370
    15
100
AcDbCircle
 10
-7.7475925917
 20
-1.1021980434
 30
0.0
 40
0.822319208133183
100
AcDbArc
 50
302.810536896
 51
5.9115774393
  0
ARC
  5
319
330
1F
100
AcDbEntity
  8
0
  6
Continuous
 62
     7
370
    15
100
AcDbCircle
 10
-8.2115417246
 20
-0.1368324337
 30
0.0
 40
1.353379072080122
100
AcDbArc
 50
18.7051883805
 51
88.1004455333
  0
ARC
  5
31A
330
1F
100
AcDbEntity
  8
0
  6
Continuous
 62
     7
370
    15
100
AcDbCircle
 10
-8.2115417246
 20
-6.1809344293
 30
0.0
 40
1.353379072079432
100
AcDbArc
 50
18.7051883805
 51
88.1004455333
  0
ARC
  5
31B
330
1F
100
AcDbEntity
  8
0
  6
Continuous
 62
     7
370
    15
100
AcDbCircle
 10
-9.3714417512
 20
-6.4815407698
 30
0.0
 40
1.681345547828429
100
AcDbArc
 50
45.9506010051
 51
74.0547755276
  0
ARC
  5
31C
330
1F
100
AcDbEntity
  8
0
  6
Continuous
 62
     7
370
    15
100
AcDbCircle
 10
-7.4325753361
 20
-6.0771183155
 30
0.0
 40
2.187306365582435
100
AcDbArc
 50
227.5267353036
 51
234.6715447899
  0
ARC
  5
31D
330
1F
100
AcDbEntity
  8
0
  6
Continuous
 62
     7
370
    15
100
AcDbCircle
 10
-7.7475925917
 20
-7.1463000391
 30
0.0
 40
0.8223192081361228
100
AcDbArc
 50
302.8105368961
 51
5.9115774392
  0
ARC
  5
31E
330
1F
100
AcDbEntity
  8
0
  6
Continuous
 62
     7
370
    15
100
AcDbCircle
 10
12.5964463943
 20
-23.2866739391
 30
0.0
 40
0.9859558597896928
100
AcDbArc
 50
305.0133328676
 51
6.2988475258
  0
ARC
  5
31F
330
1F
100
AcDbEntity
  8
0
  6
Continuous
 62
     7
370
    15
100
AcDbCircle
 10
1.584625778
 20
-16.6761821331
 30
0.0
 40
1.345431923101756
100
AcDbArc
 50
353.078818774
 51
42.7054999074
  0
ARC
  5
320
330
1F
100
AcDbEntity
  8
0
  6
Continuous
 62
     7
370
    15
100
AcDbCircle
 10
-0.5445052907
 20
-20.1215002255
 30
0.0
 40
5.492733258701668
100
AcDbArc
 50
73.8595731268
 51
117.0281611281
  0
ARC
  5
321
330
1F
100
AcDbEntity
  8
0
  6
Continuous
 62
     7
370
    15
100
AcDbCircle
 10
-0.5655402836
 20
-14.1518534519
 30
0.0
 40
5.859019037122229
100
AcDbArc
 50
257.2996087085
 51
278.8273243567
  0
ARC
  5
322
330
1F
100
AcDbEntity
  8
0
  6
Continuous
 62
     7
370
    15
100
AcDbCircle
 10
-2.3870019508
 20
-19.5440658904
 30
0.0
 40
1.683136546398458
100
AcDbArc
 50
184.1687285934
 51
247.1514123624
  0
ARC
  5
323
330
1F
100
AcDbEntity
  8
0
  6
Continuous
 62
     7
370
    15
100
AcDbCircle
 10
-0.6076414071
 20
-16.4305050904
 30
0.0
 40
5.260974209468871
100
AcDbArc
 50
242.4549279805
 51
274.3114482288
  0
ARC
  5
324
330
1F
100
AcDbEntity
  8
0
  6
Continuous
 62
     7
370
    15
100
AcDbCircle
 10
-1.6280700246
 20
449.2059305289
 30
0.0
 40
1.475167301214966
100
AcDbArc
 50
183.7965546052
 51
247.5235863524
  0
ARC
  5
325
330
1F
100
AcDbEntity
  8
0
  6
Continuous
 62
     7
370
    15
100
AcDbCircle
 10
-3.337055997
 20
137.857729861
 30
0.0
 40
3.173595522925003
100
AcDbArc
 50
184.6955792933
 51
246.6245616644
  0
ARC
  5
326
330
1F
100
AcDbEntity
  8
0
  6
Continuous
 62
     7
370
    15
100
AcDbCircle
 10
-0.0000280483
 20
142.6872860727
 30
0.0
 40
9.008447860718533
100
AcDbArc
 50
241.9034127405
 51
298.1019621905
  0
ARC
  5
327
330
1F
100
AcDbEntity
  8
0
  6
Continuous
 62
     7
370
    15
100
AcDbCircle
 10
3.337055997
 20
465.6988658331
 30
0.0
 40
3.173595522925056
100
AcDbArc
 50
293.3754383357
 51
355.3044207067
  0
ARC
  5
328
330
1F
100
AcDbEntity
  8
0
  6
Continuous
 62
     7
370
    15
100
AcDbCircle
 10
3.337055997
 20
453.4507536548
 30
0.0
 40
3.1735955229251
100
AcDbArc
 50
293.3754383357
 51
355.3044207067
  0
ARC
  5
329
330
1F
100
AcDbEntity
  8
0
  6
Continuous
 62
     7
370
    15
100
AcDbCircle
 10
3.35767136
 20
465.6840739663
 30
0.0
 40
3.151865500448942
100
AcDbArc
 50
293.1381260423
 51
355.5417330001
  0
ARC
  5
32A
330
1F
100
AcDbEntity
  8
0
  6
Continuous
 62
     7
370
    15
100
AcDbCircle
 10
0.0
 20
678.0339459666
 30
0.0
 40
104.131965711689
100
AcDbArc
 50
266.8119994897
 51
273.1880005103
  0
ENDSEC
  0
SECTION
  2
OBJECTS
  0
DICTIONARY
  5
C
330
0
100
AcDbDictionary
281
     1
  3
ACAD_GROUP
350
D
  3
ACAD_LAYOUT
350
1A
  3
ACAD_MLINESTYLE
350
17
  3
ACAD_PLOTSETTINGS
350
19
  3
ACAD_PLOTSTYLENAME
350
E
  3
ACAD_SCALELIST
350
47
  0
DICTIONARY
  5
D
102
{ACAD_REACTORS
330
C
102
}
330
C
100
AcDbDictionary
281
     1
  0
DICTIONARY
  5
1A
102
{ACAD_REACTORS
330
C
102
}
330
C
100
AcDbDictionary
281
     1
  3
Layout1
350
1E
  3
Layout2
350
26
  3
Model
350
22
  0
DICTIONARY
  5
17
102
{ACAD_REACTORS
330
C
102
}
330
C
100
AcDbDictionary
281
     1
  3
Standard
350
18
  0
DICTIONARY
  5
19
102
{ACAD_REACTORS
330
C
102
}
330
C
100
AcDbDictionary
281
     1
  0
ACDBDICTIONARYWDFLT
  5
E
102
{ACAD_REACTORS
330
C
102
}
330
C
100
AcDbDictionary
281
     1
  3
Normal
350
F
100
AcDbDictionaryWithDefault
340
F
  0
DICTIONARY
  5
47
102
{ACAD_REACTORS
330
C
102
}
330
C
100
AcDbDictionary
281
     1
  3
A0
350
48
  3
A1
350
49
  3
A2
350
4A
  3
A3
350
4B
  3
A4
350
4C
  3
A5
350
4D
  3
A6
350
4E
  3
A7
350
4F
  3
A8
350
50
  3
A9
350
51
  3
B0
350
52
  3
B1
350
53
  3
B2
350
54
  3
B3
350
55
  3
B4
350
56
  3
B5
350
57
  3
B6
350
58
  3
B7
350
59
  3
B8
350
5A
  3
B9
350
5B
  3
C0
350
5C
  3
C1
350
5D
  3
C2
350
5E
  3
C3
350
5F
  3
C4
350
60
  3
C5
350
61
  3
C6
350
62
  3
C7
350
63
  3
C8
350
64
  3
C9
350
65
  3
D0
350
66
  3
D1
350
67
  3
D2
350
68
  0
LAYOUT
  5
1E
102
{ACAD_REACTORS
330
1A
102
}
330
1A
100
AcDbPlotSettings
  1

  2
none_device
  4

  6

 40
0.0
 41
0.0
 42
0.0
 43
0.0
 44
0.0
 45
0.0
 46
0.0
 47
0.0
 48
0.0
 49
0.0
140
0.0
141
0.0
142
1.0
143
1.0
 70
   688
 72
     1
 73
     0
 74
     5
  7

 75
    16
147
1.0
148
0.0
149
0.0
100
AcDbLayout
  1
Layout1
 70
     1
 71
     1
 10
0.0
 20
0.0
 11
420.0
 21
297.0
 12
0.0
 22
0.0
 32
0.0
 14
1.0000000000E+20
 24
1.0000000000E+20
 34
1.0000000000E+20
 15
-1.0000000000E+20
 25
-1.0000000000E+20
 35
-1.0000000000E+20
146
0.0
 13
0.0
 23
0.0
 33
0.0
 16
1.0
 26
0.0
 36
0.0
 17
0.0
 27
1.0
 37
0.0
 76
     0
330
1B
  0
LAYOUT
  5
26
102
{ACAD_REACTORS
330
1A
102
}
330
1A
100
AcDbPlotSettings
  1

  2
none_device
  4

  6

 40
0.0
 41
0.0
 42
0.0
 43
0.0
 44
0.0
 45
0.0
 46
0.0
 47
0.0
 48
0.0
 49
0.0
140
0.0
141
0.0
142
1.0
143
1.0
 70
   688
 72
     1
 73
     0
 74
     5
  7

 75
    16
147
1.0
148
0.0
149
0.0
100
AcDbLayout
  1
Layout2
 70
     1
 71
     2
 10
0.0
 20
0.0
 11
0.0
 21
0.0
 12
0.0
 22
0.0
 32
0.0
 14
0.0
 24
0.0
 34
0.0
 15
0.0
 25
0.0
 35
0.0
146
0.0
 13
0.0
 23
0.0
 33
0.0
 16
1.0
 26
0.0
 36
0.0
 17
0.0
 27
1.0
 37
0.0
 76
     0
330
23
  0
LAYOUT
  5
22
102
{ACAD_REACTORS
330
1A
102
}
330
1A
100
AcDbPlotSettings
  1

  2
none_device
  4
ANSI_A_(11.00_x_8.50_Inches)
  6

 40
6.35
 41
19.05
 42
6.35000508
 43
19.05000254
 44
279.4
 45
215.9
 46
133.34999746
 47
1.8057113998
 48
0.0
 49
0.0
140
0.0
141
0.0
142
0.0092690045
143
1.0
 70
  1696
 72
     0
 73
     0
 74
     0
  7

 75
     0
147
0.0179189148
148
-1300.4909072572
149
0.0
100
AcDbLayout
  1
Model
 70
     1
 71
     0
 10
0.0
 20
0.0
 11
420.0
 21
297.0
 12
0.0
 22
0.0
 32
0.0
 14
-125.0
 24
-83.9994254245
 34
0.0
 15
125.0
 25
823.8650625562
 35
0.0
146
0.0
 13
0.0
 23
0.0
 33
0.0
 16
1.0
 26
0.0
 36
0.0
 17
0.0
 27
1.0
 37
0.0
 76
     0
330
1F
331
29
  0
MLINESTYLE
  5
18
102
{ACAD_REACTORS
330
17
102
}
330
17
100
AcDbMlineStyle
  2
Standard
 70
     0
  3

 62
   256
 51
90.0
 52
90.0
 71
     2
 49
0.5
 62
   256
  6
BYLAYER
 49
-0.5
 62
   256
  6
BYLAYER
  0
ACDBPLACEHOLDER
  5
F
102
{ACAD_REACTORS
330
E
102
}
330
E
  0
SCALE
  5
48
102
{ACAD_REACTORS
330
47
102
}
330
47
100
AcDbScale
 70
     0
300
1:1
140
1.0
141
1.0
290
     1
  0
SCALE
  5
49
102
{ACAD_REACTORS
330
47
102
}
330
47
100
AcDbScale
 70
     0
300
1:2
140
1.0
141
2.0
290
     0
  0
SCALE
  5
4A
102
{ACAD_REACTORS
330
47
102
}
330
47
100
AcDbScale
 70
     0
300
1:4
140
1.0
141
4.0
290
     0
  0
SCALE
  5
4B
102
{ACAD_REACTORS
330
47
102
}
330
47
100
AcDbScale
 70
     0
300
1:5
140
1.0
141
5.0
290
     0
  0
SCALE
  5
4C
102
{ACAD_REACTORS
330
47
102
}
330
47
100
AcDbScale
 70
     0
300
1:8
140
1.0
141
8.0
290
     0
  0
SCALE
  5
4D
102
{ACAD_REACTORS
330
47
102
}
330
47
100
AcDbScale
 70
     0
300
1:10
140
1.0
141
10.0
290
     0
  0
SCALE
  5
4E
102
{ACAD_REACTORS
330
47
102
}
330
47
100
AcDbScale
 70
     0
300
1:16
140
1.0
141
16.0
290
     0
  0
SCALE
  5
4F
102
{ACAD_REACTORS
330
47
102
}
330
47
100
AcDbScale
 70
     0
300
1:20
140
1.0
141
20.0
290
     0
  0
SCALE
  5
50
102
{ACAD_REACTORS
330
47
102
}
330
47
100
AcDbScale
 70
     0
300
1:30
140
1.0
141
30.0
290
     0
  0
SCALE
  5
51
102
{ACAD_REACTORS
330
47
102
}
330
47
100
AcDbScale
 70
     0
300
1:40
140
1.0
141
40.0
290
     0
  0
SCALE
  5
52
102
{ACAD_REACTORS
330
47
102
}
330
47
100
AcDbScale
 70
     0
300
1:50
140
1.0
141
50.0
290
     0
  0
SCALE
  5
53
102
{ACAD_REACTORS
330
47
102
}
330
47
100
AcDbScale
 70
     0
300
1:100
140
1.0
141
100.0
290
     0
  0
SCALE
  5
54
102
{ACAD_REACTORS
330
47
102
}
330
47
100
AcDbScale
 70
     0
300
2:1
140
2.0
141
1.0
290
     0
  0
SCALE
  5
55
102
{ACAD_REACTORS
330
47
102
}
330
47
100
AcDbScale
 70
     0
300
4:1
140
4.0
141
1.0
290
     0
  0
SCALE
  5
56
102
{ACAD_REACTORS
330
47
102
}
330
47
100
AcDbScale
 70
     0
300
8:1
140
8.0
141
1.0
290
     0
  0
SCALE
  5
57
102
{ACAD_REACTORS
330
47
102
}
330
47
100
AcDbScale
 70
     0
300
10:1
140
10.0
141
1.0
290
     0
  0
SCALE
  5
58
102
{ACAD_REACTORS
330
47
102
}
330
47
100
AcDbScale
 70
     0
300
100:1
140
100.0
141
1.0
290
     0
  0
SCALE
  5
59
102
{ACAD_REACTORS
330
47
102
}
330
47
100
AcDbScale
 70
     0
300
1/128" = 1'-0"
140
0.0078125
141
12.0
290
     0
  0
SCALE
  5
5A
102
{ACAD_REACTORS
330
47
102
}
330
47
100
AcDbScale
 70
     0
300
1/64" = 1'-0"
140
0.015625
141
12.0
290
     0
  0
SCALE
  5
5B
102
{ACAD_REACTORS
330
47
102
}
330
47
100
AcDbScale
 70
     0
300
1/32" = 1'-0"
140
0.03125
141
12.0
290
     0
  0
SCALE
  5
5C
102
{ACAD_REACTORS
330
47
102
}
330
47
100
AcDbScale
 70
     0
300
1/16" = 1'-0"
140
0.0625
141
12.0
290
     0
  0
SCALE
  5
5D
102
{ACAD_REACTORS
330
47
102
}
330
47
100
AcDbScale
 70
     0
300
3/32" = 1'-0"
140
0.09375
141
12.0
290
     0
  0
SCALE
  5
5E
102
{ACAD_REACTORS
330
47
102
}
330
47
100
AcDbScale
 70
     0
300
1/8" = 1'-0"
140
0.125
141
12.0
290
     0
  0
SCALE
  5
5F
102
{ACAD_REACTORS
330
47
102
}
330
47
100
AcDbScale
 70
     0
300
3/16" = 1'-0"
140
0.1875
141
12.0
290
     0
  0
SCALE
  5
60
102
{ACAD_REACTORS
330
47
102
}
330
47
100
AcDbScale
 70
     0
300
1/4" = 1'-0"
140
0.25
141
12.0
290
     0
  0
SCALE
  5
61
102
{ACAD_REACTORS
330
47
102
}
330
47
100
AcDbScale
 70
     0
300
3/8" = 1'-0"
140
0.375
141
12.0
290
     0
  0
SCALE
  5
62
102
{ACAD_REACTORS
330
47
102
}
330
47
100
AcDbScale
 70
     0
300
1/2" = 1'-0"
140
0.5
141
12.0
290
     0
  0
SCALE
  5
63
102
{ACAD_REACTORS
330
47
102
}
330
47
100
AcDbScale
 70
     0
300
3/4" = 1'-0"
140
0.75
141
12.0
290
     0
  0
SCALE
  5
64
102
{ACAD_REACTORS
330
47
102
}
330
47
100
AcDbScale
 70
     0
300
1" = 1'-0"
140
1.0
141
12.0
290
     0
  0
SCALE
  5
65
102
{ACAD_REACTORS
330
47
102
}
330
47
100
AcDbScale
 70
     0
300
1-1/2" = 1'-0"
140
1.5
141
12.0
290
     0
  0
SCALE
  5
66
102
{ACAD_REACTORS
330
47
102
}
330
47
100
AcDbScale
 70
     0
300
3" = 1'-0"
140
3.0
141
12.0
290
     0
  0
SCALE
  5
67
102
{ACAD_REACTORS
330
47
102
}
330
47
100
AcDbScale
 70
     0
300
6" = 1'-0"
140
6.0
141
12.0
290
     0
  0
SCALE
  5
68
102
{ACAD_REACTORS
330
47
102
}
330
47
100
AcDbScale
 70
     0
300
1'-0" = 1'-0"
140
12.0
141
12.0
290
     0
  0
ENDSEC
  0
EOF
