  0
SECTION
  2
HEADER
  9
$ACADVER
  1
AC1015
  9
$ACADMAINTVER
 70
     6
  9
$DWGCODEPAGE
  3
ANSI_1252
  9
$INSBASE
 10
0.0
 20
0.0
 30
0.0
  9
$EXTMIN
 10
-255.0
 20
-177.781381992
 30
0.0
  9
$EXTMAX
 10
255.0
 20
966.6423666569
 30
0.0
  9
$LIMMIN
 10
0.0
 20
0.0
  9
$LIMMAX
 10
420.0
 20
297.0
  9
$ORTHOMODE
 70
     0
  9
$REGENMODE
 70
     1
  9
$FILLMODE
 70
     1
  9
$QTEXTMODE
 70
     0
  9
$MIRRTEXT
 70
     1
  9
$LTSCALE
 40
1.0
  9
$ATTMODE
 70
     1
  9
$TEXTSIZE
 40
3.5
  9
$TRACEWID
 40
1.0
  9
$TEXTSTYLE
  7
Standard
  9
$CLAYER
  8
0
  9
$CELTYPE
  6
ByLayer
  9
$CECOLOR
 62
   256
  9
$CELTSCALE
 40
1.0
  9
$DISPSILH
 70
     0
  9
$DIMSCALE
 40
1.0
  9
$DIMASZ
 40
2.0
  9
$DIMEXO
 40
1.0
  9
$DIMDLI
 40
3.75
  9
$DIMRND
 40
0.0
  9
$DIMDLE
 40
0.0
  9
$DIMEXE
 40
1.0
  9
$DIMTP
 40
0.0
  9
$DIMTM
 40
0.0
  9
$DIMTXT
 40
3.5
  9
$DIMCEN
 40
2.5
  9
$DIMTSZ
 40
0.0
  9
$DIMTOL
 70
     0
  9
$DIMLIM
 70
     0
  9
$DIMTIH
 70
     1
  9
$DIMTOH
 70
     1
  9
$DIMSE1
 70
     0
  9
$DIMSE2
 70
     0
  9
$DIMTAD
 70
     1
  9
$DIMZIN
 70
     0
  9
$DIMBLK
  1

  9
$DIMASO
 70
     1
  9
$DIMSHO
 70
     1
  9
$DIMPOST
  1

  9
$DIMAPOST
  1

  9
$DIMALT
 70
     0
  9
$DIMALTD
 70
     3
  9
$DIMALTF
 40
0.0393700787
  9
$DIMLFAC
 40
1.0
  9
$DIMTOFL
 70
     1
  9
$DIMTVP
 40
0.0
  9
$DIMTIX
 70
     0
  9
$DIMSOXD
 70
     0
  9
$DIMSAH
 70
     0
  9
$DIMBLK1
  1

  9
$DIMBLK2
  1

  9
$DIMSTYLE
  2
ISO-25
  9
$DIMCLRD
 70
     0
  9
$DIMCLRE
 70
     0
  9
$DIMCLRT
 70
     0
  9
$DIMTFAC
 40
1.0
  9
$DIMGAP
 40
1.524
  9
$DIMJUST
 70
     0
  9
$DIMSD1
 70
     0
  9
$DIMSD2
 70
     0
  9
$DIMTOLJ
 70
     0
  9
$DIMTZIN
 70
     0
  9
$DIMALTZ
 70
     0
  9
$DIMALTTZ
 70
     0
  9
$DIMUPT
 70
     0
  9
$DIMDEC
 70
     2
  9
$DIMTDEC
 70
     2
  9
$DIMALTU
 70
     2
  9
$DIMALTTD
 70
     3
  9
$DIMTXSTY
  7
Standard
  9
$DIMAUNIT
 70
     0
  9
$DIMADEC
 70
     2
  9
$DIMALTRND
 40
0.0
  9
$DIMAZIN
 70
     0
  9
$DIMDSEP
 70
    44
  9
$DIMATFIT
 70
     3
  9
$DIMFRAC
 70
     0
  9
$DIMLDRBLK
  1

  9
$DIMLUNIT
 70
     2
  9
$DIMLWD
 70
    -2
  9
$DIMLWE
 70
    -2
  9
$DIMTMOVE
 70
     0
  9
$LUNITS
 70
     2
  9
$LUPREC
 70
     2
  9
$SKETCHINC
 40
1.0
  9
$FILLETRAD
 40
10.0
  9
$AUNITS
 70
     0
  9
$AUPREC
 70
     2
  9
$MENU
  1
.
  9
$ELEVATION
 40
0.0
  9
$PELEVATION
 40
0.0
  9
$THICKNESS
 40
0.0
  9
$LIMCHECK
 70
     0
  9
$CHAMFERA
 40
0.0
  9
$CHAMFERB
 40
0.0
  9
$CHAMFERC
 40
0.0
  9
$CHAMFERD
 40
0.0
  9
$SKPOLY
 70
     0
  9
$TDCREATE
 40
2457358.575863148
  9
$TDUCREATE
 40
2457358.575863148
  9
$TDUPDATE
 40
2457358.575906134
  9
$TDUUPDATE
 40
2457358.575906134
  9
$TDINDWG
 40
0.0000000116
  9
$TDUSRTIMER
 40
0.0000000116
  9
$USRTIMER
 70
     1
  9
$ANGBASE
 50
0.0
  9
$ANGDIR
 70
     0
  9
$PDMODE
 70
     0
  9
$PDSIZE
 40
-1.0
  9
$PLINEWID
 40
0.0
  9
$SPLFRAME
 70
     0
  9
$SPLINETYPE
 70
     6
  9
$SPLINESEGS
 70
     8
  9
$HANDSEED
  5
31E
  9
$SURFTAB1
 70
     6
  9
$SURFTAB2
 70
     6
  9
$SURFTYPE
 70
     6
  9
$SURFU
 70
     6
  9
$SURFV
 70
     6
  9
$UCSBASE
  2

  9
$UCSNAME
  2

  9
$UCSORG
 10
0.0
 20
0.0
 30
0.0
  9
$UCSXDIR
 10
1.0
 20
0.0
 30
0.0
  9
$UCSYDIR
 10
0.0
 20
1.0
 30
0.0
  9
$UCSORTHOREF
  2

  9
$UCSORTHOVIEW
 70
     0
  9
$UCSORGTOP
 10
0.0
 20
0.0
 30
0.0
  9
$UCSORGBOTTOM
 10
0.0
 20
0.0
 30
0.0
  9
$UCSORGLEFT
 10
0.0
 20
0.0
 30
0.0
  9
$UCSORGRIGHT
 10
0.0
 20
0.0
 30
0.0
  9
$UCSORGFRONT
 10
0.0
 20
0.0
 30
0.0
  9
$UCSORGBACK
 10
0.0
 20
0.0
 30
0.0
  9
$PUCSBASE
  2

  9
$PUCSNAME
  2

  9
$PUCSORG
 10
0.0
 20
0.0
 30
0.0
  9
$PUCSXDIR
 10
1.0
 20
0.0
 30
0.0
  9
$PUCSYDIR
 10
0.0
 20
1.0
 30
0.0
  9
$PUCSORTHOREF
  2

  9
$PUCSORTHOVIEW
 70
     0
  9
$PUCSORGTOP
 10
0.0
 20
0.0
 30
0.0
  9
$PUCSORGBOTTOM
 10
0.0
 20
0.0
 30
0.0
  9
$PUCSORGLEFT
 10
0.0
 20
0.0
 30
0.0
  9
$PUCSORGRIGHT
 10
0.0
 20
0.0
 30
0.0
  9
$PUCSORGFRONT
 10
0.0
 20
0.0
 30
0.0
  9
$PUCSORGBACK
 10
0.0
 20
0.0
 30
0.0
  9
$USERI1
 70
     0
  9
$USERI2
 70
     0
  9
$USERI3
 70
     0
  9
$USERI4
 70
     0
  9
$USERI5
 70
     0
  9
$USERR1
 40
0.0
  9
$USERR2
 40
0.0
  9
$USERR3
 40
0.0
  9
$USERR4
 40
0.0
  9
$USERR5
 40
0.0
  9
$WORLDVIEW
 70
     1
  9
$SHADEDGE
 70
     3
  9
$SHADEDIF
 70
    70
  9
$TILEMODE
 70
     1
  9
$MAXACTVP
 70
    64
  9
$PINSBASE
 10
0.0
 20
0.0
 30
0.0
  9
$PLIMCHECK
 70
     0
  9
$PEXTMIN
 10
1.0000000000E+20
 20
1.0000000000E+20
 30
1.0000000000E+20
  9
$PEXTMAX
 10
-1.0000000000E+20
 20
-1.0000000000E+20
 30
-1.0000000000E+20
  9
$PLIMMIN
 10
0.0
 20
0.0
  9
$PLIMMAX
 10
420.0
 20
297.0
  9
$UNITMODE
 70
     0
  9
$VISRETAIN
 70
     1
  9
$PLINEGEN
 70
     0
  9
$PSLTSCALE
 70
     1
  9
$TREEDEPTH
 70
  3020
  9
$CMLSTYLE
  2
Standard
  9
$CMLJUST
 70
     0
  9
$CMLSCALE
 40
20.0
  9
$PROXYGRAPHICS
 70
     1
  9
$MEASUREMENT
 70
     1
  9
$CELWEIGHT
370
    -1
  9
$ENDCAPS
280
     0
  9
$JOINSTYLE
280
     0
  9
$LWDISPLAY
290
     1
  9
$INSUNITS
 70
     4
  9
$HYPERLINKBASE
  1

  9
$STYLESHEET
  1

  9
$XEDIT
290
     1
  9
$CEPSNTYPE
380
     0
  9
$PSTYLEMODE
290
     1
  9
$FINGERPRINTGUID
  2
{FAE53AED-BD28-4A36-92DC-B02DDA1EFF4B}
  9
$VERSIONGUID
  2
{FAEB1C32-E019-11D5-929B-00C0DF256EC4}
  9
$EXTNAMES
290
     1
  9
$PSVPSCALE
 40
0.0
  9
$OLESTARTUP
290
     0
  0
ENDSEC
  0
SECTION
  2
CLASSES
  0
CLASS
  1
ACDBDICTIONARYWDFLT
  2
AcDbDictionaryWithDefault
  3
ObjectDBX Classes
 90
        0
280
     0
281
     0
  0
CLASS
  1
VISUALSTYLE
  2
AcDbVisualStyle
  3
ObjectDBX Classes
 90
     4095
280
     0
281
     0
  0
CLASS
  1
MATERIAL
  2
AcDbMaterial
  3
ObjectDBX Classes
 90
     1153
280
     0
281
     0
  0
CLASS
  1
SCALE
  2
AcDbScale
  3
ObjectDBX Classes
 90
     1153
280
     0
281
     0
  0
CLASS
  1
TABLESTYLE
  2
AcDbTableStyle
  3
ObjectDBX Classes
 90
     4095
280
     0
281
     0
  0
CLASS
  1
MLEADERSTYLE
  2
AcDbMLeaderStyle
  3
ACDB_MLEADERSTYLE_CLASS
 90
     4095
280
     0
281
     0
  0
CLASS
  1
SUN
  2
AcDbSun
  3
SCENEOE
 90
     1153
280
     0
281
     0
  0
CLASS
  1
ACDBPLACEHOLDER
  2
AcDbPlaceHolder
  3
ObjectDBX Classes
 90
        0
280
     0
281
     0
  0
CLASS
  1
LAYOUT
  2
AcDbLayout
  3
ObjectDBX Classes
 90
        0
280
     0
281
     0
  0
ENDSEC
  0
SECTION
  2
TABLES
  0
TABLE
  2
VPORT
  5
8
330
0
100
AcDbSymbolTable
 70
     1
  0
VPORT
  5
29
330
8
100
AcDbSymbolTableRecord
100
AcDbViewportTableRecord
  2
*Active
 70
     0
 10
0.0
 20
0.0
 11
1.0
 21
1.0
 12
0.0
 22
394.4304923324
 13
0.0
 23
0.0
 14
10.0
 24
10.0
 15
10.0
 25
10.0
 16
0.0
 26
0.0
 36
1.0
 17
0.0
 27
0.0
 37
0.0
 40
1167.3122236219
 41
0.4456391268
 42
50.0
 43
0.0
 44
0.0
 50
0.0
 51
0.0
 71
     0
 72
   100
 73
     1
 74
     3
 75
     0
 76
     0
 77
     0
 78
     0
281
     0
 65
     1
110
0.0
120
0.0
130
0.0
111
1.0
121
0.0
131
0.0
112
0.0
122
1.0
132
0.0
 79
     0
146
0.0
  0
ENDTAB
  0
TABLE
  2
LTYPE
  5
5
330
0
100
AcDbSymbolTable
 70
     6
  0
LTYPE
  5
14
330
5
100
AcDbSymbolTableRecord
100
AcDbLinetypeTableRecord
  2
ByBlock
 70
     0
  3

 72
    65
 73
     0
 40
0.0
  0
LTYPE
  5
15
330
5
100
AcDbSymbolTableRecord
100
AcDbLinetypeTableRecord
  2
ByLayer
 70
     0
  3

 72
    65
 73
     0
 40
0.0
  0
LTYPE
  5
16
330
5
100
AcDbSymbolTableRecord
100
AcDbLinetypeTableRecord
  2
Continuous
 70
     0
  3
Solid line
 72
    65
 73
     0
 40
0.0
  0
LTYPE
  5
6E
330
5
100
AcDbSymbolTableRecord
100
AcDbLinetypeTableRecord
  2
HIDDEN
 70
     0
  3
Hidden __ __ __ __ __ __ __ __ __ __ __ __ __ __
 72
    65
 73
     2
 40
1.905
 49
1.27
 74
     0
 49
-0.635
 74
     0
  0
LTYPE
  5
6F
330
5
100
AcDbSymbolTableRecord
100
AcDbLinetypeTableRecord
  2
PHANTOM
 70
     0
  3
Phantom ______  __  __  ______  __  __  ______
 72
    65
 73
     6
 40
12.7
 49
6.35
 74
     0
 49
-1.27
 74
     0
 49
1.27
 74
     0
 49
-1.27
 74
     0
 49
1.27
 74
     0
 49
-1.27
 74
     0
  0
LTYPE
  5
70
330
5
100
AcDbSymbolTableRecord
100
AcDbLinetypeTableRecord
  2
CENTER
 70
     0
  3
Center ____ _ ____ _ ____ _ ____ _ ____ _ ____
 72
    65
 73
     4
 40
10.16
 49
6.35
 74
     0
 49
-1.27
 74
     0
 49
1.27
 74
     0
 49
-1.27
 74
     0
  0
LTYPE
  5
71
330
5
100
AcDbSymbolTableRecord
100
AcDbLinetypeTableRecord
  2
CENTERX2
 70
     0
  3
Center (2x) ________  __  ________  __  _____
 72
    65
 73
     4
 40
20.32
 49
12.7
 74
     0
 49
-2.54
 74
     0
 49
2.54
 74
     0
 49
-2.54
 74
     0
  0
LTYPE
  5
72
330
5
100
AcDbSymbolTableRecord
100
AcDbLinetypeTableRecord
  2
DOT2
 70
     0
  3
Dot (.5x) ........................................
 72
    65
 73
     2
 40
0.635
 49
0.0
 74
     0
 49
-0.635
 74
     0
  0
ENDTAB
  0
TABLE
  2
LAYER
  5
2
330
0
100
AcDbSymbolTable
 70
     1
  0
LAYER
  5
10
330
2
100
AcDbSymbolTableRecord
100
AcDbLayerTableRecord
  2
0
 70
     0
 62
     7
  6
Continuous
370
    -3
390
F
  0
ENDTAB
  0
TABLE
  2
STYLE
  5
3
330
0
100
AcDbSymbolTable
 70
     1
  0
STYLE
  5
11
330
3
100
AcDbSymbolTableRecord
100
AcDbTextStyleTableRecord
  2
Standard
 70
     0
 40
0.0
 41
1.0
 50
0.0
 71
     0
 42
3.5
  3
txt
  4

  0
ENDTAB
  0
TABLE
  2
VIEW
  5
6
330
0
100
AcDbSymbolTable
 70
     0
  0
ENDTAB
  0
TABLE
  2
UCS
  5
7
330
0
100
AcDbSymbolTable
 70
     0
  0
ENDTAB
  0
TABLE
  2
APPID
  5
9
330
0
100
AcDbSymbolTable
 70
     1
  0
APPID
  5
12
330
9
100
AcDbSymbolTableRecord
100
AcDbRegAppTableRecord
  2
ACAD
 70
     0
  0
ENDTAB
  0
TABLE
  2
DIMSTYLE
  5
A
330
0
100
AcDbSymbolTable
 70
     1
100
AcDbDimStyleTable
  0
DIMSTYLE
105
27
330
A
100
AcDbSymbolTableRecord
100
AcDbDimStyleTableRecord
  2
ISO-25
 70
     0
 41
2.5
 42
0.625
 43
3.75
 44
1.25
 73
     0
 74
     0
 77
     1
 78
     8
140
2.5
141
2.5
143
0.0393700787
147
0.625
171
     3
172
     1
178
     0
271
     2
272
     2
274
     3
278
    44
283
     0
284
     8
340
11
  0
ENDTAB
  0
TABLE
  2
BLOCK_RECORD
  5
1
330
0
100
AcDbSymbolTable
 70
     1
  0
BLOCK_RECORD
  5
1F
330
1
100
AcDbSymbolTableRecord
100
AcDbBlockTableRecord
  2
*Model_Space
340
22
  0
BLOCK_RECORD
  5
1B
330
1
100
AcDbSymbolTableRecord
100
AcDbBlockTableRecord
  2
*Paper_Space
340
1E
  0
BLOCK_RECORD
  5
23
330
1
100
AcDbSymbolTableRecord
100
AcDbBlockTableRecord
  2
*Paper_Space0
340
26
  0
ENDTAB
  0
ENDSEC
  0
SECTION
  2
BLOCKS
  0
BLOCK
  5
20
330
1F
100
AcDbEntity
  8
0
100
AcDbBlockBegin
  2
*Model_Space
 70
     0
 10
0.0
 20
0.0
 30
0.0
  3
*Model_Space
  1

  0
ENDBLK
  5
21
330
1F
100
AcDbEntity
  8
0
100
AcDbBlockEnd
  0
BLOCK
  5
1C
330
1B
100
AcDbEntity
 67
     1
  8
0
100
AcDbBlockBegin
  2
*Paper_Space
 70
     0
 10
0.0
 20
0.0
 30
0.0
  3
*Paper_Space
  1

  0
ENDBLK
  5
1D
330
1B
100
AcDbEntity
 67
     1
  8
0
100
AcDbBlockEnd
  0
BLOCK
  5
24
330
23
100
AcDbEntity
  8
0
100
AcDbBlockBegin
  2
*Paper_Space0
 70
     0
 10
0.0
 20
0.0
 30
0.0
  3
*Paper_Space0
  1

  0
ENDBLK
  5
25
330
23
100
AcDbEntity
  8
0
100
AcDbBlockEnd
  0
ENDSEC
  0
SECTION
  2
ENTITIES
  0
SPLINE
  5
96
330
1F
100
AcDbEntity
  8
0
  6
Continuous
 62
     7
370
    15
100
AcDbSpline
210
0.0
220
0.0
230
1.0
 70
     8
 71
     3
 72
    10
 73
     6
 74
     0
 42
0.000000001
 43
0.00000001
 40
0.0
 40
0.0
 40
0.0
 40
0.0
 40
0.2214285080291098
 40
0.5652305599023464
 40
1.0
 40
1.0
 40
1.0
 40
1.0
 10
4.350687753427534
 20
-95.21303234603823
 30
0.0
 10
4.357438852034289
 20
-95.22052258566505
 30
0.0
 10
4.374672076786684
 20
-95.23964258234369
 30
0.0
 10
4.40762328107311
 20
-95.28288211503039
 30
0.0
 10
4.430988470913443
 20
-95.32096481323043
 30
0.0
 10
4.444036046645945
 20
-95.3422309314284
 30
0.0
  0
SPLINE
  5
97
330
1F
100
AcDbEntity
  8
0
  6
Continuous
 62
     7
370
    15
100
AcDbSpline
210
0.0
220
0.0
230
1.0
 70
     8
 71
     3
 72
     9
 73
     5
 74
     0
 42
0.000000001
 43
0.00000001
 40
0.0
 40
0.0
 40
0.0
 40
0.0
 40
0.3276740049991125
 40
1.0
 40
1.0
 40
1.0
 40
1.0
 10
0.2032953014311852
 20
-90.28377416140448
 30
0.0
 10
0.2640204462346983
 20
-90.41821786944892
 30
0.0
 10
0.4493422718207029
 20
-90.82851501232064
 30
0.0
 10
0.7384250595791193
 20
-91.17213352295211
 30
0.0
 10
0.9327829324964267
 20
-91.40315718001318
 30
0.0
  0
SPLINE
  5
98
330
1F
100
AcDbEntity
  8
0
  6
Continuous
 62
     7
370
    15
100
AcDbSpline
210
0.0
220
0.0
230
1.0
 70
     8
 71
     3
 72
     9
 73
     5
 74
     0
 42
0.000000001
 43
0.00000001
 40
0.0
 40
0.0
 40
0.0
 40
0.0
 40
0.2930009542904597
 40
1.0
 40
1.0
 40
1.0
 40
1.0
 10
2.414536484742523
 20
-90.07113482602769
 30
0.0
 10
2.384299870909086
 20
-90.03821746119061
 30
0.0
 10
2.281103572771902
 20
-89.92587187202061
 30
0.0
 10
2.191827441227082
 20
-89.78185033821423
 30
0.0
 10
2.128709301420254
 20
-89.68002725125146
 30
0.0
  0
SPLINE
  5
9B
330
1F
100
AcDbEntity
  8
0
  6
Continuous
 62
     7
370
    15
100
AcDbSpline
210
0.0
220
0.0
230
1.0
 70
     8
 71
     3
 72
    13
 73
     9
 74
     0
 42
0.000000001
 43
0.00000001
 40
0.0
 40
0.0
 40
0.0
 40
0.0
 40
0.0074574422063527
 40
0.2243564476414159
 40
0.4461796220572336
 40
0.6943154031852522
 40
0.9538572590538537
 40
1.0
 40
1.0
 40
1.0
 40
1.0
 10
-5.047881420323212
 20
-87.66600201527808
 30
0.0
 10
-5.053669581492767
 20
-87.66481293918999
 30
0.0
 10
-5.227805866085252
 20
-87.6290396968759
 30
0.0
 10
-5.592980117289007
 20
-87.71944124112879
 30
0.0
 10
-6.078448789988267
 20
-87.98858914459612
 30
0.0
 10
-6.418612280576164
 20
-88.47974033953155
 30
0.0
 10
-6.539777981362796
 20
-88.91355799735612
 30
0.0
 10
-6.52342651539024
 20
-89.16045002863798
 30
0.0
 10
-6.520958280267101
 20
-89.19771809892946
 30
0.0
  0
SPLINE
  5
A5
330
1F
100
AcDbEntity
  8
0
  6
Continuous
 62
     7
370
    15
100
AcDbSpline
210
0.0
220
0.0
230
1.0
 70
     8
 71
     3
 72
    12
 73
     8
 74
     0
 42
0.000000001
 43
0.00000001
 40
0.0
 40
0.0
 40
0.0
 40
0.0
 40
0.2086392593010637
 40
0.4611738653398591
 40
0.71477949648441
 40
0.969367392840227
 40
1.0
 40
1.0
 40
1.0
 40
1.0
 10
2.484239259140437
 20
-48.05564680245117
 30
0.0
 10
2.4678680918384
 20
-47.28613296135276
 30
0.0
 10
2.43168144829826
 20
-45.58520824698814
 30
0.0
 10
2.165517463294913
 20
-43.06557950970974
 30
0.0
 10
1.702225745898637
 20
-40.50461836558061
 30
0.0
 10
1.290069283209143
 20
-38.74487554304029
 30
0.0
 10
0.9805300576618857
 20
-37.8857940018561
 30
0.0
 10
0.9472856261436194
 20
-37.79352886998466
 30
0.0
  0
SPLINE
  5
A6
330
1F
100
AcDbEntity
  8
0
  6
Continuous
 62
     7
370
    15
100
AcDbSpline
210
0.0
220
0.0
230
1.0
 70
     8
 71
     3
 72
    12
 73
     8
 74
     0
 42
0.000000001
 43
0.00000001
 40
0.0
 40
0.0
 40
0.0
 40
0.0
 40
0.2128235246285608
 40
0.4398467102149249
 40
0.6661627436455909
 40
0.8921240197934038
 40
1.0
 40
1.0
 40
1.0
 40
1.0
 10
-4.386658830861422
 20
-37.71190958083387
 30
0.0
 10
-4.149252667659961
 20
-38.34016568318977
 30
0.0
 10
-3.658600517945039
 20
-39.63859535761599
 30
0.0
 10
-3.115192765732482
 20
-41.83767315610126
 30
0.0
 10
-2.729545357722591
 20
-44.23975079088416
 30
0.0
 10
-2.530194641961531
 20
-46.328837451245
 30
0.0
 10
-2.527140726380679
 20
-47.65647929360289
 30
0.0
 10
-2.526153885845414
 20
-48.08549271970053
 30
0.0
  0
SPLINE
  5
AB
330
1F
100
AcDbEntity
  8
0
  6
Continuous
 62
     7
370
    15
100
AcDbSpline
210
0.0
220
0.0
230
1.0
 70
     8
 71
     3
 72
    12
 73
     8
 74
     0
 42
0.000000001
 43
0.00000001
 40
0.0
 40
0.0
 40
0.0
 40
0.0
 40
0.214293801435237
 40
0.4375181961308986
 40
0.6887704752153619
 40
0.9529149407958899
 40
1.0
 40
1.0
 40
1.0
 40
1.0
 10
-5.058925031046589
 20
-87.8146974361173
 30
0.0
 10
-5.212889459816791
 20
-87.8229267271648
 30
0.0
 10
-5.527234712421873
 20
-87.83972826108894
 30
0.0
 10
-5.969481543539994
 20
-88.10211779349537
 30
0.0
 10
-6.278434037039784
 20
-88.5395716887844
 30
0.0
 10
-6.389361891834416
 20
-88.9364261178428
 30
0.0
 10
-6.373775181444039
 20
-89.16351496649239
 30
0.0
 10
-6.371417110878479
 20
-89.19787061411493
 30
0.0
  0
SPLINE
  5
B2
330
1F
100
AcDbEntity
  8
0
  6
Continuous
 62
     7
370
    15
100
AcDbSpline
210
0.0
220
0.0
230
1.0
 70
     8
 71
     3
 72
    16
 73
    12
 74
     0
 42
0.000000001
 43
0.00000001
 40
0.0
 40
0.0
 40
0.0
 40
0.0
 40
0.1444684630622144
 40
0.2036334390738031
 40
0.3021514547415206
 40
0.4052769614919007
 40
0.5167084669561002
 40
0.6339035360785027
 40
0.7557678425681686
 40
0.881373181308958
 40
0.9999999999999999
 40
0.9999999999999999
 40
0.9999999999999999
 40
0.9999999999999999
 10
-49.79780958688718
 20
25.18370459694119
 30
0.0
 10
-50.49678555956088
 20
23.91310915911859
 30
0.0
 10
-51.48201706357579
 20
22.12215967996561
 30
0.0
 10
-52.74655501296657
 20
19.36607041346189
 30
0.0
 10
-53.7464656400551
 20
16.94699695167495
 30
0.0
 10
-54.78907897417905
 20
13.98238840225435
 30
0.0
 10
-55.716401691614
 20
10.78397538614345
 30
0.0
 10
-56.4934477597442
 20
7.352030723658309
 30
0.0
 10
-57.07156775472566
 20
3.737625353769536
 30
0.0
 10
-57.43701796666709
 20
0.0787033091073086
 30
0.0
 10
-57.47312170248507
 20
-2.372209669514402
 30
0.0
 10
-57.49065776885727
 20
-3.562650816166579
 30
0.0
  0
SPLINE
  5
B3
330
1F
100
AcDbEntity
  8
0
  6
Continuous
 62
     7
370
    15
100
AcDbSpline
210
0.0
220
0.0
230
1.0
 70
     8
 71
     3
 72
    28
 73
    24
 74
     0
 42
0.000000001
 43
0.00000001
 40
0.0
 40
0.0
 40
0.0
 40
0.0
 40
0.0035909422593801
 40
0.0506695480174188
 40
0.0984548299761025
 40
0.146810711677621
 40
0.1956280330770107
 40
0.2448197881321914
 40
0.2943170431732165
 40
0.3440654677626893
 40
0.3940224491093783
 40
0.4441547484084229
 40
0.4944366396252942
 40
0.544848462759301
 40
0.5953755252103143
 40
0.6460072932214063
 40
0.6967368272357175
 40
0.747560428363014
 40
0.7984774772252319
 40
0.8494904614915433
 40
0.9006052055654099
 40
0.9518313372897044
 40
0.9999999999999999
 40
0.9999999999999999
 40
0.9999999999999999
 40
0.9999999999999999
 10
57.49065776902429
 20
-3.565267110812897
 30
0.0
 10
57.49372890411067
 20
-3.465016426118517
 30
0.0
 10
57.53706377710163
 20
-2.050441499820976
 30
0.0
 10
57.36944401741782
 20
0.7004590890554718
 30
0.0
 10
56.95849444020407
 20
4.67971880525464
 30
0.0
 10
56.2319027072481
 20
8.667277662897044
 30
0.0
 10
55.22328974223017
 20
12.63188973709345
 30
0.0
 10
53.92205733846796
 20
16.54465979094871
 30
0.0
 10
52.33363470895295
 20
20.37791892107876
 30
0.0
 10
50.46259079136925
 20
24.10551725554427
 30
0.0
 10
48.31680438589611
 20
27.70272124259199
 30
0.0
 10
45.90599392305642
 20
31.14622083607865
 30
0.0
 10
43.24182766807852
 20
34.41411657687904
 30
0.0
 10
40.33764774548334
 20
37.48592640753562
 30
0.0
 10
37.2083258949546
 20
40.34259274598212
 30
0.0
 10
33.87010496794285
 20
42.96652143207191
 30
0.0
 10
30.34044497482001
 20
45.34153025538507
 30
0.0
 10
26.63791104728134
 20
47.45314640188164
 30
0.0
 10
22.78190806241177
 20
49.28759188920878
 30
0.0
 10
18.79298692619434
 20
50.8356546564509
 30
0.0
 10
14.69099344057184
 20
52.07822891551933
 30
0.0
 10
10.5880356024775
 20
53.02048166130579
 30
0.0
 10
7.834444258040526
 20
53.38257142202524
 30
0.0
 10
6.500000000001839
 20
53.55804720679009
 30
0.0
  0
SPLINE
  5
B4
330
1F
100
AcDbEntity
  8
0
  6
Continuous
 62
     7
370
    15
100
AcDbSpline
210
0.0
220
0.0
230
1.0
 70
     8
 71
     3
 72
    22
 73
    18
 74
     0
 42
0.000000001
 43
0.00000001
 40
0.0
 40
0.0
 40
0.0
 40
0.0
 40
0.0043057431857911
 40
0.0856782416293589
 40
0.1675724850792987
 40
0.2501481073626032
 40
0.3336381318341722
 40
0.4085051964522207
 40
0.4832251681651065
 40
0.5576825646308692
 40
0.6316679016170843
 40
0.7047214327893151
 40
0.7756437027934556
 40
0.8401259723641541
 40
0.8873123752875723
 40
0.9351654390496068
 40
1.0
 40
1.0
 40
1.0
 40
1.0
 10
-6.499999999998174
 20
53.55914053672944
 30
0.0
 10
-6.576830274254415
 20
53.55315171289743
 30
0.0
 10
-8.105644817559952
 20
53.43398253043247
 30
0.0
 10
-11.06459426702732
 20
52.89453126015592
 30
0.0
 10
-15.35390899432454
 20
51.91336377308292
 30
0.0
 10
-19.58577511471919
 20
50.55710867505287
 30
0.0
 10
-23.58495420181962
 20
48.9344534244921
 30
0.0
 10
-27.32591343607071
 20
47.08103167461258
 30
0.0
 10
-30.78893885882034
 20
45.05339038249928
 30
0.0
 10
-34.08932979135863
 20
42.79838741441311
 30
0.0
 10
-37.20214467742609
 20
40.33876391300473
 30
0.0
 10
-40.09202064526781
 20
37.71402163637755
 30
0.0
 10
-42.68061689596519
 20
35.02367846074317
 30
0.0
 10
-44.795187091337
 20
32.52936329240258
 30
0.0
 10
-46.52355710794769
 20
30.25622748322165
 30
0.0
 10
-48.16200402803302
 20
27.90854414896599
 30
0.0
 10
-49.20038152564214
 20
26.17886909064199
 30
0.0
 10
-49.79780958688718
 20
25.18370459694119
 30
0.0
  0
SPLINE
  5
B5
330
1F
100
AcDbEntity
  8
0
  6
Continuous
 62
     7
370
    15
100
AcDbSpline
210
0.0
220
0.0
230
1.0
 70
     8
 71
     3
 72
    56
 73
    52
 74
     0
 42
0.000000001
 43
0.00000001
 40
0.0
 40
0.0
 40
0.0
 40
0.0
 40
0.0057164891823132
 40
0.0288908837275759
 40
0.0526657103528767
 40
0.0771394104680249
 40
0.0992538183675444
 40
0.1214913098688212
 40
0.1438278746684633
 40
0.1662344897613572
 40
0.1886813789721101
 40
0.2111424261622661
 40
0.2335965911579577
 40
0.2560252473233813
 40
0.2784131853072732
 40
0.3007487699132289
 40
0.3230169898832735
 40
0.3451955275709911
 40
0.3672469880062037
 40
0.3891021588290852
 40
0.4106173754570295
 40
0.4314409225173736
 40
0.4504227033309373
 40
0.4654383928489709
 40
0.4794689103894172
 40
0.5018865403602941
 40
0.5265285559161617
 40
0.5364628959582061
 40
0.5529382339792728
 40
0.5699992832231929
 40
0.5882553530405686
 40
0.607255151713
 40
0.6268170672801423
 40
0.6467970335808885
 40
0.6670941392761321
 40
0.687635259571253
 40
0.7083670530923942
 40
0.7292505009197902
 40
0.7502572687542514
 40
0.771367228733555
 40
0.792566744980625
 40
0.8138445530613565
 40
0.8351946370179805
 40
0.8566156440494078
 40
0.8781109148430574
 40
0.8996904676177481
 40
0.9213745254340211
 40
0.9431984687565911
 40
0.9652181514777537
 40
0.9875135486984539
 40
1.0
 40
1.0
 40
1.0
 40
1.0
 10
-57.47106923260899
 20
-3.602614480729349
 30
0.0
 10
-57.47933089578282
 20
-3.814890368411095
 30
0.0
 10
-57.52108497639758
 20
-4.887723324722149
 30
0.0
 10
-57.28023753923824
 20
-6.842215656098938
 30
0.0
 10
-56.72013611652073
 20
-9.464316448363485
 30
0.0
 10
-55.81604307043585
 20
-11.99930588179438
 30
0.0
 10
-54.64094023269898
 20
-14.41595569515292
 30
0.0
 10
-53.2359584405675
 20
-16.68831309061902
 30
0.0
 10
-51.56871336221941
 20
-18.89086492746262
 30
0.0
 10
-49.64866227981635
 20
-21.01157578445018
 30
0.0
 10
-47.48764040218725
 20
-23.03950773112068
 30
0.0
 10
-45.09857117114633
 20
-24.96489211107961
 30
0.0
 10
-42.49549754108313
 20
-26.77899876645989
 30
0.0
 10
-39.69339532274241
 20
-28.47401460890076
 30
0.0
 10
-36.7081128672054
 20
-30.04296256563138
 30
0.0
 10
-33.55647057073478
 20
-31.47957288904885
 30
0.0
 10
-30.25667701925455
 20
-32.7781426893331
 30
0.0
 10
-26.82925987892807
 20
-33.9334019600328
 30
0.0
 10
-23.29865465737371
 20
-34.94046630562503
 30
0.0
 10
-19.6970764650382
 20
-35.7946777850785
 30
0.0
 10
-16.07580576700582
 20
-36.49101963678819
 30
0.0
 10
-12.5502170362927
 20
-37.02123794316725
 30
0.0
 10
-9.35500190007458
 20
-37.38006607257499
 30
0.0
 10
-6.532086182808917
 20
-37.60732623393637
 30
0.0
 10
-3.491843657575603
 20
-37.77064967221106
 30
0.0
 10
0.1318502433778831
 20
-37.84462588498366
 30
0.0
 10
3.513072029297976
 20
-37.76874642351275
 30
0.0
 10
6.528244916522953
 20
-37.60578524506186
 30
0.0
 10
9.084832734781427
 20
-37.40537667465771
 30
0.0
 10
12.1055467706004
 20
-37.07395369318722
 30
0.0
 10
15.23672063198985
 20
-36.62497865225895
 30
0.0
 10
18.46073072421488
 20
-36.04487704843478
 30
0.0
 10
21.71625943297393
 20
-35.33132517258503
 30
0.0
 10
24.96222670546566
 20
-34.48301851604385
 30
0.0
 10
28.16420168393251
 20
-33.50070928472954
 30
0.0
 10
31.29347177049338
 20
-32.38648054491144
 30
0.0
 10
34.32548345532116
 20
-31.14343122433883
 30
0.0
 10
37.23890330558168
 20
-29.77540307042625
 30
0.0
 10
40.01495683720339
 20
-28.28676215295805
 30
0.0
 10
42.63693827960314
 20
-26.68221744810478
 30
0.0
 10
45.08969900802631
 20
-24.96675222760314
 30
0.0
 10
47.35936995147667
 20
-23.14551874817555
 30
0.0
 10
49.43307402541392
 20
-21.22377432436268
 30
0.0
 10
51.29875078867846
 20
-19.20677572552687
 30
0.0
 10
52.94468851925701
 20
-17.09980232896891
 30
0.0
 10
54.35978033318747
 20
-14.90818999160332
 30
0.0
 10
55.53125236212983
 20
-12.63729264225172
 30
0.0
 10
56.45192034734835
 20
-10.29254833810878
 30
0.0
 10
57.0911953833067
 20
-7.879071610091549
 30
0.0
 10
57.4401975960587
 20
-5.779748915643479
 30
0.0
 10
57.45256595365941
 20
-4.487392559053561
 30
0.0
 10
57.45700611142626
 20
-4.023445259056457
 30
0.0
  0
CIRCLE
  5
B6
330
1F
100
AcDbEntity
  8
0
  6
Continuous
 62
     7
370
    15
100
AcDbCircle
 10
0.0
 20
711.6423666569
 30
0.0
 40
254.9999999999998
  0
LWPOLYLINE
  5
B7
330
1F
100
AcDbEntity
  8
0
  6
Continuous
 62
     7
370
    15
100
AcDbPolyline
 90
       11
 70
   128
 43
0.0
 10
-3.1
 20
350.4064829861
 10
-2.9943700615
 20
349.9433025175
 10
-2.5393713373
 20
349.3800152373
 10
-1.7780869527
 20
348.9405351167
 10
-0.8023390398
 20
348.6778699442
 10
0.2701828025
 20
348.6237010162
 10
1.3101166114
 20
348.7845619048
 10
2.1920310217
 20
349.1410504128
 10
2.8095541398
 20
349.650168765
 10
3.0882035641
 20
350.2505097742
 10
3.1
 20
350.4064829861
  0
LWPOLYLINE
  5
B8
330
1F
100
AcDbEntity
  8
0
  6
Continuous
 62
     7
370
    15
100
AcDbPolyline
 90
       11
 70
   128
 43
0.0
 10
-6.5
 20
366.7372992238
 10
-6.3935293952
 20
366.0609156044
 10
-5.9273489989
 20
365.1972784723
 10
-5.116692624
 20
364.4231417485
 10
-4.0086726721
 20
363.7834954455
 10
-2.6676832354
 20
363.3155134815
 10
-1.1716577458
 20
363.0463932672
 10
0.3924602332
 20
362.9917750911
 10
1.9337698501
 20
363.1548331632
 10
3.3626957922
 20
363.5260911411
 10
4.5961940777
 20
364.0839728604
  0
SPLINE
  5
B9
330
1F
100
AcDbEntity
  8
0
  6
Continuous
 62
     7
370
    15
100
AcDbSpline
210
0.0
220
0.0
230
1.0
 70
     8
 71
     3
 72
    10
 73
     6
 74
     0
 42
0.000000001
 43
0.00000001
 40
0.0
 40
0.0
 40
0.0
 40
0.0
 40
0.5000000000000001
 40
0.5000000000000001
 40
1.0
 40
1.0
 40
1.0
 40
1.0
 10
4.596194077712488
 20
364.0839728604171
 30
0.0
 10
5.197834475588102
 20
364.431292469205
 30
0.0
 10
5.679611524302608
 20
364.8475344057234
 30
0.0
 10
6.330822398343984
 20
365.7551242813585
 30
0.0
 10
6.499999999999934
 20
366.2461151226151
 30
0.0
 10
6.499999999999936
 20
366.737299223841
 30
0.0
  0
LWPOLYLINE
  5
BA
330
1F
100
AcDbEntity
  8
0
  6
Continuous
 62
     7
370
    15
100
AcDbPolyline
 90
       12
 70
   128
 43
0.0
 10
4.5961940777
 20
364.0839728604
 10
3.4123477722
 20
363.5435944463
 10
2.044540915
 20
363.1753894833
 10
0.5665123279
 20
362.9992079965
 10
-0.9420570855
 20
363.0245479753
 10
-2.3998399575
 20
363.2500433349
 10
-3.7282468363
 20
363.6635375621
 10
-4.8556629631
 20
364.2427390761
 10
-5.7213090427
 20
364.9564229734
 10
-6.2785178709
 20
365.7661143703
 10
-6.4972501755
 20
366.628162594
 10
-6.5
 20
366.7372992238
  0
LWPOLYLINE
  5
BD
330
1F
100
AcDbEntity
  8
0
  6
Continuous
 62
     7
370
    15
100
AcDbPolyline
 90
       12
 70
   128
 43
0.0
 10
-6.5
 20
354.4891870456
 10
-6.4972501755
 20
354.3800504157
 10
-6.2785178709
 20
353.518002192
 10
-5.7213090427
 20
352.7083107951
 10
-4.8556629631
 20
351.9946268978
 10
-3.7282468363
 20
351.4154253838
 10
-2.3998399575
 20
351.0019311566
 10
-0.9420570855
 20
350.776435797
 10
0.5665123279
 20
350.7510958182
 10
2.044540915
 20
350.9272773051
 10
3.4123477722
 20
351.295482268
 10
4.5961940777
 20
351.8358606821
  0
LWPOLYLINE
  5
CB
330
1F
100
AcDbEntity
  8
0
  6
Continuous
 62
     7
370
    15
100
AcDbPolyline
 90
        6
 70
   128
 43
0.0
 10
3.9822287263
 20
-37.7246101879
 10
4.0473940321
 20
-37.9030900223
 10
4.1012193309
 20
-38.2466393464
 10
4.0473940321
 20
-38.5280433034
 10
3.8941125497
 20
-38.7044606917
 10
3.894071916
 20
-38.7044841529
  0
LWPOLYLINE
  5
D6
330
1F
100
AcDbEntity
  8
0
  6
Continuous
 62
     7
370
    15
100
AcDbPolyline
 90
       10
 70
   128
 43
0.0
 10
6.2225396744
 20
-78.2569400787
 10
6.3717928232
 20
-77.3656451682
 10
6.8015501371
 20
-76.7541775956
 10
7.4599765415
 20
-76.4962893744
 10
8.2676560947
 20
-76.6230856302
 10
9.1271707225
 20
-77.1192728632
 10
9.9348502757
 20
-77.9250035701
 10
10.5932766801
 20
-78.9430947364
 10
11.023033994
 20
-80.050749542
 10
11.1722871428
 20
-81.1143684701
  0
LWPOLYLINE
  5
DB
330
1F
100
AcDbEntity
  8
0
  6
Continuous
 62
     7
370
    15
100
AcDbPolyline
 90
       15
 70
   128
 43
0.0
 10
20.1030457891
 20
-100.1511794983
 10
21.2831412493
 20
-100.9859769786
 10
22.4040617955
 20
-102.0859999716
 10
23.4095997908
 20
-103.3960887311
 10
24.2493333616
 20
-104.8505499362
 10
24.8811547601
 20
-106.3764508289
 10
25.2733818232
 20
-107.8972763667
 10
25.406346648
 20
-109.3367660068
 10
25.2733818232
 20
-110.6227377278
 10
24.8811547601
 20
-111.6907075379
 10
24.2493333616
 20
-112.4871229714
 10
23.4095997908
 20
-112.9720484329
 10
22.4040617955
 20
-113.1211677348
 10
21.2831412493
 20
-112.9270034128
 10
20.1030457891
 20
-112.3992916766
  0
LWPOLYLINE
  5
E4
330
1F
100
AcDbEntity
  8
0
  6
Continuous
 62
     7
370
    15
100
AcDbPolyline
 90
       22
 70
   128
 43
0.0
 10
20.1030457891
 20
-102.9062972986
 10
20.9629728176
 20
-103.5523950811
 10
21.7464915559
 20
-104.4404291915
 10
22.3839829256
 20
-105.4914939022
 10
22.8188030211
 20
-106.6121975009
 10
23.0123161685
 20
-107.702960555
 10
22.9473278757
 20
-108.6668639802
 10
22.6296126375
 20
-109.4182607272
 10
22.0874008472
 20
-109.8903858976
 10
21.3688704018
 20
-110.0412890981
 10
20.5378658846
 20
-109.8575619172
 10
19.6682256937
 20
-109.355529321
 10
18.8372211765
 20
-108.579799109
 10
18.1186907311
 20
-107.5992983147
 10
17.5764789408
 20
-106.5011487365
 10
17.2587637026
 20
-105.3829257836
 10
17.1937754097
 20
-104.3439884727
 10
17.3872885572
 20
-103.476650943
 10
17.8221086527
 20
-102.8579799403
 10
18.4596000224
 20
-102.5429470983
 10
19.2431187607
 20
-102.5595444674
 10
20.1030457891
 20
-102.9062972986
  0
LWPOLYLINE
  5
E5
330
1F
100
AcDbEntity
  8
0
  6
Continuous
 62
     7
370
    15
100
AcDbPolyline
 90
       17
 70
   128
 43
0.0
 10
8.6974134086
 20
-78.1605206609
 10
9.2028360108
 20
-78.5683888021
 10
9.6313126034
 20
-79.1463504835
 10
9.9176115095
 20
-79.8064162783
 10
10.0181463158
 20
-80.4480971527
 10
9.9176115095
 20
-80.9737030104
 10
9.6313126034
 20
-81.3032151242
 10
9.2028360108
 20
-81.3864682619
 10
8.6974134086
 20
-81.2107878879
 10
8.1919908064
 20
-80.8029197466
 10
7.7635142138
 20
-80.2249580652
 10
7.4772153077
 20
-79.5648922705
 10
7.3766805014
 20
-78.9232113961
 10
7.4772153077
 20
-78.3976055384
 10
7.7635142138
 20
-78.0680934246
 10
8.1919908064
 20
-77.9848402869
 10
8.6974134086
 20
-78.1605206609
  0
LWPOLYLINE
  5
EF
330
1F
100
AcDbEntity
  8
0
  6
Continuous
 62
     7
370
    15
100
AcDbPolyline
 90
       10
 70
   128
 43
0.0
 10
1.0709045712
 20
-38.1639478535
 10
1.2727922061
 20
-38.2465066463
 10
1.5433902562
 20
-38.4648750439
 10
1.7727922061
 20
-38.7743097691
 10
1.9260736886
 20
-39.12770219
 10
1.9798989873
 20
-39.4712515141
 10
1.9260736886
 20
-39.7526554711
 10
1.7727922061
 20
-39.9290728595
 10
1.5433902562
 20
-39.973645731
 10
1.541890492
 20
-39.9734949737
  0
LWPOLYLINE
  5
110
330
1F
100
AcDbEntity
  8
0
  6
Continuous
 62
     7
370
    15
100
AcDbPolyline
 90
        8
 70
   128
 43
0.0
 10
12.0208152802
 20
-80.624523603
 10
11.8715621314
 20
-79.5609046749
 10
11.4418048175
 20
-78.4532498693
 10
10.7833784131
 20
-77.435158703
 10
9.9756988599
 20
-76.6294279961
 10
9.1161842321
 20
-76.1332407631
 10
8.3085046789
 20
-76.0064445073
 10
7.7960837639
 20
-76.164638389
  0
LWPOLYLINE
  5
112
330
1F
100
AcDbEntity
  8
0
  6
Continuous
 62
     7
370
    15
100
AcDbPolyline
 90
       12
 70
   128
 43
0.0
 10
24.7012691739
 20
-112.2807571882
 10
25.097861499
 20
-111.9972781043
 10
25.7296828975
 20
-111.2008626708
 10
26.1219099606
 20
-110.1328928607
 10
26.2548747855
 20
-108.8469211397
 10
26.1219099606
 20
-107.4074314996
 10
25.7296828975
 20
-105.8866059618
 10
25.097861499
 20
-104.3607050691
 10
24.2581279283
 20
-102.906243864
 10
23.2525899329
 20
-101.5961551045
 10
22.1316693867
 20
-100.4961321115
 10
20.9515739266
 20
-99.6613346312
  0
LWPOLYLINE
  5
11A
330
1F
100
AcDbEntity
  8
0
  6
Continuous
 62
     7
370
    15
100
AcDbPolyline
 90
       11
 70
   128
 43
0.0
 10
22.5459876901
 20
-109.5271446124
 10
22.2173985392
 20
-109.551444231
 10
21.386394022
 20
-109.3677170501
 10
20.5167538311
 20
-108.865684454
 10
19.6857493139
 20
-108.0899542419
 10
18.9672188685
 20
-107.1094534476
 10
18.4250070782
 20
-106.0113038694
 10
18.10729184
 20
-104.8930809166
 10
18.0423035472
 20
-103.8541436056
 10
18.2358166946
 20
-102.9868060759
 10
18.5086320256
 20
-102.5334816954
  0
LWPOLYLINE
  5
153
330
1F
100
AcDbEntity
  8
0
  6
Continuous
 62
     7
370
    15
100
AcDbPolyline
 90
        9
 70
   128
 43
0.0
 10
2.1920310217
 20
-99.6646701185
 10
2.5614235051
 20
-100.0800383234
 10
2.8563343398
 20
-100.5771381379
 10
3.0463802757
 20
-101.1047557502
 10
3.111981791
 20
-101.6085332464
 10
3.0463802757
 20
-102.0365688454
 10
2.8563343398
 20
-102.3447640906
 10
2.5614235051
 20
-102.501367103
 10
2.1920310217
 20
-102.4902438247
  0
LWPOLYLINE
  5
157
330
1F
100
AcDbEntity
  8
0
  6
Continuous
 62
     7
370
    15
100
AcDbPolyline
 90
        9
 70
   128
 43
0.0
 10
1.4849242405
 20
-102.0820397688
 10
1.1155317571
 20
-101.6666715639
 10
0.8206209224
 20
-101.1695717494
 10
0.6305749864
 20
-100.6419541371
 10
0.5649734712
 20
-100.1381766409
 10
0.6305749864
 20
-99.7101410419
 10
0.8206209224
 20
-99.4019457967
 10
1.1155317571
 20
-99.2453427843
 10
1.4849242405
 20
-99.2564660626
  0
LWPOLYLINE
  5
15B
330
1F
100
AcDbEntity
  8
0
  6
Continuous
 62
     7
370
    15
100
AcDbPolyline
 90
        7
 70
   128
 43
0.0
 10
3.9600136116
 20
-101.0773488276
 10
3.8635701964
 20
-100.4999536917
 10
3.5875091958
 20
-99.8634915192
 10
3.1743547115
 20
-99.3061974581
 10
2.6870057685
 20
-98.9129144773
 10
2.1996568255
 20
-98.7435163455
 10
1.7865755227
 20
-98.823750139
  0
LWPOLYLINE
  5
166
330
1F
100
AcDbEntity
  8
0
  6
Continuous
 62
     7
370
    15
100
AcDbPolyline
 90
        9
 70
   128
 43
0.0
 10
2.1920310217
 20
-105.7087721141
 10
2.5614235051
 20
-106.1241403191
 10
2.8563343398
 20
-106.6212401335
 10
3.0463802757
 20
-107.1488577459
 10
3.111981791
 20
-107.6526352421
 10
3.0463802757
 20
-108.080670841
 10
2.8563343398
 20
-108.3888660862
 10
2.5614235051
 20
-108.5454690986
 10
2.1920310217
 20
-108.5343458204
  0
LWPOLYLINE
  5
16A
330
1F
100
AcDbEntity
  8
0
  6
Continuous
 62
     7
370
    15
100
AcDbPolyline
 90
        9
 70
   128
 43
0.0
 10
1.4849242405
 20
-108.1261417644
 10
1.1155317571
 20
-107.7107735595
 10
0.8206209224
 20
-107.2136737451
 10
0.6305749864
 20
-106.6860561327
 10
0.5649734712
 20
-106.1822786365
 10
0.6305749864
 20
-105.7542430376
 10
0.8206209224
 20
-105.4460477923
 10
1.1155317571
 20
-105.2894447799
 10
1.4849242405
 20
-105.3005680582
  0
LWPOLYLINE
  5
16E
330
1F
100
AcDbEntity
  8
0
  6
Continuous
 62
     7
370
    15
100
AcDbPolyline
 90
        7
 70
   128
 43
0.0
 10
3.9600136116
 20
-107.1214508233
 10
3.8635701964
 20
-106.5440556873
 10
3.5875091958
 20
-105.9075935148
 10
3.1743547115
 20
-105.3502994537
 10
2.6870057685
 20
-104.9570164729
 10
2.1996568255
 20
-104.7876183411
 10
1.7865755227
 20
-104.8678521346
  0
LWPOLYLINE
  5
170
330
1F
100
AcDbEntity
  8
0
  6
Continuous
 62
     7
370
    15
100
AcDbPolyline
 90
        9
 70
   128
 43
0.0
 10
-3.3234018716
 20
-96.4806784824
 10
-2.9540093881
 20
-96.8960466873
 10
-2.6590985535
 20
-97.3931465018
 10
-2.4690526175
 20
-97.9207641141
 10
-2.4034511023
 20
-98.4245416103
 10
-2.4690526175
 20
-98.8525772093
 10
-2.6590985535
 20
-99.1607724545
 10
-2.9540093881
 20
-99.3173754669
 10
-3.3234018716
 20
-99.3062521886
  0
LWPOLYLINE
  5
174
330
1F
100
AcDbEntity
  8
0
  6
Continuous
 62
     7
370
    15
100
AcDbPolyline
 90
        9
 70
   128
 43
0.0
 10
-4.0305086528
 20
-98.8980481327
 10
-4.3999011362
 20
-98.4826799278
 10
-4.6948119709
 20
-97.9855801133
 10
-4.8848579068
 20
-97.457962501
 10
-4.9504594221
 20
-96.9541850048
 10
-4.8848579068
 20
-96.5261494058
 10
-4.6948119709
 20
-96.2179541606
 10
-4.3999011362
 20
-96.0613511482
 10
-4.0305086528
 20
-96.0724744265
  0
LWPOLYLINE
  5
178
330
1F
100
AcDbEntity
  8
0
  6
Continuous
 62
     7
370
    15
100
AcDbPolyline
 90
        7
 70
   128
 43
0.0
 10
-1.5554192817
 20
-97.8933571912
 10
-1.6518626969
 20
-97.3159620556
 10
-1.9279236974
 20
-96.6794998831
 10
-2.3410781817
 20
-96.122205822
 10
-2.8284271247
 20
-95.7289228411
 10
-3.3157760678
 20
-95.5595247093
 10
-3.7288573705
 20
-95.6397585028
  0
LWPOLYLINE
  5
189
330
1F
100
AcDbEntity
  8
0
  6
Continuous
 62
     7
370
    15
100
AcDbPolyline
 90
        9
 70
   128
 43
0.0
 10
-3.3234018716
 20
-102.524780478
 10
-2.9540093881
 20
-102.940148683
 10
-2.6590985535
 20
-103.4372484974
 10
-2.4690526175
 20
-103.9648661098
 10
-2.4034511023
 20
-104.468643606
 10
-2.4690526175
 20
-104.8966792049
 10
-2.6590985535
 20
-105.2048744501
 10
-2.9540093881
 20
-105.3614774625
 10
-3.3234018716
 20
-105.3503541842
  0
LWPOLYLINE
  5
18D
330
1F
100
AcDbEntity
  8
0
  6
Continuous
 62
     7
370
    15
100
AcDbPolyline
 90
        9
 70
   128
 43
0.0
 10
-4.0305086528
 20
-104.9421501283
 10
-4.3999011362
 20
-104.5267819234
 10
-4.6948119709
 20
-104.0296821089
 10
-4.8848579068
 20
-103.5020644966
 10
-4.9504594221
 20
-102.9982870004
 10
-4.8848579068
 20
-102.5702514014
 10
-4.6948119709
 20
-102.2620561562
 10
-4.3999011362
 20
-102.1054531438
 10
-4.0305086528
 20
-102.1165764221
  0
LWPOLYLINE
  5
191
330
1F
100
AcDbEntity
  8
0
  6
Continuous
 62
     7
370
    15
100
AcDbPolyline
 90
        7
 70
   128
 43
0.0
 10
-1.5554192817
 20
-103.9374591867
 10
-1.6518626969
 20
-103.3600640512
 10
-1.9279236974
 20
-102.7236018787
 10
-2.3410781817
 20
-102.1663078176
 10
-2.8284271247
 20
-101.7730248368
 10
-3.3157760678
 20
-101.603626705
 10
-3.7288573705
 20
-101.6838604985
  0
LWPOLYLINE
  5
193
330
1F
100
AcDbEntity
  8
0
  6
Continuous
 62
     7
370
    15
100
AcDbPolyline
 90
        9
 70
   128
 43
0.0
 10
-8.8388347648
 20
-93.2966868463
 10
-8.4694422814
 20
-93.7120550512
 10
-8.1745314467
 20
-94.2091548657
 10
-7.9844855108
 20
-94.736772478
 10
-7.9188839955
 20
-95.2405499742
 10
-7.9844855108
 20
-95.6685855732
 10
-8.1745314467
 20
-95.9767808184
 10
-8.4694422814
 20
-96.1333838308
 10
-8.8388347648
 20
-96.1222605525
  0
LWPOLYLINE
  5
197
330
1F
100
AcDbEntity
  8
0
  6
Continuous
 62
     7
370
    15
100
AcDbPolyline
 90
        9
 70
   128
 43
0.0
 10
-9.545941546
 20
-95.7140564966
 10
-9.9153340294
 20
-95.2986882916
 10
-10.2102448641
 20
-94.8015884772
 10
-10.4002908001
 20
-94.2739708649
 10
-10.4658923153
 20
-93.7701933686
 10
-10.4002908001
 20
-93.3421577697
 10
-10.2102448641
 20
-93.0339625245
 10
-9.9153340294
 20
-92.8773595121
 10
-9.545941546
 20
-92.8884827904
  0
LWPOLYLINE
  5
19B
330
1F
100
AcDbEntity
  8
0
  6
Continuous
 62
     7
370
    15
100
AcDbPolyline
 90
        7
 70
   128
 43
0.0
 10
-7.070852175
 20
-94.7093655548
 10
-7.1672955901
 20
-94.1319704195
 10
-7.4433565907
 20
-93.495508247
 10
-7.856511075
 20
-92.9382141859
 10
-8.343860018
 20
-92.544931205
 10
-8.831208961
 20
-92.3755330732
 10
-9.2442902638
 20
-92.4557668667
  0
LWPOLYLINE
  5
1AD
330
1F
100
AcDbEntity
  8
0
  6
Continuous
 62
     7
370
    15
100
AcDbPolyline
 90
        9
 70
   128
 43
0.0
 10
-8.8388347648
 20
-99.3407888419
 10
-8.4694422814
 20
-99.7561570469
 10
-8.1745314467
 20
-100.2532568613
 10
-7.9844855108
 20
-100.7808744736
 10
-7.9188839955
 20
-101.2846519699
 10
-7.9844855108
 20
-101.7126875688
 10
-8.1745314467
 20
-102.020882814
 10
-8.4694422814
 20
-102.1774858264
 10
-8.8388347648
 20
-102.1663625481
  0
LWPOLYLINE
  5
1B1
330
1F
100
AcDbEntity
  8
0
  6
Continuous
 62
     7
370
    15
100
AcDbPolyline
 90
        9
 70
   128
 43
0.0
 10
-9.545941546
 20
-101.7581584922
 10
-9.9153340294
 20
-101.3427902873
 10
-10.2102448641
 20
-100.8456904728
 10
-10.4002908001
 20
-100.3180728605
 10
-10.4658923153
 20
-99.8142953643
 10
-10.4002908001
 20
-99.3862597653
 10
-10.2102448641
 20
-99.0780645201
 10
-9.9153340294
 20
-98.9214615077
 10
-9.545941546
 20
-98.932584786
  0
LWPOLYLINE
  5
1B5
330
1F
100
AcDbEntity
  8
0
  6
Continuous
 62
     7
370
    15
100
AcDbPolyline
 90
        7
 70
   128
 43
0.0
 10
-7.0708521749
 20
-100.7534675513
 10
-7.1672955901
 20
-100.1760724151
 10
-7.4433565907
 20
-99.5396102426
 10
-7.856511075
 20
-98.9823161815
 10
-8.343860018
 20
-98.5890332007
 10
-8.831208961
 20
-98.4196350689
 10
-9.2442902638
 20
-98.4998688624
  0
LWPOLYLINE
  5
1C4
330
1F
100
AcDbEntity
  8
0
  6
Continuous
 62
     7
370
    15
100
AcDbPolyline
 90
        7
 70
   128
 43
0.0
 10
-4.2071067812
 20
-110.9254971534
 10
-4.1326157398
 20
-111.3401361873
 10
-3.7137956215
 20
-111.9597644744
 10
-2.9691541137
 20
-112.467313849
 10
-1.9793846782
 20
-112.8077834608
 10
-0.8517441911
 20
-112.9442781446
 10
-0.3535533906
 20
-112.9356690038
  0
LWPOLYLINE
  5
1C5
330
1F
100
AcDbEntity
  8
0
  6
Continuous
 62
     7
370
    15
100
AcDbPolyline
 90
        3
 70
   128
 43
0.0
 10
2.7561528991
 20
-110.1473446404
 10
2.9094765228
 20
-110.3006215377
 10
3.0466641733
 20
-110.4656521827
  0
LWPOLYLINE
  5
1C6
330
1F
100
AcDbEntity
  8
0
  6
Continuous
 62
     7
370
    15
100
AcDbPolyline
 90
       10
 70
   128
 43
0.0
 10
0.1699406967
 20
-113.710611679
 10
-0.8600600834
 20
-113.763876248
 10
-2.0581541104
 20
-113.6330099611
 10
-3.1362016533
 20
-113.3040917653
 10
-3.9984134569
 20
-112.8063474859
 10
-4.5681782187
 20
-112.1840038863
 10
-4.7948698392
 20
-111.4923589266
 10
-4.6583457732
 20
-110.7928682965
 10
-4.170736783
 20
-110.1476848084
 10
-4.1703664615
 20
-110.1473446404
  0
LWPOLYLINE
  5
1C7
330
1F
100
AcDbEntity
  8
0
  6
Continuous
 62
     7
370
    15
100
AcDbPolyline
 90
        9
 70
   128
 43
0.0
 10
-3.1819805153
 20
-109.0106218543
 10
-3.8514752178
 20
-109.5519362712
 10
-4.1802288103
 20
-110.1894142236
 10
-4.1326157398
 20
-110.8539750838
 10
-3.7137956215
 20
-111.4736033709
 10
-2.9691541137
 20
-111.9811527455
 10
-1.9793846782
 20
-112.3216223574
 10
-0.8517441911
 20
-112.4581170411
 10
-0.3535533906
 20
-112.4495079004
  0
LWPOLYLINE
  5
1CA
330
1F
100
AcDbEntity
  8
0
  6
Continuous
 62
     7
370
    15
100
AcDbPolyline
 90
        9
 70
   128
 43
0.0
 10
-2.7577164466
 20
-109.2555442879
 10
-1.8784776953
 20
-108.9078481978
 10
-0.8410388113
 20
-108.7669880285
 10
0.2144883356
 20
-108.8519877263
 10
1.1455489552
 20
-109.151367611
 10
1.8263981517
 20
-109.6246947702
 10
2.1650834684
 20
-110.2080437484
 10
2.1158635765
 20
-110.8226300336
 10
1.9647257532
 20
-111.0902419379
  0
LWPOLYLINE
  5
1CB
330
1F
100
AcDbEntity
  8
0
  6
Continuous
 62
     7
370
    15
100
AcDbPolyline
 90
        9
 70
   128
 43
0.0
 10
0.4204174573
 20
-111.9817521408
 10
-0.0431501863
 20
-112.0690021491
 10
-1.1077602105
 20
-112.0974161878
 10
-2.118259769
 20
-111.9018973163
 10
-2.938175297
 20
-111.5088514413
 10
-3.4567726592
 20
-110.9713615864
 10
-3.6040124081
 20
-110.3620187348
 10
-3.3600089998
 20
-109.763118015
 10
-2.7577164466
 20
-109.2555442879
  0
LWPOLYLINE
  5
1CF
330
1F
100
AcDbEntity
  8
0
  6
Continuous
 62
     7
370
    15
100
AcDbPolyline
 90
        9
 70
   128
 43
0.0
 10
-0.3441744629
 20
-116.1900580752
 10
-0.8623718776
 20
-116.1975553766
 10
-2.0785743525
 20
-116.0647111269
 10
-3.172915915
 20
-115.7308215367
 10
-4.048159515
 20
-115.2255541614
 10
-4.6265359176
 20
-114.5938042245
 10
-4.8566538414
 20
-113.8917054804
 10
-4.7180662988
 20
-113.1816424835
 10
-4.2666686505
 20
-112.5676530712
  0
LWPOLYLINE
  5
1D0
330
1F
100
AcDbEntity
  8
0
  6
Continuous
 62
     7
370
    15
100
AcDbPolyline
 90
       11
 70
   128
 43
0.0
 10
-4.2071067812
 20
-175.7626010009
 10
-4.1326157398
 20
-176.1772400347
 10
-3.7137956215
 20
-176.7968683218
 10
-2.9691541137
 20
-177.3044176964
 10
-1.9793846782
 20
-177.6448873082
 10
-0.8517441911
 20
-177.781381992
 10
0.2915700037
 20
-177.6991104308
 10
1.3266620727
 20
-177.4069880248
 10
2.1413637293
 20
-176.9366707694
 10
2.6473894074
 20
-176.3391248371
 10
2.7928932188
 20
-175.7626010009
  0
LWPOLYLINE
  5
1D1
330
1F
100
AcDbEntity
  8
0
  6
Continuous
 62
     7
370
    15
100
AcDbPolyline
 90
       10
 70
   128
 43
0.0
 10
2.4133472463
 20
-90.0742799623
 10
2.3798304574
 20
-90.0515961664
 10
2.2146292646
 20
-90.060359505
 10
1.9665755224
 20
-90.1731461523
 10
1.6734331645
 20
-90.3727853635
 10
1.3798304574
 20
-90.6288838785
 10
1.1304657519
 20
-90.9024530199
 10
0.9633025639
 20
-91.1518443658
 10
0.9037899733
 20
-91.3390903447
 10
0.9274714438
 20
-91.4130006575
  0
LWPOLYLINE
  5
1D3
330
1F
100
AcDbEntity
  8
0
  6
Continuous
 62
     7
370
    15
100
AcDbPolyline
 90
        3
 70
   128
 43
0.0
 10
-6.5295750289
 20
-90.9425101035
 10
-6.4534545614
 20
-91.1634285466
 10
-6.4153866621
 20
-91.2103975726
  0
LWPOLYLINE
  5
1D4
330
1F
100
AcDbEntity
  8
0
  6
Continuous
 62
     7
370
    15
100
AcDbPolyline
 90
       10
 70
   128
 43
0.0
 10
2.2273863607
 20
-79.1550156241
 10
1.3312475245
 20
-79.5172539467
 10
0.2745405897
 20
-79.6807093658
 10
-0.8152799921
 20
-79.6256667454
 10
-1.8067657745
 20
-79.3587650379
 10
-2.5803289395
 20
-78.9121965282
 10
-3.0426663528
 20
-78.3398239693
 10
-3.138013299
 20
-77.7106839391
 10
-2.8548695292
 20
-77.1006600103
 10
-2.5
 20
-76.7628720755
  0
LWPOLYLINE
  5
1D5
330
1F
100
AcDbEntity
  8
0
  6
Continuous
 62
     7
370
    15
100
AcDbPolyline
 90
        6
 70
   128
 43
0.0
 10
2.5
 20
-76.7628720755
 10
2.5803289395
 20
-76.8261491677
 10
3.0426663528
 20
-77.3985217266
 10
3.138013299
 20
-78.0276617568
 10
2.8548695292
 20
-78.6376856856
 10
2.2273863607
 20
-79.1550156241
  0
LWPOLYLINE
  5
1D6
330
1F
100
AcDbEntity
  8
0
  6
Continuous
 62
     7
370
    15
100
AcDbPolyline
 90
        4
 70
   128
 43
0.0
 10
1.803122292
 20
-78.9100931905
 10
2.3558928079
 20
-78.4325148779
 10
2.55
 20
-77.8691728479
 10
2.5
 20
-77.5790893627
  0
LWPOLYLINE
  5
1D7
330
1F
100
AcDbEntity
  8
0
  6
Continuous
 62
     7
370
    15
100
AcDbPolyline
 90
        8
 70
   128
 43
0.0
 10
-2.5
 20
-77.5790893627
 10
-2.55
 20
-77.8691728479
 10
-2.3558928079
 20
-78.4325148779
 10
-1.803122292
 20
-78.9100931905
 10
-0.9758427525
 20
-79.2292008169
 10
0.0
 20
-79.3412565138
 10
0.9758427525
 20
-79.2292008169
 10
1.803122292
 20
-78.9100931905
  0
LWPOLYLINE
  5
1D8
330
1F
100
AcDbEntity
  8
0
  6
Continuous
 62
     7
370
    15
100
AcDbPolyline
 90
        3
 70
   128
 43
0.0
 10
2.2273863607
 20
-89.7700461786
 10
2.8548695292
 20
-89.2527162401
 10
3.1244528758
 20
-88.7153307066
  0
LWPOLYLINE
  5
1D9
330
1F
100
AcDbEntity
  8
0
  6
Continuous
 62
     7
370
    15
100
AcDbPolyline
 90
        8
 70
   128
 43
0.0
 10
-3.15
 20
-88.4842034025
 10
-3.0426663528
 20
-88.9548545238
 10
-2.5803289395
 20
-89.5272270827
 10
-1.8067657745
 20
-89.9737955924
 10
-0.8152799921
 20
-90.2406972999
 10
0.2745405897
 20
-90.2957399203
 10
1.3312475245
 20
-90.1322845013
 10
2.2273863607
 20
-89.7700461786
  0
LWPOLYLINE
  5
1DA
330
1F
100
AcDbEntity
  8
0
  6
Continuous
 62
     7
370
    15
100
AcDbPolyline
 90
       15
 70
   128
 43
0.0
 10
2.5
 20
62.457336351
 10
2.8548695292
 20
62.1195484162
 10
3.138013299
 20
61.5095244874
 10
3.0426663528
 20
60.8803844572
 10
2.5803289395
 20
60.3080118983
 10
1.8067657745
 20
59.8614433887
 10
0.8152799921
 20
59.5945416811
 10
-0.2745405897
 20
59.5394990607
 10
-1.3312475245
 20
59.7029544798
 10
-2.2273863607
 20
60.0651928025
 10
-2.8548695292
 20
60.5825227409
 10
-3.138013299
 20
61.1925466697
 10
-3.0426663528
 20
61.8216866999
 10
-2.5803289395
 20
62.3940592588
 10
-2.5
 20
62.457336351
  0
LWPOLYLINE
  5
1DB
330
1F
100
AcDbEntity
  8
0
  6
Continuous
 62
     7
370
    15
100
AcDbPolyline
 90
       11
 70
   128
 43
0.0
 10
-2.5
 20
61.6411190638
 10
-2.55
 20
61.3510355786
 10
-2.3558928079
 20
60.7876935486
 10
-1.803122292
 20
60.310115236
 10
-0.9758427525
 20
59.9910076096
 10
0.0
 20
59.8789519128
 10
0.9758427525
 20
59.9910076096
 10
1.803122292
 20
60.310115236
 10
2.3558928079
 20
60.7876935486
 10
2.55
 20
61.3510355786
 10
2.5
 20
61.6411190638
  0
SPLINE
  5
1DC
330
1F
100
AcDbEntity
  8
0
  6
Continuous
 62
     7
370
    15
100
AcDbSpline
210
0.0
220
0.0
230
1.0
 70
     8
 71
     3
 72
    12
 73
     8
 74
     0
 42
0.000000001
 43
0.00000001
 40
0.0
 40
0.0
 40
0.0
 40
0.0
 40
0.2192345655710663
 40
0.4384691311421324
 40
0.6577036967131986
 40
0.8769382622842649
 40
1.0
 40
1.0
 40
1.0
 40
1.0
 10
-4.242640687137746
 20
54.8191071836166
 30
0.0
 10
-4.733830179713791
 20
55.17618972636795
 30
0.0
 10
-5.716209164865877
 20
55.89035481187066
 30
0.0
 10
-6.152185823953082
 20
57.27639873101026
 30
0.0
 10
-5.675047539482864
 20
58.61403937866682
 30
0.0
 10
-4.592665647981852
 20
59.65262013797129
 30
0.0
 10
-3.531506122039618
 20
60.010395018607
 30
0.0
 10
-3.149999999998212
 20
60.13902158599704
 30
0.0
  0
LWPOLYLINE
  5
1DE
330
1F
100
AcDbEntity
  8
0
  6
Continuous
 62
     7
370
    15
100
AcDbPolyline
 90
       13
 70
   128
 43
0.0
 10
4.2426406871
 20
59.7175558546
 10
5.1961524227
 20
59.0001946554
 10
5.7955549578
 20
58.1648098454
 10
6.0
 20
57.2683315191
 10
5.7955549578
 20
56.3718531927
 10
5.1961524227
 20
55.5364683828
 10
4.2426406871
 20
54.8191071836
 10
3.0
 20
54.2686565753
 10
1.5529142706
 20
53.9226288573
 10
0.0
 20
53.8046052466
 10
-1.5529142706
 20
53.9226288573
 10
-3.0
 20
54.2686565753
 10
-4.2426406871
 20
54.8191071836
  0
LWPOLYLINE
  5
1DF
330
1F
100
AcDbEntity
  8
0
  6
Continuous
 62
     7
370
    15
100
AcDbPolyline
 90
        8
 70
   128
 43
0.0
 10
-4.5961940777
 20
54.2067347498
 10
-5.5322583708
 20
54.890154675
 10
-6.1700771832
 20
55.6797727661
 10
-6.4752655376
 20
56.5330205076
 10
-6.4313706508
 20
57.4038990927
 10
-6.0407589075
 20
58.2454592317
 10
-5.3244882879
 20
59.0123321994
 10
-4.5969409064
 20
59.5129562715
  0
LWPOLYLINE
  5
1E0
330
1F
100
AcDbEntity
  8
0
  6
Continuous
 62
     7
370
    15
100
AcDbPolyline
 90
       15
 70
   128
 43
0.0
 10
4.5969409064
 20
59.5129562715
 10
5.098701822
 20
59.1874142433
 10
5.8910006157
 20
58.4458812543
 10
6.3657140415
 20
57.6188562911
 10
6.4972501755
 20
56.7509244834
 10
6.2785178709
 20
55.8888762597
 10
5.7213090427
 20
55.0791848628
 10
4.8556629631
 20
54.3655009655
 10
3.7282468363
 20
53.7862994515
 10
2.3998399575
 20
53.3728052242
 10
0.9420570855
 20
53.1473098646
 10
-0.5665123279
 20
53.1219698859
 10
-2.044540915
 20
53.2981513727
 10
-3.4123477722
 20
53.6663563356
 10
-4.5961940777
 20
54.2067347498
  0
LWPOLYLINE
  5
1E1
330
1F
100
AcDbEntity
  8
0
  6
Continuous
 62
     7
370
    15
100
AcDbPolyline
 90
       12
 70
   128
 43
0.0
 10
-4.5961940777
 20
41.1420817596
 10
-3.4123477722
 20
40.6017033455
 10
-2.044540915
 20
40.2334983825
 10
-0.5665123279
 20
40.0573168957
 10
0.9420570855
 20
40.0826568745
 10
2.3998399575
 20
40.3081522341
 10
3.7282468363
 20
40.7216464613
 10
4.8556629631
 20
41.3008479753
 10
5.7213090427
 20
42.0145318726
 10
6.2785178709
 20
42.8242232695
 10
6.4972501755
 20
43.6862714932
 10
6.5
 20
43.795408123
  0
SPLINE
  5
1E4
330
1F
100
AcDbEntity
  8
0
  6
Continuous
 62
     7
370
    15
100
AcDbSpline
210
0.0
220
0.0
230
1.0
 70
     8
 71
     3
 72
    21
 73
    17
 74
     0
 42
0.000000001
 43
0.00000001
 40
0.0
 40
0.0
 40
0.0
 40
0.0
 40
0.0769093801030843
 40
0.1538187602061683
 40
0.2307281403092526
 40
0.3076375204123368
 40
0.3845469005154211
 40
0.4614562806185051
 40
0.5383656607215894
 40
0.6152750408246737
 40
0.692184420927758
 40
0.769093801030842
 40
0.8460031811339264
 40
0.9229125612370105
 40
0.9998219413400947
 40
1.0
 40
1.0
 40
1.0
 40
1.0
 10
-3.251554568105068
 20
56.52066193697658
 30
0.0
 10
-3.125653725532321
 20
56.37044615653569
 30
0.0
 10
-2.873852040386827
 20
56.07001459565392
 30
0.0
 10
-2.268562365383169
 20
55.70436244060956
 30
0.0
 10
-1.539600314483237
 20
55.43048948228807
 30
0.0
 10
-0.713277179476592
 20
55.26917471101878
 30
0.0
 10
0.1553749648523562
 20
55.22911378244266
 30
0.0
 10
1.014849667474361
 20
55.31303453621034
 30
0.0
 10
1.812610698889052
 20
55.51577102853628
 30
0.0
 10
2.50012413696653
 20
55.82497431003613
 30
0.0
 10
3.036135158173145
 20
56.22203567203782
 30
0.0
 10
3.386025883478105
 20
56.68212939801581
 30
0.0
 10
3.536188378723277
 20
57.17990093893577
 30
0.0
 10
3.448923589086133
 20
57.67537763758035
 30
0.0
 10
3.30692702931474
 20
58.00867025830031
 30
0.0
 10
3.150361638992998
 20
58.14840195941928
 30
0.0
 10
3.150000000001801
 20
58.14872471549792
 30
0.0
  0
LWPOLYLINE
  5
1E6
330
1F
100
AcDbEntity
  8
0
  6
Continuous
 62
     7
370
    15
100
AcDbPolyline
 90
      125
 70
   128
 43
0.0
 10
-97.2271824132
 20
830.868705914
 10
-92.177916044
 20
828.0979064031
 10
-86.8920302864
 20
825.478299414
 10
-81.3830939332
 20
823.01660944
 10
-75.6652483451
 20
820.7191556043
 10
-69.7531711498
 20
818.5918354376
 10
-63.6620385645
 20
816.6401097405
 10
-57.4074864392
 20
814.8689885648
 10
-51.0055701196
 20
813.2830183532
 10
-44.472723233
 20
811.8862702684
 10
-37.8257155037
 20
810.6823297428
 10
-31.0816097053
 20
809.6742872743
 10
-24.2577178605
 20
808.8647304936
 10
-17.3715568018
 20
808.2557375214
 10
-10.440803206
 20
807.8488716337
 10
-3.4832482181
 20
807.6451772496
 10
3.4832482181
 20
807.6451772496
 10
10.440803206
 20
807.8488716337
 10
17.3715568018
 20
808.2557375214
 10
24.2577178604
 20
808.8647304936
 10
31.0816097053
 20
809.6742872743
 10
37.8257155037
 20
810.6823297428
 10
44.472723233
 20
811.8862702684
 10
51.0055701196
 20
813.2830183532
 10
57.4074864392
 20
814.8689885648
 10
63.6620385645
 20
816.6401097405
 10
69.7531711498
 20
818.5918354376
 10
75.6652483451
 20
820.7191556043
 10
81.3830939332
 20
823.01660944
 10
86.8920302864
 20
825.478299414
 10
92.177916044
 20
828.0979064031
 10
97.2271824131
 20
830.868705914
 10
102.0268679995
 20
833.783585344
 10
106.564652079
 20
836.8350622393
 10
110.8288862249
 20
840.0153035027
 10
114.8086242095
 20
843.3161455003
 10
118.4936501022
 20
846.7291150181
 10
121.8745044947
 20
850.2454510122
 10
124.942508782
 20
853.8561270988
 10
127.6897874412
 20
857.5518747239
 10
130.1092882474
 20
861.3232069564
 10
132.1948003767
 20
865.1604428407
 10
133.9409703494
 20
869.0537322471
 10
135.3433157722
 20
872.9930811577
 10
136.3982368445
 20
876.9683773203
 10
137.103025599
 20
880.9694162067
 10
137.4558728533
 20
884.9859272074
 10
137.4558728533
 20
889.0075999963
 10
137.103025599
 20
893.0241109969
 10
136.3982368445
 20
897.0251498833
 10
135.3433157722
 20
901.0004460459
 10
133.9409703494
 20
904.9397949565
 10
132.1948003767
 20
908.833084363
 10
130.1092882474
 20
912.6703202472
 10
127.6897874412
 20
916.4416524798
 10
124.942508782
 20
920.1374001049
 10
121.8745044947
 20
923.7480761914
 10
118.4936501022
 20
927.2644121856
 10
114.8086242095
 20
930.6773817034
 10
110.8288862249
 20
933.978223701
 10
106.564652079
 20
937.1584649643
 10
102.0268679995
 20
940.2099418597
 10
97.2271824131
 20
943.1248212896
 10
92.177916044
 20
945.8956208005
 10
86.8920302864
 20
948.5152277897
 10
81.3830939332
 20
950.9769177636
 10
75.6652483451
 20
953.2743715994
 10
69.7531711498
 20
955.401691766
 10
63.6620385644
 20
957.3534174631
 10
57.4074864392
 20
959.1245386388
 10
51.0055701196
 20
960.7105088504
 10
44.472723233
 20
962.1072569352
 10
37.8257155037
 20
963.3111974609
 10
31.0816097053
 20
964.3192399293
 10
24.2577178604
 20
965.12879671
 10
17.3715568018
 20
965.7377896823
 10
10.440803206
 20
966.1446555699
 10
3.4832482181
 20
966.348349954
 10
-3.4832482181
 20
966.348349954
 10
-10.440803206
 20
966.1446555699
 10
-17.3715568018
 20
965.7377896823
 10
-24.2577178605
 20
965.12879671
 10
-31.0816097053
 20
964.3192399293
 10
-37.8257155037
 20
963.3111974609
 10
-44.472723233
 20
962.1072569352
 10
-51.0055701196
 20
960.7105088504
 10
-57.4074864392
 20
959.1245386388
 10
-63.6620385645
 20
957.3534174631
 10
-69.7531711498
 20
955.401691766
 10
-75.6652483451
 20
953.2743715994
 10
-81.3830939332
 20
950.9769177636
 10
-86.8920302864
 20
948.5152277897
 10
-92.177916044
 20
945.8956208005
 10
-97.2271824132
 20
943.1248212896
 10
-102.0268679995
 20
940.2099418597
 10
-106.564652079
 20
937.1584649643
 10
-110.8288862249
 20
933.978223701
 10
-114.8086242095
 20
930.6773817034
 10
-118.4936501022
 20
927.2644121856
 10
-121.8745044947
 20
923.7480761914
 10
-124.942508782
 20
920.1374001049
 10
-127.6897874412
 20
916.4416524798
 10
-130.1092882474
 20
912.6703202472
 10
-132.1948003767
 20
908.833084363
 10
-133.9409703494
 20
904.9397949565
 10
-135.3433157722
 20
901.0004460459
 10
-136.3982368445
 20
897.0251498833
 10
-137.1030255991
 20
893.0241109969
 10
-137.4558728533
 20
889.0075999962
 10
-137.4558728533
 20
884.9859272074
 10
-137.1030255991
 20
880.9694162067
 10
-136.3982368445
 20
876.9683773203
 10
-135.3433157722
 20
872.9930811577
 10
-133.9409703494
 20
869.0537322471
 10
-132.1948003767
 20
865.1604428407
 10
-130.1092882474
 20
861.3232069564
 10
-127.6897874412
 20
857.5518747239
 10
-124.942508782
 20
853.8561270988
 10
-121.8745044947
 20
850.2454510122
 10
-118.4936501022
 20
846.7291150181
 10
-114.8086242095
 20
843.3161455003
 10
-110.8288862249
 20
840.0153035027
 10
-106.564652079
 20
836.8350622393
 10
-102.0268679995
 20
833.783585344
 10
-97.2271824132
 20
830.868705914
  0
LWPOLYLINE
  5
1E7
330
1F
100
AcDbEntity
  8
0
  6
Continuous
 62
     7
370
    15
100
AcDbPolyline
 90
      122
 70
   128
 43
0.0
 10
-91.8755952362
 20
833.9581114314
 10
-86.9830608696
 20
831.2766942898
 10
-81.8560355493
 20
828.7454886038
 10
-76.5083408291
 20
826.3713180566
 10
-70.9543931486
 20
824.1605829921
 10
-65.2091649687
 20
822.1192431612
 10
-59.2881444088
 20
820.2528016553
 10
-53.2072934937
 20
818.5662900706
 10
-46.9830051222
 20
817.0642549442
 10
-40.6320588753
 20
815.7507454972
 10
-34.1715757814
 20
814.6293027189
 10
-27.6189721607
 20
813.7029498207
 10
-20.991912674
 20
812.9741840864
 10
-14.308262702
 20
812.4449701393
 10
-7.5860401834
 20
812.1167346469
 10
-0.8433670418
 20
811.9903624739
 10
5.9015796684
 20
812.0661942975
 10
12.6306167631
 20
812.3440256883
 10
19.3256039481
 20
812.8231076621
 10
25.9684927216
 20
813.5021486985
 10
32.5413750299
 20
814.3793182231
 10
39.0265315443
 20
815.4522515419
 10
45.4064794295
 20
816.7180562162
 10
51.6640194739
 20
818.1733198605
 10
57.7822824558
 20
819.8141193414
 10
63.7447746201
 20
821.6360313534
 10
69.5354221419
 20
823.634144344
 10
75.1386144593
 20
825.8030717537
 10
80.5392463564
 20
828.1369665377
 10
85.7227586846
 20
830.6295369284
 10
90.6751776108
 20
833.2740633966
 10
95.3831522894
 20
836.0634167664
 10
99.833990853
 20
838.9900774345
 10
104.0156946276
 20
842.046155641
 10
107.9169904793
 20
845.2234127394
 10
111.527361204
 20
848.5132834062
 10
114.8370738808
 20
851.9068987319
 10
117.8372061093
 20
855.3951101295
 10
120.5196700634
 20
858.9685139978
 10
122.8772342947
 20
862.6174770716
 10
124.9035432267
 20
866.3321623918
 10
126.5931342888
 20
870.1025558233
 10
127.9414526423
 20
873.9184930522
 10
128.9448634592
 20
877.7696869862
 10
129.6006617213
 20
881.6457554875
 10
129.9070795125
 20
885.5362493606
 10
129.8632907846
 20
889.4306805219
 10
129.4694135843
 20
893.3185502735
 10
128.7265097349
 20
897.1893776059
 10
127.6365819738
 20
901.032727453
 10
126.2025685535
 20
904.838238823
 10
124.4283353207
 20
908.5956527302
 10
122.3186652945
 20
912.2948398509
 10
119.8792457723
 20
915.9258278307
 10
117.1166529979
 20
919.478828168
 10
114.038334433
 20
922.9442626019
 10
110.6525886801
 20
926.3127889339
 10
106.9685431113
 20
929.5753262127
 10
102.996129262
 20
932.7230792144
 10
98.7460560577
 20
935.7475621535
 10
94.2297809444
 20
938.6406215588
 10
89.4594790012
 20
941.3944582535
 10
84.4480101189
 20
944.0016483809
 10
79.2088843315
 20
946.4551634172
 10
73.7562253959
 20
948.7483891197
 10
68.1047327165
 20
950.8751433573
 10
62.2696417185
 20
952.8296927767
 10
56.2666827756
 20
954.6067682581
 10
50.1120388037
 20
956.2015791203
 10
43.8223016349
 20
957.609826035
 10
37.4144272885
 20
958.8277126177
 10
30.905690261
 20
959.8519556614
 10
24.3136369566
 20
960.6797939879
 10
17.6560383855
 20
961.3089958914
 10
10.9508422565
 20
961.737865155
 10
4.2161245929
 20
961.9652456228
 10
-2.5299589973
 20
961.9905243173
 10
-9.2692222653
 20
961.8136330917
 10
-15.9834973488
 20
961.4350488133
 10
-22.6546837493
 20
960.8557920786
 10
-29.2647971277
 20
960.0774244612
 10
-35.7960177871
 20
959.1020443025
 10
-42.2307387111
 20
957.9322810552
 10
-48.5516130298
 20
956.571288194
 10
-54.7416007837
 20
955.0227347152
 10
-60.78401486
 20
953.2907952451
 10
-66.6625659787
 20
951.3801387862
 10
-72.3614066053
 20
949.2959161308
 10
-77.865173673
 20
947.0437459744
 10
-83.1590299989
 20
944.6296997697
 10
-88.2287042823
 20
942.0602853585
 10
-93.0605295775
 20
939.3424294277
 10
-97.6414801379
 20
936.4834588365
 10
-101.9592065305
 20
933.491080864
 10
-106.0020689286
 20
930.3733624323
 10
-109.7591684897
 20
927.138708359
 10
-113.2203767377
 20
923.7958386997
 10
-116.3763628672
 20
920.3537652398
 10
-119.2186188974
 20
916.821767201
 10
-121.7394826087
 20
913.2093662255
 10
-123.932158198
 20
909.5263007077
 10
-125.7907345998
 20
905.7824995409
 10
-127.3102014207
 20
901.9880553514
 10
-128.4864624466
 20
898.1531972897
 10
-129.3163466859
 20
894.2882634552
 10
-129.7976169173
 20
890.4036730263
 10
-129.9289757215
 20
886.5098981718
 10
-129.7100689782
 20
882.6174358205
 10
-129.1414868214
 20
878.7367793627
 10
-128.2247620481
 20
874.878390362
 10
-126.9623659861
 20
871.052670353
 10
-125.3577018321
 20
867.2699328006
 10
-123.4150954768
 20
863.5403752963
 10
-121.1397838437
 20
859.8740520679
 10
-118.5379007705
 20
856.2808468746
 10
-115.6164604741
 20
852.7704463623
 10
-112.383338641
 20
849.3523139501
 10
-108.847251196
 20
846.0356643187
 10
-105.0177308057
 20
842.8294385691
 10
-100.90510118
 20
839.7422801192
 10
-96.5204492414
 20
836.7825114022
 10
-91.8755952362
 20
833.9581114314
  0
LWPOLYLINE
  5
1E9
330
1F
100
AcDbEntity
  8
0
  6
Continuous
 62
     8
370
    15
100
AcDbPolyline
 90
        4
 70
   128
 43
0.0
 10
4.3510400876
 20
-95.2128954557
 10
4.3273586171
 20
-95.1389851429
 10
4.3868712076
 20
-94.9517391641
 10
4.4547727215
 20
-94.8377882709
  0
LWPOLYLINE
  5
1EA
330
1F
100
AcDbEntity
  8
0
  6
Continuous
 62
     8
370
    15
100
AcDbPolyline
 90
       10
 70
   128
 43
0.0
 10
-5.049369203
 20
-87.6631487784
 10
-5.0970018082
 20
-87.6629554201
 10
-5.3901441662
 20
-87.7497129635
 10
-5.6381979084
 20
-87.9753812785
 10
-5.8033991012
 20
-88.3056044099
 10
-5.8605973606
 20
-88.6901088793
 10
-5.80108477
 20
-89.0703573669
 10
-5.633921582
 20
-89.3884604873
 10
-5.3845568765
 20
-89.5959899242
 10
-5.1546320512
 20
-89.6602210863
  0
LWPOLYLINE
  5
1EB
330
1F
100
AcDbEntity
  8
0
  6
Continuous
 62
     8
370
    15
100
AcDbPolyline
 90
        7
 70
   128
 43
0.0
 10
-6.5295741893
 20
-89.1973918454
 10
-6.4534545614
 20
-89.4175622232
 10
-6.2366818101
 20
-89.604847836
 10
-5.9122584612
 20
-89.7299880816
 10
-5.5295750289
 20
-89.7739314922
 10
-5.1468915965
 20
-89.7299880816
 10
-4.9555105552
 20
-89.6693327894
  0
SPLINE
  5
1EC
330
1F
100
AcDbEntity
  8
0
  6
Continuous
 62
     8
370
    15
100
AcDbSpline
210
0.0
220
0.0
230
1.0
 70
     8
 71
     3
 72
    13
 73
     9
 74
     0
 42
0.000000001
 43
0.00000001
 40
0.0
 40
0.0
 40
0.0
 40
0.0
 40
0.1606386231847716
 40
0.3285108985478175
 40
0.4963831739108633
 40
0.6642554492739084
 40
0.8321277246369542
 40
1.0
 40
1.0
 40
1.0
 40
1.0
 10
-2.491799882016937
 20
-48.08106636317449
 30
0.0
 10
-2.455317194849523
 20
-48.26173528226479
 30
0.0
 10
-2.380708983541458
 20
-48.63120874869109
 30
0.0
 10
-1.808861418432339
 20
-49.10411844299045
 30
0.0
 10
-0.9821136870174483
 20
-49.42587673378701
 30
0.0
 10
-0.0029353189595937
 20
-49.53614598135098
 30
0.0
 10
0.9938549628704392
 20
-49.43246185809008
 30
0.0
 10
1.509796289602685
 20
-49.19600591654871
 30
0.0
 10
1.767766952968808
 20
-49.07777794577805
 30
0.0
  0
SPLINE
  5
1ED
330
1F
100
AcDbEntity
  8
0
  6
Continuous
 62
     8
370
    15
100
AcDbSpline
210
0.0
220
0.0
230
1.0
 70
     8
 71
     3
 72
    10
 73
     6
 74
     0
 42
0.000000001
 43
0.00000001
 40
0.0
 40
0.0
 40
0.0
 40
0.0
 40
0.4983720338181193
 40
0.9967440676362386
 40
1.0
 40
1.0
 40
1.0
 40
1.0
 10
1.767766952968808
 20
-49.07777794577805
 30
0.0
 10
1.963878925411221
 20
-48.92970700018617
 30
0.0
 10
2.356102870296048
 20
-48.63356510900252
 30
0.0
 10
2.563385557529123
 20
-48.24013746323352
 30
0.0
 10
2.499173519639607
 20
-48.05486215258365
 30
0.0
 10
2.498756736552534
 20
-48.05365958031732
 30
0.0
  0
LWPOLYLINE
  5
1EE
330
1F
100
AcDbEntity
  8
0
  6
Continuous
 62
     8
370
    15
100
AcDbPolyline
 90
       32
 70
   128
 43
0.0
 10
-57.4999999969
 20
-3.5636116792
 10
-57.5
 20
-3.5639589663
 10
-57.3227466897
 20
-6.1683335986
 10
-56.7920795842
 20
-8.7566513952
 10
-55.9112704229
 20
-11.3129545162
 10
-54.685749687
 20
-13.8214825028
 10
-53.1230731194
 20
-16.2667694459
 10
-51.2328751408
 20
-18.6337393383
 10
-49.0268094504
 20
-20.9077990234
 10
-46.5184771766
 20
-23.0749281672
 10
-43.723343022
 20
-25.1217656978
 10
-40.6586399182
 20
-27.0356921812
 10
-37.343262779
 20
-28.8049076242
 10
-33.7976520068
 20
-30.4185042253
 10
-30.0436674712
 20
-31.8665336248
 10
-26.104453735
 20
-33.14006824
 10
-22.004297361
 20
-34.2312563064
 10
-17.7684771766
 20
-35.1333702868
 10
-13.4231084217
 20
-35.8408483486
 10
-8.9949817398
 20
-36.3493286541
 10
-4.5113980043
 20
-36.6556762533
 10
0.0
 20
-36.7580024113
 10
4.5113980044
 20
-36.6556762533
 10
8.9949817398
 20
-36.3493286541
 10
13.4231084217
 20
-35.8408483486
 10
17.7684771766
 20
-35.1333702868
 10
22.004297361
 20
-34.2312563064
 10
26.104453735
 20
-33.14006824
 10
30.0436674712
 20
-31.8665336248
 10
33.7976520068
 20
-30.4185042253
 10
37.343262779
 20
-28.8049076242
 10
40.6586399182
 20
-27.0356921812
  0
LWPOLYLINE
  5
1EF
330
1F
100
AcDbEntity
  8
0
  6
Continuous
 62
     8
370
    15
100
AcDbPolyline
 90
       11
 70
   128
 43
0.0
 10
40.6586399182
 20
-27.0356921812
 10
43.723343022
 20
-25.1217656974
 10
46.5184771766
 20
-23.0749281664
 10
49.0268094504
 20
-20.9077990222
 10
51.2328751408
 20
-18.6337393366
 10
53.1230731194
 20
-16.2667694438
 10
54.685749687
 20
-13.8214825004
 10
55.9112704229
 20
-11.3129545134
 10
56.7920795842
 20
-8.756651392
 10
57.3227466897
 20
-6.1683335951
 10
57.4999999969
 20
-3.5643062478
  0
LINE
  5
1F0
330
1F
100
AcDbEntity
  8
0
  6
Continuous
 62
     7
370
    15
100
AcDbLine
 10
3.1
 20
350.4064829861
 30
0.0
 11
3.1
 21
351.1910599427
 31
0.0
  0
LINE
  5
1F1
330
1F
100
AcDbEntity
  8
0
  6
Continuous
 62
     7
370
    15
100
AcDbLine
 10
-3.1
 20
351.1910599427
 30
0.0
 11
-3.1
 21
350.4064829861
 31
0.0
  0
LINE
  5
1F2
330
1F
100
AcDbEntity
  8
0
  6
Continuous
 62
     7
370
    15
100
AcDbLine
 10
6.5
 20
354.4891870456
 30
0.0
 11
6.5
 21
456.7252232553
 31
0.0
  0
LINE
  5
1F3
330
1F
100
AcDbEntity
  8
0
  6
Continuous
 62
     7
370
    15
100
AcDbLine
 10
-6.5
 20
456.7252232553
 30
0.0
 11
-6.5
 21
354.4891870456
 31
0.0
  0
LINE
  5
1F4
330
1F
100
AcDbEntity
  8
0
  6
Continuous
 62
     7
370
    15
100
AcDbLine
 10
1.7727515725
 20
-39.9290963206
 30
0.0
 11
3.894071916
 21
-38.7044841529
 31
0.0
  0
LINE
  5
1F5
330
1F
100
AcDbEntity
  8
0
  6
Continuous
 62
     7
370
    15
100
AcDbLine
 10
1.4929464267
 20
-37.7812858708
 30
0.0
 11
1.0365756908
 21
-38.0447430888
 31
0.0
  0
LINE
  5
1F6
330
1F
100
AcDbEntity
  8
0
  6
Continuous
 62
     7
370
    15
100
AcDbLine
 10
5.1011380635
 20
-63.6570936152
 30
0.0
 11
13.0207340128
 21
-59.085208189
 31
0.0
  0
LINE
  5
1F7
330
1F
100
AcDbEntity
  8
0
  6
Continuous
 62
     7
370
    15
100
AcDbLine
 10
7.7960837639
 20
-76.164638389
 30
0.0
 11
6.9475556265
 21
-76.6544832561
 31
0.0
  0
LINE
  5
1F8
330
1F
100
AcDbEntity
  8
0
  6
Continuous
 62
     7
370
    15
100
AcDbLine
 10
23.8527410365
 20
-112.7706020553
 30
0.0
 11
24.7012691739
 21
-112.2807571882
 31
0.0
  0
LINE
  5
1F9
330
1F
100
AcDbEntity
  8
0
  6
Continuous
 62
     7
370
    15
100
AcDbLine
 10
2.7389078769
 20
-102.4331148813
 30
0.0
 11
3.5874360143
 21
-101.9432700142
 31
0.0
  0
LINE
  5
1FA
330
1F
100
AcDbEntity
  8
0
  6
Continuous
 62
     7
370
    15
100
AcDbLine
 10
1.7865755227
 20
-98.823750139
 30
0.0
 11
0.9380473853
 21
-99.3135950061
 31
0.0
  0
LINE
  5
1FB
330
1F
100
AcDbEntity
  8
0
  6
Continuous
 62
     7
370
    15
100
AcDbLine
 10
-4.7840295364
 20
-75.9320146155
 30
0.0
 11
-11.3601226014
 21
-79.7283123355
 31
0.0
  0
LINE
  5
1FC
330
1F
100
AcDbEntity
  8
0
  6
Continuous
 62
     7
370
    15
100
AcDbLine
 10
2.7389078769
 20
-108.4772168769
 30
0.0
 11
3.5874360143
 21
-107.9873720098
 31
0.0
  0
LINE
  5
1FD
330
1F
100
AcDbEntity
  8
0
  6
Continuous
 62
     7
370
    15
100
AcDbLine
 10
1.7865755227
 20
-104.8678521346
 30
0.0
 11
0.9380473853
 21
-105.3576970017
 31
0.0
  0
LINE
  5
1FE
330
1F
100
AcDbEntity
  8
0
  6
Continuous
 62
     7
370
    15
100
AcDbLine
 10
-2.7765250164
 20
-99.2491232452
 30
0.0
 11
-1.927996879
 21
-98.7592783781
 31
0.0
  0
LINE
  5
1FF
330
1F
100
AcDbEntity
  8
0
  6
Continuous
 62
     7
370
    15
100
AcDbLine
 10
-3.7288573705
 20
-95.6397585028
 30
0.0
 11
-4.577385508
 21
-96.1296033699
 31
0.0
  0
LINE
  5
200
330
1F
100
AcDbEntity
  8
0
  6
Continuous
 62
     7
370
    15
100
AcDbLine
 10
-4.5354526386
 20
-74.4029111135
 30
0.0
 11
-5.383980776
 21
-74.8927559806
 31
0.0
  0
LINE
  5
201
330
1F
100
AcDbEntity
  8
0
  6
Continuous
 62
     7
370
    15
100
AcDbLine
 10
-2.7765250164
 20
-105.2932252408
 30
0.0
 11
-1.927996879
 21
-104.8033803737
 31
0.0
  0
LINE
  5
202
330
1F
100
AcDbEntity
  8
0
  6
Continuous
 62
     7
370
    15
100
AcDbLine
 10
-3.7288573705
 20
-101.6838604985
 30
0.0
 11
-4.577385508
 21
-102.1737053656
 31
0.0
  0
LINE
  5
203
330
1F
100
AcDbEntity
  8
0
  6
Continuous
 62
     7
370
    15
100
AcDbLine
 10
-8.2919579096
 20
-96.065131609
 30
0.0
 11
-7.4434297722
 21
-95.575286742
 31
0.0
  0
LINE
  5
204
330
1F
100
AcDbEntity
  8
0
  6
Continuous
 62
     7
370
    15
100
AcDbLine
 10
-9.2442902638
 20
-92.4557668667
 30
0.0
 11
-10.0928184012
 21
-92.9456117338
 31
0.0
  0
LINE
  5
205
330
1F
100
AcDbEntity
  8
0
  6
Continuous
 62
     7
370
    15
100
AcDbLine
 10
4.9961615708
 20
-121.123030597
 30
0.0
 11
11.5722546358
 21
-117.326732877
 31
0.0
  0
LINE
  5
206
330
1F
100
AcDbEntity
  8
0
  6
Continuous
 62
     7
370
    15
100
AcDbLine
 10
-8.2919579096
 20
-102.1092336047
 30
0.0
 11
-7.4434297722
 21
-101.6193887376
 31
0.0
  0
LINE
  5
207
330
1F
100
AcDbEntity
  8
0
  6
Continuous
 62
     7
370
    15
100
AcDbLine
 10
-9.2442902638
 20
-98.4998688624
 30
0.0
 11
-10.0928184012
 21
-98.9897137295
 31
0.0
  0
LINE
  5
208
330
1F
100
AcDbEntity
  8
0
  6
Continuous
 62
     7
370
    15
100
AcDbLine
 10
12.1722058754
 20
-118.3659915119
 30
0.0
 11
13.0207340128
 21
-117.8761466448
 31
0.0
  0
LINE
  5
209
330
1F
100
AcDbEntity
  8
0
  6
Continuous
 62
     7
370
    15
100
AcDbLine
 10
-4.2071067812
 20
-110.43933605
 30
0.0
 11
-4.2071067812
 21
-110.9254971534
 31
0.0
  0
LINE
  5
20A
330
1F
100
AcDbEntity
  8
0
  6
Continuous
 62
     7
370
    15
100
AcDbLine
 10
2.7928932188
 20
-110.6121510365
 30
0.0
 11
2.7928932188
 21
-110.43933605
 31
0.0
  0
LINE
  5
20B
330
1F
100
AcDbEntity
  8
0
  6
Continuous
 62
     7
370
    15
100
AcDbLine
 10
-2.2124293765
 20
-113.5998196919
 30
0.0
 11
-1.9950837705
 21
-113.6494766869
 31
0.0
  0
LINE
  5
20C
330
1F
100
AcDbEntity
  8
0
  6
Continuous
 62
     7
370
    15
100
AcDbLine
 10
-4.2071067812
 20
-112.6263851609
 30
0.0
 11
-4.2071067812
 21
-113.4483761554
 31
0.0
  0
LINE
  5
20D
330
1F
100
AcDbEntity
  8
0
  6
Continuous
 62
     7
370
    15
100
AcDbLine
 10
-4.2071067812
 20
-115.0920038724
 30
0.0
 11
-4.2071067812
 21
-175.7626010009
 31
0.0
  0
LINE
  5
20E
330
1F
100
AcDbEntity
  8
0
  6
Continuous
 62
     7
370
    15
100
AcDbLine
 10
2.7928932188
 20
-175.7626010009
 30
0.0
 11
2.7928932188
 21
-120.0424007296
 31
0.0
  0
LINE
  5
20F
330
1F
100
AcDbEntity
  8
0
  6
Continuous
 62
     7
370
    15
100
AcDbLine
 10
0.9274714438
 20
-91.4130006575
 30
0.0
 11
4.3510400876
 21
-95.2128954557
 31
0.0
  0
LINE
  5
210
330
1F
100
AcDbEntity
  8
0
  6
Continuous
 62
     7
370
    15
100
AcDbLine
 10
4.4547727215
 20
-92.3401033914
 30
0.0
 11
2.4133472463
 21
-90.0742799623
 31
0.0
  0
LINE
  5
211
330
1F
100
AcDbEntity
  8
0
  6
Continuous
 62
     7
370
    15
100
AcDbLine
 10
-5.1385867746
 20
-89.6611578436
 30
0.0
 11
-2.1869799149
 21
-89.7929566432
 31
0.0
  0
LINE
  5
212
330
1F
100
AcDbEntity
  8
0
  6
Continuous
 62
     7
370
    15
100
AcDbLine
 10
-3.15
 20
-87.7479617608
 30
0.0
 11
-5.049369203
 21
-87.6631487784
 31
0.0
  0
LINE
  5
213
330
1F
100
AcDbEntity
  8
0
  6
Continuous
 62
     7
370
    15
100
AcDbLine
 10
-4.5295750289
 20
-90.344398082
 30
0.0
 11
-4.5295750289
 21
-89.6883521892
 31
0.0
  0
LINE
  5
214
330
1F
100
AcDbEntity
  8
0
  6
Continuous
 62
     7
370
    15
100
AcDbLine
 10
-6.5295750289
 20
-89.1966437801
 30
0.0
 11
-6.5295750289
 21
-90.9425101035
 31
0.0
  0
LINE
  5
215
330
1F
100
AcDbEntity
  8
0
  6
Continuous
 62
     7
370
    15
100
AcDbLine
 10
3.15
 20
-83.0520131817
 30
0.0
 11
3.15
 21
-77.8691728479
 31
0.0
  0
LINE
  5
216
330
1F
100
AcDbEntity
  8
0
  6
Continuous
 62
     7
370
    15
100
AcDbLine
 10
-3.15
 20
-77.8691728479
 30
0.0
 11
-3.15
 21
-83.5354943562
 31
0.0
  0
LINE
  5
217
330
1F
100
AcDbEntity
  8
0
  6
Continuous
 62
     7
370
    15
100
AcDbLine
 10
-3.15
 20
-85.2427239283
 30
0.0
 11
-3.15
 21
-88.4842034025
 31
0.0
  0
LINE
  5
218
330
1F
100
AcDbEntity
  8
0
  6
Continuous
 62
     7
370
    15
100
AcDbLine
 10
3.15
 20
56.4225412415
 30
0.0
 11
3.15
 21
61.3510355786
 31
0.0
  0
LINE
  5
219
330
1F
100
AcDbEntity
  8
0
  6
Continuous
 62
     7
370
    15
100
AcDbLine
 10
-3.15
 20
61.3510355786
 30
0.0
 11
-3.15
 21
57.2683315191
 31
0.0
  0
LINE
  5
21A
330
1F
100
AcDbEntity
  8
0
  6
Continuous
 62
     7
370
    15
100
AcDbLine
 10
-2.5
 20
349.3482971308
 30
0.0
 11
-2.5
 21
61.0609520934
 31
0.0
  0
LINE
  5
21B
330
1F
100
AcDbEntity
  8
0
  6
Continuous
 62
     7
370
    15
100
AcDbLine
 10
2.5
 20
61.0609520934
 30
0.0
 11
2.5
 21
349.3482971308
 31
0.0
  0
LINE
  5
21C
330
1F
100
AcDbEntity
  8
0
  6
Continuous
 62
     7
370
    15
100
AcDbLine
 10
-2.5
 20
-48.0367096929
 30
0.0
 11
-2.5
 21
-78.1592563332
 31
0.0
  0
LINE
  5
21D
330
1F
100
AcDbEntity
  8
0
  6
Continuous
 62
     7
370
    15
100
AcDbLine
 10
2.5
 20
-78.1592563332
 30
0.0
 11
2.5
 21
-62.6337132701
 31
0.0
  0
LINE
  5
21E
330
1F
100
AcDbEntity
  8
0
  6
Continuous
 62
     7
370
    15
100
AcDbLine
 10
2.5
 20
-56.1286309966
 30
0.0
 11
2.5
 21
-48.0367096929
 31
0.0
  0
LINE
  5
21F
330
1F
100
AcDbEntity
  8
0
  6
Continuous
 62
     7
370
    15
100
AcDbLine
 10
0.3632351558
 20
-90.2890302562
 30
0.0
 11
0.526518906
 21
-90.6049520789
 31
0.0
  0
LINE
  5
220
330
1F
100
AcDbEntity
  8
0
  6
Continuous
 62
     7
370
    15
100
AcDbLine
 10
4.5969409064
 20
59.5129562715
 30
0.0
 11
4.242443216
 21
59.717669954
 31
0.0
  0
LINE
  5
221
330
1F
100
AcDbEntity
  8
0
  6
Continuous
 62
     7
370
    15
100
AcDbLine
 10
-4.242443216
 20
59.717669954
 30
0.0
 11
-4.5969409064
 21
59.5129562715
 31
0.0
  0
LINE
  5
222
330
1F
100
AcDbEntity
  8
0
  6
Continuous
 62
     7
370
    15
100
AcDbLine
 10
6.5
 20
43.795408123
 30
0.0
 11
6.5
 21
56.8600611132
 31
0.0
  0
LINE
  5
223
330
1F
100
AcDbEntity
  8
0
  6
Continuous
 62
     7
370
    15
100
AcDbLine
 10
-6.5
 20
56.8600611132
 30
0.0
 11
-6.5
 21
43.795408123
 31
0.0
  0
LINE
  5
224
330
1F
100
AcDbEntity
  8
0
  6
Continuous
 62
     7
370
    15
100
AcDbLine
 10
-4.5969409064
 20
41.1425129648
 30
0.0
 11
-4.242443216
 21
40.9377992823
 31
0.0
  0
LINE
  5
225
330
1F
100
AcDbEntity
  8
0
  6
Continuous
 62
     7
370
    15
100
AcDbLine
 10
4.2433300675
 20
40.9383114172
 30
0.0
 11
4.5969409064
 21
41.1425129648
 31
0.0
  0
LINE
  5
226
330
1F
100
AcDbEntity
  8
0
  6
Continuous
 62
     7
370
    15
100
AcDbLine
 10
5.5154328933
 20
-37.6551742099
 30
0.0
 11
5.5154328933
 21
-62.7414040023
 31
0.0
  0
LINE
  5
227
330
1F
100
AcDbEntity
  8
0
  6
Continuous
 62
     7
370
    15
100
AcDbLine
 10
4.1012193309
 20
-63.5580775142
 30
0.0
 11
-1.5556349186
 21
-60.2924450669
 31
0.0
  0
LINE
  5
228
330
1F
100
AcDbEntity
  8
0
  6
Continuous
 62
     7
370
    15
100
AcDbLine
 10
-1.5556349186
 20
-59.475904255
 30
0.0
 11
-1.5556349186
 21
-60.2924450669
 31
0.0
  0
LINE
  5
229
330
1F
100
AcDbEntity
  8
0
  6
Continuous
 62
     7
370
    15
100
AcDbLine
 10
4.1012193309
 20
-62.7415367023
 30
0.0
 11
-1.5556349186
 21
-59.475904255
 31
0.0
  0
LINE
  5
22A
330
1F
100
AcDbEntity
  8
0
  6
Continuous
 62
     7
370
    15
100
AcDbLine
 10
4.8083261121
 20
-37.6933903893
 30
0.0
 11
4.8083261121
 21
-62.3331999464
 31
0.0
  0
LINE
  5
22B
330
1F
100
AcDbEntity
  8
0
  6
Continuous
 62
     7
370
    15
100
AcDbLine
 10
5.5154328933
 20
-62.7414040023
 30
0.0
 11
13.4350288425
 21
-58.1695185761
 31
0.0
  0
LINE
  5
22C
330
1F
100
AcDbEntity
  8
0
  6
Continuous
 62
     7
370
    15
100
AcDbLine
 10
13.4350288425
 20
-58.1695185761
 30
0.0
 11
13.4350288425
 21
-36.8647806511
 31
0.0
  0
LINE
  5
22D
330
1F
100
AcDbEntity
  8
0
  6
Continuous
 62
     7
370
    15
100
AcDbLine
 10
4.8083261121
 20
-54.98565964
 30
0.0
 11
2.5
 21
-53.65309134
 31
0.0
  0
LINE
  5
22E
330
1F
100
AcDbEntity
  8
0
  6
Continuous
 62
     7
370
    15
100
AcDbLine
 10
-2.5
 20
-50.7666527796
 30
0.0
 11
-4.3840620434
 21
-49.6790069132
 31
0.0
  0
LINE
  5
22F
330
1F
100
AcDbEntity
  8
0
  6
Continuous
 62
     7
370
    15
100
AcDbLine
 10
-5.0911688245
 20
-48.4542620454
 30
0.0
 11
-5.0911688245
 21
-37.674063082
 31
0.0
  0
LINE
  5
230
330
1F
100
AcDbEntity
  8
0
  6
Continuous
 62
     7
370
    15
100
AcDbLine
 10
-12.1622366364
 20
-52.5363026045
 30
0.0
 11
-12.1622366364
 21
-37.0449873112
 31
0.0
  0
LINE
  5
231
330
1F
100
AcDbEntity
  8
0
  6
Continuous
 62
     7
370
    15
100
AcDbLine
 10
-5.7982756057
 20
-57.0266799196
 30
0.0
 11
-11.4551298552
 21
-53.7610474723
 31
0.0
  0
LINE
  5
232
330
1F
100
AcDbEntity
  8
0
  6
Continuous
 62
     7
370
    15
100
AcDbLine
 10
-5.7982756057
 20
-57.8432207315
 30
0.0
 11
-5.7982756057
 21
-57.0266799196
 31
0.0
  0
LINE
  5
233
330
1F
100
AcDbEntity
  8
0
  6
Continuous
 62
     7
370
    15
100
AcDbLine
 10
-5.7982756057
 20
-57.8432207315
 30
0.0
 11
-11.4551298552
 21
-54.5775882842
 31
0.0
  0
LINE
  5
234
330
1F
100
AcDbEntity
  8
0
  6
Continuous
 62
     7
370
    15
100
AcDbLine
 10
-12.8693434176
 20
-52.1280985486
 30
0.0
 11
-12.8693434176
 21
-36.9490571307
 31
0.0
  0
LINE
  5
235
330
1F
100
AcDbEntity
  8
0
  6
Continuous
 62
     7
370
    15
100
AcDbLine
 10
-12.1622366364
 20
-52.5363026045
 30
0.0
 11
-5.0911688245
 21
-48.4542620454
 31
0.0
  0
LINE
  5
236
330
1F
100
AcDbEntity
  8
0
  6
Continuous
 62
     7
370
    15
100
AcDbLine
 10
3.15
 20
-79.3410935213
 30
0.0
 11
6.2225396744
 21
-81.1148329203
 31
0.0
  0
LINE
  5
237
330
1F
100
AcDbEntity
  8
0
  6
Continuous
 62
     7
370
    15
100
AcDbLine
 10
6.2225396744
 20
-81.1148329203
 30
0.0
 11
6.2225396744
 21
-78.2569400787
 31
0.0
  0
LINE
  5
238
330
1F
100
AcDbEntity
  8
0
  6
Continuous
 62
     7
370
    15
100
AcDbLine
 10
11.1722871428
 20
-81.1143684701
 30
0.0
 11
11.1722871428
 21
-83.9722613117
 31
0.0
  0
LINE
  5
239
330
1F
100
AcDbEntity
  8
0
  6
Continuous
 62
     7
370
    15
100
AcDbLine
 10
12.5865007051
 20
-86.4217510473
 30
0.0
 11
12.5865007051
 21
-95.811970384
 31
0.0
  0
LINE
  5
23A
330
1F
100
AcDbEntity
  8
0
  6
Continuous
 62
     7
370
    15
100
AcDbLine
 10
12.5865007051
 20
-95.811970384
 30
0.0
 11
20.1030457891
 21
-100.1511794983
 31
0.0
  0
LINE
  5
23B
330
1F
100
AcDbEntity
  8
0
  6
Continuous
 62
     7
370
    15
100
AcDbLine
 10
20.1030457891
 20
-112.3992916766
 30
0.0
 11
12.5865007051
 21
-108.0600825622
 31
0.0
  0
LINE
  5
23C
330
1F
100
AcDbEntity
  8
0
  6
Continuous
 62
     7
370
    15
100
AcDbLine
 10
12.5865007051
 20
-108.0600825622
 30
0.0
 11
12.5865007051
 21
-117.4503018989
 31
0.0
  0
LINE
  5
23D
330
1F
100
AcDbEntity
  8
0
  6
Continuous
 62
     7
370
    15
100
AcDbLine
 10
11.1722871428
 20
-118.2669754109
 30
0.0
 11
10.5579087314
 21
-117.9123023034
 31
0.0
  0
LINE
  5
23E
330
1F
100
AcDbEntity
  8
0
  6
Continuous
 62
     7
370
    15
100
AcDbLine
 10
-5.7982756057
 20
-76.5175264083
 30
0.0
 11
-5.7982756057
 21
-75.8084455936
 31
0.0
  0
LINE
  5
23F
330
1F
100
AcDbEntity
  8
0
  6
Continuous
 62
     7
370
    15
100
AcDbLine
 10
-4.3840620434
 20
-74.9917720816
 30
0.0
 11
-3.1033796495
 21
-75.7310942907
 31
0.0
  0
LINE
  5
240
330
1F
100
AcDbEntity
  8
0
  6
Continuous
 62
     7
370
    15
100
AcDbLine
 10
-3.1033796495
 20
-75.7310942907
 30
0.0
 11
-3.1033796495
 21
-56.2874904106
 31
0.0
  0
LINE
  5
241
330
1F
100
AcDbEntity
  8
0
  6
Continuous
 62
     7
370
    15
100
AcDbLine
 10
-4.3840620434
 20
-75.9716210559
 30
0.0
 11
-2.7073140036
 21
-76.9395870955
 31
0.0
  0
LINE
  5
242
330
1F
100
AcDbEntity
  8
0
  6
Continuous
 62
     7
370
    15
100
AcDbLine
 10
11.7379725677
 20
-85.9319061802
 30
0.0
 11
11.7379725677
 21
-116.9604570318
 31
0.0
  0
LINE
  5
243
330
1F
100
AcDbEntity
  8
0
  6
Continuous
 62
     7
370
    15
100
AcDbLine
 10
5.5154328933
 20
-81.6864778386
 30
0.0
 11
11.1722871428
 21
-84.9521102859
 31
0.0
  0
LINE
  5
244
330
1F
100
AcDbEntity
  8
0
  6
Continuous
 62
     7
370
    15
100
AcDbLine
 10
-4.2426406871
 20
-86.0967138533
 30
0.0
 11
-3.15
 21
-86.7274818957
 31
0.0
  0
LINE
  5
245
330
1F
100
AcDbEntity
  8
0
  6
Continuous
 62
     7
370
    15
100
AcDbLine
 10
2.1732747963
 20
-89.8005430236
 30
0.0
 11
4.4547727215
 21
-91.117623741
 31
0.0
  0
LINE
  5
246
330
1F
100
AcDbEntity
  8
0
  6
Continuous
 62
     7
370
    15
100
AcDbLine
 10
-4.2426406871
 20
-85.8634014473
 30
0.0
 11
-4.2426406871
 21
-86.0967138533
 31
0.0
  0
LINE
  5
247
330
1F
100
AcDbEntity
  8
0
  6
Continuous
 62
     7
370
    15
100
AcDbLine
 10
-5.7982756057
 20
-57.0266799196
 30
0.0
 11
-2.5
 21
-55.1226259413
 31
0.0
  0
LINE
  5
248
330
1F
100
AcDbEntity
  8
0
  6
Continuous
 62
     7
370
    15
100
AcDbLine
 10
-4.3840620434
 20
-49.6790069132
 30
0.0
 11
-11.4551298552
 21
-53.7610474723
 31
0.0
  0
LINE
  5
249
330
1F
100
AcDbEntity
  8
0
  6
Continuous
 62
     7
370
    15
100
AcDbLine
 10
1.9798989873
 20
-57.4348839755
 30
0.0
 11
-1.5556349186
 21
-59.475904255
 31
0.0
  0
LINE
  5
24A
330
1F
100
AcDbEntity
  8
0
  6
Continuous
 62
     7
370
    15
100
AcDbLine
 10
-2.5
 20
-55.9391667532
 30
0.0
 11
-5.7982756057
 21
-57.8432207315
 31
0.0
  0
LINE
  5
24B
330
1F
100
AcDbEntity
  8
0
  6
Continuous
 62
     7
370
    15
100
AcDbLine
 10
-2.141470499
 20
-87.0632068271
 30
0.0
 11
-1.838302604
 21
-87.4364357934
 31
0.0
  0
LINE
  5
24C
330
1F
100
AcDbEntity
  8
0
  6
Continuous
 62
     7
370
    15
100
AcDbLine
 10
-2.141470499
 20
-87.0632068271
 30
0.0
 11
-1.0606601718
 21
-85.4827755586
 31
0.0
  0
LINE
  5
24D
330
1F
100
AcDbEntity
  8
0
  6
Continuous
 62
     7
370
    15
100
AcDbLine
 10
-1.0606601718
 20
-85.4827755586
 30
0.0
 11
4.5961940777
 21
-88.7484080059
 31
0.0
  0
LINE
  5
24E
330
1F
100
AcDbEntity
  8
0
  6
Continuous
 62
     7
370
    15
100
AcDbLine
 10
5.1618795027
 20
-89.7282039001
 30
0.0
 11
5.1618795027
 21
-120.7567547518
 31
0.0
  0
LINE
  5
24F
330
1F
100
AcDbEntity
  8
0
  6
Continuous
 62
     7
370
    15
100
AcDbLine
 10
4.5961940777
 20
-121.0834241566
 30
0.0
 11
-0.3535533906
 21
-118.2259957652
 31
0.0
  0
LINE
  5
250
330
1F
100
AcDbEntity
  8
0
  6
Continuous
 62
     7
370
    15
100
AcDbLine
 10
-0.3535533906
 20
-117.4094549533
 30
0.0
 11
-0.3535533906
 21
-118.2259957652
 31
0.0
  0
LINE
  5
251
330
1F
100
AcDbEntity
  8
0
  6
Continuous
 62
     7
370
    15
100
AcDbLine
 10
4.4547727215
 20
-120.1852425335
 30
0.0
 11
-0.3535533906
 21
-117.4094549533
 31
0.0
  0
LINE
  5
252
330
1F
100
AcDbEntity
  8
0
  6
Continuous
 62
     7
370
    15
100
AcDbLine
 10
4.4547727215
 20
-120.1852425335
 30
0.0
 11
4.4547727215
 21
-118.9604313157
 31
0.0
  0
LINE
  5
253
330
1F
100
AcDbEntity
  8
0
  6
Continuous
 62
     7
370
    15
100
AcDbLine
 10
-0.3535533906
 20
-116.1846437355
 30
0.0
 11
4.4547727215
 21
-118.9604313157
 31
0.0
  0
LINE
  5
254
330
1F
100
AcDbEntity
  8
0
  6
Continuous
 62
     7
370
    15
100
AcDbLine
 10
-0.3535533906
 20
-115.2047947612
 30
0.0
 11
-0.3535533906
 21
-116.1846437355
 31
0.0
  0
LINE
  5
255
330
1F
100
AcDbEntity
  8
0
  6
Continuous
 62
     7
370
    15
100
AcDbLine
 10
4.4547727215
 20
-117.9805823414
 30
0.0
 11
-0.3535533906
 21
-115.2047947612
 31
0.0
  0
LINE
  5
256
330
1F
100
AcDbEntity
  8
0
  6
Continuous
 62
     7
370
    15
100
AcDbLine
 10
4.4547727215
 20
-116.1841925553
 30
0.0
 11
4.4547727215
 21
-117.9805823414
 31
0.0
  0
LINE
  5
257
330
1F
100
AcDbEntity
  8
0
  6
Continuous
 62
     7
370
    15
100
AcDbLine
 10
-0.3535533906
 20
-113.4084049751
 30
0.0
 11
4.4547727215
 21
-116.1841925553
 31
0.0
  0
LINE
  5
258
330
1F
100
AcDbEntity
  8
0
  6
Continuous
 62
     7
370
    15
100
AcDbLine
 10
-0.3535533906
 20
-112.4285560008
 30
0.0
 11
-0.3535533906
 21
-113.4084049751
 31
0.0
  0
LINE
  5
259
330
1F
100
AcDbEntity
  8
0
  6
Continuous
 62
     7
370
    15
100
AcDbLine
 10
4.4547727215
 20
-115.204343581
 30
0.0
 11
-0.3535533906
 21
-112.4285560008
 31
0.0
  0
LINE
  5
25A
330
1F
100
AcDbEntity
  8
0
  6
Continuous
 62
     7
370
    15
100
AcDbLine
 10
4.4547727215
 20
-115.204343581
 30
0.0
 11
4.4547727215
 21
-89.4833080066
 31
0.0
  0
LINE
  5
25B
330
1F
100
AcDbEntity
  8
0
  6
Continuous
 62
     7
370
    15
100
AcDbLine
 10
4.4547727215
 20
-89.4833080066
 30
0.0
 11
-1.0606601718
 21
-86.2993163705
 31
0.0
  0
LINE
  5
25C
330
1F
100
AcDbEntity
  8
0
  6
Continuous
 62
     7
370
    15
100
AcDbLine
 10
-1.0606601718
 20
-86.2993163705
 30
0.0
 11
-1.838302604
 21
-87.4364357934
 31
0.0
  0
LINE
  5
25D
330
1F
100
AcDbEntity
  8
0
  6
Continuous
 62
     7
370
    15
100
AcDbLine
 10
4.5961940777
 20
-88.7484080059
 30
0.0
 11
11.1722871428
 21
-84.9521102859
 31
0.0
  0
LINE
  5
25E
330
1F
100
AcDbEntity
  8
0
  6
Continuous
 62
     7
370
    15
100
AcDbLine
 10
11.7379725677
 20
-85.9319061802
 30
0.0
 11
5.1618795027
 21
-89.7282039001
 31
0.0
  0
LINE
  5
25F
330
1F
100
AcDbEntity
  8
0
  6
Continuous
 62
     7
370
    15
100
AcDbLine
 10
5.5154328933
 20
-81.6864778386
 30
0.0
 11
2.8004742289
 21
-83.2537901144
 31
0.0
  0
LINE
  5
260
330
1F
100
AcDbEntity
  8
0
  6
Continuous
 62
     7
370
    15
100
AcDbLine
 10
1.4421664582
 20
-84.0379244997
 30
0.0
 11
-1.0606601718
 21
-85.4827755586
 31
0.0
  0
LINE
  5
261
330
1F
100
AcDbEntity
  8
0
  6
Continuous
 62
     7
370
    15
100
AcDbLine
 10
5.1618795027
 20
-120.7567547518
 30
0.0
 11
11.7379725677
 21
-116.9604570318
 31
0.0
  0
LINE
  5
262
330
1F
100
AcDbEntity
  8
0
  6
Continuous
 62
     7
370
    15
100
AcDbLine
 10
11.1722871428
 20
-81.1143684701
 30
0.0
 11
12.0208152802
 21
-80.624523603
 31
0.0
  0
LINE
  5
263
330
1F
100
AcDbEntity
  8
0
  6
Continuous
 62
     7
370
    15
100
AcDbLine
 10
20.1030457891
 20
-100.1511794983
 30
0.0
 11
20.9515739266
 21
-99.6613346312
 31
0.0
  0
LINE
  5
264
330
1F
100
AcDbEntity
  8
0
  6
Continuous
 62
     7
370
    15
100
AcDbLine
 10
11.1722871428
 20
-83.9722613117
 30
0.0
 11
12.0208152802
 21
-83.4824164446
 31
0.0
  0
LINE
  5
265
330
1F
100
AcDbEntity
  8
0
  6
Continuous
 62
     7
370
    15
100
AcDbLine
 10
12.0208152802
 20
-83.4824164446
 30
0.0
 11
12.0208152802
 21
-80.624523603
 31
0.0
  0
LINE
  5
266
330
1F
100
AcDbEntity
  8
0
  6
Continuous
 62
     7
370
    15
100
AcDbLine
 10
12.5865007051
 20
-86.4217510473
 30
0.0
 11
13.4350288425
 21
-85.9319061802
 31
0.0
  0
LINE
  5
267
330
1F
100
AcDbEntity
  8
0
  6
Continuous
 62
     7
370
    15
100
AcDbLine
 10
12.5865007051
 20
-95.811970384
 30
0.0
 11
13.4350288425
 21
-95.3221255169
 31
0.0
  0
LINE
  5
268
330
1F
100
AcDbEntity
  8
0
  6
Continuous
 62
     7
370
    15
100
AcDbLine
 10
13.4350288425
 20
-95.3221255169
 30
0.0
 11
13.4350288425
 21
-85.9319061802
 31
0.0
  0
LINE
  5
269
330
1F
100
AcDbEntity
  8
0
  6
Continuous
 62
     7
370
    15
100
AcDbLine
 10
20.9515739266
 20
-99.6613346312
 30
0.0
 11
13.4350288425
 21
-95.3221255169
 31
0.0
  0
LINE
  5
26A
330
1F
100
AcDbEntity
  8
0
  6
Continuous
 62
     7
370
    15
100
AcDbLine
 10
-1.838302604
 20
-87.4364357934
 30
0.0
 11
-0.4646003666
 21
-86.6434143717
 31
0.0
  0
LINE
  5
26B
330
1F
100
AcDbEntity
  8
0
  6
Continuous
 62
     7
370
    15
100
AcDbLine
 10
-5.3033008589
 20
-83.0335512232
 30
0.0
 11
-4.2224905317
 21
-85.8618595336
 31
0.0
  0
LINE
  5
26C
330
1F
100
AcDbEntity
  8
0
  6
Continuous
 62
     7
370
    15
100
AcDbLine
 10
-3.15
 20
-81.7904770969
 30
0.0
 11
-5.3033008589
 21
-83.0335512232
 31
0.0
  0
LINE
  5
26D
330
1F
100
AcDbEntity
  8
0
  6
Continuous
 62
     7
370
    15
100
AcDbLine
 10
-4.2224905317
 20
-85.8618595336
 30
0.0
 11
-3.0099233569
 21
-85.1618594035
 31
0.0
  0
LINE
  5
26E
330
1F
100
AcDbEntity
  8
0
  6
Continuous
 62
     7
370
    15
100
AcDbLine
 10
-4.5256584267
 20
-85.8850582989
 30
0.0
 11
-4.2224905317
 21
-85.8618595336
 31
0.0
  0
LINE
  5
26F
330
1F
100
AcDbEntity
  8
0
  6
Continuous
 62
     7
370
    15
100
AcDbLine
 10
-4.5256584267
 20
-85.8850582989
 30
0.0
 11
-5.3033008589
 21
-83.850092035
 31
0.0
  0
LINE
  5
270
330
1F
100
AcDbEntity
  8
0
  6
Continuous
 62
     7
370
    15
100
AcDbLine
 10
-5.3033008589
 20
-83.850092035
 30
0.0
 11
-10.8187337522
 21
-80.6661003989
 31
0.0
  0
LINE
  5
271
330
1F
100
AcDbEntity
  8
0
  6
Continuous
 62
     7
370
    15
100
AcDbLine
 10
-10.8187337522
 20
-80.6661003989
 30
0.0
 11
-10.8187337522
 21
-106.3871359733
 31
0.0
  0
LINE
  5
272
330
1F
100
AcDbEntity
  8
0
  6
Continuous
 62
     7
370
    15
100
AcDbLine
 10
-10.8187337522
 20
-106.3871359733
 30
0.0
 11
-6.0104076401
 21
-109.1629235535
 31
0.0
  0
LINE
  5
273
330
1F
100
AcDbEntity
  8
0
  6
Continuous
 62
     7
370
    15
100
AcDbLine
 10
-6.0104076401
 20
-110.1427725278
 30
0.0
 11
-6.0104076401
 21
-109.1629235535
 31
0.0
  0
LINE
  5
274
330
1F
100
AcDbEntity
  8
0
  6
Continuous
 62
     7
370
    15
100
AcDbLine
 10
-10.8187337522
 20
-107.3669849476
 30
0.0
 11
-6.0104076401
 21
-110.1427725278
 31
0.0
  0
LINE
  5
275
330
1F
100
AcDbEntity
  8
0
  6
Continuous
 62
     7
370
    15
100
AcDbLine
 10
-10.8187337522
 20
-109.1633747337
 30
0.0
 11
-10.8187337522
 21
-107.3669849476
 31
0.0
  0
LINE
  5
276
330
1F
100
AcDbEntity
  8
0
  6
Continuous
 62
     7
370
    15
100
AcDbLine
 10
-6.0104076401
 20
-111.9391623139
 30
0.0
 11
-10.8187337522
 21
-109.1633747337
 31
0.0
  0
LINE
  5
277
330
1F
100
AcDbEntity
  8
0
  6
Continuous
 62
     7
370
    15
100
AcDbLine
 10
-6.0104076401
 20
-112.9190112882
 30
0.0
 11
-6.0104076401
 21
-111.9391623139
 31
0.0
  0
LINE
  5
278
330
1F
100
AcDbEntity
  8
0
  6
Continuous
 62
     7
370
    15
100
AcDbLine
 10
-10.8187337522
 20
-110.143223708
 30
0.0
 11
-6.0104076401
 21
-112.9190112882
 31
0.0
  0
LINE
  5
279
330
1F
100
AcDbEntity
  8
0
  6
Continuous
 62
     7
370
    15
100
AcDbLine
 10
-10.8187337522
 20
-110.143223708
 30
0.0
 11
-10.8187337522
 21
-111.3680349258
 31
0.0
  0
LINE
  5
27A
330
1F
100
AcDbEntity
  8
0
  6
Continuous
 62
     7
370
    15
100
AcDbLine
 10
-6.0104076401
 20
-114.143822506
 30
0.0
 11
-10.8187337522
 21
-111.3680349258
 31
0.0
  0
LINE
  5
27B
330
1F
100
AcDbEntity
  8
0
  6
Continuous
 62
     7
370
    15
100
AcDbLine
 10
-6.0104076401
 20
-114.9603633179
 30
0.0
 11
-6.0104076401
 21
-114.143822506
 31
0.0
  0
LINE
  5
27C
330
1F
100
AcDbEntity
  8
0
  6
Continuous
 62
     7
370
    15
100
AcDbLine
 10
-6.0104076401
 20
-114.9603633179
 30
0.0
 11
-10.9601551084
 21
-112.1029349265
 31
0.0
  0
LINE
  5
27D
330
1F
100
AcDbEntity
  8
0
  6
Continuous
 62
     7
370
    15
100
AcDbLine
 10
-11.5258405333
 20
-111.1231390323
 30
0.0
 11
-11.5258405333
 21
-80.0945881806
 31
0.0
  0
LINE
  5
27E
330
1F
100
AcDbEntity
  8
0
  6
Continuous
 62
     7
370
    15
100
AcDbLine
 10
-10.9601551084
 20
-79.7679187759
 30
0.0
 11
-5.3033008589
 21
-83.0335512232
 31
0.0
  0
LINE
  5
27F
330
1F
100
AcDbEntity
  8
0
  6
Continuous
 62
     7
370
    15
100
AcDbLine
 10
-10.6066017178
 20
-102.0186625348
 30
0.0
 11
-10.6066017178
 21
-89.7705503565
 31
0.0
  0
LINE
  5
280
330
1F
100
AcDbEntity
  8
0
  6
Continuous
 62
     7
370
    15
100
AcDbLine
 10
-10.6066017178
 20
-89.7705503565
 30
0.0
 11
4.4547727215
 21
-98.4652967474
 31
0.0
  0
LINE
  5
281
330
1F
100
AcDbEntity
  8
0
  6
Continuous
 62
     7
370
    15
100
AcDbLine
 10
-10.6066017178
 20
-102.0186625348
 30
0.0
 11
4.4547727215
 21
-110.7134089257
 31
0.0
  0
LINE
  5
282
330
1F
100
AcDbEntity
  8
0
  6
Continuous
 62
     7
370
    15
100
AcDbLine
 10
-1.5556349186
 20
-106.5912917947
 30
0.0
 11
-4.3840620434
 21
-104.9584755711
 31
0.0
  0
LINE
  5
283
330
1F
100
AcDbEntity
  8
0
  6
Continuous
 62
     7
370
    15
100
AcDbLine
 10
-1.5556349186
 20
-95.6479449278
 30
0.0
 11
-1.5556349186
 21
-106.5912917947
 31
0.0
  0
LINE
  5
284
330
1F
100
AcDbEntity
  8
0
  6
Continuous
 62
     7
370
    15
100
AcDbLine
 10
-4.3840620434
 20
-94.0151287042
 30
0.0
 11
-1.5556349186
 21
-95.6479449278
 31
0.0
  0
LINE
  5
285
330
1F
100
AcDbEntity
  8
0
  6
Continuous
 62
     7
370
    15
100
AcDbLine
 10
-4.3840620434
 20
-104.9584755711
 30
0.0
 11
-4.3840620434
 21
-104.5483362733
 31
0.0
  0
LINE
  5
286
330
1F
100
AcDbEntity
  8
0
  6
Continuous
 62
     7
370
    15
100
AcDbLine
 10
-4.3840620434
 20
-102.062102105
 30
0.0
 11
-4.3840620434
 21
-98.5042342776
 31
0.0
  0
LINE
  5
287
330
1F
100
AcDbEntity
  8
0
  6
Continuous
 62
     7
370
    15
100
AcDbLine
 10
-4.3840620434
 20
-96.0180001094
 30
0.0
 11
-4.3840620434
 21
-94.0151287042
 31
0.0
  0
LINE
  5
288
330
1F
100
AcDbEntity
  8
0
  6
Continuous
 62
     7
370
    15
100
AcDbLine
 10
3.9597979746
 20
-98.8319365639
 30
0.0
 11
3.9597979746
 21
-109.7752834309
 31
0.0
  0
LINE
  5
289
330
1F
100
AcDbEntity
  8
0
  6
Continuous
 62
     7
370
    15
100
AcDbLine
 10
1.1313708499
 20
-97.1991203403
 30
0.0
 11
3.9597979746
 21
-98.8319365639
 31
0.0
  0
LINE
  5
28A
330
1F
100
AcDbEntity
  8
0
  6
Continuous
 62
     7
370
    15
100
AcDbLine
 10
1.1313708499
 20
-108.1424672072
 30
0.0
 11
1.1313708499
 21
-107.7323279094
 31
0.0
  0
LINE
  5
28B
330
1F
100
AcDbEntity
  8
0
  6
Continuous
 62
     7
370
    15
100
AcDbLine
 10
1.1313708499
 20
-105.2460937411
 30
0.0
 11
1.1313708499
 21
-101.6882259137
 31
0.0
  0
LINE
  5
28C
330
1F
100
AcDbEntity
  8
0
  6
Continuous
 62
     7
370
    15
100
AcDbLine
 10
1.1313708499
 20
-99.2019917455
 30
0.0
 11
1.1313708499
 21
-97.1991203403
 31
0.0
  0
LINE
  5
28D
330
1F
100
AcDbEntity
  8
0
  6
Continuous
 62
     7
370
    15
100
AcDbLine
 10
3.9597979746
 20
-109.7752834309
 30
0.0
 11
1.1313708499
 21
-108.1424672072
 31
0.0
  0
LINE
  5
28E
330
1F
100
AcDbEntity
  8
0
  6
Continuous
 62
     7
370
    15
100
AcDbLine
 10
-7.0710678119
 20
-103.4073001586
 30
0.0
 11
-9.8994949366
 21
-101.774483935
 31
0.0
  0
LINE
  5
28F
330
1F
100
AcDbEntity
  8
0
  6
Continuous
 62
     7
370
    15
100
AcDbLine
 10
-7.0710678119
 20
-92.4639532917
 30
0.0
 11
-7.0710678119
 21
-103.4073001586
 31
0.0
  0
LINE
  5
290
330
1F
100
AcDbEntity
  8
0
  6
Continuous
 62
     7
370
    15
100
AcDbLine
 10
-9.8994949366
 20
-90.831137068
 30
0.0
 11
-7.0710678119
 21
-92.4639532917
 31
0.0
  0
LINE
  5
291
330
1F
100
AcDbEntity
  8
0
  6
Continuous
 62
     7
370
    15
100
AcDbLine
 10
-9.8994949366
 20
-101.774483935
 30
0.0
 11
-9.8994949366
 21
-101.3643446372
 31
0.0
  0
LINE
  5
292
330
1F
100
AcDbEntity
  8
0
  6
Continuous
 62
     7
370
    15
100
AcDbLine
 10
-9.8994949366
 20
-98.8781104689
 30
0.0
 11
-9.8994949366
 21
-95.3202426415
 31
0.0
  0
LINE
  5
293
330
1F
100
AcDbEntity
  8
0
  6
Continuous
 62
     7
370
    15
100
AcDbLine
 10
-9.8994949366
 20
-92.8340084733
 30
0.0
 11
-9.8994949366
 21
-90.831137068
 31
0.0
  0
LINE
  5
294
330
1F
100
AcDbEntity
  8
0
  6
Continuous
 62
     7
370
    15
100
AcDbLine
 10
-4.2426406871
 20
-86.0967138533
 30
0.0
 11
-10.6066017178
 21
-89.7705503565
 31
0.0
  0
LINE
  5
295
330
1F
100
AcDbEntity
  8
0
  6
Continuous
 62
     7
370
    15
100
AcDbLine
 10
2.2012280904
 20
-92.826771421
 30
0.0
 11
-0.7071067812
 21
-94.505717405
 31
0.0
  0
LINE
  5
296
330
1F
100
AcDbEntity
  8
0
  6
Continuous
 62
     7
370
    15
100
AcDbLine
 10
-0.3535533906
 20
-91.0359829298
 30
0.0
 11
1.6080548172
 21
-92.1683952441
 31
0.0
  0
LINE
  5
297
330
1F
100
AcDbEntity
  8
0
  6
Continuous
 62
     7
370
    15
100
AcDbLine
 10
-3.5355339059
 20
-92.8729011814
 30
0.0
 11
-0.3535533906
 21
-91.0359829298
 31
0.0
  0
LINE
  5
298
330
1F
100
AcDbEntity
  8
0
  6
Continuous
 62
     7
370
    15
100
AcDbLine
 10
-0.7071067812
 20
-94.505717405
 30
0.0
 11
-3.5355339059
 21
-92.8729011814
 31
0.0
  0
LINE
  5
299
330
1F
100
AcDbEntity
  8
0
  6
Continuous
 62
     7
370
    15
100
AcDbLine
 10
1.9798989873
 20
-96.0568928175
 30
0.0
 11
4.0399743102
 21
-94.8676366476
 31
0.0
  0
LINE
  5
29A
330
1F
100
AcDbEntity
  8
0
  6
Continuous
 62
     7
370
    15
100
AcDbLine
 10
4.4547727215
 20
-97.4856070132
 30
0.0
 11
1.9798989873
 21
-96.0568928175
 31
0.0
  0
LINE
  5
29B
330
1F
100
AcDbEntity
  8
0
  6
Continuous
 62
     7
370
    15
100
AcDbLine
 10
-3.474738723
 20
-89.7354540444
 30
0.0
 11
-6.2225396744
 21
-91.3217257689
 31
0.0
  0
LINE
  5
29C
330
1F
100
AcDbEntity
  8
0
  6
Continuous
 62
     7
370
    15
100
AcDbLine
 10
-9.0509667992
 20
-89.6889095453
 30
0.0
 11
-5.8689862838
 21
-87.8519912937
 31
0.0
  0
LINE
  5
29D
330
1F
100
AcDbEntity
  8
0
  6
Continuous
 62
     7
370
    15
100
AcDbLine
 10
-6.2225396744
 20
-91.3217257689
 30
0.0
 11
-9.0509667992
 21
-89.6889095453
 31
0.0
  0
LINE
  5
29E
330
1F
100
AcDbEntity
  8
0
  6
Continuous
 62
     7
370
    15
100
AcDbLine
 10
-4.3840620434
 20
-75.9716210559
 30
0.0
 11
-10.9601551084
 21
-79.7679187759
 31
0.0
  0
LINE
  5
29F
330
1F
100
AcDbEntity
  8
0
  6
Continuous
 62
     7
370
    15
100
AcDbLine
 10
2.6870057685
 20
-99.3789272794
 30
0.0
 11
2.1920310217
 21
-99.6646701185
 31
0.0
  0
LINE
  5
2A0
330
1F
100
AcDbEntity
  8
0
  6
Continuous
 62
     7
370
    15
100
AcDbLine
 10
1.4849242405
 20
-99.2564660626
 30
0.0
 11
1.9798989873
 21
-98.9707232235
 31
0.0
  0
LINE
  5
2A1
330
1F
100
AcDbEntity
  8
0
  6
Continuous
 62
     7
370
    15
100
AcDbLine
 10
1.9798989873
 20
-101.7962969297
 30
0.0
 11
1.4849242405
 21
-102.0820397688
 31
0.0
  0
LINE
  5
2A2
330
1F
100
AcDbEntity
  8
0
  6
Continuous
 62
     7
370
    15
100
AcDbLine
 10
2.1920310217
 20
-99.6646701185
 30
0.0
 11
2.1920310217
 21
-102.4902438247
 31
0.0
  0
LINE
  5
2A3
330
1F
100
AcDbEntity
  8
0
  6
Continuous
 62
     7
370
    15
100
AcDbLine
 10
6.2225396744
 20
-80.1351431861
 30
0.0
 11
3.15
 21
-78.3614037872
 31
0.0
  0
LINE
  5
2A4
330
1F
100
AcDbEntity
  8
0
  6
Continuous
 62
     7
370
    15
100
AcDbLine
 10
2.9321792773
 20
-108.3656436723
 30
0.0
 11
3.9597979746
 21
-108.958875319
 31
0.0
  0
LINE
  5
2A5
330
1F
100
AcDbEntity
  8
0
  6
Continuous
 62
     7
370
    15
100
AcDbLine
 10
1.8384776311
 20
-97.6073243962
 30
0.0
 11
1.8384776311
 21
-98.7970579852
 31
0.0
  0
LINE
  5
2A6
330
1F
100
AcDbEntity
  8
0
  6
Continuous
 62
     7
370
    15
100
AcDbLine
 10
1.8384776311
 20
-101.8779377409
 30
0.0
 11
1.8384776311
 21
-104.8411599808
 31
0.0
  0
LINE
  5
2A7
330
1F
100
AcDbEntity
  8
0
  6
Continuous
 62
     7
370
    15
100
AcDbLine
 10
1.9798989873
 20
-98.9707232235
 30
0.0
 11
1.9798989873
 21
-101.7962969297
 31
0.0
  0
LINE
  5
2A8
330
1F
100
AcDbEntity
  8
0
  6
Continuous
 62
     7
370
    15
100
AcDbLine
 10
1.4849242405
 20
-102.0820397688
 30
0.0
 11
1.4849242405
 21
-99.2564660626
 31
0.0
  0
LINE
  5
2A9
330
1F
100
AcDbEntity
  8
0
  6
Continuous
 62
     7
370
    15
100
AcDbLine
 10
1.3639453013
 20
-108.0082048342
 30
0.0
 11
1.1313708499
 21
-108.1424672072
 31
0.0
  0
LINE
  5
2AA
330
1F
100
AcDbEntity
  8
0
  6
Continuous
 62
     7
370
    15
100
AcDbLine
 10
2.6870057685
 20
-105.423029275
 30
0.0
 11
2.1920310217
 21
-105.7087721141
 31
0.0
  0
LINE
  5
2AB
330
1F
100
AcDbEntity
  8
0
  6
Continuous
 62
     7
370
    15
100
AcDbLine
 10
1.4849242405
 20
-105.3005680582
 30
0.0
 11
1.9798989873
 21
-105.0148252191
 31
0.0
  0
LINE
  5
2AC
330
1F
100
AcDbEntity
  8
0
  6
Continuous
 62
     7
370
    15
100
AcDbLine
 10
1.9798989873
 20
-107.8403989253
 30
0.0
 11
1.4849242405
 21
-108.1261417644
 31
0.0
  0
LINE
  5
2AD
330
1F
100
AcDbEntity
  8
0
  6
Continuous
 62
     7
370
    15
100
AcDbLine
 10
2.1920310217
 20
-105.7087721141
 30
0.0
 11
2.1920310217
 21
-108.5343458204
 31
0.0
  0
LINE
  5
2AE
330
1F
100
AcDbEntity
  8
0
  6
Continuous
 62
     7
370
    15
100
AcDbLine
 10
-2.8284271247
 20
-96.1949356433
 30
0.0
 11
-3.3234018716
 21
-96.4806784824
 31
0.0
  0
LINE
  5
2AF
330
1F
100
AcDbEntity
  8
0
  6
Continuous
 62
     7
370
    15
100
AcDbLine
 10
-4.0305086528
 20
-96.0724744265
 30
0.0
 11
-3.5355339059
 21
-95.7867315873
 31
0.0
  0
LINE
  5
2B0
330
1F
100
AcDbEntity
  8
0
  6
Continuous
 62
     7
370
    15
100
AcDbLine
 10
-3.5355339059
 20
-98.6123052936
 30
0.0
 11
-4.0305086528
 21
-98.8980481327
 31
0.0
  0
LINE
  5
2B1
330
1F
100
AcDbEntity
  8
0
  6
Continuous
 62
     7
370
    15
100
AcDbLine
 10
-10.8187337522
 20
-106.3871359733
 30
0.0
 11
-6.9290487984
 21
-104.1416686457
 31
0.0
  0
LINE
  5
2B2
330
1F
100
AcDbEntity
  8
0
  6
Continuous
 62
     7
370
    15
100
AcDbLine
 10
-3.3234018716
 20
-96.4806784824
 30
0.0
 11
-3.3234018716
 21
-99.3062521886
 31
0.0
  0
LINE
  5
2B3
330
1F
100
AcDbEntity
  8
0
  6
Continuous
 62
     7
370
    15
100
AcDbLine
 10
-2.583253616
 20
-105.1816520362
 30
0.0
 11
-1.5556349186
 21
-105.7748836829
 31
0.0
  0
LINE
  5
2B4
330
1F
100
AcDbEntity
  8
0
  6
Continuous
 62
     7
370
    15
100
AcDbLine
 10
-3.6769552622
 20
-94.4233327601
 30
0.0
 11
-3.6769552622
 21
-95.6130663491
 31
0.0
  0
LINE
  5
2B5
330
1F
100
AcDbEntity
  8
0
  6
Continuous
 62
     7
370
    15
100
AcDbLine
 10
-3.6769552622
 20
-98.6939461047
 30
0.0
 11
-3.6769552622
 21
-101.6571683447
 31
0.0
  0
LINE
  5
2B6
330
1F
100
AcDbEntity
  8
0
  6
Continuous
 62
     7
370
    15
100
AcDbLine
 10
1.9798989873
 20
-105.0148252191
 30
0.0
 11
1.9798989873
 21
-107.8403989253
 31
0.0
  0
LINE
  5
2B7
330
1F
100
AcDbEntity
  8
0
  6
Continuous
 62
     7
370
    15
100
AcDbLine
 10
1.4849242405
 20
-108.1261417644
 30
0.0
 11
1.4849242405
 21
-105.3005680582
 31
0.0
  0
LINE
  5
2B8
330
1F
100
AcDbEntity
  8
0
  6
Continuous
 62
     7
370
    15
100
AcDbLine
 10
-3.5355339059
 20
-95.7867315873
 30
0.0
 11
-3.5355339059
 21
-98.6123052936
 31
0.0
  0
LINE
  5
2B9
330
1F
100
AcDbEntity
  8
0
  6
Continuous
 62
     7
370
    15
100
AcDbLine
 10
-4.0305086528
 20
-98.8980481327
 30
0.0
 11
-4.0305086528
 21
-96.0724744265
 31
0.0
  0
LINE
  5
2BA
330
1F
100
AcDbEntity
  8
0
  6
Continuous
 62
     7
370
    15
100
AcDbLine
 10
-4.1514875919
 20
-104.8242131981
 30
0.0
 11
-4.3840620434
 21
-104.9584755711
 31
0.0
  0
LINE
  5
2BB
330
1F
100
AcDbEntity
  8
0
  6
Continuous
 62
     7
370
    15
100
AcDbLine
 10
-0.3535533906
 20
-91.0359829298
 30
0.0
 11
-0.3535533906
 21
-94.3016153771
 31
0.0
  0
LINE
  5
2BC
330
1F
100
AcDbEntity
  8
0
  6
Continuous
 62
     7
370
    15
100
AcDbLine
 10
-4.3840620434
 20
-74.9917720816
 30
0.0
 11
-3.5355339059
 21
-74.5019272145
 31
0.0
  0
LINE
  5
2BD
330
1F
100
AcDbEntity
  8
0
  6
Continuous
 62
     7
370
    15
100
AcDbLine
 10
-3.1033796495
 20
-74.7514045565
 30
0.0
 11
-3.5355339059
 21
-74.5019272145
 31
0.0
  0
LINE
  5
2BE
330
1F
100
AcDbEntity
  8
0
  6
Continuous
 62
     7
370
    15
100
AcDbLine
 10
-2.8284271247
 20
-102.2390376389
 30
0.0
 11
-3.3234018716
 21
-102.524780478
 31
0.0
  0
LINE
  5
2BF
330
1F
100
AcDbEntity
  8
0
  6
Continuous
 62
     7
370
    15
100
AcDbLine
 10
-4.0305086528
 20
-102.1165764221
 30
0.0
 11
-3.5355339059
 21
-101.830833583
 31
0.0
  0
LINE
  5
2C0
330
1F
100
AcDbEntity
  8
0
  6
Continuous
 62
     7
370
    15
100
AcDbLine
 10
-3.5355339059
 20
-104.6564072892
 30
0.0
 11
-4.0305086528
 21
-104.9421501283
 31
0.0
  0
LINE
  5
2C1
330
1F
100
AcDbEntity
  8
0
  6
Continuous
 62
     7
370
    15
100
AcDbLine
 10
-3.3234018716
 20
-102.524780478
 30
0.0
 11
-3.3234018716
 21
-105.3503541842
 31
0.0
  0
LINE
  5
2C2
330
1F
100
AcDbEntity
  8
0
  6
Continuous
 62
     7
370
    15
100
AcDbLine
 10
-8.343860018
 20
-93.0109440071
 30
0.0
 11
-8.8388347648
 21
-93.2966868463
 31
0.0
  0
LINE
  5
2C3
330
1F
100
AcDbEntity
  8
0
  6
Continuous
 62
     7
370
    15
100
AcDbLine
 10
-9.545941546
 20
-92.8884827904
 30
0.0
 11
-9.0509667992
 21
-92.6027399512
 31
0.0
  0
LINE
  5
2C4
330
1F
100
AcDbEntity
  8
0
  6
Continuous
 62
     7
370
    15
100
AcDbLine
 10
-9.0509667992
 20
-95.4283136575
 30
0.0
 11
-9.545941546
 21
-95.7140564966
 31
0.0
  0
LINE
  5
2C5
330
1F
100
AcDbEntity
  8
0
  6
Continuous
 62
     7
370
    15
100
AcDbLine
 10
-8.8388347648
 20
-93.2966868463
 30
0.0
 11
-8.8388347648
 21
-96.1222605525
 31
0.0
  0
LINE
  5
2C6
330
1F
100
AcDbEntity
  8
0
  6
Continuous
 62
     7
370
    15
100
AcDbLine
 10
-8.0986865092
 20
-101.9976604001
 30
0.0
 11
-7.0710678119
 21
-102.5908920468
 31
0.0
  0
LINE
  5
2C7
330
1F
100
AcDbEntity
  8
0
  6
Continuous
 62
     7
370
    15
100
AcDbLine
 10
-9.1923881554
 20
-91.239341124
 30
0.0
 11
-9.1923881554
 21
-92.429074713
 31
0.0
  0
LINE
  5
2C8
330
1F
100
AcDbEntity
  8
0
  6
Continuous
 62
     7
370
    15
100
AcDbLine
 10
-9.1923881554
 20
-95.5099544686
 30
0.0
 11
-9.1923881554
 21
-98.4731767086
 31
0.0
  0
LINE
  5
2C9
330
1F
100
AcDbEntity
  8
0
  6
Continuous
 62
     7
370
    15
100
AcDbLine
 10
-3.5355339059
 20
-101.830833583
 30
0.0
 11
-3.5355339059
 21
-104.6564072892
 31
0.0
  0
LINE
  5
2CA
330
1F
100
AcDbEntity
  8
0
  6
Continuous
 62
     7
370
    15
100
AcDbLine
 10
-4.0305086528
 20
-104.9421501283
 30
0.0
 11
-4.0305086528
 21
-102.1165764221
 31
0.0
  0
LINE
  5
2CB
330
1F
100
AcDbEntity
  8
0
  6
Continuous
 62
     7
370
    15
100
AcDbLine
 10
-9.0509667992
 20
-92.6027399512
 30
0.0
 11
-9.0509667992
 21
-95.4283136575
 31
0.0
  0
LINE
  5
2CC
330
1F
100
AcDbEntity
  8
0
  6
Continuous
 62
     7
370
    15
100
AcDbLine
 10
3.5361315631
 20
-110.1830886731
 30
0.0
 11
-0.3535533906
 21
-112.4285560008
 31
0.0
  0
LINE
  5
2CD
330
1F
100
AcDbEntity
  8
0
  6
Continuous
 62
     7
370
    15
100
AcDbLine
 10
-9.545941546
 20
-95.7140564966
 30
0.0
 11
-9.545941546
 21
-92.8884827904
 31
0.0
  0
LINE
  5
2CE
330
1F
100
AcDbEntity
  8
0
  6
Continuous
 62
     7
370
    15
100
AcDbLine
 10
-9.6669204852
 20
-101.640221562
 30
0.0
 11
-9.8994949366
 21
-101.774483935
 31
0.0
  0
LINE
  5
2CF
330
1F
100
AcDbEntity
  8
0
  6
Continuous
 62
     7
370
    15
100
AcDbLine
 10
12.5865007051
 20
-117.4503018989
 30
0.0
 11
13.4350288425
 21
-116.9604570318
 31
0.0
  0
LINE
  5
2D0
330
1F
100
AcDbEntity
  8
0
  6
Continuous
 62
     7
370
    15
100
AcDbLine
 10
13.4350288425
 20
-116.9604570318
 30
0.0
 11
13.4350288425
 21
-108.5499274293
 31
0.0
  0
LINE
  5
2D1
330
1F
100
AcDbEntity
  8
0
  6
Continuous
 62
     7
370
    15
100
AcDbLine
 10
-5.8689862838
 20
-87.8519912937
 30
0.0
 11
-5.8689862838
 21
-88.0797709727
 31
0.0
  0
LINE
  5
2D2
330
1F
100
AcDbEntity
  8
0
  6
Continuous
 62
     7
370
    15
100
AcDbLine
 10
1.202334383
 20
-114.3065998682
 30
0.0
 11
-0.3535533906
 21
-115.2047947612
 31
0.0
  0
LINE
  5
2D3
330
1F
100
AcDbEntity
  8
0
  6
Continuous
 62
     7
370
    15
100
AcDbLine
 10
0.565685425
 20
-108.4682866182
 30
0.0
 11
0.565685425
 21
-108.5571656221
 31
0.0
  0
LINE
  5
2D4
330
1F
100
AcDbEntity
  8
0
  6
Continuous
 62
     7
370
    15
100
AcDbLine
 10
-8.343860018
 20
-99.0550460028
 30
0.0
 11
-8.8388347648
 21
-99.3407888419
 31
0.0
  0
LINE
  5
2D5
330
1F
100
AcDbEntity
  8
0
  6
Continuous
 62
     7
370
    15
100
AcDbLine
 10
-9.545941546
 20
-98.932584786
 30
0.0
 11
-9.0509667992
 21
-98.6468419469
 31
0.0
  0
LINE
  5
2D6
330
1F
100
AcDbEntity
  8
0
  6
Continuous
 62
     7
370
    15
100
AcDbLine
 10
-9.0509667992
 20
-101.4724156531
 30
0.0
 11
-9.545941546
 21
-101.7581584922
 31
0.0
  0
LINE
  5
2D7
330
1F
100
AcDbEntity
  8
0
  6
Continuous
 62
     7
370
    15
100
AcDbLine
 10
-8.8388347648
 20
-99.3407888419
 30
0.0
 11
-8.8388347648
 21
-102.1663625481
 31
0.0
  0
LINE
  5
2D8
330
1F
100
AcDbEntity
  8
0
  6
Continuous
 62
     7
370
    15
100
AcDbLine
 10
-6.0104076401
 20
-114.143822506
 30
0.0
 11
-4.8155635911
 21
-113.4540537187
 31
0.0
  0
LINE
  5
2D9
330
1F
100
AcDbEntity
  8
0
  6
Continuous
 62
     7
370
    15
100
AcDbLine
 10
-9.7579011793
 20
-110.7556293169
 30
0.0
 11
-10.8187337522
 21
-111.3680349258
 31
0.0
  0
LINE
  5
2DA
330
1F
100
AcDbEntity
  8
0
  6
Continuous
 62
     7
370
    15
100
AcDbLine
 10
0.7072791823
 20
-116.7970493444
 30
0.0
 11
-0.3535533906
 21
-117.4094549533
 31
0.0
  0
LINE
  5
2DB
330
1F
100
AcDbEntity
  8
0
  6
Continuous
 62
     7
370
    15
100
AcDbLine
 10
-9.0509667992
 20
-98.6468419469
 30
0.0
 11
-9.0509667992
 21
-101.4724156531
 31
0.0
  0
LINE
  5
2DC
330
1F
100
AcDbEntity
  8
0
  6
Continuous
 62
     7
370
    15
100
AcDbLine
 10
-9.545941546
 20
-101.7581584922
 30
0.0
 11
-9.545941546
 21
-98.932584786
 31
0.0
  0
LINE
  5
2DD
330
1F
100
AcDbEntity
  8
0
  6
Continuous
 62
     7
370
    15
100
AcDbLine
 10
-1.272056628
 20
-107.407380713
 30
0.0
 11
-6.0104076401
 21
-110.1427725278
 31
0.0
  0
LINE
  5
2DE
330
1F
100
AcDbEntity
  8
0
  6
Continuous
 62
     7
370
    15
100
AcDbLine
 10
-6.0104076401
 20
-109.1629235535
 30
0.0
 11
-2.1207226863
 21
-106.9174562259
 31
0.0
  0
LINE
  5
2DF
330
1F
100
AcDbEntity
  8
0
  6
Continuous
 62
     7
370
    15
100
AcDbLine
 10
-9.2628459786
 20
-108.2651798407
 30
0.0
 11
-10.8187337522
 21
-109.1633747337
 31
0.0
  0
LINE
  5
2E0
330
1F
100
AcDbEntity
  8
0
  6
Continuous
 62
     7
370
    15
100
AcDbLine
 10
-6.0104076401
 20
-111.9391623139
 30
0.0
 11
-4.7869695919
 21
-111.2328865622
 31
0.0
  0
LINE
  5
2E1
330
1F
100
AcDbEntity
  8
0
  6
Continuous
 62
     7
370
    15
100
AcDbLine
 10
0.0128091585
 20
-108.4620332689
 30
0.0
 11
0.2838311456
 21
-108.3055756061
 31
0.0
  0
LINE
  5
2E2
330
1F
100
AcDbEntity
  8
0
  6
Continuous
 62
     7
370
    15
100
AcDbLine
 10
-4.610275267
 20
-112.1107320739
 30
0.0
 11
-6.0104076401
 21
-112.9190112882
 31
0.0
  0
LINE
  5
2E3
330
1F
100
AcDbEntity
  8
0
  6
Continuous
 62
     7
370
    15
100
AcDbLine
 10
-4.7853735804
 20
-114.2531662084
 30
0.0
 11
-6.0104076401
 21
-114.9603633179
 31
0.0
  0
LINE
  5
2E4
330
1F
100
AcDbEntity
  8
0
  6
Continuous
 62
     7
370
    15
100
AcDbLine
 10
-5.1546320512
 20
-89.6602210863
 30
0.0
 11
-5.1385867746
 21
-89.6611578436
 31
0.0
  0
LINE
  5
2E5
330
1F
100
AcDbEntity
  8
0
  6
Continuous
 62
     7
370
    15
100
AcDbLine
 10
3.15
 20
60.139021586
 30
0.0
 11
4.2426406871
 21
59.7175558546
 31
0.0
  0
LINE
  5
2E6
330
1F
100
AcDbEntity
  8
0
  6
Continuous
 62
     7
370
    15
100
AcDbLine
 10
-2.9792965944
 20
56.6778331197
 30
0.0
 11
-3.2515545681
 21
56.520661937
 31
0.0
  0
LINE
  5
2E7
330
1F
100
AcDbEntity
  8
0
  6
Continuous
 62
     8
370
    15
100
AcDbLine
 10
4.1012193309
 20
-62.7415367023
 30
0.0
 11
4.8083261027
 21
-62.3333326518
 31
0.0
  0
ARC
  5
2E8
330
1F
100
AcDbEntity
  8
0
  6
Continuous
 62
     7
370
    15
100
AcDbCircle
 10
3.337055997
 20
366.997094869
 30
0.0
 40
3.173595522925032
100
AcDbArc
 50
293.3754383357
 51
355.3044207067
  0
ARC
  5
2E9
330
1F
100
AcDbEntity
  8
0
  6
Continuous
 62
     7
370
    15
100
AcDbCircle
 10
3.337055997
 20
354.7489826907
 30
0.0
 40
3.173595522925067
100
AcDbArc
 50
293.3754383357
 51
355.3044207067
  0
ARC
  5
2EA
330
1F
100
AcDbEntity
  8
0
  6
Continuous
 62
     7
370
    15
100
AcDbCircle
 10
4.6532841584
 20
-62.8812583961
 30
0.0
 40
0.8734183948569373
100
AcDbArc
 50
230.7967147643
 51
9.2140369905
  0
ARC
  5
2EB
330
1F
100
AcDbEntity
  8
0
  6
Continuous
 62
     7
370
    15
100
AcDbCircle
 10
4.3772517446
 20
-62.4031271433
 30
0.0
 40
0.4367091974284689
100
AcDbArc
 50
230.7967147643
 51
9.2140369905
  0
ARC
  5
2EC
330
1F
100
AcDbEntity
  8
0
  6
Continuous
 62
     7
370
    15
100
AcDbCircle
 10
-3.5559527232
 20
-48.3844011931
 30
0.0
 40
1.536804807572041
100
AcDbArc
 50
182.6054784857
 51
237.39452166
  0
ARC
  5
2ED
330
1F
100
AcDbEntity
  8
0
  6
Continuous
 62
     7
370
    15
100
AcDbCircle
 10
-10.627020535
 20
-52.4664417522
 30
0.0
 40
1.536804807572059
100
AcDbArc
 50
182.6054784857
 51
237.39452166
  0
ARC
  5
2EE
330
1F
100
AcDbEntity
  8
0
  6
Continuous
 62
     7
370
    15
100
AcDbCircle
 10
-9.7989112149
 20
-51.988376844
 30
0.0
 40
3.073609615144324
100
AcDbArc
 50
182.6054784857
 51
237.39452166
  0
ARC
  5
2EF
330
1F
100
AcDbEntity
  8
0
  6
Continuous
 62
     7
370
    15
100
AcDbCircle
 10
9.5160685024
 20
-86.5614727518
 30
0.0
 40
3.073609615144102
100
AcDbArc
 50
2.6054784857
 51
57.39452166
  0
ARC
  5
2F0
330
1F
100
AcDbEntity
  8
0
  6
Continuous
 62
     7
370
    15
100
AcDbCircle
 10
11.7243519703
 20
-117.5901562927
 30
0.0
 40
0.8734183948569564
100
AcDbArc
 50
230.7967147643
 51
9.2140369905
  0
ARC
  5
2F1
330
1F
100
AcDbEntity
  8
0
  6
Continuous
 62
     7
370
    15
100
AcDbCircle
 10
-4.9361268709
 20
-75.6685911998
 30
0.0
 40
0.8734183948569292
100
AcDbArc
 50
50.7967147643
 51
189.2140369905
  0
ARC
  5
2F2
330
1F
100
AcDbEntity
  8
0
  6
Continuous
 62
     7
370
    15
100
AcDbCircle
 10
-4.6183980872
 20
-76.2987261192
 30
0.0
 40
0.4023817887212677
100
AcDbArc
 50
54.3824225248
 51
114.3071190461
  0
ARC
  5
2F3
330
1F
100
AcDbEntity
  8
0
  6
Continuous
 62
     7
370
    15
100
AcDbCircle
 10
11.3459710466
 20
-117.0037264221
 30
0.0
 40
0.3943823432947257
100
AcDbArc
 50
305.0133328141
 51
6.2988475793
  0
ARC
  5
2F4
330
1F
100
AcDbEntity
  8
0
  6
Continuous
 62
     7
370
    15
100
AcDbCircle
 10
10.5097996866
 20
-85.987794862
 30
0.0
 40
1.229443846057742
100
AcDbArc
 50
2.6054784857
 51
57.39452166
  0
ARC
  5
2F5
330
1F
100
AcDbEntity
  8
0
  6
Continuous
 62
     7
370
    15
100
AcDbCircle
 10
12.4550250381
 20
-58.2776920509
 30
0.0
 40
0.9859558597837145
100
AcDbArc
 50
305.0133328674
 51
6.298847526
  0
ARC
  5
2F6
330
1F
100
AcDbEntity
  8
0
  6
Continuous
 62
     7
370
    15
100
AcDbCircle
 10
1.6746048864
 20
-56.617579405
 30
0.0
 40
0.8724627493069622
100
AcDbArc
 50
290.4825577347
 51
21.9245683691
  0
ARC
  5
2F7
330
1F
100
AcDbEntity
  8
0
  6
Continuous
 62
     7
370
    15
100
AcDbCircle
 10
3.9337066216
 20
-89.784092582
 30
0.0
 40
1.229443846057762
100
AcDbArc
 50
2.6054784857
 51
57.39452166
  0
ARC
  5
2F8
330
1F
100
AcDbEntity
  8
0
  6
Continuous
 62
     7
370
    15
100
AcDbCircle
 10
4.8170200087
 20
-120.8126965093
 30
0.0
 40
0.3493673579427485
100
AcDbArc
 50
230.7967147643
 51
9.2140369905
  0
ARC
  5
2F9
330
1F
100
AcDbEntity
  8
0
  6
Continuous
 62
     7
370
    15
100
AcDbCircle
 10
10.7216196365
 20
-78.5171048923
 30
0.0
 40
2.486300359695649
100
AcDbArc
 50
167.9877654048
 51
252.0068580625
  0
ARC
  5
2FA
330
1F
100
AcDbEntity
  8
0
  6
Continuous
 62
     7
370
    15
100
AcDbCircle
 10
10.3645966398
 20
-86.0716278847
 30
0.0
 40
3.073609615144294
100
AcDbArc
 50
2.6054784857
 51
57.39452166
  0
ARC
  5
2FB
330
1F
100
AcDbEntity
  8
0
  6
Continuous
 62
     7
370
    15
100
AcDbCircle
 10
-10.2976676522
 20
-111.0672503505
 30
0.0
 40
1.229443846058129
100
AcDbArc
 50
182.6054784857
 51
237.39452166
  0
ARC
  5
2FC
330
1F
100
AcDbEntity
  8
0
  6
Continuous
 62
     7
370
    15
100
AcDbCircle
 10
-11.1809810394
 20
-80.0386464231
 30
0.0
 40
0.3493673579428022
100
AcDbArc
 50
50.7967147643
 51
189.2140369905
  0
ARC
  5
2FD
330
1F
100
AcDbEntity
  8
0
  6
Continuous
 62
     7
370
    15
100
AcDbCircle
 10
1.5180026791
 20
-100.5873786139
 30
0.0
 40
1.681345547829138
100
AcDbArc
 50
45.9506010051
 51
74.0547755276
  0
ARC
  5
2FE
330
1F
100
AcDbEntity
  8
0
  6
Continuous
 62
     7
370
    15
100
AcDbCircle
 10
3.4568690941
 20
-100.1829561597
 30
0.0
 40
2.187306365447185
100
AcDbArc
 50
227.5267353035
 51
234.6715447901
  0
ARC
  5
2FF
330
1F
100
AcDbEntity
  8
0
  6
Continuous
 62
     7
370
    15
100
AcDbCircle
 10
3.1418518386
 20
-101.2521378832
 30
0.0
 40
0.8223192081415014
100
AcDbArc
 50
302.8105368963
 51
5.911577439
  0
ARC
  5
300
330
1F
100
AcDbEntity
  8
0
  6
Continuous
 62
     7
370
    15
100
AcDbCircle
 10
2.6779027056
 20
-100.2867722735
 30
0.0
 40
1.353379072140397
100
AcDbArc
 50
18.7051883813
 51
88.1004455284
  0
ARC
  5
301
330
1F
100
AcDbEntity
  8
0
  6
Continuous
 62
     7
370
    15
100
AcDbCircle
 10
2.6779027056
 20
-106.3308742691
 30
0.0
 40
1.353379072137113
100
AcDbArc
 50
18.7051883812
 51
88.1004455286
  0
ARC
  5
302
330
1F
100
AcDbEntity
  8
0
  6
Continuous
 62
     7
370
    15
100
AcDbCircle
 10
1.5180026791
 20
-106.6314806096
 30
0.0
 40
1.681345547829098
100
AcDbArc
 50
45.9506010051
 51
74.0547755276
  0
ARC
  5
303
330
1F
100
AcDbEntity
  8
0
  6
Continuous
 62
     7
370
    15
100
AcDbCircle
 10
3.4568690942
 20
-106.2270581553
 30
0.0
 40
2.187306365582058
100
AcDbArc
 50
227.5267353036
 51
234.6715447899
  0
ARC
  5
304
330
1F
100
AcDbEntity
  8
0
  6
Continuous
 62
     7
370
    15
100
AcDbCircle
 10
3.1418518389
 20
-107.296239879
 30
0.0
 40
0.8223192078303431
100
AcDbArc
 50
302.810536883
 51
5.9115774523
  0
ARC
  5
305
330
1F
100
AcDbEntity
  8
0
  6
Continuous
 62
     7
370
    15
100
AcDbCircle
 10
-3.9974302142
 20
-97.4033869778
 30
0.0
 40
1.681345547828581
100
AcDbArc
 50
45.9506010051
 51
74.0547755276
  0
ARC
  5
306
330
1F
100
AcDbEntity
  8
0
  6
Continuous
 62
     7
370
    15
100
AcDbCircle
 10
-2.0585637991
 20
-96.9989645236
 30
0.0
 40
2.187306365455427
100
AcDbArc
 50
227.5267353035
 51
234.6715447901
  0
ARC
  5
307
330
1F
100
AcDbEntity
  8
0
  6
Continuous
 62
     7
370
    15
100
AcDbCircle
 10
-2.3735810543
 20
-98.0681462473
 30
0.0
 40
0.8223192078045884
100
AcDbArc
 50
302.8105368819
 51
5.9115774534
  0
ARC
  5
308
330
1F
100
AcDbEntity
  8
0
  6
Continuous
 62
     7
370
    15
100
AcDbCircle
 10
-2.8375301877
 20
-97.1027806375
 30
0.0
 40
1.35337907225225
100
AcDbArc
 50
18.7051883828
 51
88.1004455193
  0
ARC
  5
309
330
1F
100
AcDbEntity
  8
0
  6
Continuous
 62
     7
370
    15
100
AcDbCircle
 10
-2.8375301878
 20
-103.1468826331
 30
0.0
 40
1.353379072305997
100
AcDbArc
 50
18.7051883835
 51
88.1004455149
  0
ARC
  5
30A
330
1F
100
AcDbEntity
  8
0
  6
Continuous
 62
     7
370
    15
100
AcDbCircle
 10
-4.1213740156
 20
-75.3196898728
 30
0.0
 40
1.005954471803637
100
AcDbArc
 50
54.3824225248
 51
114.3071190461
  0
ARC
  5
30B
330
1F
100
AcDbEntity
  8
0
  6
Continuous
 62
     7
370
    15
100
AcDbCircle
 10
-3.9974302142
 20
-103.4474889735
 30
0.0
 40
1.681345547828556
100
AcDbArc
 50
45.9506010051
 51
74.0547755276
  0
ARC
  5
30C
330
1F
100
AcDbEntity
  8
0
  6
Continuous
 62
     7
370
    15
100
AcDbCircle
 10
-2.058563799
 20
-103.0430665191
 30
0.0
 40
2.187306365584412
100
AcDbArc
 50
227.5267353036
 51
234.6715447899
  0
ARC
  5
30D
330
1F
100
AcDbEntity
  8
0
  6
Continuous
 62
     7
370
    15
100
AcDbCircle
 10
-2.3735810547
 20
-104.1122482427
 30
0.0
 40
0.8223192081634156
100
AcDbArc
 50
302.8105368972
 51
5.911577438
  0
ARC
  5
30E
330
1F
100
AcDbEntity
  8
0
  6
Continuous
 62
     7
370
    15
100
AcDbCircle
 10
-9.5128631075
 20
-94.2193953417
 30
0.0
 40
1.681345547827882
100
AcDbArc
 50
45.9506010051
 51
74.0547755276
  0
ARC
  5
30F
330
1F
100
AcDbEntity
  8
0
  6
Continuous
 62
     7
370
    15
100
AcDbCircle
 10
-7.5739966924
 20
-93.8149728875
 30
0.0
 40
2.187306365434547
100
AcDbArc
 50
227.5267353035
 51
234.6715447902
  0
ARC
  5
310
330
1F
100
AcDbEntity
  8
0
  6
Continuous
 62
     7
370
    15
100
AcDbCircle
 10
-7.8890139476
 20
-94.8841546112
 30
0.0
 40
0.8223192078061226
100
AcDbArc
 50
302.810536882
 51
5.9115774533
  0
ARC
  5
311
330
1F
100
AcDbEntity
  8
0
  6
Continuous
 62
     7
370
    15
100
AcDbCircle
 10
-8.3529630811
 20
-93.9187890014
 30
0.0
 40
1.35337907239509
100
AcDbArc
 50
18.7051883847
 51
88.1004455077
  0
ARC
  5
312
330
1F
100
AcDbEntity
  8
0
  6
Continuous
 62
     7
370
    15
100
AcDbCircle
 10
-8.3529630808
 20
-99.9628909968
 30
0.0
 40
1.353379072008723
100
AcDbArc
 50
18.7051883795
 51
88.1004455391
  0
ARC
  5
313
330
1F
100
AcDbEntity
  8
0
  6
Continuous
 62
     7
370
    15
100
AcDbCircle
 10
-9.5128631075
 20
-100.2634973374
 30
0.0
 40
1.681345547827898
100
AcDbArc
 50
45.9506010051
 51
74.0547755276
  0
ARC
  5
314
330
1F
100
AcDbEntity
  8
0
  6
Continuous
 62
     7
370
    15
100
AcDbCircle
 10
-7.5739966923
 20
-99.8590748831
 30
0.0
 40
2.187306365570233
100
AcDbArc
 50
227.5267353036
 51
234.6715447899
  0
ARC
  5
315
330
1F
100
AcDbEntity
  8
0
  6
Continuous
 62
     7
370
    15
100
AcDbCircle
 10
-7.8890139479
 20
-100.9282566066
 30
0.0
 40
0.8223192081656865
100
AcDbArc
 50
302.8105368973
 51
5.9115774379
  0
ARC
  5
316
330
1F
100
AcDbEntity
  8
0
  6
Continuous
 62
     7
370
    15
100
AcDbCircle
 10
12.4550250378
 20
-117.0686305065
 30
0.0
 40
0.9859558600022462
100
AcDbArc
 50
305.0133328749
 51
6.2988475185
  0
ARC
  5
317
330
1F
100
AcDbEntity
  8
0
  6
Continuous
 62
     7
370
    15
100
AcDbCircle
 10
1.4432044217
 20
-110.4581387006
 30
0.0
 40
1.345431923101711
100
AcDbArc
 50
353.078818774
 51
42.7054999074
  0
ARC
  5
318
330
1F
100
AcDbEntity
  8
0
  6
Continuous
 62
     7
370
    15
100
AcDbCircle
 10
-0.685926647
 20
-113.903456793
 30
0.0
 40
5.492733258701401
100
AcDbArc
 50
73.8595731268
 51
117.0281611281
  0
ARC
  5
319
330
1F
100
AcDbEntity
  8
0
  6
Continuous
 62
     7
370
    15
100
AcDbCircle
 10
-0.7069616398
 20
-107.9338100194
 30
0.0
 40
5.859019037174515
100
AcDbArc
 50
257.2996087086
 51
278.8273243567
  0
ARC
  5
31A
330
1F
100
AcDbEntity
  8
0
  6
Continuous
 62
     7
370
    15
100
AcDbCircle
 10
-2.528423307
 20
-113.3260224579
 30
0.0
 40
1.683136546398415
100
AcDbArc
 50
184.1687285934
 51
247.1514123624
  0
ARC
  5
31B
330
1F
100
AcDbEntity
  8
0
  6
Continuous
 62
     7
370
    15
100
AcDbCircle
 10
-0.7490627633
 20
-110.212461658
 30
0.0
 40
5.260974209469905
100
AcDbArc
 50
242.4549279805
 51
274.3114482288
  0
ARC
  5
31C
330
1F
100
AcDbEntity
  8
0
  6
Continuous
 62
     7
370
    15
100
AcDbCircle
 10
-3.337055997
 20
44.0552037682
 30
0.0
 40
3.173595522925041
100
AcDbArc
 50
184.6955792933
 51
246.6245616644
  0
ARC
  5
31D
330
1F
100
AcDbEntity
  8
0
  6
Continuous
 62
     7
370
    15
100
AcDbCircle
 10
-0.0000280483
 20
48.8847599798
 30
0.0
 40
9.008447860638663
100
AcDbArc
 50
241.9034127402
 51
298.1019621908
  0
ENDSEC
  0
SECTION
  2
OBJECTS
  0
DICTIONARY
  5
C
330
0
100
AcDbDictionary
281
     1
  3
ACAD_GROUP
350
D
  3
ACAD_LAYOUT
350
1A
  3
ACAD_MLINESTYLE
350
17
  3
ACAD_PLOTSETTINGS
350
19
  3
ACAD_PLOTSTYLENAME
350
E
  3
ACAD_SCALELIST
350
47
  0
DICTIONARY
  5
D
102
{ACAD_REACTORS
330
C
102
}
330
C
100
AcDbDictionary
281
     1
  0
DICTIONARY
  5
1A
102
{ACAD_REACTORS
330
C
102
}
330
C
100
AcDbDictionary
281
     1
  3
Layout1
350
1E
  3
Layout2
350
26
  3
Model
350
22
  0
DICTIONARY
  5
17
102
{ACAD_REACTORS
330
C
102
}
330
C
100
AcDbDictionary
281
     1
  3
Standard
350
18
  0
DICTIONARY
  5
19
102
{ACAD_REACTORS
330
C
102
}
330
C
100
AcDbDictionary
281
     1
  0
ACDBDICTIONARYWDFLT
  5
E
102
{ACAD_REACTORS
330
C
102
}
330
C
100
AcDbDictionary
281
     1
  3
Normal
350
F
100
AcDbDictionaryWithDefault
340
F
  0
DICTIONARY
  5
47
102
{ACAD_REACTORS
330
C
102
}
330
C
100
AcDbDictionary
281
     1
  3
A0
350
48
  3
A1
350
49
  3
A2
350
4A
  3
A3
350
4B
  3
A4
350
4C
  3
A5
350
4D
  3
A6
350
4E
  3
A7
350
4F
  3
A8
350
50
  3
A9
350
51
  3
B0
350
52
  3
B1
350
53
  3
B2
350
54
  3
B3
350
55
  3
B4
350
56
  3
B5
350
57
  3
B6
350
58
  3
B7
350
59
  3
B8
350
5A
  3
B9
350
5B
  3
C0
350
5C
  3
C1
350
5D
  3
C2
350
5E
  3
C3
350
5F
  3
C4
350
60
  3
C5
350
61
  3
C6
350
62
  3
C7
350
63
  3
C8
350
64
  3
C9
350
65
  3
D0
350
66
  3
D1
350
67
  3
D2
350
68
  0
LAYOUT
  5
1E
102
{ACAD_REACTORS
330
1A
102
}
330
1A
100
AcDbPlotSettings
  1

  2
none_device
  4

  6

 40
0.0
 41
0.0
 42
0.0
 43
0.0
 44
0.0
 45
0.0
 46
0.0
 47
0.0
 48
0.0
 49
0.0
140
0.0
141
0.0
142
1.0
143
1.0
 70
   688
 72
     1
 73
     0
 74
     5
  7

 75
    16
147
1.0
148
0.0
149
0.0
100
AcDbLayout
  1
Layout1
 70
     1
 71
     1
 10
0.0
 20
0.0
 11
420.0
 21
297.0
 12
0.0
 22
0.0
 32
0.0
 14
1.0000000000E+20
 24
1.0000000000E+20
 34
1.0000000000E+20
 15
-1.0000000000E+20
 25
-1.0000000000E+20
 35
-1.0000000000E+20
146
0.0
 13
0.0
 23
0.0
 33
0.0
 16
1.0
 26
0.0
 36
0.0
 17
0.0
 27
1.0
 37
0.0
 76
     0
330
1B
  0
LAYOUT
  5
26
102
{ACAD_REACTORS
330
1A
102
}
330
1A
100
AcDbPlotSettings
  1

  2
none_device
  4

  6

 40
0.0
 41
0.0
 42
0.0
 43
0.0
 44
0.0
 45
0.0
 46
0.0
 47
0.0
 48
0.0
 49
0.0
140
0.0
141
0.0
142
1.0
143
1.0
 70
   688
 72
     1
 73
     0
 74
     5
  7

 75
    16
147
1.0
148
0.0
149
0.0
100
AcDbLayout
  1
Layout2
 70
     1
 71
     2
 10
0.0
 20
0.0
 11
0.0
 21
0.0
 12
0.0
 22
0.0
 32
0.0
 14
0.0
 24
0.0
 34
0.0
 15
0.0
 25
0.0
 35
0.0
146
0.0
 13
0.0
 23
0.0
 33
0.0
 16
1.0
 26
0.0
 36
0.0
 17
0.0
 27
1.0
 37
0.0
 76
     0
330
23
  0
LAYOUT
  5
22
102
{ACAD_REACTORS
330
1A
102
}
330
1A
100
AcDbPlotSettings
  1

  2
none_device
  4
ANSI_A_(11.00_x_8.50_Inches)
  6

 40
6.35
 41
19.05
 42
6.35000508
 43
19.05000254
 44
279.4
 45
215.9
 46
133.34999746
 47
15.2332577513
 48
0.0
 49
0.0
140
0.0
141
0.0
142
0.0073530456
143
1.0
 70
  1696
 72
     0
 73
     0
 74
     0
  7

 75
     0
147
0.0179189148
148
-1300.4909072572
149
0.0
100
AcDbLayout
  1
Model
 70
     1
 71
     0
 10
0.0
 20
0.0
 11
420.0
 21
297.0
 12
0.0
 22
0.0
 32
0.0
 14
-255.0
 24
-177.781381992
 34
0.0
 15
255.0
 25
966.6423666569
 35
0.0
146
0.0
 13
0.0
 23
0.0
 33
0.0
 16
1.0
 26
0.0
 36
0.0
 17
0.0
 27
1.0
 37
0.0
 76
     0
330
1F
331
29
  0
MLINESTYLE
  5
18
102
{ACAD_REACTORS
330
17
102
}
330
17
100
AcDbMlineStyle
  2
Standard
 70
     0
  3

 62
   256
 51
90.0
 52
90.0
 71
     2
 49
0.5
 62
   256
  6
BYLAYER
 49
-0.5
 62
   256
  6
BYLAYER
  0
ACDBPLACEHOLDER
  5
F
102
{ACAD_REACTORS
330
E
102
}
330
E
  0
SCALE
  5
48
102
{ACAD_REACTORS
330
47
102
}
330
47
100
AcDbScale
 70
     0
300
1:1
140
1.0
141
1.0
290
     1
  0
SCALE
  5
49
102
{ACAD_REACTORS
330
47
102
}
330
47
100
AcDbScale
 70
     0
300
1:2
140
1.0
141
2.0
290
     0
  0
SCALE
  5
4A
102
{ACAD_REACTORS
330
47
102
}
330
47
100
AcDbScale
 70
     0
300
1:4
140
1.0
141
4.0
290
     0
  0
SCALE
  5
4B
102
{ACAD_REACTORS
330
47
102
}
330
47
100
AcDbScale
 70
     0
300
1:5
140
1.0
141
5.0
290
     0
  0
SCALE
  5
4C
102
{ACAD_REACTORS
330
47
102
}
330
47
100
AcDbScale
 70
     0
300
1:8
140
1.0
141
8.0
290
     0
  0
SCALE
  5
4D
102
{ACAD_REACTORS
330
47
102
}
330
47
100
AcDbScale
 70
     0
300
1:10
140
1.0
141
10.0
290
     0
  0
SCALE
  5
4E
102
{ACAD_REACTORS
330
47
102
}
330
47
100
AcDbScale
 70
     0
300
1:16
140
1.0
141
16.0
290
     0
  0
SCALE
  5
4F
102
{ACAD_REACTORS
330
47
102
}
330
47
100
AcDbScale
 70
     0
300
1:20
140
1.0
141
20.0
290
     0
  0
SCALE
  5
50
102
{ACAD_REACTORS
330
47
102
}
330
47
100
AcDbScale
 70
     0
300
1:30
140
1.0
141
30.0
290
     0
  0
SCALE
  5
51
102
{ACAD_REACTORS
330
47
102
}
330
47
100
AcDbScale
 70
     0
300
1:40
140
1.0
141
40.0
290
     0
  0
SCALE
  5
52
102
{ACAD_REACTORS
330
47
102
}
330
47
100
AcDbScale
 70
     0
300
1:50
140
1.0
141
50.0
290
     0
  0
SCALE
  5
53
102
{ACAD_REACTORS
330
47
102
}
330
47
100
AcDbScale
 70
     0
300
1:100
140
1.0
141
100.0
290
     0
  0
SCALE
  5
54
102
{ACAD_REACTORS
330
47
102
}
330
47
100
AcDbScale
 70
     0
300
2:1
140
2.0
141
1.0
290
     0
  0
SCALE
  5
55
102
{ACAD_REACTORS
330
47
102
}
330
47
100
AcDbScale
 70
     0
300
4:1
140
4.0
141
1.0
290
     0
  0
SCALE
  5
56
102
{ACAD_REACTORS
330
47
102
}
330
47
100
AcDbScale
 70
     0
300
8:1
140
8.0
141
1.0
290
     0
  0
SCALE
  5
57
102
{ACAD_REACTORS
330
47
102
}
330
47
100
AcDbScale
 70
     0
300
10:1
140
10.0
141
1.0
290
     0
  0
SCALE
  5
58
102
{ACAD_REACTORS
330
47
102
}
330
47
100
AcDbScale
 70
     0
300
100:1
140
100.0
141
1.0
290
     0
  0
SCALE
  5
59
102
{ACAD_REACTORS
330
47
102
}
330
47
100
AcDbScale
 70
     0
300
1/128" = 1'-0"
140
0.0078125
141
12.0
290
     0
  0
SCALE
  5
5A
102
{ACAD_REACTORS
330
47
102
}
330
47
100
AcDbScale
 70
     0
300
1/64" = 1'-0"
140
0.015625
141
12.0
290
     0
  0
SCALE
  5
5B
102
{ACAD_REACTORS
330
47
102
}
330
47
100
AcDbScale
 70
     0
300
1/32" = 1'-0"
140
0.03125
141
12.0
290
     0
  0
SCALE
  5
5C
102
{ACAD_REACTORS
330
47
102
}
330
47
100
AcDbScale
 70
     0
300
1/16" = 1'-0"
140
0.0625
141
12.0
290
     0
  0
SCALE
  5
5D
102
{ACAD_REACTORS
330
47
102
}
330
47
100
AcDbScale
 70
     0
300
3/32" = 1'-0"
140
0.09375
141
12.0
290
     0
  0
SCALE
  5
5E
102
{ACAD_REACTORS
330
47
102
}
330
47
100
AcDbScale
 70
     0
300
1/8" = 1'-0"
140
0.125
141
12.0
290
     0
  0
SCALE
  5
5F
102
{ACAD_REACTORS
330
47
102
}
330
47
100
AcDbScale
 70
     0
300
3/16" = 1'-0"
140
0.1875
141
12.0
290
     0
  0
SCALE
  5
60
102
{ACAD_REACTORS
330
47
102
}
330
47
100
AcDbScale
 70
     0
300
1/4" = 1'-0"
140
0.25
141
12.0
290
     0
  0
SCALE
  5
61
102
{ACAD_REACTORS
330
47
102
}
330
47
100
AcDbScale
 70
     0
300
3/8" = 1'-0"
140
0.375
141
12.0
290
     0
  0
SCALE
  5
62
102
{ACAD_REACTORS
330
47
102
}
330
47
100
AcDbScale
 70
     0
300
1/2" = 1'-0"
140
0.5
141
12.0
290
     0
  0
SCALE
  5
63
102
{ACAD_REACTORS
330
47
102
}
330
47
100
AcDbScale
 70
     0
300
3/4" = 1'-0"
140
0.75
141
12.0
290
     0
  0
SCALE
  5
64
102
{ACAD_REACTORS
330
47
102
}
330
47
100
AcDbScale
 70
     0
300
1" = 1'-0"
140
1.0
141
12.0
290
     0
  0
SCALE
  5
65
102
{ACAD_REACTORS
330
47
102
}
330
47
100
AcDbScale
 70
     0
300
1-1/2" = 1'-0"
140
1.5
141
12.0
290
     0
  0
SCALE
  5
66
102
{ACAD_REACTORS
330
47
102
}
330
47
100
AcDbScale
 70
     0
300
3" = 1'-0"
140
3.0
141
12.0
290
     0
  0
SCALE
  5
67
102
{ACAD_REACTORS
330
47
102
}
330
47
100
AcDbScale
 70
     0
300
6" = 1'-0"
140
6.0
141
12.0
290
     0
  0
SCALE
  5
68
102
{ACAD_REACTORS
330
47
102
}
330
47
100
AcDbScale
 70
     0
300
1'-0" = 1'-0"
140
12.0
141
12.0
290
     0
  0
ENDSEC
  0
EOF
