  0
SECTION
  2
HEADER
  9
$ACADVER
  1
AC1015
  9
$ACADMAINTVER
 70
     6
  9
$DWGCODEPAGE
  3
ANSI_1252
  9
$INSBASE
 10
0.0
 20
0.0
 30
0.0
  9
$EXTMIN
 10
-99.9356374697
 20
-2.3453610697
 30
0.0
  9
$EXTMAX
 10
99.9356297705
 20
1086.9184247741
 30
0.0
  9
$LIMMIN
 10
0.0
 20
0.0
  9
$LIMMAX
 10
420.0
 20
297.0
  9
$ORTHOMODE
 70
     0
  9
$REGENMODE
 70
     1
  9
$FILLMODE
 70
     1
  9
$QTEXTMODE
 70
     0
  9
$MIRRTEXT
 70
     1
  9
$LTSCALE
 40
1.0
  9
$ATTMODE
 70
     1
  9
$TEXTSIZE
 40
3.5
  9
$TRACEWID
 40
1.0
  9
$TEXTSTYLE
  7
Standard
  9
$CLAYER
  8
0
  9
$CELTYPE
  6
ByLayer
  9
$CECOLOR
 62
   256
  9
$CELTSCALE
 40
1.0
  9
$DISPSILH
 70
     0
  9
$DIMSCALE
 40
1.0
  9
$DIMASZ
 40
2.0
  9
$DIMEXO
 40
1.0
  9
$DIMDLI
 40
3.75
  9
$DIMRND
 40
0.0
  9
$DIMDLE
 40
0.0
  9
$DIMEXE
 40
1.0
  9
$DIMTP
 40
0.0
  9
$DIMTM
 40
0.0
  9
$DIMTXT
 40
3.5
  9
$DIMCEN
 40
2.5
  9
$DIMTSZ
 40
0.0
  9
$DIMTOL
 70
     0
  9
$DIMLIM
 70
     0
  9
$DIMTIH
 70
     1
  9
$DIMTOH
 70
     1
  9
$DIMSE1
 70
     0
  9
$DIMSE2
 70
     0
  9
$DIMTAD
 70
     1
  9
$DIMZIN
 70
     0
  9
$DIMBLK
  1

  9
$DIMASO
 70
     1
  9
$DIMSHO
 70
     1
  9
$DIMPOST
  1

  9
$DIMAPOST
  1

  9
$DIMALT
 70
     0
  9
$DIMALTD
 70
     3
  9
$DIMALTF
 40
0.0393700787
  9
$DIMLFAC
 40
1.0
  9
$DIMTOFL
 70
     1
  9
$DIMTVP
 40
0.0
  9
$DIMTIX
 70
     0
  9
$DIMSOXD
 70
     0
  9
$DIMSAH
 70
     0
  9
$DIMBLK1
  1

  9
$DIMBLK2
  1

  9
$DIMSTYLE
  2
ISO-25
  9
$DIMCLRD
 70
     0
  9
$DIMCLRE
 70
     0
  9
$DIMCLRT
 70
     0
  9
$DIMTFAC
 40
1.0
  9
$DIMGAP
 40
1.524
  9
$DIMJUST
 70
     0
  9
$DIMSD1
 70
     0
  9
$DIMSD2
 70
     0
  9
$DIMTOLJ
 70
     0
  9
$DIMTZIN
 70
     0
  9
$DIMALTZ
 70
     0
  9
$DIMALTTZ
 70
     0
  9
$DIMUPT
 70
     0
  9
$DIMDEC
 70
     2
  9
$DIMTDEC
 70
     2
  9
$DIMALTU
 70
     2
  9
$DIMALTTD
 70
     3
  9
$DIMTXSTY
  7
Standard
  9
$DIMAUNIT
 70
     0
  9
$DIMADEC
 70
     2
  9
$DIMALTRND
 40
0.0
  9
$DIMAZIN
 70
     0
  9
$DIMDSEP
 70
    44
  9
$DIMATFIT
 70
     3
  9
$DIMFRAC
 70
     0
  9
$DIMLDRBLK
  1

  9
$DIMLUNIT
 70
     2
  9
$DIMLWD
 70
    -2
  9
$DIMLWE
 70
    -2
  9
$DIMTMOVE
 70
     0
  9
$LUNITS
 70
     2
  9
$LUPREC
 70
     2
  9
$SKETCHINC
 40
1.0
  9
$FILLETRAD
 40
10.0
  9
$AUNITS
 70
     0
  9
$AUPREC
 70
     2
  9
$MENU
  1
.
  9
$ELEVATION
 40
0.0
  9
$PELEVATION
 40
0.0
  9
$THICKNESS
 40
0.0
  9
$LIMCHECK
 70
     0
  9
$CHAMFERA
 40
0.0
  9
$CHAMFERB
 40
0.0
  9
$CHAMFERC
 40
0.0
  9
$CHAMFERD
 40
0.0
  9
$SKPOLY
 70
     0
  9
$TDCREATE
 40
2457358.497530428
  9
$TDUCREATE
 40
2457358.497530428
  9
$TDUPDATE
 40
2457358.497578819
  9
$TDUUPDATE
 40
2457358.497578819
  9
$TDINDWG
 40
0.0000000116
  9
$TDUSRTIMER
 40
0.0000000116
  9
$USRTIMER
 70
     1
  9
$ANGBASE
 50
0.0
  9
$ANGDIR
 70
     0
  9
$PDMODE
 70
     0
  9
$PDSIZE
 40
-1.0
  9
$PLINEWID
 40
0.0
  9
$SPLFRAME
 70
     0
  9
$SPLINETYPE
 70
     6
  9
$SPLINESEGS
 70
     8
  9
$HANDSEED
  5
339
  9
$SURFTAB1
 70
     6
  9
$SURFTAB2
 70
     6
  9
$SURFTYPE
 70
     6
  9
$SURFU
 70
     6
  9
$SURFV
 70
     6
  9
$UCSBASE
  2

  9
$UCSNAME
  2

  9
$UCSORG
 10
0.0
 20
0.0
 30
0.0
  9
$UCSXDIR
 10
1.0
 20
0.0
 30
0.0
  9
$UCSYDIR
 10
0.0
 20
1.0
 30
0.0
  9
$UCSORTHOREF
  2

  9
$UCSORTHOVIEW
 70
     0
  9
$UCSORGTOP
 10
0.0
 20
0.0
 30
0.0
  9
$UCSORGBOTTOM
 10
0.0
 20
0.0
 30
0.0
  9
$UCSORGLEFT
 10
0.0
 20
0.0
 30
0.0
  9
$UCSORGRIGHT
 10
0.0
 20
0.0
 30
0.0
  9
$UCSORGFRONT
 10
0.0
 20
0.0
 30
0.0
  9
$UCSORGBACK
 10
0.0
 20
0.0
 30
0.0
  9
$PUCSBASE
  2

  9
$PUCSNAME
  2

  9
$PUCSORG
 10
0.0
 20
0.0
 30
0.0
  9
$PUCSXDIR
 10
1.0
 20
0.0
 30
0.0
  9
$PUCSYDIR
 10
0.0
 20
1.0
 30
0.0
  9
$PUCSORTHOREF
  2

  9
$PUCSORTHOVIEW
 70
     0
  9
$PUCSORGTOP
 10
0.0
 20
0.0
 30
0.0
  9
$PUCSORGBOTTOM
 10
0.0
 20
0.0
 30
0.0
  9
$PUCSORGLEFT
 10
0.0
 20
0.0
 30
0.0
  9
$PUCSORGRIGHT
 10
0.0
 20
0.0
 30
0.0
  9
$PUCSORGFRONT
 10
0.0
 20
0.0
 30
0.0
  9
$PUCSORGBACK
 10
0.0
 20
0.0
 30
0.0
  9
$USERI1
 70
     0
  9
$USERI2
 70
     0
  9
$USERI3
 70
     0
  9
$USERI4
 70
     0
  9
$USERI5
 70
     0
  9
$USERR1
 40
0.0
  9
$USERR2
 40
0.0
  9
$USERR3
 40
0.0
  9
$USERR4
 40
0.0
  9
$USERR5
 40
0.0
  9
$WORLDVIEW
 70
     1
  9
$SHADEDGE
 70
     3
  9
$SHADEDIF
 70
    70
  9
$TILEMODE
 70
     1
  9
$MAXACTVP
 70
    64
  9
$PINSBASE
 10
0.0
 20
0.0
 30
0.0
  9
$PLIMCHECK
 70
     0
  9
$PEXTMIN
 10
1.0000000000E+20
 20
1.0000000000E+20
 30
1.0000000000E+20
  9
$PEXTMAX
 10
-1.0000000000E+20
 20
-1.0000000000E+20
 30
-1.0000000000E+20
  9
$PLIMMIN
 10
0.0
 20
0.0
  9
$PLIMMAX
 10
420.0
 20
297.0
  9
$UNITMODE
 70
     0
  9
$VISRETAIN
 70
     1
  9
$PLINEGEN
 70
     0
  9
$PSLTSCALE
 70
     1
  9
$TREEDEPTH
 70
  3020
  9
$CMLSTYLE
  2
Standard
  9
$CMLJUST
 70
     0
  9
$CMLSCALE
 40
20.0
  9
$PROXYGRAPHICS
 70
     1
  9
$MEASUREMENT
 70
     1
  9
$CELWEIGHT
370
    -1
  9
$ENDCAPS
280
     0
  9
$JOINSTYLE
280
     0
  9
$LWDISPLAY
290
     1
  9
$INSUNITS
 70
     4
  9
$HYPERLINKBASE
  1

  9
$STYLESHEET
  1

  9
$XEDIT
290
     1
  9
$CEPSNTYPE
380
     0
  9
$PSTYLEMODE
290
     1
  9
$FINGERPRINTGUID
  2
{D5858323-46AF-48BA-97D9-E315259850AA}
  9
$VERSIONGUID
  2
{FAEB1C32-E019-11D5-929B-00C0DF256EC4}
  9
$EXTNAMES
290
     1
  9
$PSVPSCALE
 40
0.0
  9
$OLESTARTUP
290
     0
  0
ENDSEC
  0
SECTION
  2
CLASSES
  0
CLASS
  1
ACDBDICTIONARYWDFLT
  2
AcDbDictionaryWithDefault
  3
ObjectDBX Classes
 90
        0
280
     0
281
     0
  0
CLASS
  1
VISUALSTYLE
  2
AcDbVisualStyle
  3
ObjectDBX Classes
 90
     4095
280
     0
281
     0
  0
CLASS
  1
MATERIAL
  2
AcDbMaterial
  3
ObjectDBX Classes
 90
     1153
280
     0
281
     0
  0
CLASS
  1
SCALE
  2
AcDbScale
  3
ObjectDBX Classes
 90
     1153
280
     0
281
     0
  0
CLASS
  1
TABLESTYLE
  2
AcDbTableStyle
  3
ObjectDBX Classes
 90
     4095
280
     0
281
     0
  0
CLASS
  1
MLEADERSTYLE
  2
AcDbMLeaderStyle
  3
ACDB_MLEADERSTYLE_CLASS
 90
     4095
280
     0
281
     0
  0
CLASS
  1
SUN
  2
AcDbSun
  3
SCENEOE
 90
     1153
280
     0
281
     0
  0
CLASS
  1
ACDBPLACEHOLDER
  2
AcDbPlaceHolder
  3
ObjectDBX Classes
 90
        0
280
     0
281
     0
  0
CLASS
  1
LAYOUT
  2
AcDbLayout
  3
ObjectDBX Classes
 90
        0
280
     0
281
     0
  0
ENDSEC
  0
SECTION
  2
TABLES
  0
TABLE
  2
VPORT
  5
8
330
0
100
AcDbSymbolTable
 70
     1
  0
VPORT
  5
29
330
8
100
AcDbSymbolTableRecord
100
AcDbViewportTableRecord
  2
*Active
 70
     0
 10
0.0
 20
0.0
 11
1.0
 21
1.0
 12
-0.0000038496
 22
542.2865318522
 13
0.0
 23
0.0
 14
10.0
 24
10.0
 15
10.0
 25
10.0
 16
0.0
 26
0.0
 36
1.0
 17
0.0
 27
0.0
 37
0.0
 40
1111.0490615607
 41
0.1834920704
 42
50.0
 43
0.0
 44
0.0
 50
0.0
 51
0.0
 71
     0
 72
   100
 73
     1
 74
     3
 75
     0
 76
     0
 77
     0
 78
     0
281
     0
 65
     1
110
0.0
120
0.0
130
0.0
111
1.0
121
0.0
131
0.0
112
0.0
122
1.0
132
0.0
 79
     0
146
0.0
  0
ENDTAB
  0
TABLE
  2
LTYPE
  5
5
330
0
100
AcDbSymbolTable
 70
     6
  0
LTYPE
  5
14
330
5
100
AcDbSymbolTableRecord
100
AcDbLinetypeTableRecord
  2
ByBlock
 70
     0
  3

 72
    65
 73
     0
 40
0.0
  0
LTYPE
  5
15
330
5
100
AcDbSymbolTableRecord
100
AcDbLinetypeTableRecord
  2
ByLayer
 70
     0
  3

 72
    65
 73
     0
 40
0.0
  0
LTYPE
  5
16
330
5
100
AcDbSymbolTableRecord
100
AcDbLinetypeTableRecord
  2
Continuous
 70
     0
  3
Solid line
 72
    65
 73
     0
 40
0.0
  0
LTYPE
  5
6E
330
5
100
AcDbSymbolTableRecord
100
AcDbLinetypeTableRecord
  2
HIDDEN
 70
     0
  3
Hidden __ __ __ __ __ __ __ __ __ __ __ __ __ __
 72
    65
 73
     2
 40
1.905
 49
1.27
 74
     0
 49
-0.635
 74
     0
  0
LTYPE
  5
6F
330
5
100
AcDbSymbolTableRecord
100
AcDbLinetypeTableRecord
  2
PHANTOM
 70
     0
  3
Phantom ______  __  __  ______  __  __  ______
 72
    65
 73
     6
 40
12.7
 49
6.35
 74
     0
 49
-1.27
 74
     0
 49
1.27
 74
     0
 49
-1.27
 74
     0
 49
1.27
 74
     0
 49
-1.27
 74
     0
  0
LTYPE
  5
70
330
5
100
AcDbSymbolTableRecord
100
AcDbLinetypeTableRecord
  2
CENTER
 70
     0
  3
Center ____ _ ____ _ ____ _ ____ _ ____ _ ____
 72
    65
 73
     4
 40
10.16
 49
6.35
 74
     0
 49
-1.27
 74
     0
 49
1.27
 74
     0
 49
-1.27
 74
     0
  0
LTYPE
  5
71
330
5
100
AcDbSymbolTableRecord
100
AcDbLinetypeTableRecord
  2
CENTERX2
 70
     0
  3
Center (2x) ________  __  ________  __  _____
 72
    65
 73
     4
 40
20.32
 49
12.7
 74
     0
 49
-2.54
 74
     0
 49
2.54
 74
     0
 49
-2.54
 74
     0
  0
LTYPE
  5
72
330
5
100
AcDbSymbolTableRecord
100
AcDbLinetypeTableRecord
  2
DOT2
 70
     0
  3
Dot (.5x) ........................................
 72
    65
 73
     2
 40
0.635
 49
0.0
 74
     0
 49
-0.635
 74
     0
  0
ENDTAB
  0
TABLE
  2
LAYER
  5
2
330
0
100
AcDbSymbolTable
 70
     1
  0
LAYER
  5
10
330
2
100
AcDbSymbolTableRecord
100
AcDbLayerTableRecord
  2
0
 70
     0
 62
     7
  6
Continuous
370
    -3
390
F
  0
ENDTAB
  0
TABLE
  2
STYLE
  5
3
330
0
100
AcDbSymbolTable
 70
     1
  0
STYLE
  5
11
330
3
100
AcDbSymbolTableRecord
100
AcDbTextStyleTableRecord
  2
Standard
 70
     0
 40
0.0
 41
1.0
 50
0.0
 71
     0
 42
3.5
  3
txt
  4

  0
ENDTAB
  0
TABLE
  2
VIEW
  5
6
330
0
100
AcDbSymbolTable
 70
     0
  0
ENDTAB
  0
TABLE
  2
UCS
  5
7
330
0
100
AcDbSymbolTable
 70
     0
  0
ENDTAB
  0
TABLE
  2
APPID
  5
9
330
0
100
AcDbSymbolTable
 70
     1
  0
APPID
  5
12
330
9
100
AcDbSymbolTableRecord
100
AcDbRegAppTableRecord
  2
ACAD
 70
     0
  0
ENDTAB
  0
TABLE
  2
DIMSTYLE
  5
A
330
0
100
AcDbSymbolTable
 70
     1
100
AcDbDimStyleTable
  0
DIMSTYLE
105
27
330
A
100
AcDbSymbolTableRecord
100
AcDbDimStyleTableRecord
  2
ISO-25
 70
     0
 41
2.5
 42
0.625
 43
3.75
 44
1.25
 73
     0
 74
     0
 77
     1
 78
     8
140
2.5
141
2.5
143
0.0393700787
147
0.625
171
     3
172
     1
178
     0
271
     2
272
     2
274
     3
278
    44
283
     0
284
     8
340
11
  0
ENDTAB
  0
TABLE
  2
BLOCK_RECORD
  5
1
330
0
100
AcDbSymbolTable
 70
     1
  0
BLOCK_RECORD
  5
1F
330
1
100
AcDbSymbolTableRecord
100
AcDbBlockTableRecord
  2
*Model_Space
340
22
  0
BLOCK_RECORD
  5
1B
330
1
100
AcDbSymbolTableRecord
100
AcDbBlockTableRecord
  2
*Paper_Space
340
1E
  0
BLOCK_RECORD
  5
23
330
1
100
AcDbSymbolTableRecord
100
AcDbBlockTableRecord
  2
*Paper_Space0
340
26
  0
ENDTAB
  0
ENDSEC
  0
SECTION
  2
BLOCKS
  0
BLOCK
  5
20
330
1F
100
AcDbEntity
  8
0
100
AcDbBlockBegin
  2
*Model_Space
 70
     0
 10
0.0
 20
0.0
 30
0.0
  3
*Model_Space
  1

  0
ENDBLK
  5
21
330
1F
100
AcDbEntity
  8
0
100
AcDbBlockEnd
  0
BLOCK
  5
1C
330
1B
100
AcDbEntity
 67
     1
  8
0
100
AcDbBlockBegin
  2
*Paper_Space
 70
     0
 10
0.0
 20
0.0
 30
0.0
  3
*Paper_Space
  1

  0
ENDBLK
  5
1D
330
1B
100
AcDbEntity
 67
     1
  8
0
100
AcDbBlockEnd
  0
BLOCK
  5
24
330
23
100
AcDbEntity
  8
0
100
AcDbBlockBegin
  2
*Paper_Space0
 70
     0
 10
0.0
 20
0.0
 30
0.0
  3
*Paper_Space0
  1

  0
ENDBLK
  5
25
330
23
100
AcDbEntity
  8
0
100
AcDbBlockEnd
  0
ENDSEC
  0
SECTION
  2
ENTITIES
  0
SPLINE
  5
92
330
1F
100
AcDbEntity
  8
0
  6
Continuous
 62
     7
370
    15
100
AcDbSpline
210
0.0
220
0.0
230
1.0
 70
     8
 71
     3
 72
    13
 73
     9
 74
     0
 42
0.000000001
 43
0.00000001
 40
0.0
 40
0.0
 40
0.0
 40
0.0
 40
0.0074574422063339
 40
0.2243564476413989
 40
0.4461796220572217
 40
0.6943154031852445
 40
0.9538572590538492
 40
1.0
 40
1.0
 40
1.0
 40
1.0
 10
-5.047881420323304
 20
87.79058843225584
 30
0.0
 10
-5.053669581492845
 20
87.79177750834388
 30
0.0
 10
-5.227805866085333
 20
87.82755075065818
 30
0.0
 10
-5.592980117289069
 20
87.73714920640502
 30
0.0
 10
-6.078448789988356
 20
87.46800130293781
 30
0.0
 10
-6.418612280576257
 20
86.97685010800227
 30
0.0
 10
-6.539777981362905
 20
86.54303245017786
 30
0.0
 10
-6.523426515390345
 20
86.29614041889589
 30
0.0
 10
-6.520958280267205
 20
86.25887234860441
 30
0.0
  0
SPLINE
  5
97
330
1F
100
AcDbEntity
  8
0
  6
Continuous
 62
     7
370
    15
100
AcDbSpline
210
0.0
220
0.0
230
1.0
 70
     8
 71
     3
 72
    13
 73
     9
 74
     0
 42
0.000000001
 43
0.00000001
 40
0.0
 40
0.0
 40
0.0
 40
0.0
 40
0.2406141399070678
 40
0.3395007628565627
 40
0.4968067134779982
 40
0.6580249311268057
 40
0.8305114044060083
 40
1.0
 40
1.0
 40
1.0
 40
1.0
 10
4.444036046645958
 20
80.11435951610547
 30
0.0
 10
4.459223660508218
 20
80.08594013704729
 30
0.0
 10
4.480653018293257
 20
80.04584107689271
 30
0.0
 10
4.502795626391031
 20
79.99011787316861
 30
0.0
 10
4.516867562072768
 20
79.94721203367372
 30
0.0
 10
4.526191001832858
 20
79.90745718554166
 30
0.0
 10
4.529590059329553
 20
79.88035681178762
 30
0.0
 10
4.529540528020241
 20
79.87785288441657
 30
0.0
 10
4.529515979470309
 20
79.87661189589946
 30
0.0
  0
SPLINE
  5
98
330
1F
100
AcDbEntity
  8
0
  6
Continuous
 62
     7
370
    15
100
AcDbSpline
210
0.0
220
0.0
230
1.0
 70
     8
 71
     3
 72
    10
 73
     6
 74
     0
 42
0.000000001
 43
0.00000001
 40
0.0
 40
0.0
 40
0.0
 40
0.0
 40
0.2214285080291317
 40
0.56523055990245
 40
1.0
 40
1.0
 40
1.0
 40
1.0
 10
4.350687753427552
 20
80.24355810149564
 30
0.0
 10
4.357438852034306
 20
80.23606786186882
 30
0.0
 10
4.374672076786702
 20
80.21694786519006
 30
0.0
 10
4.407623281073136
 20
80.17370833250348
 30
0.0
 10
4.430988470913462
 20
80.13562563430344
 30
0.0
 10
4.444036046645959
 20
80.11435951610547
 30
0.0
  0
SPLINE
  5
9A
330
1F
100
AcDbEntity
  8
0
  6
Continuous
 62
     7
370
    15
100
AcDbSpline
210
0.0
220
0.0
230
1.0
 70
     8
 71
     3
 72
     9
 73
     5
 74
     0
 42
0.000000001
 43
0.00000001
 40
0.0
 40
0.0
 40
0.0
 40
0.0
 40
0.3276740049991947
 40
1.0
 40
1.0
 40
1.0
 40
1.0
 10
0.203295301431067
 20
85.17281628612943
 30
0.0
 10
0.2640204462346024
 20
85.03837257808495
 30
0.0
 10
0.4493422718206282
 20
84.62807543521316
 30
0.0
 10
0.7384250595790929
 20
84.28445692458165
 30
0.0
 10
0.9327829324964093
 20
84.05343326752057
 30
0.0
  0
SPLINE
  5
9B
330
1F
100
AcDbEntity
  8
0
  6
Continuous
 62
     7
370
    15
100
AcDbSpline
210
0.0
220
0.0
230
1.0
 70
     8
 71
     3
 72
     9
 73
     5
 74
     0
 42
0.000000001
 43
0.00000001
 40
0.0
 40
0.0
 40
0.0
 40
0.0
 40
0.293000954290529
 40
1.0
 40
1.0
 40
1.0
 40
1.0
 10
2.414536484742515
 20
85.38545562150601
 30
0.0
 10
2.384299870909066
 20
85.41837298634314
 30
0.0
 10
2.281103572771868
 20
85.53071857551309
 30
0.0
 10
2.191827441227043
 20
85.67474010931953
 30
0.0
 10
2.128709301420217
 20
85.77656319628224
 30
0.0
  0
SPLINE
  5
A3
330
1F
100
AcDbEntity
  8
0
  6
Continuous
 62
     7
370
    15
100
AcDbSpline
210
0.0
220
0.0
230
1.0
 70
     8
 71
     3
 72
    12
 73
     8
 74
     0
 42
0.000000001
 43
0.00000001
 40
0.0
 40
0.0
 40
0.0
 40
0.0
 40
0.2086392593011056
 40
0.4611738653399038
 40
0.7147794964844352
 40
0.9693673928402541
 40
1.0
 40
1.0
 40
1.0
 40
1.0
 10
2.484239259140397
 20
127.4009436450826
 30
0.0
 10
2.467868091838343
 20
128.1704574861812
 30
0.0
 10
2.431681448298173
 20
129.871382200546
 30
0.0
 10
2.165517463294812
 20
132.3910109378246
 30
0.0
 10
1.702225745898501
 20
134.9519720819535
 30
0.0
 10
1.290069283209039
 20
136.7117149044936
 30
0.0
 10
0.9805300576618061
 20
137.5707964456778
 30
0.0
 10
0.9472856261435688
 20
137.6630615775493
 30
0.0
  0
SPLINE
  5
A4
330
1F
100
AcDbEntity
  8
0
  6
Continuous
 62
     7
370
    15
100
AcDbSpline
210
0.0
220
0.0
230
1.0
 70
     8
 71
     3
 72
    12
 73
     8
 74
     0
 42
0.000000001
 43
0.00000001
 40
0.0
 40
0.0
 40
0.0
 40
0.0
 40
0.212823524628635
 40
0.4398467102149946
 40
0.6661627436456561
 40
0.8921240197934596
 40
1.0
 40
1.0
 40
1.0
 40
1.0
 10
-4.386658830861441
 20
137.7446808667
 30
0.0
 10
-4.149252667659914
 20
137.1164247643438
 30
0.0
 10
-3.65860051794495
 20
135.8179950899173
 30
0.0
 10
-3.115192765732387
 20
133.6189172914318
 30
0.0
 10
-2.729545357722547
 20
131.216839656649
 30
0.0
 10
-2.530194641961558
 20
129.1277529962884
 30
0.0
 10
-2.527140726380728
 20
127.8001111539308
 30
0.0
 10
-2.526153885845469
 20
127.3710977278333
 30
0.0
  0
SPLINE
  5
A9
330
1F
100
AcDbEntity
  8
0
  6
Continuous
 62
     7
370
    15
100
AcDbSpline
210
0.0
220
0.0
230
1.0
 70
     8
 71
     3
 72
    12
 73
     8
 74
     0
 42
0.000000001
 43
0.00000001
 40
0.0
 40
0.0
 40
0.0
 40
0.0
 40
0.2142938014352573
 40
0.4375181961309198
 40
0.6887704752153796
 40
0.9529149407959058
 40
1.0
 40
1.0
 40
1.0
 40
1.0
 10
-5.058925031046578
 20
87.64189301141629
 30
0.0
 10
-5.212889459816789
 20
87.63366372036879
 30
0.0
 10
-5.527234712421878
 20
87.6168621864447
 30
0.0
 10
-5.969481543539984
 20
87.35447265403823
 30
0.0
 10
-6.278434037039761
 20
86.91701875874924
 30
0.0
 10
-6.389361891834394
 20
86.5201643296909
 30
0.0
 10
-6.373775181444003
 20
86.29307548104131
 30
0.0
 10
-6.371417110878443
 20
86.25871983341877
 30
0.0
  0
SPLINE
  5
B0
330
1F
100
AcDbEntity
  8
0
  6
Continuous
 62
     7
370
    15
100
AcDbSpline
210
0.0
220
0.0
230
1.0
 70
     8
 71
     3
 72
    16
 73
    12
 74
     0
 42
0.000000001
 43
0.00000001
 40
0.0
 40
0.0
 40
0.0
 40
0.0
 40
0.1444684630622209
 40
0.2036334390738085
 40
0.3021514547415374
 40
0.4052769614919133
 40
0.516708466956114
 40
0.633903536078509
 40
0.7557678425681776
 40
0.8813731813089697
 40
1.0
 40
1.0
 40
1.0
 40
1.0
 10
-49.7978095868872
 20
200.640295044475
 30
0.0
 10
-50.49678555956095
 20
199.3696996066523
 30
0.0
 10
-51.48201706357586
 20
197.5787501274993
 30
0.0
 10
-52.74655501296671
 20
194.8226608609955
 30
0.0
 10
-53.74646564005525
 20
192.4035873992084
 30
0.0
 10
-54.78907897417916
 20
189.4389788497878
 30
0.0
 10
-55.71640169161411
 20
186.240565833677
 30
0.0
 10
-56.49344775974423
 20
182.8086211711918
 30
0.0
 10
-57.07156775472573
 20
179.1942158013031
 30
0.0
 10
-57.43701796666706
 20
175.5352937566409
 30
0.0
 10
-57.47312170248507
 20
173.0843807780193
 30
0.0
 10
-57.49065776885726
 20
171.8939396313672
 30
0.0
  0
SPLINE
  5
B1
330
1F
100
AcDbEntity
  8
0
  6
Continuous
 62
     7
370
    15
100
AcDbSpline
210
0.0
220
0.0
230
1.0
 70
     8
 71
     3
 72
    28
 73
    24
 74
     0
 42
0.000000001
 43
0.00000001
 40
0.0
 40
0.0
 40
0.0
 40
0.0
 40
0.0035909422593839
 40
0.0506695480174244
 40
0.0984548299761071
 40
0.1468107116776245
 40
0.1956280330770122
 40
0.2448197881321923
 40
0.2943170431732172
 40
0.3440654677626885
 40
0.3940224491093764
 40
0.4441547484084207
 40
0.4944366396252927
 40
0.5448484627592981
 40
0.5953755252103108
 40
0.6460072932214029
 40
0.6967368272357132
 40
0.7475604283630063
 40
0.7984774772252251
 40
0.8494904614915331
 40
0.9006052055653987
 40
0.9518313372896925
 40
1.0
 40
1.0
 40
1.0
 40
1.0
 10
57.49065776902419
 20
171.8913233367209
 30
0.0
 10
57.49372890411058
 20
171.9915740214153
 30
0.0
 10
57.53706377710154
 20
173.406148947713
 30
0.0
 10
57.36944401741773
 20
176.1570495365896
 30
0.0
 10
56.95849444020387
 20
180.1363092527887
 30
0.0
 10
56.231902707248
 20
184.1238681104311
 30
0.0
 10
55.22328974223001
 20
188.0884801846273
 30
0.0
 10
53.92205733846787
 20
192.0012502384826
 30
0.0
 10
52.33363470895284
 20
195.8345093686125
 30
0.0
 10
50.46259079136923
 20
199.5621077030781
 30
0.0
 10
48.3168043858961
 20
203.1593116901256
 30
0.0
 10
45.90599392305646
 20
206.6028112836123
 30
0.0
 10
43.24182766807859
 20
209.8707070244127
 30
0.0
 10
40.33764774548346
 20
212.9425168550693
 30
0.0
 10
37.20832589495475
 20
215.7991831935157
 30
0.0
 10
33.87010496794301
 20
218.4231118796055
 30
0.0
 10
30.34044497482034
 20
220.7981207029186
 30
0.0
 10
26.63791104728174
 20
222.9097368494152
 30
0.0
 10
22.78190806241238
 20
224.7441823367423
 30
0.0
 10
18.79298692619503
 20
226.2922451039844
 30
0.0
 10
14.69099344057269
 20
227.5348193630529
 30
0.0
 10
10.58803560247808
 20
228.4770721088394
 30
0.0
 10
7.8344442580408
 20
228.8391618695591
 30
0.0
 10
6.500000000001796
 20
229.0146376543239
 30
0.0
  0
SPLINE
  5
B2
330
1F
100
AcDbEntity
  8
0
  6
Continuous
 62
     7
370
    15
100
AcDbSpline
210
0.0
220
0.0
230
1.0
 70
     8
 71
     3
 72
    22
 73
    18
 74
     0
 42
0.000000001
 43
0.00000001
 40
0.0
 40
0.0
 40
0.0
 40
0.0
 40
0.0043057431857372
 40
0.0856782416293034
 40
0.1675724850792358
 40
0.2501481073625393
 40
0.3336381318341015
 40
0.4085051964521437
 40
0.4832251681650238
 40
0.5576825646307851
 40
0.6316679016169995
 40
0.7047214327892319
 40
0.7756437027933776
 40
0.8401259723640899
 40
0.8873123752875263
 40
0.9351654390495514
 40
1.0
 40
1.0
 40
1.0
 40
1.0
 10
-6.499999999998217
 20
229.0157309842633
 30
0.0
 10
-6.576830274253494
 20
229.0097421604314
 30
0.0
 10
-8.105644817558014
 20
228.8905729779665
 30
0.0
 10
-11.06459426702432
 20
228.3511217076902
 30
0.0
 10
-15.35390899432144
 20
227.3699542206176
 30
0.0
 10
-19.58577511471589
 20
226.0136991225878
 30
0.0
 10
-23.58495420181618
 20
224.3910438720274
 30
0.0
 10
-27.32591343606711
 20
222.5376221221483
 30
0.0
 10
-30.78893885881667
 20
220.5099808300354
 30
0.0
 10
-34.08932979135502
 20
218.2549778619495
 30
0.0
 10
-37.20214467742269
 20
215.7953543605414
 30
0.0
 10
-40.09202064526469
 20
213.1706120839144
 30
0.0
 10
-42.6806168959625
 20
210.4802689082799
 30
0.0
 10
-44.79518709133494
 20
207.985953739939
 30
0.0
 10
-46.52355710794595
 20
205.7128179307578
 30
0.0
 10
-48.16200402803207
 20
203.3651345965012
 30
0.0
 10
-49.20038152564165
 20
201.6354595381766
 30
0.0
 10
-49.7978095868872
 20
200.640295044475
 30
0.0
  0
SPLINE
  5
B3
330
1F
100
AcDbEntity
  8
0
  6
Continuous
 62
     7
370
    15
100
AcDbSpline
210
0.0
220
0.0
230
1.0
 70
     8
 71
     3
 72
    56
 73
    52
 74
     0
 42
0.000000001
 43
0.00000001
 40
0.0
 40
0.0
 40
0.0
 40
0.0
 40
0.0057164891823102
 40
0.028890883727572
 40
0.0526657103528745
 40
0.077139410468021
 40
0.0992538183675412
 40
0.1214913098688168
 40
0.1438278746684595
 40
0.1662344897613543
 40
0.1886813789721072
 40
0.2111424261622653
 40
0.2335965911579576
 40
0.2560252473233807
 40
0.2784131853072727
 40
0.3007487699132292
 40
0.3230169898832749
 40
0.3451955275709931
 40
0.367246988006206
 40
0.3891021588290867
 40
0.4106173754570296
 40
0.4314409225173741
 40
0.4504227033309378
 40
0.4654383928489668
 40
0.4794689103894015
 40
0.501886540360294
 40
0.5265285559161612
 40
0.5364628959582053
 40
0.5529382339792684
 40
0.5699992832231927
 40
0.5882553530405685
 40
0.6072551517129987
 40
0.6268170672801396
 40
0.6467970335808877
 40
0.6670941392761325
 40
0.6876352595712528
 40
0.7083670530923932
 40
0.7292505009197907
 40
0.7502572687542519
 40
0.7713672287335543
 40
0.7925667449806251
 40
0.813844553061358
 40
0.8351946370179816
 40
0.8566156440494094
 40
0.8781109148430586
 40
0.8996904676177497
 40
0.9213745254340229
 40
0.9431984687565923
 40
0.9652181514777547
 40
0.9875135486984545
 40
1.0
 40
1.0
 40
1.0
 40
1.0
 10
-57.471069232609
 20
171.8539759668043
 30
0.0
 10
-57.47933089578283
 20
171.6417000791227
 30
0.0
 10
-57.5210849763976
 20
170.5688671228118
 30
0.0
 10
-57.28023753923835
 20
168.6143747914352
 30
0.0
 10
-56.72013611652074
 20
165.9922739991704
 30
0.0
 10
-55.81604307043593
 20
163.4572845657397
 30
0.0
 10
-54.64094023269914
 20
161.0406347523812
 30
0.0
 10
-53.23595844056769
 20
158.7682773569151
 30
0.0
 10
-51.56871336221963
 20
156.5657255200714
 30
0.0
 10
-49.64866227981658
 20
154.4450146630839
 30
0.0
 10
-47.48764040218737
 20
152.4170827164133
 30
0.0
 10
-45.0985711711464
 20
150.4916983364542
 30
0.0
 10
-42.4954975410831
 20
148.6775916810739
 30
0.0
 10
-39.6933953227424
 20
146.9825758386331
 30
0.0
 10
-36.70811286720541
 20
145.4136278819024
 30
0.0
 10
-33.55647057073465
 20
143.977017558485
 30
0.0
 10
-30.25667701925436
 20
142.6784477582007
 30
0.0
 10
-26.82925987892775
 20
141.5231884875009
 30
0.0
 10
-23.29865465737336
 20
140.5161241419088
 30
0.0
 10
-19.697076465038
 20
139.6619126624552
 30
0.0
 10
-16.07580576700571
 20
138.9655708107456
 30
0.0
 10
-12.55021703629268
 20
138.4353525043666
 30
0.0
 10
-9.355001900074791
 20
138.0765243749589
 30
0.0
 10
-6.532086182810104
 20
137.8492642135975
 30
0.0
 10
-3.491843657576835
 20
137.6859407753229
 30
0.0
 10
0.1318502433768805
 20
137.6119645625502
 30
0.0
 10
3.513072029297834
 20
137.6878440240211
 30
0.0
 10
6.528244916522576
 20
137.8508052024719
 30
0.0
 10
9.084832734781042
 20
138.051213772876
 30
0.0
 10
12.10554677060004
 20
138.3826367543465
 30
0.0
 10
15.23672063198967
 20
138.8316117952749
 30
0.0
 10
18.46073072421453
 20
139.411713399099
 30
0.0
 10
21.71625943297355
 20
140.1252652749487
 30
0.0
 10
24.96222670546536
 20
140.9735719314899
 30
0.0
 10
28.16420168393239
 20
141.9558811628042
 30
0.0
 10
31.29347177049317
 20
143.0701099026224
 30
0.0
 10
34.32548345532103
 20
144.313159223195
 30
0.0
 10
37.23890330558155
 20
145.6811873771075
 30
0.0
 10
40.01495683720326
 20
147.1698282945757
 30
0.0
 10
42.63693827960301
 20
148.774372999429
 30
0.0
 10
45.08969900802615
 20
150.4898382199306
 30
0.0
 10
47.35936995147662
 20
152.3110716993583
 30
0.0
 10
49.43307402541387
 20
154.2328161231712
 30
0.0
 10
51.2987507886784
 20
156.2498147220069
 30
0.0
 10
52.94468851925697
 20
158.356788118565
 30
0.0
 10
54.35978033318741
 20
160.5484004559306
 30
0.0
 10
55.53125236212975
 20
162.8192978052822
 30
0.0
 10
56.45192034734829
 20
165.164042109425
 30
0.0
 10
57.09119538330662
 20
167.5775188374422
 30
0.0
 10
57.4401975960586
 20
169.6768415318902
 30
0.0
 10
57.45256595365935
 20
170.9691978884802
 30
0.0
 10
57.45700611142619
 20
171.4331451884772
 30
0.0
  0
SPLINE
  5
B8
330
1F
100
AcDbEntity
  8
0
  6
Continuous
 62
     7
370
    15
100
AcDbSpline
210
0.0
220
0.0
230
1.0
 70
     8
 71
     3
 72
    15
 73
    11
 74
     0
 42
0.000000001
 43
0.00000001
 40
0.0
 40
0.0
 40
0.0
 40
0.0
 40
0.1522143541050759
 40
0.2998807958834376
 40
0.4396058295752303
 40
0.5712786330169539
 40
0.691550743577985
 40
0.7838651566338499
 40
0.8642624110863222
 40
0.9999999999999999
 40
0.9999999999999999
 40
0.9999999999999999
 40
0.9999999999999999
 10
-22.75218253015843
 20
635.7221480836066
 30
0.0
 10
-21.71448966434986
 20
635.146059177832
 30
0.0
 10
-19.67010847368749
 20
634.0110939468653
 30
0.0
 10
-16.50625722105878
 20
632.5893160726844
 30
0.0
 10
-13.38702072510341
 20
631.4243296572357
 30
0.0
 10
-10.37889153321162
 20
630.5407221867251
 30
0.0
 10
-7.672878052217646
 20
629.9439267133239
 30
0.0
 10
-5.335298573411079
 20
629.57906450664
 30
0.0
 10
-2.852930755108863
 20
629.3087963956267
 30
0.0
 10
-1.100540725871858
 20
629.2689173168154
 30
0.0
 10
0.0000000000028588
 20
629.2438723498786
 30
0.0
  0
SPLINE
  5
B9
330
1F
100
AcDbEntity
  8
0
  6
Continuous
 62
     7
370
    15
100
AcDbSpline
210
0.0
220
0.0
230
1.0
 70
     8
 71
     3
 72
    28
 73
    24
 74
     0
 42
0.000000001
 43
0.00000001
 40
0.0
 40
0.0
 40
0.0
 40
0.0
 40
0.0343287642547208
 40
0.0485732179524573
 40
0.0725140092595674
 40
0.0979971856896608
 40
0.1261807016182984
 40
0.1567243321223659
 40
0.1896767933136548
 40
0.2251460713736231
 40
0.263305597505984
 40
0.3043717885631277
 40
0.34858374870641
 40
0.3961097303217663
 40
0.447289346556229
 40
0.5025361999949322
 40
0.5621356726697734
 40
0.6263638660797118
 40
0.6954672160461991
 40
0.7694891689425375
 40
0.848928183457314
 40
0.9340749272537798
 40
1.0
 40
1.0
 40
1.0
 40
1.0
 10
0.0000000000028588
 20
629.2438723498786
 30
0.0
 10
1.124653895441875
 20
629.2694868316901
 30
0.0
 10
2.715974176559392
 20
629.3057298434842
 30
0.0
 10
5.074945785446846
 20
629.5486400001919
 30
0.0
 10
7.131936513487858
 20
629.8482097556868
 30
0.0
 10
9.605636636053399
 20
630.358025507331
 30
0.0
 10
12.23979428204881
 20
631.0680517274565
 30
0.0
 10
15.03674233179411
 20
632.0149649182939
 30
0.0
 10
17.96355679229289
 20
633.2203642500608
 30
0.0
 10
21.0013556199549
 20
634.7070617673187
 30
0.0
 10
24.13497938094905
 20
636.4967823332315
 30
0.0
 10
27.35212940317962
 20
638.6110447529821
 30
0.0
 10
30.63967632030429
 20
641.0695852528389
 30
0.0
 10
33.98621190191428
 20
643.8912695720124
 30
0.0
 10
37.38632312915536
 20
647.099343801268
 30
0.0
 10
40.83534757968719
 20
650.719844574909
 30
0.0
 10
44.32599988334871
 20
654.7780363749604
 30
0.0
 10
47.84720742041908
 20
659.2956960233292
 30
0.0
 10
51.38223300084798
 20
664.287809631313
 30
0.0
 10
54.91982018727231
 20
669.7711207441333
 30
0.0
 10
58.44626218572753
 20
675.7695095095695
 30
0.0
 10
61.62362200823031
 20
681.66024942091
 30
0.0
 10
63.5469318775897
 20
685.5810399882153
 30
0.0
 10
64.38623033810177
 20
687.292003748946
 30
0.0
  0
SPLINE
  5
BA
330
1F
100
AcDbEntity
  8
0
  6
Continuous
 62
     7
370
    15
100
AcDbSpline
210
0.0
220
0.0
230
1.0
 70
     8
 71
     3
 72
    20
 73
    16
 74
     0
 42
0.000000001
 43
0.00000001
 40
0.0
 40
0.0
 40
0.0
 40
0.0
 40
0.0716626882115675
 40
0.1925932016257957
 40
0.3058861995156196
 40
0.4115149247587186
 40
0.5097241024544718
 40
0.6010844220113536
 40
0.6862323384548995
 40
0.7574739613853291
 40
0.8238721399271302
 40
0.8858172972728574
 40
0.9440084751274144
 40
0.9986372402108893
 40
1.0
 40
1.0
 40
1.0
 40
1.0
 10
-64.38623033809178
 20
687.2920037489449
 30
0.0
 10
-63.70154159868871
 20
685.8918197956261
 30
0.0
 10
-61.86144321932755
 20
682.1288307539841
 30
0.0
 10
-58.71497921647417
 20
676.2360353754631
 30
0.0
 10
-54.94690513811886
 20
669.801854765684
 30
0.0
 10
-51.14576542606873
 20
663.9260448076565
 30
0.0
 10
-47.330421761026
 20
658.5922744137597
 30
0.0
 10
-43.50976646230231
 20
653.7792071303558
 30
0.0
 10
-39.80923820982009
 20
649.5966345433175
 30
0.0
 10
-36.25453091702319
 20
645.9919884093371
 30
0.0
 10
-32.87059692095492
 20
642.9162516853886
 30
0.0
 10
-29.52595113981775
 20
640.1939278516212
 30
0.0
 10
-26.19533915810223
 20
637.8402560455224
 30
0.0
 10
-23.95279114999904
 20
636.3650906345941
 30
0.0
 10
-22.78070945119321
 20
635.7374246450767
 30
0.0
 10
-22.75218253015793
 20
635.7221480836066
 30
0.0
  0
SPLINE
  5
BB
330
1F
100
AcDbEntity
  8
0
  6
Continuous
 62
     7
370
    15
100
AcDbSpline
210
0.0
220
0.0
230
1.0
 70
     8
 71
     3
 72
    38
 73
    34
 74
     0
 42
0.000000001
 43
0.00000001
 40
0.0
 40
0.0
 40
0.0
 40
0.0
 40
0.0130619772706975
 40
0.036827300829851
 40
0.0617622862189817
 40
0.0880947237260702
 40
0.1158081449282062
 40
0.1448778069518987
 40
0.1752647342847503
 40
0.2069154568257369
 40
0.2397618939163758
 40
0.27372153124687
 40
0.3086979080458312
 40
0.3445814226852489
 40
0.3812504512363844
 40
0.4185727590151187
 40
0.4564071708821286
 40
0.494605453473433
 40
0.5330144246209846
 40
0.5714750508335001
 40
0.6097861808900003
 40
0.6477766695014243
 40
0.685292809634287
 40
0.7221864419463594
 40
0.758317134454012
 40
0.7935542114131172
 40
0.8277785611906889
 40
0.8608841678908219
 40
0.892779325698646
 40
0.9233875113932858
 40
0.9526479077789672
 40
0.9805155874415871
 40
1.0
 40
1.0
 40
1.0
 40
1.0
 10
65.83038284595189
 20
691.1703410602215
 30
0.0
 10
66.49770309366504
 20
692.6633345576778
 30
0.0
 10
68.37916429996449
 20
696.8727218141679
 30
0.0
 10
71.29329179430138
 20
704.0098722256197
 30
0.0
 10
74.56127256656674
 20
712.7581038543648
 30
0.0
 10
77.70539870403775
 20
722.0446245792998
 30
0.0
 10
80.7217360644352
 20
731.886598663325
 30
0.0
 10
83.58828384703841
 20
742.2724108219113
 30
0.0
 10
86.28549389036097
 20
753.1848783233968
 30
0.0
 10
88.79335363174783
 20
764.6015049827232
 30
0.0
 10
91.09253493719982
 20
776.4941386621994
 30
0.0
 10
93.16444660680212
 20
788.8291093483476
 30
0.0
 10
94.99160702878953
 20
801.5673778151503
 30
0.0
 10
96.55792261624215
 20
814.6648376241137
 30
0.0
 10
97.84897848479432
 20
828.072730935148
 30
0.0
 10
98.85229984878832
 20
841.7381731396954
 30
0.0
 10
99.55758448261051
 20
855.6048048419834
 30
0.0
 10
99.95689793448206
 20
869.6134324967283
 30
0.0
 10
100.0448171628118
 20
883.702755879686
 30
0.0
 10
99.81852036217998
 20
897.8048273076228
 30
0.0
 10
99.2784818068013
 20
911.8493160091491
 30
0.0
 10
98.42855437969855
 20
925.7666381175418
 30
0.0
 10
97.2753116538225
 20
939.4937833913424
 30
0.0
 10
95.82779478314676
 20
952.9716343434228
 30
0.0
 10
94.09742247097635
 20
966.1440524423505
 30
0.0
 10
92.09781471791028
 20
978.9586481067931
 30
0.0
 10
89.844466796917
 20
991.3674334608143
 30
0.0
 10
87.3547662472804
 20
1003.327474348529
 30
0.0
 10
84.646635150091
 20
1014.801041198824
 30
0.0
 10
81.74191032557182
 20
1025.756961917063
 30
0.0
 10
78.65301969068938
 20
1036.1671543945
 30
0.0
 10
75.6965665221113
 20
1045.198724583216
 30
0.0
 10
73.67460581919869
 20
1050.730176290356
 30
0.0
 10
72.84261055426828
 20
1053.006254960878
 30
0.0
  0
SPLINE
  5
BC
330
1F
100
AcDbEntity
  8
0
  6
Continuous
 62
     7
370
    15
100
AcDbSpline
210
0.0
220
0.0
230
1.0
 70
     8
 71
     3
 72
    38
 73
    34
 74
     0
 42
0.000000001
 43
0.00000001
 40
0.0
 40
0.0
 40
0.0
 40
0.0
 40
0.014498664306225
 40
0.0411681072143939
 40
0.068991043647114
 40
0.098169903215543
 40
0.1286607973320922
 40
0.1604099003280047
 40
0.1933486497259659
 40
0.2273939610490329
 40
0.2624486693375646
 40
0.2984022985078766
 40
0.3351321576286633
 40
0.3725047497569133
 40
0.4103774635298456
 40
0.4486005030951832
 40
0.4870189995045685
 40
0.525475247405351
 40
0.5637680118699794
 40
0.6017244444437689
 40
0.6391923692331271
 40
0.6760254759382933
 40
0.7120850439540933
 40
0.7472419107113663
 40
0.7813782481695898
 40
0.8143890908617527
 40
0.8461835708252538
 40
0.8766858294028246
 40
0.9058355921312069
 40
0.9335884093658537
 40
0.9599155806360244
 40
0.984803793976267
 40
1.0
 40
1.0
 40
1.0
 40
1.0
 10
-72.8426105542753
 20
1053.006254960878
 30
0.0
 10
-73.46477013912816
 20
1051.313446941861
 30
0.0
 10
-75.23135580196669
 20
1046.506817824286
 30
0.0
 10
-77.94812840070877
 20
1038.387170520897
 30
0.0
 10
-80.96430619095352
 20
1028.47493027686
 30
0.0
 10
-83.81655428156193
 20
1018.045447257653
 30
0.0
 10
-86.49907739678414
 20
1007.091252962277
 30
0.0
 10
-88.99022068716566
 20
995.6351359064453
 30
0.0
 10
-91.2712451463253
 20
983.7055951752458
 30
0.0
 10
-93.32355338380471
 20
971.3365127749258
 30
0.0
 10
-95.12982626226496
 20
958.5672234529833
 30
0.0
 10
-96.67408591865656
 20
945.4421646816528
 30
0.0
 10
-97.94204979772037
 20
932.0104872439626
 30
0.0
 10
-98.92137890025168
 20
918.3255218478049
 30
0.0
 10
-99.60191954512955
 20
904.4441420791771
 30
0.0
 10
-99.97590244379518
 20
890.426038623946
 30
0.0
 10
-100.0380915304806
 20
876.3329004496003
 30
0.0
 10
-99.78600401807694
 20
862.2328890821802
 30
0.0
 10
-99.22038083579118
 20
848.1960891222478
 30
0.0
 10
-98.3452974769195
 20
834.2921852909355
 30
0.0
 10
-97.16757074372806
 20
820.5840043712693
 30
0.0
 10
-95.69643286891122
 20
807.1300639522174
 30
0.0
 10
-93.94346996686292
 20
793.9858908146548
 30
0.0
 10
-91.92243093332075
 20
781.2033265324286
 30
0.0
 10
-89.64898404463122
 20
768.829864054671
 30
0.0
 10
-87.14046573244319
 20
756.9080728819251
 30
0.0
 10
-84.4154962095631
 20
745.4751746855077
 30
0.0
 10
-81.49394348220362
 20
734.5626186735968
 30
0.0
 10
-78.3955834743999
 20
724.19623284127
 30
0.0
 10
-75.1432681788067
 20
714.3949574539971
 30
0.0
 10
-71.75045073698574
 20
705.1750790336582
 30
0.0
 10
-68.64829967631452
 20
697.4910993659122
 30
0.0
 10
-66.60500586100804
 20
692.9078674497259
 30
0.0
 10
-65.83038284595392
 20
691.1703410602208
 30
0.0
  0
SPLINE
  5
BD
330
1F
100
AcDbEntity
  8
0
  6
Continuous
 62
     7
370
    15
100
AcDbSpline
210
0.0
220
0.0
230
1.0
 70
     8
 71
     3
 72
    12
 73
     8
 74
     0
 42
0.000000001
 43
0.00000001
 40
0.0
 40
0.0
 40
0.0
 40
0.0
 40
0.0265641399382685
 40
0.3367611264575054
 40
0.6399580692022001
 40
0.9360021553298206
 40
1.0
 40
1.0
 40
1.0
 40
1.0
 10
58.9122545018196
 20
680.5944940926113
 30
0.0
 10
58.98983860161164
 20
680.6763369323896
 30
0.0
 10
59.97339421086047
 20
681.7138817947609
 30
0.0
 10
61.60351332738848
 20
683.8684093999703
 30
0.0
 10
63.71342953937624
 20
687.0482722216864
 30
0.0
 10
65.08840168811139
 20
689.4744086974047
 30
0.0
 10
65.66900128636135
 20
690.8649787481738
 30
0.0
 10
65.77220349623184
 20
691.1121540866544
 30
0.0
  0
SPLINE
  5
BE
330
1F
100
AcDbEntity
  8
0
  6
Continuous
 62
     7
370
    15
100
AcDbSpline
210
0.0
220
0.0
230
1.0
 70
     8
 71
     3
 72
    12
 73
     8
 74
     0
 42
0.000000001
 43
0.00000001
 40
0.0
 40
0.0
 40
0.0
 40
0.0
 40
0.0247254264400456
 40
0.2847384112698876
 40
0.5489285180303992
 40
0.8181701515638088
 40
1.0
 40
1.0
 40
1.0
 40
1.0
 10
-65.78664835045814
 20
691.1055183482292
 30
0.0
 10
-65.74494654843772
 20
691.0040486417579
 30
0.0
 10
-65.2647079210808
 20
689.8355218589037
 30
0.0
 10
-64.0792062292412
 20
687.6958387641617
 30
0.0
 10
-62.20637740275217
 20
684.7059784792292
 30
0.0
 10
-60.29985650164039
 20
682.1398533699868
 30
0.0
 10
-58.93665874448575
 20
680.6402182747122
 30
0.0
 10
-58.38714486147619
 20
680.0357056132317
 30
0.0
  0
LWPOLYLINE
  5
BF
330
1F
100
AcDbEntity
  8
0
  6
Continuous
 62
     7
370
    15
100
AcDbPolyline
 90
        7
 70
   128
 43
0.0
 10
-4.0656854249
 20
64.5105237689
 10
-3.9911943836
 20
64.095884735
 10
-3.5723742652
 20
63.4762564479
 10
-2.8277327575
 20
62.9687070733
 10
-1.8379633219
 20
62.6282374615
 10
-0.7103228348
 20
62.4917427777
 10
-0.2121320344
 20
62.5003519185
  0
LWPOLYLINE
  5
C0
330
1F
100
AcDbEntity
  8
0
  6
Continuous
 62
     7
370
    15
100
AcDbPolyline
 90
        3
 70
   128
 43
0.0
 10
2.8975742554
 20
65.2886762819
 10
3.0508978791
 20
65.1353993846
 10
3.1880855296
 20
64.9703687396
  0
LWPOLYLINE
  5
C1
330
1F
100
AcDbEntity
  8
0
  6
Continuous
 62
     7
370
    15
100
AcDbPolyline
 90
       10
 70
   128
 43
0.0
 10
0.311362053
 20
61.7254092433
 10
-0.7186387271
 20
61.6721446743
 10
-1.9167327542
 20
61.8030109612
 10
-2.9947802971
 20
62.131929157
 10
-3.8569921007
 20
62.6296734364
 10
-4.4267568624
 20
63.252017036
 10
-4.653448483
 20
63.9436619957
 10
-4.516924417
 20
64.6431526258
 10
-4.0293154268
 20
65.2883361139
 10
-4.0289451053
 20
65.2886762819
  0
LWPOLYLINE
  5
C2
330
1F
100
AcDbEntity
  8
0
  6
Continuous
 62
     7
370
    15
100
AcDbPolyline
 90
        9
 70
   128
 43
0.0
 10
-3.0405591591
 20
66.425399068
 10
-3.7100538616
 20
65.8840846511
 10
-4.038807454
 20
65.2466066987
 10
-3.9911943836
 20
64.5820458385
 10
-3.5723742652
 20
63.9624175514
 10
-2.8277327575
 20
63.4548681768
 10
-1.8379633219
 20
63.1143985649
 10
-0.7103228348
 20
62.9779038812
 10
-0.2121320344
 20
62.9865130219
  0
LWPOLYLINE
  5
C5
330
1F
100
AcDbEntity
  8
0
  6
Continuous
 62
     7
370
    15
100
AcDbPolyline
 90
        9
 70
   128
 43
0.0
 10
-2.6162950904
 20
66.1804766344
 10
-1.7370563391
 20
66.5281727245
 10
-0.699617455
 20
66.6690328938
 10
0.3559096918
 20
66.584033196
 10
1.2869703114
 20
66.2846533113
 10
1.9678195079
 20
65.8113261521
 10
2.3065048246
 20
65.2279771739
 10
2.2572849327
 20
64.6133908887
 10
2.1061471094
 20
64.3457789844
  0
LWPOLYLINE
  5
C6
330
1F
100
AcDbEntity
  8
0
  6
Continuous
 62
     7
370
    15
100
AcDbPolyline
 90
        9
 70
   128
 43
0.0
 10
0.5618388135
 20
63.4542687815
 10
0.0982711699
 20
63.3670187733
 10
-0.9663388543
 20
63.3386047345
 10
-1.9768384128
 20
63.534123606
 10
-2.7967539408
 20
63.927169481
 10
-3.315351303
 20
64.4646593359
 10
-3.4625910519
 20
65.0740021875
 10
-3.2185876436
 20
65.6729029073
 10
-2.6162950904
 20
66.1804766344
  0
LWPOLYLINE
  5
CA
330
1F
100
AcDbEntity
  8
0
  6
Continuous
 62
     7
370
    15
100
AcDbPolyline
 90
        9
 70
   128
 43
0.0
 10
-0.2027531066
 20
59.2459628471
 10
-0.7209505214
 20
59.2384655457
 10
-1.9371529962
 20
59.3713097954
 10
-3.0314945588
 20
59.7051993856
 10
-3.9067381588
 20
60.2104667609
 10
-4.4851145614
 20
60.8422166978
 10
-4.7152324851
 20
61.5443154419
 10
-4.5766449426
 20
62.2543784388
 10
-4.1252472942
 20
62.8683678511
  0
LWPOLYLINE
  5
CB
330
1F
100
AcDbEntity
  8
0
  6
Continuous
 62
     7
370
    15
100
AcDbPolyline
 90
       11
 70
   128
 43
0.0
 10
-4.0656854249
 20
-0.3265800786
 10
-3.9911943836
 20
-0.7412191124
 10
-3.5723742652
 20
-1.3608473995
 10
-2.8277327575
 20
-1.8683967741
 10
-1.8379633219
 20
-2.2088663859
 10
-0.7103228348
 20
-2.3453610697
 10
0.4329913599
 20
-2.2630895085
 10
1.468083429
 20
-1.9709671025
 10
2.2827850855
 20
-1.5006498471
 10
2.7888107637
 20
-0.9031039148
 10
2.9343145751
 20
-0.3265800786
  0
LWPOLYLINE
  5
D9
330
1F
100
AcDbEntity
  8
0
  6
Continuous
 62
     7
370
    15
100
AcDbPolyline
 90
        6
 70
   128
 43
0.0
 10
4.1132506858
 20
137.7349077787
 10
4.1888153884
 20
137.5329309
 10
4.2426406871
 20
137.1893815759
 10
4.1888153884
 20
136.9079776189
 10
4.0355339059
 20
136.7315602306
 10
4.0354932723
 20
136.7315367694
  0
LWPOLYLINE
  5
E4
330
1F
100
AcDbEntity
  8
0
  6
Continuous
 62
     7
370
    15
100
AcDbPolyline
 90
       10
 70
   128
 43
0.0
 10
6.3639610307
 20
97.1790808436
 10
6.5132141795
 20
98.0703757541
 10
6.9429714934
 20
98.6818433267
 10
7.6013978978
 20
98.9397315479
 10
8.4090774509
 20
98.8129352921
 10
9.2685920787
 20
98.3167480591
 10
10.0762716319
 20
97.5110173522
 10
10.7346980363
 20
96.4929261859
 10
11.1644553502
 20
95.3852713803
 10
11.313708499
 20
94.3216524522
  0
LWPOLYLINE
  5
E9
330
1F
100
AcDbEntity
  8
0
  6
Continuous
 62
     7
370
    15
100
AcDbPolyline
 90
       15
 70
   128
 43
0.0
 10
20.2444671454
 20
75.284841424
 10
21.4245626055
 20
74.4500439437
 10
22.5454831517
 20
73.3500209507
 10
23.5510211471
 20
72.0399321912
 10
24.3907547179
 20
70.5854709861
 10
25.0225761164
 20
69.0595700934
 10
25.4148031794
 20
67.5387445556
 10
25.5477680043
 20
66.0992549155
 10
25.4148031794
 20
64.8132831945
 10
25.0225761164
 20
63.7453133844
 10
24.3907547179
 20
62.9488979509
 10
23.5510211471
 20
62.4639724894
 10
22.5454831517
 20
62.3148531875
 10
21.4245626055
 20
62.5090175096
 10
20.2444671454
 20
63.0367292457
  0
LWPOLYLINE
  5
F2
330
1F
100
AcDbEntity
  8
0
  6
Continuous
 62
     7
370
    15
100
AcDbPolyline
 90
       22
 70
   128
 43
0.0
 10
20.2444671454
 20
72.5297236237
 10
21.1043941738
 20
71.8836258413
 10
21.8879129121
 20
70.9955917308
 10
22.5254042818
 20
69.9445270201
 10
22.9602243773
 20
68.8238234214
 10
23.1537375248
 20
67.7330603673
 10
23.0887492319
 20
66.7691569421
 10
22.7710339938
 20
66.0177601951
 10
22.2288222035
 20
65.5456350247
 10
21.510291758
 20
65.3947318242
 10
20.6792872408
 20
65.5784590051
 10
19.8096470499
 20
66.0804916013
 10
18.9786425327
 20
66.8562218133
 10
18.2601120873
 20
67.8367226076
 10
17.717900297
 20
68.9348721858
 10
17.4001850588
 20
70.0530951387
 10
17.335196766
 20
71.0920324496
 10
17.5287099135
 20
71.9593699793
 10
17.9635300089
 20
72.578040982
 10
18.6010213786
 20
72.893073824
 10
19.3845401169
 20
72.8764764549
 10
20.2444671454
 20
72.5297236237
  0
LWPOLYLINE
  5
F3
330
1F
100
AcDbEntity
  8
0
  6
Continuous
 62
     7
370
    15
100
AcDbPolyline
 90
       17
 70
   128
 43
0.0
 10
8.8388347648
 20
97.2755002614
 10
9.344257367
 20
96.8676321202
 10
9.7727339597
 20
96.2896704388
 10
10.0590328657
 20
95.629604644
 10
10.159567672
 20
94.9879237696
 10
10.0590328657
 20
94.4623179119
 10
9.7727339597
 20
94.1328057981
 10
9.344257367
 20
94.0495526604
 10
8.8388347648
 20
94.2252330344
 10
8.3334121627
 20
94.6331011757
 10
7.90493557
 20
95.2110628571
 10
7.618636664
 20
95.8711286518
 10
7.5181018576
 20
96.5128095262
 10
7.618636664
 20
97.0384153839
 10
7.90493557
 20
97.3679274978
 10
8.3334121627
 20
97.4511806354
 10
8.8388347648
 20
97.2755002614
  0
LWPOLYLINE
  5
FD
330
1F
100
AcDbEntity
  8
0
  6
Continuous
 62
     7
370
    15
100
AcDbPolyline
 90
       12
 70
   128
 43
0.0
 10
0.9142541961
 20
137.2390223265
 10
1.1436155123
 20
137.2835717369
 10
1.4142135624
 20
137.189514276
 10
1.6848116124
 20
136.9711458784
 10
1.9142135624
 20
136.6617111533
 10
2.0674950448
 20
136.3083187323
 10
2.1213203436
 20
135.9647694082
 10
2.0674950448
 20
135.6833654512
 10
1.9142135624
 20
135.5069480629
 10
1.6848116124
 20
135.4623751913
 10
1.4142135624
 20
135.5564326522
 10
1.4142135624
 20
135.5564326522
  0
LWPOLYLINE
  5
102
330
1F
100
AcDbEntity
  8
0
  6
Continuous
 62
     7
370
    15
100
AcDbPolyline
 90
        8
 70
   128
 43
0.0
 10
2.5
 20
119.3291971822
 10
2.5548658462
 20
119.2593819449
 10
2.668677342
 20
119.0427915499
 10
2.7071067812
 20
118.8175450586
 10
2.668677342
 20
118.5922985674
 10
2.5548658462
 20
118.3757081724
 10
2.3700460058
 20
118.1760973212
 10
2.1213203436
 20
118.0011369468
  0
LWPOLYLINE
  5
103
330
1F
100
AcDbEntity
  8
0
  6
Continuous
 62
     7
370
    15
100
AcDbPolyline
 90
        3
 70
   128
 43
0.0
 10
2.5778920295
 20
118.4092746527
 10
2.5548658462
 20
118.442841133
 10
2.5
 20
118.5126563703
  0
LWPOLYLINE
  5
11F
330
1F
100
AcDbEntity
  8
0
  6
Continuous
 62
     7
370
    15
100
AcDbPolyline
 90
        8
 70
   128
 43
0.0
 10
12.1622366364
 20
94.8114973193
 10
12.0129834876
 20
95.8751162474
 10
11.5832261737
 20
96.982771053
 10
10.9247997693
 20
98.0008622193
 10
10.1171202161
 20
98.8065929262
 10
9.2576055884
 20
99.3027801592
 10
8.4499260352
 20
99.429576415
 10
7.9375051201
 20
99.2713825333
  0
LWPOLYLINE
  5
121
330
1F
100
AcDbEntity
  8
0
  6
Continuous
 62
     7
370
    15
100
AcDbPolyline
 90
       12
 70
   128
 43
0.0
 10
24.8426905302
 20
63.1552637341
 10
25.2392828553
 20
63.438742818
 10
25.8711042538
 20
64.2351582515
 10
26.2633313168
 20
65.3031280616
 10
26.3962961417
 20
66.5890997826
 10
26.2633313168
 20
68.0285894227
 10
25.8711042538
 20
69.5494149605
 10
25.2392828553
 20
71.0753158532
 10
24.3995492845
 20
72.5297770583
 10
23.3940112891
 20
73.8398658178
 10
22.273090743
 20
74.9398888108
 10
21.0929952828
 20
75.7746862911
  0
LWPOLYLINE
  5
129
330
1F
100
AcDbEntity
  8
0
  6
Continuous
 62
     7
370
    15
100
AcDbPolyline
 90
       11
 70
   128
 43
0.0
 10
22.6874090463
 20
65.9088763099
 10
22.3588198955
 20
65.8845766913
 10
21.5278153782
 20
66.0683038722
 10
20.6581751874
 20
66.5703364684
 10
19.8271706701
 20
67.3460666804
 10
19.1086402247
 20
68.3265674747
 10
18.5664284344
 20
69.4247170529
 10
18.2487131963
 20
70.5429400058
 10
18.1837249034
 20
71.5818773167
 10
18.3772380509
 20
72.4492148464
 10
18.6500533819
 20
72.9025392269
  0
LWPOLYLINE
  5
162
330
1F
100
AcDbEntity
  8
0
  6
Continuous
 62
     7
370
    15
100
AcDbPolyline
 90
        9
 70
   128
 43
0.0
 10
2.3334523779
 20
75.7713508038
 10
2.7028448614
 20
75.3559825989
 10
2.997755696
 20
74.8588827844
 10
3.187801632
 20
74.3312651721
 10
3.2534031472
 20
73.8274876759
 10
3.187801632
 20
73.3994520769
 10
2.997755696
 20
73.0912568317
 10
2.7028448614
 20
72.9346538193
 10
2.3334523779
 20
72.9457770976
  0
LWPOLYLINE
  5
166
330
1F
100
AcDbEntity
  8
0
  6
Continuous
 62
     7
370
    15
100
AcDbPolyline
 90
        9
 70
   128
 43
0.0
 10
1.6263455967
 20
73.3539811535
 10
1.2569531133
 20
73.7693493584
 10
0.9620422786
 20
74.2664491729
 10
0.7719963427
 20
74.7940667852
 10
0.7063948274
 20
75.2978442814
 10
0.7719963427
 20
75.7258798804
 10
0.9620422786
 20
76.0340751256
 10
1.2569531133
 20
76.190678138
 10
1.6263455967
 20
76.1795548597
  0
LWPOLYLINE
  5
16A
330
1F
100
AcDbEntity
  8
0
  6
Continuous
 62
     7
370
    15
100
AcDbPolyline
 90
        7
 70
   128
 43
0.0
 10
4.1014349678
 20
74.3586720946
 10
4.0049915526
 20
74.9360672306
 10
3.7289305521
 20
75.5725294031
 10
3.3157760678
 20
76.1298234642
 10
2.8284271247
 20
76.523106445
 10
2.3410781817
 20
76.6925045769
 10
1.927996879
 20
76.6122707833
  0
LWPOLYLINE
  5
175
330
1F
100
AcDbEntity
  8
0
  6
Continuous
 62
     7
370
    15
100
AcDbPolyline
 90
        9
 70
   128
 43
0.0
 10
2.3334523779
 20
69.7272488082
 10
2.7028448614
 20
69.3118806032
 10
2.997755696
 20
68.8147807888
 10
3.187801632
 20
68.2871631764
 10
3.2534031472
 20
67.7833856802
 10
3.187801632
 20
67.3553500813
 10
2.997755696
 20
67.0471548361
 10
2.7028448614
 20
66.8905518237
 10
2.3334523779
 20
66.901675102
  0
LWPOLYLINE
  5
179
330
1F
100
AcDbEntity
  8
0
  6
Continuous
 62
     7
370
    15
100
AcDbPolyline
 90
        9
 70
   128
 43
0.0
 10
1.6263455967
 20
67.3098791579
 10
1.2569531133
 20
67.7252473628
 10
0.9620422786
 20
68.2223471773
 10
0.7719963427
 20
68.7499647896
 10
0.7063948274
 20
69.2537422858
 10
0.7719963427
 20
69.6817778848
 10
0.9620422786
 20
69.98997313
 10
1.2569531133
 20
70.1465761424
 10
1.6263455967
 20
70.1354528641
  0
LWPOLYLINE
  5
17D
330
1F
100
AcDbEntity
  8
0
  6
Continuous
 62
     7
370
    15
100
AcDbPolyline
 90
        7
 70
   128
 43
0.0
 10
4.1014349678
 20
68.3145700989
 10
4.0049915526
 20
68.891965235
 10
3.7289305521
 20
69.5284274075
 10
3.3157760678
 20
70.0857214686
 10
2.8284271247
 20
70.4790044494
 10
2.3410781817
 20
70.6484025812
 10
1.927996879
 20
70.5681687877
  0
LWPOLYLINE
  5
17F
330
1F
100
AcDbEntity
  8
0
  6
Continuous
 62
     7
370
    15
100
AcDbPolyline
 90
        9
 70
   128
 43
0.0
 10
-3.1819805153
 20
78.9553424399
 10
-2.8125880319
 20
78.539974235
 10
-2.5176771972
 20
78.0428744205
 10
-2.3276312613
 20
77.5152568082
 10
-2.262029746
 20
77.011479312
 10
-2.3276312613
 20
76.583443713
 10
-2.5176771972
 20
76.2752484678
 10
-2.8125880319
 20
76.1186454554
 10
-3.1819805153
 20
76.1297687337
  0
LWPOLYLINE
  5
183
330
1F
100
AcDbEntity
  8
0
  6
Continuous
 62
     7
370
    15
100
AcDbPolyline
 90
        9
 70
   128
 43
0.0
 10
-3.8890872965
 20
76.5379727896
 10
-4.25847978
 20
76.9533409945
 10
-4.5533906146
 20
77.450440809
 10
-4.7434365506
 20
77.9780584213
 10
-4.8090380658
 20
78.4818359175
 10
-4.7434365506
 20
78.9098715165
 10
-4.5533906146
 20
79.2180667617
 10
-4.25847978
 20
79.3746697741
 10
-3.8890872965
 20
79.3635464958
  0
LWPOLYLINE
  5
187
330
1F
100
AcDbEntity
  8
0
  6
Continuous
 62
     7
370
    15
100
AcDbPolyline
 90
        7
 70
   128
 43
0.0
 10
-1.4139979255
 20
77.5426637308
 10
-1.5104413406
 20
78.1200588667
 10
-1.7865023412
 20
78.7565210392
 10
-2.1996568255
 20
79.3138151003
 10
-2.6870057685
 20
79.7070980812
 10
-3.1743547115
 20
79.876496213
 10
-3.5874360143
 20
79.7962624195
  0
LWPOLYLINE
  5
198
330
1F
100
AcDbEntity
  8
0
  6
Continuous
 62
     7
370
    15
100
AcDbPolyline
 90
        9
 70
   128
 43
0.0
 10
-3.1819805153
 20
72.9112404443
 10
-2.8125880319
 20
72.4958722393
 10
-2.5176771972
 20
71.9987724249
 10
-2.3276312613
 20
71.4711548125
 10
-2.262029746
 20
70.9673773163
 10
-2.3276312613
 20
70.5393417174
 10
-2.5176771972
 20
70.2311464722
 10
-2.8125880319
 20
70.0745434598
 10
-3.1819805153
 20
70.0856667381
  0
LWPOLYLINE
  5
19C
330
1F
100
AcDbEntity
  8
0
  6
Continuous
 62
     7
370
    15
100
AcDbPolyline
 90
        9
 70
   128
 43
0.0
 10
-3.8890872965
 20
70.493870794
 10
-4.25847978
 20
70.9092389989
 10
-4.5533906146
 20
71.4063388134
 10
-4.7434365506
 20
71.9339564257
 10
-4.8090380658
 20
72.4377339219
 10
-4.7434365506
 20
72.8657695209
 10
-4.5533906146
 20
73.1739647661
 10
-4.25847978
 20
73.3305677785
 10
-3.8890872965
 20
73.3194445002
  0
LWPOLYLINE
  5
1A0
330
1F
100
AcDbEntity
  8
0
  6
Continuous
 62
     7
370
    15
100
AcDbPolyline
 90
        7
 70
   128
 43
0.0
 10
-1.4139979254
 20
71.4985617349
 10
-1.5104413406
 20
72.0759568711
 10
-1.7865023412
 20
72.7124190436
 10
-2.1996568255
 20
73.2697131047
 10
-2.6870057685
 20
73.6629960855
 10
-3.1743547115
 20
73.8323942173
 10
-3.5874360143
 20
73.7521604238
  0
LWPOLYLINE
  5
1A2
330
1F
100
AcDbEntity
  8
0
  6
Continuous
 62
     7
370
    15
100
AcDbPolyline
 90
        9
 70
   128
 43
0.0
 10
-8.6974134086
 20
82.139334076
 10
-8.3280209252
 20
81.7239658711
 10
-8.0331100905
 20
81.2268660566
 10
-7.8430641545
 20
80.6992484443
 10
-7.7774626393
 20
80.1954709481
 10
-7.8430641545
 20
79.7674353491
 10
-8.0331100905
 20
79.4592401039
 10
-8.3280209252
 20
79.3026370915
 10
-8.6974134086
 20
79.3137603698
  0
LWPOLYLINE
  5
1A6
330
1F
100
AcDbEntity
  8
0
  6
Continuous
 62
     7
370
    15
100
AcDbPolyline
 90
        9
 70
   128
 43
0.0
 10
-9.4045201898
 20
79.7219644257
 10
-9.7739126732
 20
80.1373326307
 10
-10.0688235079
 20
80.6344324451
 10
-10.2588694438
 20
81.1620500574
 10
-10.3244709591
 20
81.6658275537
 10
-10.2588694438
 20
82.0938631526
 10
-10.0688235079
 20
82.4020583978
 10
-9.7739126732
 20
82.5586614102
 10
-9.4045201898
 20
82.5475381319
  0
LWPOLYLINE
  5
1AA
330
1F
100
AcDbEntity
  8
0
  6
Continuous
 62
     7
370
    15
100
AcDbPolyline
 90
        7
 70
   128
 43
0.0
 10
-6.9294308187
 20
80.7266553666
 10
-7.0258742339
 20
81.3040505028
 10
-7.3019352344
 20
81.9405126753
 10
-7.7150897187
 20
82.4978067364
 10
-8.2024386618
 20
82.8910897173
 10
-8.6897876048
 20
83.0604878491
 10
-9.1028689075
 20
82.9802540556
  0
LWPOLYLINE
  5
1BB
330
1F
100
AcDbEntity
  8
0
  6
Continuous
 62
     7
370
    15
100
AcDbPolyline
 90
        9
 70
   128
 43
0.0
 10
-8.6974134086
 20
76.0952320804
 10
-8.3280209252
 20
75.6798638754
 10
-8.0331100905
 20
75.182764061
 10
-7.8430641545
 20
74.6551464487
 10
-7.7774626393
 20
74.1513689524
 10
-7.8430641545
 20
73.7233333535
 10
-8.0331100905
 20
73.4151381083
 10
-8.3280209252
 20
73.2585350959
 10
-8.6974134086
 20
73.2696583742
  0
LWPOLYLINE
  5
1BF
330
1F
100
AcDbEntity
  8
0
  6
Continuous
 62
     7
370
    15
100
AcDbPolyline
 90
        9
 70
   128
 43
0.0
 10
-9.4045201898
 20
73.6778624301
 10
-9.7739126732
 20
74.093230635
 10
-10.0688235079
 20
74.5903304495
 10
-10.2588694438
 20
75.1179480618
 10
-10.3244709591
 20
75.621725558
 10
-10.2588694438
 20
76.049761157
 10
-10.0688235079
 20
76.3579564022
 10
-9.7739126732
 20
76.5145594146
 10
-9.4045201898
 20
76.5034361363
  0
LWPOLYLINE
  5
1C3
330
1F
100
AcDbEntity
  8
0
  6
Continuous
 62
     7
370
    15
100
AcDbPolyline
 90
        7
 70
   128
 43
0.0
 10
-6.9294308187
 20
74.6825533708
 10
-7.0258742339
 20
75.2599485072
 10
-7.3019352344
 20
75.8964106797
 10
-7.7150897187
 20
76.4537047408
 10
-8.2024386618
 20
76.8469877216
 10
-8.6897876048
 20
77.0163858534
 10
-9.1028689075
 20
76.9361520599
  0
LWPOLYLINE
  5
1D2
330
1F
100
AcDbEntity
  8
0
  6
Continuous
 62
     7
370
    15
100
AcDbPolyline
 90
        8
 70
   128
 43
0.0
 10
-2.1920310217
 20
529.4968857316
 10
-1.3101166114
 20
529.1403972236
 10
-0.2701828025
 20
528.979536335
 10
0.8023390398
 20
529.033705263
 10
1.7780869527
 20
529.2963704355
 10
2.5393713373
 20
529.7358505562
 10
2.9943700615
 20
530.2991378364
 10
3.1
 20
530.762318305
  0
LWPOLYLINE
  5
1D6
330
1F
100
AcDbEntity
  8
0
  6
Continuous
 62
     7
370
    15
100
AcDbPolyline
 90
       10
 70
   128
 43
0.0
 10
2.4133472463
 20
85.3823104852
 10
2.3798304574
 20
85.4049942812
 10
2.2146292646
 20
85.3962309425
 10
1.9665755224
 20
85.2834442953
 10
1.6734331645
 20
85.0838050841
 10
1.3798304574
 20
84.8277065691
 10
1.1304657519
 20
84.5541374277
 10
0.9633025639
 20
84.3047460817
 10
0.9037899733
 20
84.1175001029
 10
0.9274714438
 20
84.04358979
  0
LWPOLYLINE
  5
1D8
330
1F
100
AcDbEntity
  8
0
  6
Continuous
 62
     7
370
    15
100
AcDbPolyline
 90
       10
 70
   128
 43
0.0
 10
2.2273863607
 20
96.3015748235
 10
1.3312475245
 20
95.9393365008
 10
0.2745405897
 20
95.7758810817
 10
-0.8152799921
 20
95.8309237021
 10
-1.8067657745
 20
96.0978254097
 10
-2.5803289395
 20
96.5443939193
 10
-3.0426663528
 20
97.1167664783
 10
-3.138013299
 20
97.7459065085
 10
-2.8548695292
 20
98.3559304372
 10
-2.5
 20
98.693718372
  0
LWPOLYLINE
  5
1D9
330
1F
100
AcDbEntity
  8
0
  6
Continuous
 62
     7
370
    15
100
AcDbPolyline
 90
        6
 70
   128
 43
0.0
 10
2.5
 20
98.693718372
 10
2.5803289395
 20
98.6304412798
 10
3.0426663528
 20
98.0580687209
 10
3.138013299
 20
97.4289286907
 10
2.8548695292
 20
96.818904762
 10
2.2273863607
 20
96.3015748235
  0
LWPOLYLINE
  5
1DA
330
1F
100
AcDbEntity
  8
0
  6
Continuous
 62
     7
370
    15
100
AcDbPolyline
 90
        3
 70
   128
 43
0.0
 10
2.2273863607
 20
85.686544269
 10
2.8548695292
 20
86.2038742074
 10
3.1351706124
 20
86.7961438093
  0
LWPOLYLINE
  5
1DB
330
1F
100
AcDbEntity
  8
0
  6
Continuous
 62
     7
370
    15
100
AcDbPolyline
 90
        8
 70
   128
 43
0.0
 10
-3.15
 20
86.9723870451
 10
-3.0426663528
 20
86.5017359237
 10
-2.5803289395
 20
85.9293633648
 10
-1.8067657745
 20
85.4827948552
 10
-0.8152799921
 20
85.2158931476
 10
0.2745405897
 20
85.1608505272
 10
1.3312475245
 20
85.3243059463
 10
2.2273863607
 20
85.686544269
  0
LWPOLYLINE
  5
1DC
330
1F
100
AcDbEntity
  8
0
  6
Continuous
 62
     7
370
    15
100
AcDbPolyline
 90
        4
 70
   128
 43
0.0
 10
1.803122292
 20
96.546497257
 10
2.3558928079
 20
97.0240755696
 10
2.55
 20
97.5874175996
 10
2.5
 20
97.8775010848
  0
LWPOLYLINE
  5
1DD
330
1F
100
AcDbEntity
  8
0
  6
Continuous
 62
     7
370
    15
100
AcDbPolyline
 90
        8
 70
   128
 43
0.0
 10
-2.5
 20
97.8775010848
 10
-2.55
 20
97.5874175996
 10
-2.3558928079
 20
97.0240755696
 10
-1.803122292
 20
96.546497257
 10
-0.9758427525
 20
96.2273896306
 10
0.0
 20
96.1153339338
 10
0.9758427525
 20
96.2273896306
 10
1.803122292
 20
96.546497257
  0
LWPOLYLINE
  5
1DE
330
1F
100
AcDbEntity
  8
0
  6
Continuous
 62
     7
370
    15
100
AcDbPolyline
 90
       15
 70
   128
 43
0.0
 10
2.5
 20
237.9139267985
 10
2.8548695292
 20
237.5761388637
 10
3.138013299
 20
236.966114935
 10
3.0426663528
 20
236.3369749048
 10
2.5803289395
 20
235.7646023459
 10
1.8067657745
 20
235.3180338362
 10
0.8152799921
 20
235.0511321287
 10
-0.2745405897
 20
234.9960895082
 10
-1.3312475245
 20
235.1595449273
 10
-2.2273863607
 20
235.52178325
 10
-2.8548695292
 20
236.0391131885
 10
-3.138013299
 20
236.6491371172
 10
-3.0426663528
 20
237.2782771474
 10
-2.5803289395
 20
237.8506497063
 10
-2.5
 20
237.9139267985
  0
LWPOLYLINE
  5
1DF
330
1F
100
AcDbEntity
  8
0
  6
Continuous
 62
     7
370
    15
100
AcDbPolyline
 90
       11
 70
   128
 43
0.0
 10
-2.5
 20
237.0977095113
 10
-2.55
 20
236.8076260261
 10
-2.3558928079
 20
236.2442839961
 10
-1.803122292
 20
235.7667056835
 10
-0.9758427525
 20
235.4475980571
 10
0.0
 20
235.3355423603
 10
0.9758427525
 20
235.4475980571
 10
1.803122292
 20
235.7667056835
 10
2.3558928079
 20
236.2442839961
 10
2.55
 20
236.8076260261
 10
2.5
 20
237.0977095113
  0
SPLINE
  5
1E0
330
1F
100
AcDbEntity
  8
0
  6
Continuous
 62
     7
370
    15
100
AcDbSpline
210
0.0
220
0.0
230
1.0
 70
     8
 71
     3
 72
    12
 73
     8
 74
     0
 42
0.000000001
 43
0.00000001
 40
0.0
 40
0.0
 40
0.0
 40
0.0
 40
0.2192345655710664
 40
0.4384691311421326
 40
0.657703696713199
 40
0.8769382622842652
 40
1.0
 40
1.0
 40
1.0
 40
1.0
 10
-4.242640687137783
 20
230.2756976311504
 30
0.0
 10
-4.733830179713826
 20
230.6327801739018
 30
0.0
 10
-5.71620916486591
 20
231.3469452594044
 30
0.0
 10
-6.152185823953121
 20
232.732989178544
 30
0.0
 10
-5.6750475394829
 20
234.0706298262008
 30
0.0
 10
-4.592665647981889
 20
235.1092105855051
 30
0.0
 10
-3.531506122039657
 20
235.4669854661409
 30
0.0
 10
-3.149999999998251
 20
235.5956120335308
 30
0.0
  0
LWPOLYLINE
  5
1E2
330
1F
100
AcDbEntity
  8
0
  6
Continuous
 62
     7
370
    15
100
AcDbPolyline
 90
       13
 70
   128
 43
0.0
 10
4.2426406871
 20
235.1741463021
 10
5.1961524227
 20
234.4567851029
 10
5.7955549578
 20
233.621400293
 10
6.0
 20
232.7249219666
 10
5.7955549578
 20
231.8284436403
 10
5.1961524227
 20
230.9930588304
 10
4.2426406871
 20
230.2756976312
 10
3.0
 20
229.7252470229
 10
1.5529142706
 20
229.3792193048
 10
0.0
 20
229.2611956941
 10
-1.5529142706
 20
229.3792193048
 10
-3.0
 20
229.7252470229
 10
-4.2426406871
 20
230.2756976312
  0
LWPOLYLINE
  5
1E3
330
1F
100
AcDbEntity
  8
0
  6
Continuous
 62
     7
370
    15
100
AcDbPolyline
 90
        8
 70
   128
 43
0.0
 10
-4.5961940777
 20
229.6633251973
 10
-5.5322583708
 20
230.3467451225
 10
-6.1700771832
 20
231.1363632137
 10
-6.4752655376
 20
231.9896109551
 10
-6.4313706508
 20
232.8604895403
 10
-6.0407589075
 20
233.7020496792
 10
-5.3244882879
 20
234.4689226469
 10
-4.5969409064
 20
234.969546719
  0
LWPOLYLINE
  5
1E4
330
1F
100
AcDbEntity
  8
0
  6
Continuous
 62
     7
370
    15
100
AcDbPolyline
 90
       15
 70
   128
 43
0.0
 10
4.5969409064
 20
234.969546719
 10
5.098701822
 20
234.6440046908
 10
5.8910006157
 20
233.9024717019
 10
6.3657140415
 20
233.0754467386
 10
6.4972501755
 20
232.2075149309
 10
6.2785178709
 20
231.3454667072
 10
5.7213090427
 20
230.5357753103
 10
4.8556629631
 20
229.822091413
 10
3.7282468363
 20
229.242889899
 10
2.3998399575
 20
228.8293956718
 10
0.9420570855
 20
228.6039003122
 10
-0.5665123279
 20
228.5785603334
 10
-2.044540915
 20
228.7547418202
 10
-3.4123477722
 20
229.1229467832
 10
-4.5961940777
 20
229.6633251973
  0
LWPOLYLINE
  5
1E5
330
1F
100
AcDbEntity
  8
0
  6
Continuous
 62
     7
370
    15
100
AcDbPolyline
 90
       12
 70
   128
 43
0.0
 10
-4.5961940777
 20
216.5986722071
 10
-3.4123477722
 20
216.058293793
 10
-2.044540915
 20
215.6900888301
 10
-0.5665123279
 20
215.5139073432
 10
0.9420570855
 20
215.539247322
 10
2.3998399575
 20
215.7647426816
 10
3.7282468363
 20
216.1782369088
 10
4.8556629631
 20
216.7574384228
 10
5.7213090427
 20
217.4711223201
 10
6.2785178709
 20
218.280813717
 10
6.4972501755
 20
219.1428619408
 10
6.5
 20
219.2519985706
  0
SPLINE
  5
1E8
330
1F
100
AcDbEntity
  8
0
  6
Continuous
 62
     7
370
    15
100
AcDbSpline
210
0.0
220
0.0
230
1.0
 70
     8
 71
     3
 72
    21
 73
    17
 74
     0
 42
0.000000001
 43
0.00000001
 40
0.0
 40
0.0
 40
0.0
 40
0.0
 40
0.0769093801030843
 40
0.1538187602061683
 40
0.2307281403092526
 40
0.3076375204123369
 40
0.3845469005154211
 40
0.4614562806185051
 40
0.5383656607215894
 40
0.6152750408246738
 40
0.692184420927758
 40
0.7690938010308421
 40
0.8460031811339265
 40
0.9229125612370106
 40
0.9998219413400948
 40
1.0
 40
1.0
 40
1.0
 40
1.0
 10
-3.251554568105105
 20
231.9772523845104
 30
0.0
 10
-3.125653725532358
 20
231.8270366040695
 30
0.0
 10
-2.873852040386863
 20
231.5266050431878
 30
0.0
 10
-2.268562365383206
 20
231.1609528881434
 30
0.0
 10
-1.539600314483275
 20
230.8870799298219
 30
0.0
 10
-0.7132771794766288
 20
230.7257651585526
 30
0.0
 10
0.1553749648523189
 20
230.6857042299765
 30
0.0
 10
1.014849667474323
 20
230.7696249837442
 30
0.0
 10
1.812610698889014
 20
230.97236147607
 30
0.0
 10
2.500124136966489
 20
231.28156475757
 30
0.0
 10
3.036135158173109
 20
231.6786261195717
 30
0.0
 10
3.386025883478063
 20
232.1387198455495
 30
0.0
 10
3.536188378723243
 20
232.6364913864697
 30
0.0
 10
3.448923589086081
 20
233.1319680851133
 30
0.0
 10
3.306927029314732
 20
233.4652607058362
 30
0.0
 10
3.150361638992961
 20
233.6049924069531
 30
0.0
 10
3.150000000001763
 20
233.6053151630317
 30
0.0
  0
LWPOLYLINE
  5
1EA
330
1F
100
AcDbEntity
  8
0
  6
Continuous
 62
     7
370
    15
100
AcDbPolyline
 90
       12
 70
   128
 43
0.0
 10
4.5961940777
 20
544.4398081793
 10
3.4123477722
 20
543.8994297651
 10
2.044540915
 20
543.5312248022
 10
0.5665123279
 20
543.3550433153
 10
-0.9420570855
 20
543.3803832941
 10
-2.3998399575
 20
543.6058786537
 10
-3.7282468363
 20
544.019372881
 10
-4.8556629631
 20
544.598574395
 10
-5.7213090427
 20
545.3122582922
 10
-6.2785178709
 20
546.1219496891
 10
-6.4972501755
 20
546.9839979129
 10
-6.5
 20
547.0931345427
  0
LWPOLYLINE
  5
1ED
330
1F
100
AcDbEntity
  8
0
  6
Continuous
 62
     7
370
    15
100
AcDbPolyline
 90
       12
 70
   128
 43
0.0
 10
-6.5
 20
534.8450223644
 10
-6.4972501755
 20
534.7358857346
 10
-6.2785178709
 20
533.8738375109
 10
-5.7213090427
 20
533.064146114
 10
-4.8556629631
 20
532.3504622167
 10
-3.7282468363
 20
531.7712607027
 10
-2.3998399575
 20
531.3577664754
 10
-0.9420570855
 20
531.1322711158
 10
0.5665123279
 20
531.1069311371
 10
2.044540915
 20
531.2831126239
 10
3.4123477722
 20
531.6513175868
 10
4.5961940777
 20
532.191696001
  0
SPLINE
  5
1EF
330
1F
100
AcDbEntity
  8
0
  6
Continuous
 62
     7
370
    15
100
AcDbSpline
210
0.0
220
0.0
230
1.0
 70
     8
 71
     3
 72
    22
 73
    18
 74
     0
 42
0.000000001
 43
0.00000001
 40
0.0
 40
0.0
 40
0.0
 40
0.0
 40
0.125
 40
0.125
 40
0.2500000000000001
 40
0.2500000000000001
 40
0.3750000000000001
 40
0.3750000000000001
 40
0.5000000000000001
 40
0.5000000000000001
 40
0.6250000000000001
 40
0.6250000000000001
 40
0.75
 40
0.75
 40
0.875
 40
0.875
 40
1.0
 40
1.0
 40
1.0
 40
1.0
 10
-6.500000000000135
 20
547.0931345426891
 30
0.0
 10
-6.500000000000137
 20
546.72474646677
 30
0.0
 10
-6.405353287316681
 20
546.3564044000319
 30
0.0
 10
-6.034871077202311
 20
545.6513535819316
 30
0.0
 10
-5.759081850496342
 20
545.314732886653
 30
0.0
 10
-5.050023109437027
 20
544.7021259053298
 30
0.0
 10
-4.616842151729813
 20
544.4262161297584
 30
0.0
 10
-3.630270542397864
 20
543.9588102870998
 30
0.0
 10
-3.077003106901548
 20
543.7673725958447
 30
0.0
 10
-1.897881513844906
 20
543.4854205691742
 30
0.0
 10
-1.272174620605036
 20
543.3949414476622
 30
0.0
 10
-0.0020482036795408
 20
543.3227247561962
 30
0.0
 10
0.6422126897979814
 20
543.3409962056186
 30
0.0
 10
1.893961496411399
 20
543.4847341023346
 30
0.0
 10
2.501293074578554
 20
543.6101825977358
 30
0.0
 10
3.626864504159129
 20
543.9574964714841
 30
0.0
 10
4.144963779305709
 20
544.1793184726744
 30
0.0
 10
4.596194077712419
 20
544.4398081792651
 30
0.0
  0
LWPOLYLINE
  5
1F1
330
1F
100
AcDbEntity
  8
0
  6
Continuous
 62
     7
370
    15
100
AcDbPolyline
 90
       27
 70
   128
 43
0.0
 10
57.387908003
 20
678.9421525546
 10
57.0221418054
 20
678.5768970116
 10
54.4329807104
 20
676.2254401803
 10
51.5533961117
 20
673.9893618002
 10
48.398751839
 20
671.880592317
 10
44.9858792844
 20
669.9103829283
 10
41.3329875996
 20
668.0892455537
 10
37.4595665424
 20
666.4268967489
 10
33.3862824899
 20
664.9322058642
 10
29.1348681749
 20
663.6131477221
 10
24.7280067324
 20
662.4767600685
 10
20.1892106748
 20
661.5291060232
 10
15.542696443
 20
660.7752417306
 10
10.8132552007
 20
660.2191893829
 10
6.0261205634
 20
659.86391576
 10
1.2068339654
 20
659.7113164002
 10
-3.6188916138
 20
659.7622054873
 10
-8.4253088406
 20
660.0163115059
 10
-13.1867733992
 20
660.4722786905
 10
-17.8778808162
 20
661.1276742588
 10
-22.4736020038
 20
661.9790013921
 10
-26.949416801
 20
663.0217178915
 10
-31.2814447993
 20
664.2502604135
 10
-35.4465727549
 20
665.6580741521
 10
-39.4225779081
 20
667.237647812
 10
-43.1882465511
 20
668.9805536842
 10
-46.7234872123
 20
670.8774926118
  0
LWPOLYLINE
  5
1F2
330
1F
100
AcDbEntity
  8
0
  6
Continuous
 62
     7
370
    15
100
AcDbPolyline
 90
       32
 70
   128
 43
0.0
 10
-47.2525185998
 20
670.3407738122
 10
-43.6772498203
 20
668.4223566027
 10
-39.868944015
 20
666.6597165033
 10
-35.8479201432
 20
665.0622579617
 10
-31.635632107
 20
663.6385041103
 10
-27.2545542856
 20
662.3960512919
 10
-22.7280616249
 20
661.3415285299
 10
-18.0803049215
 20
660.4805621596
 10
-13.3360819685
 20
659.8177458089
 10
-8.5207052481
 20
659.3566158899
 10
-3.6598668784
 20
659.0996327304
 10
1.2204984645
 20
659.0481674465
 10
6.0943519201
 20
659.2024946278
 10
10.9356893713
 20
659.5617908722
 10
15.7186801881
 20
660.1241391786
 10
20.4178050451
 20
660.8865391755
 10
25.0079920779
 20
661.8449231291
 10
29.4647506528
 20
662.9941776463
 10
33.7643020342
 20
664.328170957
 10
37.8837062555
 20
665.8397856297
 10
41.8009845126
 20
667.5209565461
 10
45.4952364312
 20
669.362713932
 10
48.9467515789
 20
671.3552312149
 10
52.1371146289
 20
673.4878774528
 10
55.0493036141
 20
675.7492740555
 10
57.6677807462
 20
678.1273554935
 10
59.9785753167
 20
680.6094336735
 10
61.9693582368
 20
683.1822656345
 10
63.6295078182
 20
685.8321242047
 10
64.9501664447
 20
688.5448712422
 10
65.924287831
 20
691.3060330678
 10
66.0875211466
 20
691.903032391
  0
LWPOLYLINE
  5
1F3
330
1F
100
AcDbEntity
  8
0
  6
Continuous
 62
     7
370
    15
100
AcDbPolyline
 90
       10
 70
   128
 43
0.0
 10
-66.1591786752
 20
692.1863038741
 10
-65.4809128356
 20
689.9203159172
 10
-64.332756835
 20
687.1815343031
 10
-62.8413577418
 20
684.4984414695
 10
-61.0146728152
 20
681.8853528775
 10
-58.8624482097
 20
679.3562104856
 10
-56.3961669749
 20
676.9245083625
 10
-53.6289877881
 20
674.6032206913
 10
-50.5756747477
 20
672.4047325461
 10
-47.2525185998
 20
670.3407738122
  0
SPLINE
  5
1F4
330
1F
100
AcDbEntity
  8
0
  6
Continuous
 62
     7
370
    15
100
AcDbSpline
210
0.0
220
0.0
230
1.0
 70
     8
 71
     3
 72
    22
 73
    18
 74
     0
 42
0.000000001
 43
0.00000001
 40
0.0
 40
0.0
 40
0.0
 40
0.0
 40
0.125
 40
0.125
 40
0.25
 40
0.25
 40
0.375
 40
0.375
 40
0.5
 40
0.5
 40
0.625
 40
0.625
 40
0.75
 40
0.75
 40
0.875
 40
0.875
 40
1.0
 40
1.0
 40
1.0
 40
1.0
 10
-48.12400711954625
 20
673.357831346435
 30
0.0
 10
-51.474750441154
 20
682.2047811228671
 30
0.0
 10
-54.52247635793579
 20
692.3560084555311
 30
0.0
 10
-59.89779501341558
 20
714.886983679451
 30
0.0
 10
-62.22529783599305
 20
727.2661117977494
 30
0.0
 10
-66.07304683260566
 20
753.7878386402288
 30
0.0
 10
-67.59320309052018
 20
767.9298175914522
 30
0.0
 10
-69.76898770117879
 20
797.447013482858
 30
0.0
 10
-70.42452613780227
 20
812.8216106500835
 30
0.0
 10
-70.84635354669766
 20
844.2272208810708
 30
0.0
 10
-70.61263116474908
 20
860.257388608037
 30
0.0
 10
-69.26466432098128
 20
892.372323728734
 30
0.0
 10
-68.15049152622666
 20
908.4563522290204
 30
0.0
 10
-65.08366796564704
 20
940.0755601561193
 30
0.0
 10
-63.13108886688661
 20
955.6100006894866
 30
0.0
 10
-58.4604974769091
 20
985.546905348699
 30
0.0
 10
-55.74255685275659
 20
999.9486305810987
 30
0.0
 10
-52.69284735062185
 20
1013.514048047487
 30
0.0
  0
SPLINE
  5
1F5
330
1F
100
AcDbEntity
  8
0
  6
Continuous
 62
     7
370
    15
100
AcDbSpline
210
0.0
220
0.0
230
1.0
 70
     8
 71
     3
 72
    58
 73
    54
 74
     0
 42
0.000000001
 43
0.00000001
 40
0.0
 40
0.0
 40
0.0
 40
0.0
 40
0.0624999999999999
 40
0.0624999999999999
 40
0.1249999999999999
 40
0.1249999999999999
 40
0.1874999999999998
 40
0.1874999999999998
 40
0.2187499999999998
 40
0.2187499999999998
 40
0.2499999999999997
 40
0.2499999999999997
 40
0.2812499999999996
 40
0.2812499999999996
 40
0.3124999999999995
 40
0.3124999999999995
 40
0.3437499999999994
 40
0.3437499999999994
 40
0.3749999999999994
 40
0.3749999999999994
 40
0.4062499999999994
 40
0.4062499999999994
 40
0.4374999999999994
 40
0.4374999999999994
 40
0.4687499999999995
 40
0.4687499999999995
 40
0.4999999999999995
 40
0.4999999999999995
 40
0.5312499999999996
 40
0.5312499999999996
 40
0.5624999999999996
 40
0.5624999999999996
 40
0.5937499999999994
 40
0.5937499999999994
 40
0.6249999999999994
 40
0.6249999999999994
 40
0.6562499999999994
 40
0.6562499999999994
 40
0.6874999999999994
 40
0.6874999999999994
 40
0.7187499999999996
 40
0.7187499999999996
 40
0.7499999999999997
 40
0.7499999999999997
 40
0.7812499999999998
 40
0.7812499999999998
 40
0.8124999999999998
 40
0.8124999999999998
 40
0.8749999999999999
 40
0.8749999999999999
 40
0.9374999999999999
 40
0.9374999999999999
 40
1.0
 40
1.0
 40
1.0
 40
1.0
 10
-52.6928473506746
 20
1013.514048047252
 30
0.0
 10
-50.49731204439664
 20
1012.246592493488
 30
0.0
 10
-48.02701243242265
 20
1010.977747294665
 30
0.0
 10
-42.43681399263025
 20
1008.512914002232
 30
0.0
 10
-39.3158898365842
 20
1007.316697371567
 30
0.0
 10
-32.34638256033541
 20
1005.110310743574
 30
0.0
 10
-28.49622443729981
 20
1004.100218336476
 30
0.0
 10
-22.16323735513354
 20
1002.840603373815
 30
0.0
 10
-19.95992505651899
 20
1002.46364000355
 30
0.0
 10
-15.37711797390816
 20
1001.817954045951
 30
0.0
 10
-12.99756901316887
 20
1001.549267619718
 30
0.0
 10
-8.079569927106213
 20
1001.143681842514
 30
0.0
 10
-5.541080323214431
 20
1001.006833429914
 30
0.0
 10
-0.332876430637466
 20
1000.888242372242
 30
0.0
 10
2.33685048924586
 20
1000.906563717372
 30
0.0
 10
7.768627084848927
 20
1001.11966939877
 30
0.0
 10
10.53065051703733
 20
1001.31452549625
 30
0.0
 10
16.09705170286832
 20
1001.898035637845
 30
0.0
 10
18.90135585473582
 20
1002.286760096953
 30
0.0
 10
24.49275372816349
 20
1003.269147792605
 30
0.0
 10
27.2797254903984
 20
1003.862868082885
 30
0.0
 10
32.77023639602053
 20
1005.258233319946
 30
0.0
 10
35.47361470952565
 20
1006.059909443718
 30
0.0
 10
40.72834915143876
 20
1007.864646156486
 30
0.0
 10
43.27952587459699
 20
1008.867702480752
 30
0.0
 10
48.16409248492738
 20
1011.058697125736
 30
0.0
 10
50.49731204439016
 20
1012.246592493488
 30
0.0
 10
54.88838265694611
 20
1014.781503601017
 30
0.0
 10
56.94610074600917
 20
1016.128442582293
 30
0.0
 10
60.74142602163174
 20
1018.9482428653
 30
0.0
 10
62.47895880340822
 20
1020.421005838938
 30
0.0
 10
65.6051932182173
 20
1023.454499462527
 30
0.0
 10
66.99388746371756
 20
1025.015126544032
 30
0.0
 10
69.41099284782526
 20
1028.184731022919
 30
0.0
 10
70.43945799241679
 20
1029.793615575187
 30
0.0
 10
72.14118777998172
 20
1033.021460860898
 30
0.0
 10
72.81455125363728
 20
1034.640351188721
 30
0.0
 10
73.82532998559127
 20
1037.85376619384
 30
0.0
 10
74.16286721945366
 20
1039.448248381734
 30
0.0
 10
74.53201708517426
 20
1042.58394626517
 30
0.0
 10
74.56375402456469
 20
1044.125146810642
 30
0.0
 10
74.3583260288018
 20
1047.131778919863
 30
0.0
 10
74.12127193994124
 20
1048.597217775447
 30
0.0
 10
73.41870064193229
 20
1051.436318215878
 30
0.0
 10
72.95327167019394
 20
1052.810002591219
 30
0.0
 10
71.83478959603626
 20
1055.45560080687
 30
0.0
 10
71.18179913326716
 20
1056.727545922746
 30
0.0
 10
68.99984560075609
 20
1060.383501546077
 30
0.0
 10
67.25012464541375
 20
1062.606150520093
 30
0.0
 10
63.42813678424507
 20
1066.629561429962
 30
0.0
 10
61.35600428320092
 20
1068.431232595598
 30
0.0
 10
57.0863251598949
 20
1071.65838546301
 30
0.0
 10
54.88838265694627
 20
1073.084459074172
 30
0.0
 10
52.69284735066827
 20
1074.351914627936
 30
0.0
  0
SPLINE
  5
1F6
330
1F
100
AcDbEntity
  8
0
  6
Continuous
 62
     7
370
    15
100
AcDbSpline
210
0.0
220
0.0
230
1.0
 70
     8
 71
     3
 72
    58
 73
    54
 74
     0
 42
0.000000001
 43
0.00000001
 40
0.0
 40
0.0
 40
0.0
 40
0.0
 40
0.0624999999999999
 40
0.0624999999999999
 40
0.1249999999999999
 40
0.1249999999999999
 40
0.1874999999999998
 40
0.1874999999999998
 40
0.2187499999999999
 40
0.2187499999999999
 40
0.2499999999999999
 40
0.2499999999999999
 40
0.2812499999999999
 40
0.2812499999999999
 40
0.3125
 40
0.3125
 40
0.34375
 40
0.34375
 40
0.3750000000000001
 40
0.3750000000000001
 40
0.40625
 40
0.40625
 40
0.4374999999999999
 40
0.4374999999999999
 40
0.4687499999999999
 40
0.4687499999999999
 40
0.4999999999999999
 40
0.4999999999999999
 40
0.5312499999999998
 40
0.5312499999999998
 40
0.5624999999999998
 40
0.5624999999999998
 40
0.5937499999999996
 40
0.5937499999999996
 40
0.6249999999999996
 40
0.6249999999999996
 40
0.6562499999999996
 40
0.6562499999999996
 40
0.6874999999999997
 40
0.6874999999999997
 40
0.7187499999999997
 40
0.7187499999999997
 40
0.7499999999999998
 40
0.7499999999999998
 40
0.7812499999999998
 40
0.7812499999999998
 40
0.8124999999999998
 40
0.8124999999999998
 40
0.8749999999999998
 40
0.8749999999999998
 40
0.9374999999999999
 40
0.9374999999999999
 40
1.0
 40
1.0
 40
1.0
 40
1.0
 10
50.47843603230673
 20
1073.073562184344
 30
0.0
 10
52.58170420031966
 20
1071.859371315729
 30
0.0
 10
54.68727840281858
 20
1070.493228296747
 30
0.0
 10
58.77752471404865
 20
1067.401696186136
 30
0.0
 10
60.76257606662266
 20
1065.67574006005
 30
0.0
 10
64.42394529349951
 20
1061.821412566719
 30
0.0
 10
66.10013441136687
 20
1059.692170179979
 30
0.0
 10
68.19039157821415
 20
1056.189855703763
 30
0.0
 10
68.81594018607807
 20
1054.971363946407
 30
0.0
 10
69.88741816975806
 20
1052.43694671503
 30
0.0
 10
70.33328753834853
 20
1051.120991279793
 30
0.0
 10
71.00633335211265
 20
1048.401203734097
 30
0.0
 10
71.23342526804407
 20
1046.997349790912
 30
0.0
 10
71.43022017408418
 20
1044.11707107703
 30
0.0
 10
71.39981697620384
 20
1042.640639320934
 30
0.0
 10
71.04618059441748
 20
1039.636718808303
 30
0.0
 10
70.72282832699005
 20
1038.109244565155
 30
0.0
 10
69.75452746398672
 20
1035.030872984632
 30
0.0
 10
69.10946201885695
 20
1033.480016351045
 30
0.0
 10
67.47924724503379
 20
1030.387820920941
 30
0.0
 10
66.4940032390072
 20
1028.846549571253
 30
0.0
 10
64.17847645217326
 20
1025.810147384246
 30
0.0
 10
62.84814193497756
 20
1024.315105490234
 30
0.0
 10
59.85328718970757
 20
1021.409094114274
 30
0.0
 10
58.1887740387053
 20
1019.998223848319
 30
0.0
 10
54.5529469050463
 20
1017.29692537298
 30
0.0
 10
52.58170420031947
 20
1016.006591359461
 30
0.0
 10
48.37516786429363
 20
1013.578209622231
 30
0.0
 10
46.14000160922553
 20
1012.440235431254
 30
0.0
 10
41.46070839236397
 20
1010.341317103726
 30
0.0
 10
39.01674460027592
 20
1009.380414115047
 30
0.0
 10
33.98283981567321
 20
1007.651521271123
 30
0.0
 10
31.39307068892168
 20
1006.883535501382
 30
0.0
 10
26.13329792147766
 20
1005.546810340337
 30
0.0
 10
23.46344835180852
 20
1004.978041082252
 30
0.0
 10
18.10702838067531
 20
1004.036938125264
 30
0.0
 10
15.42057481320872
 20
1003.664549770299
 30
0.0
 10
10.08810104652846
 20
1003.105561580486
 30
0.0
 10
7.442151355983078
 20
1002.918894289825
 30
0.0
 10
2.238644595412204
 20
1002.714744352073
 30
0.0
 10
-0.3188873339635759
 20
1002.69719295953
 30
0.0
 10
-5.308217010628377
 20
1002.810800240587
 30
0.0
 10
-7.740026858290776
 20
1002.941897613169
 30
0.0
 10
-12.45134755463971
 20
1003.330438691125
 30
0.0
 10
-14.73089622281194
 20
1003.587833598807
 30
0.0
 10
-19.12111132408491
 20
1004.206384672556
 30
0.0
 10
-21.23182965715669
 20
1004.567506197188
 30
0.0
 10
-27.29867362922574
 20
1005.774185974708
 30
0.0
 10
-30.98702926570387
 20
1006.741829355585
 30
0.0
 10
-37.66364373824407
 20
1008.855492819669
 30
0.0
 10
-40.65341138781204
 20
1010.001438573368
 30
0.0
 10
-46.00868233138129
 20
1012.362687508244
 30
0.0
 10
-48.37516786430015
 20
1013.578209622231
 30
0.0
 10
-50.47843603231306
 20
1014.792400490846
 30
0.0
  0
SPLINE
  5
1F7
330
1F
100
AcDbEntity
  8
0
  6
Continuous
 62
     7
370
    15
100
AcDbSpline
210
0.0
220
0.0
230
1.0
 70
     8
 71
     3
 72
    58
 73
    54
 74
     0
 42
0.000000001
 43
0.00000001
 40
0.0
 40
0.0
 40
0.0
 40
0.0
 40
0.0625
 40
0.0625
 40
0.1250000000000001
 40
0.1250000000000001
 40
0.1875000000000001
 40
0.1875000000000001
 40
0.2187500000000002
 40
0.2187500000000002
 40
0.2500000000000002
 40
0.2500000000000002
 40
0.2812500000000002
 40
0.2812500000000002
 40
0.3125000000000003
 40
0.3125000000000003
 40
0.3437500000000003
 40
0.3437500000000003
 40
0.3750000000000004
 40
0.3750000000000004
 40
0.4062500000000003
 40
0.4062500000000003
 40
0.4375000000000002
 40
0.4375000000000002
 40
0.4687500000000002
 40
0.4687500000000002
 40
0.5
 40
0.5
 40
0.53125
 40
0.53125
 40
0.5625
 40
0.5625
 40
0.5937499999999998
 40
0.5937499999999998
 40
0.6249999999999998
 40
0.6249999999999998
 40
0.6562499999999998
 40
0.6562499999999998
 40
0.6874999999999998
 40
0.6874999999999998
 40
0.7187499999999998
 40
0.7187499999999998
 40
0.7499999999999998
 40
0.7499999999999998
 40
0.7812499999999998
 40
0.7812499999999998
 40
0.8124999999999998
 40
0.8124999999999998
 40
0.8749999999999999
 40
0.8749999999999999
 40
0.9374999999999999
 40
0.9374999999999999
 40
1.0
 40
1.0
 40
1.0
 40
1.0
 10
-50.47843603231306
 20
1014.792400490846
 30
0.0
 10
-52.58170420032597
 20
1016.00659135946
 30
0.0
 10
-54.68727840282489
 20
1017.372734378443
 30
0.0
 10
-58.77752471405495
 20
1020.464266489054
 30
0.0
 10
-60.76257606662899
 20
1022.190222615141
 30
0.0
 10
-64.42394529350584
 20
1026.044550108471
 30
0.0
 10
-66.10013441137316
 20
1028.173792495211
 30
0.0
 10
-68.19039157822046
 20
1031.676106971426
 30
0.0
 10
-68.81594018608436
 20
1032.894598728782
 30
0.0
 10
-69.88741816976437
 20
1035.42901596016
 30
0.0
 10
-70.33328753835484
 20
1036.744971395397
 30
0.0
 10
-71.00633335211894
 20
1039.464758941093
 30
0.0
 10
-71.23342526805041
 20
1040.868612884278
 30
0.0
 10
-71.43022017409051
 20
1043.748891598159
 30
0.0
 10
-71.39981697621015
 20
1045.225323354254
 30
0.0
 10
-71.04618059442377
 20
1048.229243866886
 30
0.0
 10
-70.72282832699639
 20
1049.756718110034
 30
0.0
 10
-69.75452746399304
 20
1052.835089690557
 30
0.0
 10
-69.10946201886324
 20
1054.385946324144
 30
0.0
 10
-67.47924724504009
 20
1057.47814175425
 30
0.0
 10
-66.49400323901351
 20
1059.019413103936
 30
0.0
 10
-64.17847645217955
 20
1062.055815290944
 30
0.0
 10
-62.84814193498385
 20
1063.550857184956
 30
0.0
 10
-59.85328718971386
 20
1066.456868560916
 30
0.0
 10
-58.18877403871159
 20
1067.86773882687
 30
0.0
 10
-54.55294690505261
 20
1070.56903730221
 30
0.0
 10
-52.58170420032575
 20
1071.859371315729
 30
0.0
 10
-48.37516786429993
 20
1074.287753052957
 30
0.0
 10
-46.14000160923182
 20
1075.425727243935
 30
0.0
 10
-41.46070839237026
 20
1077.524645571463
 30
0.0
 10
-39.01674460028226
 20
1078.485548560142
 30
0.0
 10
-33.98283981567953
 20
1080.214441404068
 30
0.0
 10
-31.39307068892798
 20
1080.982427173808
 30
0.0
 10
-26.13329792148399
 20
1082.319152334852
 30
0.0
 10
-23.46344835181483
 20
1082.887921592937
 30
0.0
 10
-18.10702838068161
 20
1083.829024549926
 30
0.0
 10
-15.42057481321503
 20
1084.20141290489
 30
0.0
 10
-10.08810104653477
 20
1084.760401094704
 30
0.0
 10
-7.442151355989385
 20
1084.947068385365
 30
0.0
 10
-2.238644595418511
 20
1085.151218323116
 30
0.0
 10
0.3188873339572476
 20
1085.16876971566
 30
0.0
 10
5.308217010622077
 20
1085.055162434603
 30
0.0
 10
7.740026858284482
 20
1084.924065062021
 30
0.0
 10
12.45134755463339
 20
1084.535523984065
 30
0.0
 10
14.73089622280562
 20
1084.278129076382
 30
0.0
 10
19.12111132407858
 20
1083.659578002633
 30
0.0
 10
21.2318296571504
 20
1083.298456478002
 30
0.0
 10
27.29867362921943
 20
1082.091776700482
 30
0.0
 10
30.98702926569754
 20
1081.124133319606
 30
0.0
 10
37.6636437382377
 20
1079.010469855522
 30
0.0
 10
40.65341138780569
 20
1077.864524101821
 30
0.0
 10
46.00868233137492
 20
1075.503275166945
 30
0.0
 10
48.37516786429385
 20
1074.287753052958
 30
0.0
 10
50.47843603230673
 20
1073.073562184344
 30
0.0
  0
SPLINE
  5
1F8
330
1F
100
AcDbEntity
  8
0
  6
Continuous
 62
     7
370
    15
100
AcDbSpline
210
0.0
220
0.0
230
1.0
 70
     8
 71
     3
 72
    58
 73
    54
 74
     0
 42
0.000000001
 43
0.00000001
 40
0.0
 40
0.0
 40
0.0
 40
0.0
 40
0.0625000000000002
 40
0.0625000000000002
 40
0.1250000000000003
 40
0.1250000000000003
 40
0.1875000000000005
 40
0.1875000000000005
 40
0.2187500000000005
 40
0.2187500000000005
 40
0.2500000000000006
 40
0.2500000000000006
 40
0.2812500000000006
 40
0.2812500000000006
 40
0.3125000000000006
 40
0.3125000000000006
 40
0.3437500000000006
 40
0.3437500000000006
 40
0.3750000000000006
 40
0.3750000000000006
 40
0.4062500000000006
 40
0.4062500000000006
 40
0.4375000000000006
 40
0.4375000000000006
 40
0.4687500000000005
 40
0.4687500000000005
 40
0.5000000000000004
 40
0.5000000000000004
 40
0.5312500000000006
 40
0.5312500000000006
 40
0.5625000000000004
 40
0.5625000000000004
 40
0.5937500000000004
 40
0.5937500000000004
 40
0.6250000000000004
 40
0.6250000000000004
 40
0.6562500000000003
 40
0.6562500000000003
 40
0.6875000000000002
 40
0.6875000000000002
 40
0.7187500000000002
 40
0.7187500000000002
 40
0.7500000000000002
 40
0.7500000000000002
 40
0.7812500000000002
 40
0.7812500000000002
 40
0.8125000000000001
 40
0.8125000000000001
 40
0.8750000000000001
 40
0.8750000000000001
 40
0.9375
 40
0.9375
 40
1.0
 40
1.0
 40
1.0
 40
1.0
 10
52.69284735066827
 20
1074.351914627936
 30
0.0
 10
50.4973120443903
 20
1075.6193701817
 30
0.0
 10
48.02701243241632
 20
1076.888215380523
 30
0.0
 10
42.43681399262393
 20
1079.353048672956
 30
0.0
 10
39.31588983657785
 20
1080.549265303622
 30
0.0
 10
32.34638256032908
 20
1082.755651931615
 30
0.0
 10
28.4962244372935
 20
1083.765744338713
 30
0.0
 10
22.16323735512722
 20
1085.025359301373
 30
0.0
 10
19.95992505651266
 20
1085.402322671639
 30
0.0
 10
15.3771179739018
 20
1086.048008629238
 30
0.0
 10
12.99756901316255
 20
1086.316695055471
 30
0.0
 10
8.079569927099891
 20
1086.722280832675
 30
0.0
 10
5.541080323208117
 20
1086.859129245275
 30
0.0
 10
0.3328764306311377
 20
1086.977720302947
 30
0.0
 10
-2.336850489252182
 20
1086.959398957817
 30
0.0
 10
-7.768627084855241
 20
1086.746293276419
 30
0.0
 10
-10.53065051704365
 20
1086.551437178938
 30
0.0
 10
-16.09705170287462
 20
1085.967927037344
 30
0.0
 10
-18.90135585474211
 20
1085.579202578235
 30
0.0
 10
-24.49275372816978
 20
1084.596814882584
 30
0.0
 10
-27.2797254904047
 20
1084.003094592303
 30
0.0
 10
-32.77023639602682
 20
1082.607729355242
 30
0.0
 10
-35.47361470953196
 20
1081.806053231471
 30
0.0
 10
-40.72834915144506
 20
1080.001316518703
 30
0.0
 10
-43.27952587460331
 20
1078.998260194438
 30
0.0
 10
-48.16409248493366
 20
1076.807265549453
 30
0.0
 10
-50.49731204439645
 20
1075.619370181701
 30
0.0
 10
-54.88838265695238
 20
1073.084459074171
 30
0.0
 10
-56.94610074601547
 20
1071.737520092897
 30
0.0
 10
-60.74142602163804
 20
1068.91771980989
 30
0.0
 10
-62.47895880341454
 20
1067.444956836252
 30
0.0
 10
-65.60519321822358
 20
1064.411463212663
 30
0.0
 10
-66.99388746372387
 20
1062.850836131157
 30
0.0
 10
-69.4109928478316
 20
1059.68123165227
 30
0.0
 10
-70.43945799242307
 20
1058.072347100002
 30
0.0
 10
-72.14118777998803
 20
1054.844501814291
 30
0.0
 10
-72.81455125364359
 20
1053.225611486468
 30
0.0
 10
-73.82532998559756
 20
1050.012196481349
 30
0.0
 10
-74.16286721945995
 20
1048.417714293455
 30
0.0
 10
-74.53201708518057
 20
1045.282016410019
 30
0.0
 10
-74.56375402457103
 20
1043.740815864546
 30
0.0
 10
-74.35832602880812
 20
1040.734183755325
 30
0.0
 10
-74.12127193994753
 20
1039.268744899742
 30
0.0
 10
-73.41870064193859
 20
1036.429644459309
 30
0.0
 10
-72.95327167020028
 20
1035.055960083969
 30
0.0
 10
-71.83478959604258
 20
1032.41036186832
 30
0.0
 10
-71.18179913327344
 20
1031.138416752442
 30
0.0
 10
-68.99984560076238
 20
1027.482461129111
 30
0.0
 10
-67.25012464542007
 20
1025.259812155097
 30
0.0
 10
-63.42813678425134
 20
1021.236401245227
 30
0.0
 10
-61.35600428320723
 20
1019.43473007959
 30
0.0
 10
-57.08632515990119
 20
1016.207577212178
 30
0.0
 10
-54.88838265695257
 20
1014.781503601016
 30
0.0
 10
-52.6928473506746
 20
1013.514048047252
 30
0.0
  0
LWPOLYLINE
  5
1FA
330
1F
100
AcDbEntity
  8
0
  6
Continuous
 62
     8
370
    15
100
AcDbPolyline
 90
       10
 70
   128
 43
0.0
 10
-5.049369203
 20
87.7934416692
 10
-5.0970018082
 20
87.7936350274
 10
-5.3901441662
 20
87.706877484
 10
-5.6381979084
 20
87.481209169
 10
-5.8033991012
 20
87.1509860376
 10
-5.8605973606
 20
86.7664815682
 10
-5.80108477
 20
86.3862330806
 10
-5.633921582
 20
86.0681299602
 10
-5.3845568765
 20
85.8606005234
 10
-5.1546320512
 20
85.7963693613
  0
LWPOLYLINE
  5
1FB
330
1F
100
AcDbEntity
  8
0
  6
Continuous
 62
     8
370
    15
100
AcDbPolyline
 90
        7
 70
   128
 43
0.0
 10
-6.5295741893
 20
86.2591986021
 10
-6.4534545614
 20
86.0390282243
 10
-6.2366818101
 20
85.8517426116
 10
-5.9122584612
 20
85.7266023659
 10
-5.5295750289
 20
85.6826589554
 10
-5.1468915965
 20
85.7266023659
 10
-4.9555105552
 20
85.7872576581
  0
LWPOLYLINE
  5
1FC
330
1F
100
AcDbEntity
  8
0
  6
Continuous
 62
     8
370
    15
100
AcDbPolyline
 90
        5
 70
   128
 43
0.0
 10
4.3510400876
 20
80.2436949918
 10
4.3273586171
 20
80.3176053046
 10
4.3868712076
 20
80.5048512835
 10
4.5540343957
 20
80.7542426294
 10
4.5961940777
 20
80.8057248989
  0
SPLINE
  5
1FE
330
1F
100
AcDbEntity
  8
0
  6
Continuous
 62
     8
370
    15
100
AcDbSpline
210
0.0
220
0.0
230
1.0
 70
     8
 71
     3
 72
    13
 73
     9
 74
     0
 42
0.000000001
 43
0.00000001
 40
0.0
 40
0.0
 40
0.0
 40
0.0
 40
0.1606386231847693
 40
0.3285108985478156
 40
0.4963831739108618
 40
0.6642554492739075
 40
0.8321277246369537
 40
1.0
 40
1.0
 40
1.0
 40
1.0
 10
-2.491799882016971
 20
127.3755240843593
 30
0.0
 10
-2.455317194849557
 20
127.194855165269
 30
0.0
 10
-2.380708983541492
 20
126.8253816988427
 30
0.0
 10
-1.808861418432377
 20
126.3524720045434
 30
0.0
 10
-0.9821136870174851
 20
126.0307137137467
 30
0.0
 10
-0.0029353189596314
 20
125.9204444661829
 30
0.0
 10
0.9938549628704003
 20
126.0241285894437
 30
0.0
 10
1.509796289602646
 20
126.2605845309851
 30
0.0
 10
1.76776695296877
 20
126.3788125017558
 30
0.0
  0
SPLINE
  5
1FF
330
1F
100
AcDbEntity
  8
0
  6
Continuous
 62
     8
370
    15
100
AcDbSpline
210
0.0
220
0.0
230
1.0
 70
     8
 71
     3
 72
    10
 73
     6
 74
     0
 42
0.000000001
 43
0.00000001
 40
0.0
 40
0.0
 40
0.0
 40
0.0
 40
0.4983720338181197
 40
0.9967440676362394
 40
1.0
 40
1.0
 40
1.0
 40
1.0
 10
1.76776695296877
 20
126.3788125017558
 30
0.0
 10
1.96387892541118
 20
126.5268834473471
 30
0.0
 10
2.356102870295998
 20
126.8230253385297
 30
0.0
 10
2.563385557529112
 20
127.2164529843039
 30
0.0
 10
2.499173519639569
 20
127.4017282949502
 30
0.0
 10
2.498756736552496
 20
127.4029308672165
 30
0.0
  0
LWPOLYLINE
  5
200
330
1F
100
AcDbEntity
  8
0
  6
Continuous
 62
     8
370
    15
100
AcDbPolyline
 90
       32
 70
   128
 43
0.0
 10
-57.4999999969
 20
171.8929787684
 10
-57.5
 20
171.8926314812
 10
-57.3227466897
 20
169.2882568489
 10
-56.7920795842
 20
166.6999390524
 10
-55.9112704229
 20
164.1436359313
 10
-54.685749687
 20
161.6351079447
 10
-53.1230731194
 20
159.1898210016
 10
-51.2328751408
 20
156.8228511093
 10
-49.0268094504
 20
154.5487914241
 10
-46.5184771766
 20
152.3816622803
 10
-43.723343022
 20
150.3348247497
 10
-40.6586399182
 20
148.4208982663
 10
-37.343262779
 20
146.6516828233
 10
-33.7976520068
 20
145.0380862222
 10
-30.0436674712
 20
143.5900568227
 10
-26.104453735
 20
142.3165222076
 10
-22.004297361
 20
141.2253341411
 10
-17.7684771766
 20
140.3232201607
 10
-13.4231084217
 20
139.615742099
 10
-8.9949817398
 20
139.1072617934
 10
-4.5113980043
 20
138.8009141943
 10
0.0
 20
138.6985880363
 10
4.5113980044
 20
138.8009141943
 10
8.9949817398
 20
139.1072617934
 10
13.4231084217
 20
139.615742099
 10
17.7684771766
 20
140.3232201607
 10
22.004297361
 20
141.2253341411
 10
26.104453735
 20
142.3165222076
 10
30.0436674712
 20
143.5900568227
 10
33.7976520068
 20
145.0380862222
 10
37.343262779
 20
146.6516828233
 10
40.6586399182
 20
148.4208982663
  0
LWPOLYLINE
  5
201
330
1F
100
AcDbEntity
  8
0
  6
Continuous
 62
     8
370
    15
100
AcDbPolyline
 90
       11
 70
   128
 43
0.0
 10
40.6586399182
 20
148.4208982663
 10
43.723343022
 20
150.3348247501
 10
46.5184771766
 20
152.3816622812
 10
49.0268094504
 20
154.5487914254
 10
51.2328751408
 20
156.8228511109
 10
53.1230731194
 20
159.1898210037
 10
54.685749687
 20
161.6351079472
 10
55.9112704229
 20
164.1436359342
 10
56.7920795842
 20
166.6999390556
 10
57.3227466897
 20
169.2882568525
 10
57.4999999969
 20
171.8922841997
  0
SPLINE
  5
202
330
1F
100
AcDbEntity
  8
0
  6
Continuous
 62
     8
370
    15
100
AcDbSpline
210
0.0
220
0.0
230
1.0
 70
     8
 71
     3
 72
    14
 73
    10
 74
     0
 42
0.000000001
 43
0.00000001
 40
0.0
 40
0.0
 40
0.0
 40
0.0
 40
0.1008481466579627
 40
0.2333093621537263
 40
0.3677655171251042
 40
0.5116891540485409
 40
0.6651240988820462
 40
0.8279583267462565
 40
1.0
 40
1.0
 40
1.0
 40
1.0
 10
-22.72561107408064
 20
635.7742725095187
 30
0.0
 10
-23.87774177453417
 20
636.4783812625408
 30
0.0
 10
-26.54316387447825
 20
638.1073171378978
 30
0.0
 10
-30.20780446079405
 20
641.5336763881404
 30
0.0
 10
-33.95352150664923
 20
645.831529108631
 30
0.0
 10
-37.50273909951217
 20
650.8565378804938
 30
0.0
 10
-40.92431577728087
 20
656.6423742880243
 30
0.0
 10
-44.2276183813252
 20
663.1542141534552
 30
0.0
 10
-46.22590417307642
 20
667.9017426735695
 30
0.0
 10
-47.2525185998069
 20
670.34077381225
 30
0.0
  0
LWPOLYLINE
  5
203
330
1F
100
AcDbEntity
  8
0
  6
Continuous
 62
     8
370
    15
100
AcDbPolyline
 90
       30
 70
   128
 43
0.0
 10
65.8370091746
 20
691.1849351538
 10
64.8030407266
 20
689.1348920973
 10
63.1122726439
 20
686.4361616067
 10
61.0847732796
 20
683.815878344
 10
58.7313602202
 20
681.2880226541
 10
56.0645899426
 20
678.8660817408
 10
53.0986908199
 20
676.5629777067
 10
49.8494872074
 20
674.3909986085
 10
46.3343150121
 20
672.3617328943
 10
42.5719291986
 20
670.4860075747
 10
38.5824037231
 20
668.7738304559
 10
34.3870244302
 20
667.2343367437
 10
30.0081754837
 20
665.875740303
 10
25.4692199372
 20
664.7052898338
 10
20.7943750825
 20
663.7292301956
 10
16.0085832395
 20
662.9527690891
 10
11.1373786785
 20
662.3800492701
 10
6.2067513834
 20
662.0141264466
 10
1.2430083842
 20
661.8569529754
 10
-3.7273666025
 20
661.9093674447
 10
-8.6778544757
 20
662.1710902008
 10
-13.5820422406
 20
662.6407248396
 10
-18.4137639336
 20
663.315765657
 10
-23.1472402289
 20
664.1926110181
 10
-27.7572159823
 20
665.2665825737
 10
-32.2190949787
 20
666.5319502207
 10
-36.509071163
 20
667.9819626753
 10
-40.6042556562
 20
669.6088834937
 10
-44.4827988771
 20
671.4040323494
 10
-48.1240071195
 20
673.3578313465
  0
SPLINE
  5
204
330
1F
100
AcDbEntity
  8
0
  6
Continuous
 62
     8
370
    15
100
AcDbSpline
210
0.0
220
0.0
230
1.0
 70
     8
 71
     3
 72
    11
 73
     7
 74
     0
 42
0.000000001
 43
0.00000001
 40
0.0
 40
0.0
 40
0.0
 40
0.0
 40
0.2057628467816495
 40
0.4825114805915498
 40
0.7476572287192683
 40
1.0
 40
1.0
 40
1.0
 40
1.0
 10
61.42046248329898
 20
1022.998510933439
 30
0.0
 10
60.86622912497688
 20
1026.593360350276
 30
0.0
 10
59.56655835107375
 20
1035.023240388151
 30
0.0
 10
57.05168438558931
 20
1047.691747870382
 30
0.0
 10
54.02840959302657
 20
1060.858228770224
 30
0.0
 10
51.64208081668006
 20
1069.069501654422
 30
0.0
 10
50.47843603225355
 20
1073.073562184517
 30
0.0
  0
LWPOLYLINE
  5
205
330
1F
100
AcDbEntity
  8
0
  6
Continuous
 62
     8
370
    15
100
AcDbPolyline
 90
        9
 70
   128
 43
0.0
 10
-48.1240071195
 20
673.3578313464
 10
-51.508452962
 20
675.4598561219
 10
-54.6180789216
 20
677.6988914641
 10
-57.4362937984
 20
680.0629911508
 10
-59.9480611967
 20
682.5395416872
 10
-62.1399797505
 20
685.1153296046
 10
-64.0003546261
 20
687.7766119601
 10
-65.5192599186
 20
690.5091896607
 10
-65.836627509
 20
691.1840939373
  0
LINE
  5
206
330
1F
100
AcDbEntity
  8
0
  6
Continuous
 62
     7
370
    15
100
AcDbLine
 10
-4.0656854249
 20
64.9966848723
 30
0.0
 11
-4.0656854249
 21
64.5105237689
 31
0.0
  0
LINE
  5
207
330
1F
100
AcDbEntity
  8
0
  6
Continuous
 62
     7
370
    15
100
AcDbLine
 10
2.9343145751
 20
64.8238698858
 30
0.0
 11
2.9343145751
 21
64.9966848723
 31
0.0
  0
LINE
  5
208
330
1F
100
AcDbEntity
  8
0
  6
Continuous
 62
     7
370
    15
100
AcDbLine
 10
-2.0710080203
 20
61.8362012304
 30
0.0
 11
-1.8536624143
 21
61.7865442354
 31
0.0
  0
LINE
  5
209
330
1F
100
AcDbEntity
  8
0
  6
Continuous
 62
     7
370
    15
100
AcDbLine
 10
-4.0656854249
 20
62.8096357614
 30
0.0
 11
-4.0656854249
 21
61.9876447669
 31
0.0
  0
LINE
  5
20A
330
1F
100
AcDbEntity
  8
0
  6
Continuous
 62
     7
370
    15
100
AcDbLine
 10
-4.0656854249
 20
60.3440170499
 30
0.0
 11
-4.0656854249
 21
-0.3265800786
 31
0.0
  0
LINE
  5
20B
330
1F
100
AcDbEntity
  8
0
  6
Continuous
 62
     7
370
    15
100
AcDbLine
 10
2.9343145751
 20
-0.3265800786
 30
0.0
 11
2.9343145751
 21
55.3936201928
 31
0.0
  0
LINE
  5
20C
330
1F
100
AcDbEntity
  8
0
  6
Continuous
 62
     7
370
    15
100
AcDbLine
 10
1.9141729287
 20
135.5069246017
 30
0.0
 11
4.0354932723
 21
136.7315367694
 31
0.0
  0
LINE
  5
20D
330
1F
100
AcDbEntity
  8
0
  6
Continuous
 62
     7
370
    15
100
AcDbLine
 10
1.6771587504
 20
137.6794377512
 30
0.0
 11
0.9142541961
 21
137.2390223265
 31
0.0
  0
LINE
  5
20E
330
1F
100
AcDbEntity
  8
0
  6
Continuous
 62
     7
370
    15
100
AcDbLine
 10
5.2425594198
 20
111.7789273071
 30
0.0
 11
13.162155369
 21
116.3508127333
 31
0.0
  0
LINE
  5
20F
330
1F
100
AcDbEntity
  8
0
  6
Continuous
 62
     7
370
    15
100
AcDbLine
 10
7.9375051201
 20
99.2713825333
 30
0.0
 11
7.0889769827
 21
98.7815376663
 31
0.0
  0
LINE
  5
210
330
1F
100
AcDbEntity
  8
0
  6
Continuous
 62
     7
370
    15
100
AcDbLine
 10
23.9941623928
 20
62.665418867
 30
0.0
 11
24.8426905302
 21
63.1552637341
 31
0.0
  0
LINE
  5
211
330
1F
100
AcDbEntity
  8
0
  6
Continuous
 62
     7
370
    15
100
AcDbLine
 10
2.8803292331
 20
73.002906041
 30
0.0
 11
3.7288573705
 21
73.4927509081
 31
0.0
  0
LINE
  5
212
330
1F
100
AcDbEntity
  8
0
  6
Continuous
 62
     7
370
    15
100
AcDbLine
 10
1.927996879
 20
76.6122707833
 30
0.0
 11
1.0794687415
 21
76.1224259163
 31
0.0
  0
LINE
  5
213
330
1F
100
AcDbEntity
  8
0
  6
Continuous
 62
     7
370
    15
100
AcDbLine
 10
-4.6426081802
 20
99.5040063068
 30
0.0
 11
-11.2187012452
 21
95.7077085868
 31
0.0
  0
LINE
  5
214
330
1F
100
AcDbEntity
  8
0
  6
Continuous
 62
     7
370
    15
100
AcDbLine
 10
2.8803292331
 20
66.9588040454
 30
0.0
 11
3.7288573705
 21
67.4486489125
 31
0.0
  0
LINE
  5
215
330
1F
100
AcDbEntity
  8
0
  6
Continuous
 62
     7
370
    15
100
AcDbLine
 10
1.927996879
 20
70.5681687877
 30
0.0
 11
1.0794687415
 21
70.0783239206
 31
0.0
  0
LINE
  5
216
330
1F
100
AcDbEntity
  8
0
  6
Continuous
 62
     7
370
    15
100
AcDbLine
 10
-2.6351036601
 20
76.1868976771
 30
0.0
 11
-1.7865755227
 21
76.6767425442
 31
0.0
  0
LINE
  5
217
330
1F
100
AcDbEntity
  8
0
  6
Continuous
 62
     7
370
    15
100
AcDbLine
 10
-3.5874360143
 20
79.7962624195
 30
0.0
 11
-4.4359641517
 21
79.3064175524
 31
0.0
  0
LINE
  5
218
330
1F
100
AcDbEntity
  8
0
  6
Continuous
 62
     7
370
    15
100
AcDbLine
 10
-4.3940312823
 20
101.0331098088
 30
0.0
 11
-5.2425594198
 21
100.5432649417
 31
0.0
  0
LINE
  5
219
330
1F
100
AcDbEntity
  8
0
  6
Continuous
 62
     7
370
    15
100
AcDbLine
 10
-2.6351036601
 20
70.1427956815
 30
0.0
 11
-1.7865755227
 21
70.6326405486
 31
0.0
  0
LINE
  5
21A
330
1F
100
AcDbEntity
  8
0
  6
Continuous
 62
     7
370
    15
100
AcDbLine
 10
-3.5874360143
 20
73.7521604238
 30
0.0
 11
-4.4359641517
 21
73.2623155567
 31
0.0
  0
LINE
  5
21B
330
1F
100
AcDbEntity
  8
0
  6
Continuous
 62
     7
370
    15
100
AcDbLine
 10
-8.1505365534
 20
79.3708893133
 30
0.0
 11
-7.302008416
 21
79.8607341804
 31
0.0
  0
LINE
  5
21C
330
1F
100
AcDbEntity
  8
0
  6
Continuous
 62
     7
370
    15
100
AcDbLine
 10
-9.1028689075
 20
82.9802540556
 30
0.0
 11
-9.951397045
 21
82.4904091885
 31
0.0
  0
LINE
  5
21D
330
1F
100
AcDbEntity
  8
0
  6
Continuous
 62
     7
370
    15
100
AcDbLine
 10
5.137582927
 20
54.3129903253
 30
0.0
 11
11.713675992
 21
58.1092880453
 31
0.0
  0
LINE
  5
21E
330
1F
100
AcDbEntity
  8
0
  6
Continuous
 62
     7
370
    15
100
AcDbLine
 10
-8.1505365534
 20
73.3267873176
 30
0.0
 11
-7.302008416
 21
73.8166321847
 31
0.0
  0
LINE
  5
21F
330
1F
100
AcDbEntity
  8
0
  6
Continuous
 62
     7
370
    15
100
AcDbLine
 10
-9.1028689075
 20
76.9361520599
 30
0.0
 11
-9.951397045
 21
76.4463071928
 31
0.0
  0
LINE
  5
220
330
1F
100
AcDbEntity
  8
0
  6
Continuous
 62
     7
370
    15
100
AcDbLine
 10
12.3136272316
 20
57.0700294104
 30
0.0
 11
13.162155369
 21
57.5598742775
 31
0.0
  0
LINE
  5
221
330
1F
100
AcDbEntity
  8
0
  6
Continuous
 62
     7
370
    15
100
AcDbLine
 10
3.1
 20
530.762318305
 30
0.0
 11
3.1
 21
531.5468952616
 31
0.0
  0
LINE
  5
222
330
1F
100
AcDbEntity
  8
0
  6
Continuous
 62
     7
370
    15
100
AcDbLine
 10
-3.1
 20
531.5468952616
 30
0.0
 11
-3.1
 21
530.762318305
 31
0.0
  0
LINE
  5
223
330
1F
100
AcDbEntity
  8
0
  6
Continuous
 62
     7
370
    15
100
AcDbLine
 10
-5.1385867746
 20
85.7954326039
 30
0.0
 11
-2.1869799149
 21
85.6636338043
 31
0.0
  0
LINE
  5
224
330
1F
100
AcDbEntity
  8
0
  6
Continuous
 62
     7
370
    15
100
AcDbLine
 10
-3.15
 20
87.7086286867
 30
0.0
 11
-5.049369203
 21
87.7934416692
 31
0.0
  0
LINE
  5
225
330
1F
100
AcDbEntity
  8
0
  6
Continuous
 62
     7
370
    15
100
AcDbLine
 10
-4.5295750289
 20
85.0099820291
 30
0.0
 11
-4.5295750289
 21
85.7682382583
 31
0.0
  0
LINE
  5
226
330
1F
100
AcDbEntity
  8
0
  6
Continuous
 62
     7
370
    15
100
AcDbLine
 10
-6.5295750289
 20
86.2599466675
 30
0.0
 11
-6.5295750289
 21
84.514080344
 31
0.0
  0
LINE
  5
227
330
1F
100
AcDbEntity
  8
0
  6
Continuous
 62
     7
370
    15
100
AcDbLine
 10
0.9274714438
 20
84.04358979
 30
0.0
 11
4.3510400876
 21
80.2436949918
 31
0.0
  0
LINE
  5
228
330
1F
100
AcDbEntity
  8
0
  6
Continuous
 62
     7
370
    15
100
AcDbLine
 10
4.5961940777
 20
82.959520355
 30
0.0
 11
2.4133472463
 21
85.3823104852
 31
0.0
  0
LINE
  5
229
330
1F
100
AcDbEntity
  8
0
  6
Continuous
 62
     7
370
    15
100
AcDbLine
 10
4.5295750289
 20
79.875635233
 30
0.0
 11
4.5295750289
 21
78.1297689096
 31
0.0
  0
LINE
  5
22A
330
1F
100
AcDbEntity
  8
0
  6
Continuous
 62
     7
370
    15
100
AcDbLine
 10
3.15
 20
92.3023669294
 30
0.0
 11
3.15
 21
97.5874175996
 31
0.0
  0
LINE
  5
22B
330
1F
100
AcDbEntity
  8
0
  6
Continuous
 62
     7
370
    15
100
AcDbLine
 10
-3.15
 20
97.5874175996
 30
0.0
 11
-3.15
 21
91.8188857549
 31
0.0
  0
LINE
  5
22C
330
1F
100
AcDbEntity
  8
0
  6
Continuous
 62
     7
370
    15
100
AcDbLine
 10
-3.15
 20
90.1116561828
 30
0.0
 11
-3.15
 21
86.9723870451
 31
0.0
  0
LINE
  5
22D
330
1F
100
AcDbEntity
  8
0
  6
Continuous
 62
     7
370
    15
100
AcDbLine
 10
3.15
 20
231.879131689
 30
0.0
 11
3.15
 21
236.8076260261
 31
0.0
  0
LINE
  5
22E
330
1F
100
AcDbEntity
  8
0
  6
Continuous
 62
     7
370
    15
100
AcDbLine
 10
-3.15
 20
236.8076260261
 30
0.0
 11
-3.15
 21
232.7249219667
 31
0.0
  0
LINE
  5
22F
330
1F
100
AcDbEntity
  8
0
  6
Continuous
 62
     7
370
    15
100
AcDbLine
 10
-2.5
 20
529.7041324496
 30
0.0
 11
-2.5
 21
236.5175425409
 31
0.0
  0
LINE
  5
230
330
1F
100
AcDbEntity
  8
0
  6
Continuous
 62
     7
370
    15
100
AcDbLine
 10
2.5
 20
236.5175425409
 30
0.0
 11
2.5
 21
529.7041324496
 31
0.0
  0
LINE
  5
231
330
1F
100
AcDbEntity
  8
0
  6
Continuous
 62
     7
370
    15
100
AcDbLine
 10
-2.5
 20
127.4198807546
 30
0.0
 11
-2.5
 21
97.2973341144
 31
0.0
  0
LINE
  5
232
330
1F
100
AcDbEntity
  8
0
  6
Continuous
 62
     7
370
    15
100
AcDbLine
 10
2.5
 20
97.2973341144
 30
0.0
 11
2.5
 21
112.8839484633
 31
0.0
  0
LINE
  5
233
330
1F
100
AcDbEntity
  8
0
  6
Continuous
 62
     7
370
    15
100
AcDbLine
 10
2.5
 20
118.3058929351
 30
0.0
 11
2.5
 21
127.4198807546
 31
0.0
  0
LINE
  5
234
330
1F
100
AcDbEntity
  8
0
  6
Continuous
 62
     7
370
    15
100
AcDbLine
 10
0.3632351558
 20
85.1675601914
 30
0.0
 11
0.526518906
 21
84.8516383686
 31
0.0
  0
LINE
  5
235
330
1F
100
AcDbEntity
  8
0
  6
Continuous
 62
     7
370
    15
100
AcDbLine
 10
4.5969409064
 20
234.969546719
 30
0.0
 11
4.242443216
 21
235.1742604015
 31
0.0
  0
LINE
  5
236
330
1F
100
AcDbEntity
  8
0
  6
Continuous
 62
     7
370
    15
100
AcDbLine
 10
-4.242443216
 20
235.1742604015
 30
0.0
 11
-4.5969409064
 21
234.969546719
 31
0.0
  0
LINE
  5
237
330
1F
100
AcDbEntity
  8
0
  6
Continuous
 62
     7
370
    15
100
AcDbLine
 10
6.5
 20
219.2519985706
 30
0.0
 11
6.5
 21
232.3166515607
 31
0.0
  0
LINE
  5
238
330
1F
100
AcDbEntity
  8
0
  6
Continuous
 62
     7
370
    15
100
AcDbLine
 10
-6.5
 20
232.3166515607
 30
0.0
 11
-6.5
 21
219.2519985706
 31
0.0
  0
LINE
  5
239
330
1F
100
AcDbEntity
  8
0
  6
Continuous
 62
     7
370
    15
100
AcDbLine
 10
-4.5969409064
 20
216.5991034123
 30
0.0
 11
-4.242443216
 21
216.3943897298
 31
0.0
  0
LINE
  5
23A
330
1F
100
AcDbEntity
  8
0
  6
Continuous
 62
     7
370
    15
100
AcDbLine
 10
4.2433300675
 20
216.3949018647
 30
0.0
 11
4.5969409064
 21
216.5991034123
 31
0.0
  0
LINE
  5
23B
330
1F
100
AcDbEntity
  8
0
  6
Continuous
 62
     7
370
    15
100
AcDbLine
 10
-6.5
 20
629.7804991718
 30
0.0
 11
-6.5
 21
534.8450223644
 31
0.0
  0
LINE
  5
23C
330
1F
100
AcDbEntity
  8
0
  6
Continuous
 62
     7
370
    15
100
AcDbLine
 10
6.5
 20
534.8450223644
 30
0.0
 11
6.5
 21
629.7781486539
 31
0.0
  0
LINE
  5
23D
330
1F
100
AcDbEntity
  8
0
  6
Continuous
 62
     7
370
    15
100
AcDbLine
 10
5.6568542495
 20
137.8090594735
 30
0.0
 11
5.6568542495
 21
112.69461692
 31
0.0
  0
LINE
  5
23E
330
1F
100
AcDbEntity
  8
0
  6
Continuous
 62
     7
370
    15
100
AcDbLine
 10
4.2426406871
 20
111.8779434081
 30
0.0
 11
-1.4142135624
 21
115.1435758554
 31
0.0
  0
LINE
  5
23F
330
1F
100
AcDbEntity
  8
0
  6
Continuous
 62
     7
370
    15
100
AcDbLine
 10
-1.4142135624
 20
115.9601166673
 30
0.0
 11
-1.4142135624
 21
115.1435758554
 31
0.0
  0
LINE
  5
240
330
1F
100
AcDbEntity
  8
0
  6
Continuous
 62
     7
370
    15
100
AcDbLine
 10
4.2426406871
 20
112.69448422
 30
0.0
 11
-1.4142135624
 21
115.9601166673
 31
0.0
  0
LINE
  5
241
330
1F
100
AcDbEntity
  8
0
  6
Continuous
 62
     7
370
    15
100
AcDbLine
 10
4.9497474683
 20
137.7708432941
 30
0.0
 11
4.9497474683
 21
113.102820976
 31
0.0
  0
LINE
  5
242
330
1F
100
AcDbEntity
  8
0
  6
Continuous
 62
     7
370
    15
100
AcDbLine
 10
5.6568542495
 20
112.69461692
 30
0.0
 11
13.5764501988
 21
117.2665023462
 31
0.0
  0
LINE
  5
243
330
1F
100
AcDbEntity
  8
0
  6
Continuous
 62
     7
370
    15
100
AcDbLine
 10
13.5764501988
 20
117.2665023462
 30
0.0
 11
13.5764501988
 21
138.6120887807
 31
0.0
  0
LINE
  5
244
330
1F
100
AcDbEntity
  8
0
  6
Continuous
 62
     7
370
    15
100
AcDbLine
 10
4.9497474683
 20
120.4503612823
 30
0.0
 11
2.5
 21
121.8645703935
 31
0.0
  0
LINE
  5
245
330
1F
100
AcDbEntity
  8
0
  6
Continuous
 62
     7
370
    15
100
AcDbLine
 10
-2.5
 20
124.7510089539
 30
0.0
 11
-4.2426406871
 21
125.7570140091
 31
0.0
  0
LINE
  5
246
330
1F
100
AcDbEntity
  8
0
  6
Continuous
 62
     7
370
    15
100
AcDbLine
 10
-4.9497474683
 20
126.9817588769
 30
0.0
 11
-4.9497474683
 21
137.7749301657
 31
0.0
  0
LINE
  5
247
330
1F
100
AcDbEntity
  8
0
  6
Continuous
 62
     7
370
    15
100
AcDbLine
 10
-12.0208152802
 20
122.8997183178
 30
0.0
 11
-12.0208152802
 21
138.3957205767
 31
0.0
  0
LINE
  5
248
330
1F
100
AcDbEntity
  8
0
  6
Continuous
 62
     7
370
    15
100
AcDbLine
 10
-5.6568542495
 20
118.4093410027
 30
0.0
 11
-11.313708499
 21
121.67497345
 31
0.0
  0
LINE
  5
249
330
1F
100
AcDbEntity
  8
0
  6
Continuous
 62
     7
370
    15
100
AcDbLine
 10
-5.6568542495
 20
117.5928001908
 30
0.0
 11
-5.6568542495
 21
118.4093410027
 31
0.0
  0
LINE
  5
24A
330
1F
100
AcDbEntity
  8
0
  6
Continuous
 62
     7
370
    15
100
AcDbLine
 10
-5.6568542495
 20
117.5928001908
 30
0.0
 11
-11.313708499
 21
120.8584326381
 31
0.0
  0
LINE
  5
24B
330
1F
100
AcDbEntity
  8
0
  6
Continuous
 62
     7
370
    15
100
AcDbLine
 10
-12.7279220614
 20
123.3079223737
 30
0.0
 11
-12.7279220614
 21
138.4862638124
 31
0.0
  0
LINE
  5
24C
330
1F
100
AcDbEntity
  8
0
  6
Continuous
 62
     7
370
    15
100
AcDbLine
 10
-12.0208152802
 20
122.8997183178
 30
0.0
 11
-4.9497474683
 21
126.9817588769
 31
0.0
  0
LINE
  5
24D
330
1F
100
AcDbEntity
  8
0
  6
Continuous
 62
     7
370
    15
100
AcDbLine
 10
3.15
 20
96.1765682121
 30
0.0
 11
6.3639610307
 21
94.321188002
 31
0.0
  0
LINE
  5
24E
330
1F
100
AcDbEntity
  8
0
  6
Continuous
 62
     7
370
    15
100
AcDbLine
 10
6.3639610307
 20
94.321188002
 30
0.0
 11
6.3639610307
 21
97.1790808436
 31
0.0
  0
LINE
  5
24F
330
1F
100
AcDbEntity
  8
0
  6
Continuous
 62
     7
370
    15
100
AcDbLine
 10
11.313708499
 20
94.3216524522
 30
0.0
 11
11.313708499
 21
91.4637596106
 31
0.0
  0
LINE
  5
250
330
1F
100
AcDbEntity
  8
0
  6
Continuous
 62
     7
370
    15
100
AcDbLine
 10
12.7279220614
 20
89.014269875
 30
0.0
 11
12.7279220614
 21
79.6240505384
 31
0.0
  0
LINE
  5
251
330
1F
100
AcDbEntity
  8
0
  6
Continuous
 62
     7
370
    15
100
AcDbLine
 10
12.7279220614
 20
79.6240505384
 30
0.0
 11
20.2444671454
 21
75.284841424
 31
0.0
  0
LINE
  5
252
330
1F
100
AcDbEntity
  8
0
  6
Continuous
 62
     7
370
    15
100
AcDbLine
 10
20.2444671454
 20
63.0367292457
 30
0.0
 11
12.7279220614
 21
67.3759383601
 31
0.0
  0
LINE
  5
253
330
1F
100
AcDbEntity
  8
0
  6
Continuous
 62
     7
370
    15
100
AcDbLine
 10
12.7279220614
 20
67.3759383601
 30
0.0
 11
12.7279220614
 21
57.9857190234
 31
0.0
  0
LINE
  5
254
330
1F
100
AcDbEntity
  8
0
  6
Continuous
 62
     7
370
    15
100
AcDbLine
 10
11.313708499
 20
57.1690455114
 30
0.0
 11
10.6993300876
 21
57.5237186189
 31
0.0
  0
LINE
  5
255
330
1F
100
AcDbEntity
  8
0
  6
Continuous
 62
     7
370
    15
100
AcDbLine
 10
-5.6568542495
 20
98.918494514
 30
0.0
 11
-5.6568542495
 21
99.6275753287
 31
0.0
  0
LINE
  5
256
330
1F
100
AcDbEntity
  8
0
  6
Continuous
 62
     7
370
    15
100
AcDbLine
 10
-4.2426406871
 20
100.4442488407
 30
0.0
 11
-2.9619582933
 21
99.7049266316
 31
0.0
  0
LINE
  5
257
330
1F
100
AcDbEntity
  8
0
  6
Continuous
 62
     7
370
    15
100
AcDbLine
 10
-2.9619582933
 20
99.7049266316
 30
0.0
 11
-2.9619582933
 21
119.1485305117
 31
0.0
  0
LINE
  5
258
330
1F
100
AcDbEntity
  8
0
  6
Continuous
 62
     7
370
    15
100
AcDbLine
 10
-4.2426406871
 20
99.4643998664
 30
0.0
 11
-2.6671733385
 21
98.5549019253
 31
0.0
  0
LINE
  5
259
330
1F
100
AcDbEntity
  8
0
  6
Continuous
 62
     7
370
    15
100
AcDbLine
 10
11.8793939239
 20
89.5041147421
 30
0.0
 11
11.8793939239
 21
58.4755638905
 31
0.0
  0
LINE
  5
25A
330
1F
100
AcDbEntity
  8
0
  6
Continuous
 62
     7
370
    15
100
AcDbLine
 10
5.6568542495
 20
93.7495430837
 30
0.0
 11
11.313708499
 21
90.4839106364
 31
0.0
  0
LINE
  5
25B
330
1F
100
AcDbEntity
  8
0
  6
Continuous
 62
     7
370
    15
100
AcDbLine
 10
-4.1012193309
 20
89.339307069
 30
0.0
 11
-3.15
 21
88.7901798378
 31
0.0
  0
LINE
  5
25C
330
1F
100
AcDbEntity
  8
0
  6
Continuous
 62
     7
370
    15
100
AcDbLine
 10
2.2268116162
 20
85.6862125616
 30
0.0
 11
4.5961940777
 21
84.3183971813
 31
0.0
  0
LINE
  5
25D
330
1F
100
AcDbEntity
  8
0
  6
Continuous
 62
     7
370
    15
100
AcDbLine
 10
-4.1012193309
 20
89.572619475
 30
0.0
 11
-4.1012193309
 21
89.339307069
 31
0.0
  0
LINE
  5
25E
330
1F
100
AcDbEntity
  8
0
  6
Continuous
 62
     7
370
    15
100
AcDbLine
 10
-5.6568542495
 20
118.4093410027
 30
0.0
 11
-2.5
 21
120.2317541698
 31
0.0
  0
LINE
  5
25F
330
1F
100
AcDbEntity
  8
0
  6
Continuous
 62
     7
370
    15
100
AcDbLine
 10
-4.2426406871
 20
125.7570140091
 30
0.0
 11
-11.313708499
 21
121.67497345
 31
0.0
  0
LINE
  5
260
330
1F
100
AcDbEntity
  8
0
  6
Continuous
 62
     7
370
    15
100
AcDbLine
 10
2.1213203436
 20
118.0011369468
 30
0.0
 11
-1.4142135624
 21
115.9601166673
 31
0.0
  0
LINE
  5
261
330
1F
100
AcDbEntity
  8
0
  6
Continuous
 62
     7
370
    15
100
AcDbLine
 10
-2.5
 20
119.4152133579
 30
0.0
 11
-5.6568542495
 21
117.5928001908
 31
0.0
  0
LINE
  5
262
330
1F
100
AcDbEntity
  8
0
  6
Continuous
 62
     7
370
    15
100
AcDbLine
 10
-2.0000491427
 20
88.3728140952
 30
0.0
 11
-1.6968812477
 21
87.9995851289
 31
0.0
  0
LINE
  5
263
330
1F
100
AcDbEntity
  8
0
  6
Continuous
 62
     7
370
    15
100
AcDbLine
 10
-2.0000491427
 20
88.3728140952
 30
0.0
 11
-0.9192388155
 21
89.9532453637
 31
0.0
  0
LINE
  5
264
330
1F
100
AcDbEntity
  8
0
  6
Continuous
 62
     7
370
    15
100
AcDbLine
 10
-0.9192388155
 20
89.9532453637
 30
0.0
 11
4.737615434
 21
86.6876129164
 31
0.0
  0
LINE
  5
265
330
1F
100
AcDbEntity
  8
0
  6
Continuous
 62
     7
370
    15
100
AcDbLine
 10
5.3033008589
 20
85.7078170222
 30
0.0
 11
5.3033008589
 21
54.6792661705
 31
0.0
  0
LINE
  5
266
330
1F
100
AcDbEntity
  8
0
  6
Continuous
 62
     7
370
    15
100
AcDbLine
 10
4.737615434
 20
54.3525967657
 30
0.0
 11
-0.2121320344
 21
57.2100251571
 31
0.0
  0
LINE
  5
267
330
1F
100
AcDbEntity
  8
0
  6
Continuous
 62
     7
370
    15
100
AcDbLine
 10
-0.2121320344
 20
58.026565969
 30
0.0
 11
-0.2121320344
 21
57.2100251571
 31
0.0
  0
LINE
  5
268
330
1F
100
AcDbEntity
  8
0
  6
Continuous
 62
     7
370
    15
100
AcDbLine
 10
4.5961940777
 20
55.2507783888
 30
0.0
 11
-0.2121320344
 21
58.026565969
 31
0.0
  0
LINE
  5
269
330
1F
100
AcDbEntity
  8
0
  6
Continuous
 62
     7
370
    15
100
AcDbLine
 10
4.5961940777
 20
55.2507783888
 30
0.0
 11
4.5961940777
 21
56.4755896066
 31
0.0
  0
LINE
  5
26A
330
1F
100
AcDbEntity
  8
0
  6
Continuous
 62
     7
370
    15
100
AcDbLine
 10
-0.2121320344
 20
59.2513771868
 30
0.0
 11
4.5961940777
 21
56.4755896066
 31
0.0
  0
LINE
  5
26B
330
1F
100
AcDbEntity
  8
0
  6
Continuous
 62
     7
370
    15
100
AcDbLine
 10
-0.2121320344
 20
60.2312261611
 30
0.0
 11
-0.2121320344
 21
59.2513771868
 31
0.0
  0
LINE
  5
26C
330
1F
100
AcDbEntity
  8
0
  6
Continuous
 62
     7
370
    15
100
AcDbLine
 10
4.5961940777
 20
57.4554385809
 30
0.0
 11
-0.2121320344
 21
60.2312261611
 31
0.0
  0
LINE
  5
26D
330
1F
100
AcDbEntity
  8
0
  6
Continuous
 62
     7
370
    15
100
AcDbLine
 10
4.5961940777
 20
59.251828367
 30
0.0
 11
4.5961940777
 21
57.4554385809
 31
0.0
  0
LINE
  5
26E
330
1F
100
AcDbEntity
  8
0
  6
Continuous
 62
     7
370
    15
100
AcDbLine
 10
-0.2121320344
 20
62.0276159472
 30
0.0
 11
4.5961940777
 21
59.251828367
 31
0.0
  0
LINE
  5
26F
330
1F
100
AcDbEntity
  8
0
  6
Continuous
 62
     7
370
    15
100
AcDbLine
 10
-0.2121320344
 20
63.0074649215
 30
0.0
 11
-0.2121320344
 21
62.0276159472
 31
0.0
  0
LINE
  5
270
330
1F
100
AcDbEntity
  8
0
  6
Continuous
 62
     7
370
    15
100
AcDbLine
 10
4.5961940777
 20
60.2316773413
 30
0.0
 11
-0.2121320344
 21
63.0074649215
 31
0.0
  0
LINE
  5
271
330
1F
100
AcDbEntity
  8
0
  6
Continuous
 62
     7
370
    15
100
AcDbLine
 10
4.5961940777
 20
60.2316773413
 30
0.0
 11
4.5961940777
 21
85.9527129157
 31
0.0
  0
LINE
  5
272
330
1F
100
AcDbEntity
  8
0
  6
Continuous
 62
     7
370
    15
100
AcDbLine
 10
4.5961940777
 20
85.9527129157
 30
0.0
 11
-0.9192388155
 21
89.1367045518
 31
0.0
  0
LINE
  5
273
330
1F
100
AcDbEntity
  8
0
  6
Continuous
 62
     7
370
    15
100
AcDbLine
 10
-0.9192388155
 20
89.1367045518
 30
0.0
 11
-1.6968812477
 21
87.9995851289
 31
0.0
  0
LINE
  5
274
330
1F
100
AcDbEntity
  8
0
  6
Continuous
 62
     7
370
    15
100
AcDbLine
 10
4.737615434
 20
86.6876129164
 30
0.0
 11
11.313708499
 21
90.4839106364
 31
0.0
  0
LINE
  5
275
330
1F
100
AcDbEntity
  8
0
  6
Continuous
 62
     7
370
    15
100
AcDbLine
 10
11.8793939239
 20
89.5041147421
 30
0.0
 11
5.3033008589
 21
85.7078170222
 31
0.0
  0
LINE
  5
276
330
1F
100
AcDbEntity
  8
0
  6
Continuous
 62
     7
370
    15
100
AcDbLine
 10
5.6568542495
 20
93.7495430837
 30
0.0
 11
2.8004742289
 21
92.1005899967
 31
0.0
  0
LINE
  5
277
330
1F
100
AcDbEntity
  8
0
  6
Continuous
 62
     7
370
    15
100
AcDbLine
 10
1.4421664582
 20
91.3164556115
 30
0.0
 11
-0.9192388155
 21
89.9532453637
 31
0.0
  0
LINE
  5
278
330
1F
100
AcDbEntity
  8
0
  6
Continuous
 62
     7
370
    15
100
AcDbLine
 10
5.3033008589
 20
54.6792661705
 30
0.0
 11
11.8793939239
 21
58.4755638905
 31
0.0
  0
LINE
  5
279
330
1F
100
AcDbEntity
  8
0
  6
Continuous
 62
     7
370
    15
100
AcDbLine
 10
11.313708499
 20
94.3216524522
 30
0.0
 11
12.1622366364
 21
94.8114973193
 31
0.0
  0
LINE
  5
27A
330
1F
100
AcDbEntity
  8
0
  6
Continuous
 62
     7
370
    15
100
AcDbLine
 10
20.2444671454
 20
75.284841424
 30
0.0
 11
21.0929952828
 21
75.7746862911
 31
0.0
  0
LINE
  5
27B
330
1F
100
AcDbEntity
  8
0
  6
Continuous
 62
     7
370
    15
100
AcDbLine
 10
11.313708499
 20
91.4637596106
 30
0.0
 11
12.1622366364
 21
91.9536044777
 31
0.0
  0
LINE
  5
27C
330
1F
100
AcDbEntity
  8
0
  6
Continuous
 62
     7
370
    15
100
AcDbLine
 10
12.1622366364
 20
91.9536044777
 30
0.0
 11
12.1622366364
 21
94.8114973193
 31
0.0
  0
LINE
  5
27D
330
1F
100
AcDbEntity
  8
0
  6
Continuous
 62
     7
370
    15
100
AcDbLine
 10
12.7279220614
 20
89.014269875
 30
0.0
 11
13.5764501988
 21
89.5041147421
 31
0.0
  0
LINE
  5
27E
330
1F
100
AcDbEntity
  8
0
  6
Continuous
 62
     7
370
    15
100
AcDbLine
 10
12.7279220614
 20
79.6240505384
 30
0.0
 11
13.5764501988
 21
80.1138954054
 31
0.0
  0
LINE
  5
27F
330
1F
100
AcDbEntity
  8
0
  6
Continuous
 62
     7
370
    15
100
AcDbLine
 10
13.5764501988
 20
80.1138954054
 30
0.0
 11
13.5764501988
 21
89.5041147421
 31
0.0
  0
LINE
  5
280
330
1F
100
AcDbEntity
  8
0
  6
Continuous
 62
     7
370
    15
100
AcDbLine
 10
21.0929952828
 20
75.7746862911
 30
0.0
 11
13.5764501988
 21
80.1138954054
 31
0.0
  0
LINE
  5
281
330
1F
100
AcDbEntity
  8
0
  6
Continuous
 62
     7
370
    15
100
AcDbLine
 10
-1.6968812477
 20
87.9995851289
 30
0.0
 11
-0.4327735151
 21
88.7293389897
 31
0.0
  0
LINE
  5
282
330
1F
100
AcDbEntity
  8
0
  6
Continuous
 62
     7
370
    15
100
AcDbLine
 10
-5.1618795027
 20
92.4024696992
 30
0.0
 11
-4.0810691755
 21
89.5741613887
 31
0.0
  0
LINE
  5
283
330
1F
100
AcDbEntity
  8
0
  6
Continuous
 62
     7
370
    15
100
AcDbLine
 10
-3.15
 20
93.5639030142
 30
0.0
 11
-5.1618795027
 21
92.4024696992
 31
0.0
  0
LINE
  5
284
330
1F
100
AcDbEntity
  8
0
  6
Continuous
 62
     7
370
    15
100
AcDbLine
 10
-4.0810691755
 20
89.5741613887
 30
0.0
 11
-3.0099233569
 21
90.1925207076
 31
0.0
  0
LINE
  5
285
330
1F
100
AcDbEntity
  8
0
  6
Continuous
 62
     7
370
    15
100
AcDbLine
 10
-4.3842370705
 20
89.5509626234
 30
0.0
 11
-4.0810691755
 21
89.5741613887
 31
0.0
  0
LINE
  5
286
330
1F
100
AcDbEntity
  8
0
  6
Continuous
 62
     7
370
    15
100
AcDbLine
 10
-4.3842370705
 20
89.5509626234
 30
0.0
 11
-5.1618795027
 21
91.5859288873
 31
0.0
  0
LINE
  5
287
330
1F
100
AcDbEntity
  8
0
  6
Continuous
 62
     7
370
    15
100
AcDbLine
 10
-5.1618795027
 20
91.5859288873
 30
0.0
 11
-10.6773123959
 21
94.7699205234
 31
0.0
  0
LINE
  5
288
330
1F
100
AcDbEntity
  8
0
  6
Continuous
 62
     7
370
    15
100
AcDbLine
 10
-10.6773123959
 20
94.7699205234
 30
0.0
 11
-10.6773123959
 21
69.048884949
 31
0.0
  0
LINE
  5
289
330
1F
100
AcDbEntity
  8
0
  6
Continuous
 62
     7
370
    15
100
AcDbLine
 10
-10.6773123959
 20
69.048884949
 30
0.0
 11
-5.8689862838
 21
66.2730973688
 31
0.0
  0
LINE
  5
28A
330
1F
100
AcDbEntity
  8
0
  6
Continuous
 62
     7
370
    15
100
AcDbLine
 10
-5.8689862838
 20
65.2932483945
 30
0.0
 11
-5.8689862838
 21
66.2730973688
 31
0.0
  0
LINE
  5
28B
330
1F
100
AcDbEntity
  8
0
  6
Continuous
 62
     7
370
    15
100
AcDbLine
 10
-10.6773123959
 20
68.0690359747
 30
0.0
 11
-5.8689862838
 21
65.2932483945
 31
0.0
  0
LINE
  5
28C
330
1F
100
AcDbEntity
  8
0
  6
Continuous
 62
     7
370
    15
100
AcDbLine
 10
-10.6773123959
 20
66.2726461886
 30
0.0
 11
-10.6773123959
 21
68.0690359747
 31
0.0
  0
LINE
  5
28D
330
1F
100
AcDbEntity
  8
0
  6
Continuous
 62
     7
370
    15
100
AcDbLine
 10
-5.8689862838
 20
63.4968586084
 30
0.0
 11
-10.6773123959
 21
66.2726461886
 31
0.0
  0
LINE
  5
28E
330
1F
100
AcDbEntity
  8
0
  6
Continuous
 62
     7
370
    15
100
AcDbLine
 10
-5.8689862838
 20
62.5170096341
 30
0.0
 11
-5.8689862838
 21
63.4968586084
 31
0.0
  0
LINE
  5
28F
330
1F
100
AcDbEntity
  8
0
  6
Continuous
 62
     7
370
    15
100
AcDbLine
 10
-10.6773123959
 20
65.2927972143
 30
0.0
 11
-5.8689862838
 21
62.5170096341
 31
0.0
  0
LINE
  5
290
330
1F
100
AcDbEntity
  8
0
  6
Continuous
 62
     7
370
    15
100
AcDbLine
 10
-10.6773123959
 20
65.2927972143
 30
0.0
 11
-10.6773123959
 21
64.0679859965
 31
0.0
  0
LINE
  5
291
330
1F
100
AcDbEntity
  8
0
  6
Continuous
 62
     7
370
    15
100
AcDbLine
 10
-5.8689862838
 20
61.2921984163
 30
0.0
 11
-10.6773123959
 21
64.0679859965
 31
0.0
  0
LINE
  5
292
330
1F
100
AcDbEntity
  8
0
  6
Continuous
 62
     7
370
    15
100
AcDbLine
 10
-5.8689862838
 20
60.4756576044
 30
0.0
 11
-5.8689862838
 21
61.2921984163
 31
0.0
  0
LINE
  5
293
330
1F
100
AcDbEntity
  8
0
  6
Continuous
 62
     7
370
    15
100
AcDbLine
 10
-5.8689862838
 20
60.4756576044
 30
0.0
 11
-10.8187337522
 21
63.3330859958
 31
0.0
  0
LINE
  5
294
330
1F
100
AcDbEntity
  8
0
  6
Continuous
 62
     7
370
    15
100
AcDbLine
 10
-11.3844191771
 20
64.31288189
 30
0.0
 11
-11.3844191771
 21
95.3414327417
 31
0.0
  0
LINE
  5
295
330
1F
100
AcDbEntity
  8
0
  6
Continuous
 62
     7
370
    15
100
AcDbLine
 10
-10.8187337522
 20
95.6681021464
 30
0.0
 11
-5.1618795027
 21
92.4024696992
 31
0.0
  0
LINE
  5
296
330
1F
100
AcDbEntity
  8
0
  6
Continuous
 62
     7
370
    15
100
AcDbLine
 10
-10.4651803616
 20
73.4173583876
 30
0.0
 11
-10.4651803616
 21
85.6654705658
 31
0.0
  0
LINE
  5
297
330
1F
100
AcDbEntity
  8
0
  6
Continuous
 62
     7
370
    15
100
AcDbLine
 10
-10.4651803616
 20
85.6654705658
 30
0.0
 11
4.5961940777
 21
76.9707241749
 31
0.0
  0
LINE
  5
298
330
1F
100
AcDbEntity
  8
0
  6
Continuous
 62
     7
370
    15
100
AcDbLine
 10
-10.4651803616
 20
73.4173583876
 30
0.0
 11
4.5961940777
 21
64.7226119966
 31
0.0
  0
LINE
  5
299
330
1F
100
AcDbEntity
  8
0
  6
Continuous
 62
     7
370
    15
100
AcDbLine
 10
-1.4142135624
 20
68.8447291276
 30
0.0
 11
-4.2426406871
 21
70.4775453512
 31
0.0
  0
LINE
  5
29A
330
1F
100
AcDbEntity
  8
0
  6
Continuous
 62
     7
370
    15
100
AcDbLine
 10
-1.4142135624
 20
79.7880759945
 30
0.0
 11
-1.4142135624
 21
68.8447291276
 31
0.0
  0
LINE
  5
29B
330
1F
100
AcDbEntity
  8
0
  6
Continuous
 62
     7
370
    15
100
AcDbLine
 10
-4.2426406871
 20
81.4208922181
 30
0.0
 11
-1.4142135624
 21
79.7880759945
 31
0.0
  0
LINE
  5
29C
330
1F
100
AcDbEntity
  8
0
  6
Continuous
 62
     7
370
    15
100
AcDbLine
 10
-4.2426406871
 20
70.4775453512
 30
0.0
 11
-4.2426406871
 21
70.887684649
 31
0.0
  0
LINE
  5
29D
330
1F
100
AcDbEntity
  8
0
  6
Continuous
 62
     7
370
    15
100
AcDbLine
 10
-4.2426406871
 20
73.3739188173
 30
0.0
 11
-4.2426406871
 21
76.9317866447
 31
0.0
  0
LINE
  5
29E
330
1F
100
AcDbEntity
  8
0
  6
Continuous
 62
     7
370
    15
100
AcDbLine
 10
-4.2426406871
 20
79.4180208129
 30
0.0
 11
-4.2426406871
 21
81.4208922181
 31
0.0
  0
LINE
  5
29F
330
1F
100
AcDbEntity
  8
0
  6
Continuous
 62
     7
370
    15
100
AcDbLine
 10
4.1012193309
 20
76.6040843584
 30
0.0
 11
4.1012193309
 21
65.6607374915
 31
0.0
  0
LINE
  5
2A0
330
1F
100
AcDbEntity
  8
0
  6
Continuous
 62
     7
370
    15
100
AcDbLine
 10
1.2727922061
 20
78.236900582
 30
0.0
 11
4.1012193309
 21
76.6040843584
 31
0.0
  0
LINE
  5
2A1
330
1F
100
AcDbEntity
  8
0
  6
Continuous
 62
     7
370
    15
100
AcDbLine
 10
1.2727922061
 20
67.2935537151
 30
0.0
 11
1.2727922061
 21
67.7036930129
 31
0.0
  0
LINE
  5
2A2
330
1F
100
AcDbEntity
  8
0
  6
Continuous
 62
     7
370
    15
100
AcDbLine
 10
1.2727922061
 20
70.1899271812
 30
0.0
 11
1.2727922061
 21
73.7477950086
 31
0.0
  0
LINE
  5
2A3
330
1F
100
AcDbEntity
  8
0
  6
Continuous
 62
     7
370
    15
100
AcDbLine
 10
1.2727922061
 20
76.2340291768
 30
0.0
 11
1.2727922061
 21
78.236900582
 31
0.0
  0
LINE
  5
2A4
330
1F
100
AcDbEntity
  8
0
  6
Continuous
 62
     7
370
    15
100
AcDbLine
 10
4.1012193309
 20
65.6607374915
 30
0.0
 11
1.2727922061
 21
67.2935537151
 31
0.0
  0
LINE
  5
2A5
330
1F
100
AcDbEntity
  8
0
  6
Continuous
 62
     7
370
    15
100
AcDbLine
 10
-6.9296464556
 20
72.0287207637
 30
0.0
 11
-9.7580735804
 21
73.6615369873
 31
0.0
  0
LINE
  5
2A6
330
1F
100
AcDbEntity
  8
0
  6
Continuous
 62
     7
370
    15
100
AcDbLine
 10
-6.9296464556
 20
82.9720676306
 30
0.0
 11
-6.9296464556
 21
72.0287207637
 31
0.0
  0
LINE
  5
2A7
330
1F
100
AcDbEntity
  8
0
  6
Continuous
 62
     7
370
    15
100
AcDbLine
 10
-9.7580735804
 20
84.6048838543
 30
0.0
 11
-6.9296464556
 21
82.9720676306
 31
0.0
  0
LINE
  5
2A8
330
1F
100
AcDbEntity
  8
0
  6
Continuous
 62
     7
370
    15
100
AcDbLine
 10
-9.7580735804
 20
73.6615369873
 30
0.0
 11
-9.7580735804
 21
74.0716762852
 31
0.0
  0
LINE
  5
2A9
330
1F
100
AcDbEntity
  8
0
  6
Continuous
 62
     7
370
    15
100
AcDbLine
 10
-9.7580735804
 20
76.5579104534
 30
0.0
 11
-9.7580735804
 21
80.1157782808
 31
0.0
  0
LINE
  5
2AA
330
1F
100
AcDbEntity
  8
0
  6
Continuous
 62
     7
370
    15
100
AcDbLine
 10
-9.7580735804
 20
82.602012449
 30
0.0
 11
-9.7580735804
 21
84.6048838543
 31
0.0
  0
LINE
  5
2AB
330
1F
100
AcDbEntity
  8
0
  6
Continuous
 62
     7
370
    15
100
AcDbLine
 10
-4.1012193309
 20
89.339307069
 30
0.0
 11
-10.4651803616
 21
85.6654705658
 31
0.0
  0
LINE
  5
2AC
330
1F
100
AcDbEntity
  8
0
  6
Continuous
 62
     7
370
    15
100
AcDbLine
 10
2.261807593
 20
82.5625804925
 30
0.0
 11
-0.5656854249
 21
80.9303035173
 31
0.0
  0
LINE
  5
2AD
330
1F
100
AcDbEntity
  8
0
  6
Continuous
 62
     7
370
    15
100
AcDbLine
 10
-0.2121320344
 20
84.4000379925
 30
0.0
 11
1.4933959118
 21
83.4154576666
 31
0.0
  0
LINE
  5
2AE
330
1F
100
AcDbEntity
  8
0
  6
Continuous
 62
     7
370
    15
100
AcDbLine
 10
-3.3941125497
 20
82.5631197409
 30
0.0
 11
-0.2121320344
 21
84.4000379925
 31
0.0
  0
LINE
  5
2AF
330
1F
100
AcDbEntity
  8
0
  6
Continuous
 62
     7
370
    15
100
AcDbLine
 10
-0.5656854249
 20
80.9303035173
 30
0.0
 11
-3.3941125497
 21
82.5631197409
 31
0.0
  0
LINE
  5
2B0
330
1F
100
AcDbEntity
  8
0
  6
Continuous
 62
     7
370
    15
100
AcDbLine
 10
2.1213203436
 20
79.3791281048
 30
0.0
 11
4.1005538127
 21
80.5217152659
 31
0.0
  0
LINE
  5
2B1
330
1F
100
AcDbEntity
  8
0
  6
Continuous
 62
     7
370
    15
100
AcDbLine
 10
4.5961940777
 20
77.9504139091
 30
0.0
 11
2.1213203436
 21
79.3791281048
 31
0.0
  0
LINE
  5
2B2
330
1F
100
AcDbEntity
  8
0
  6
Continuous
 62
     7
370
    15
100
AcDbLine
 10
-3.3103978212
 20
85.7137980499
 30
0.0
 11
-6.0811183182
 21
84.1142951534
 31
0.0
  0
LINE
  5
2B3
330
1F
100
AcDbEntity
  8
0
  6
Continuous
 62
     7
370
    15
100
AcDbLine
 10
-8.9095454429
 20
85.747111377
 30
0.0
 11
-5.7275649276
 21
87.5840296286
 31
0.0
  0
LINE
  5
2B4
330
1F
100
AcDbEntity
  8
0
  6
Continuous
 62
     7
370
    15
100
AcDbLine
 10
-6.0811183182
 20
84.1142951534
 30
0.0
 11
-8.9095454429
 21
85.747111377
 31
0.0
  0
LINE
  5
2B5
330
1F
100
AcDbEntity
  8
0
  6
Continuous
 62
     7
370
    15
100
AcDbLine
 10
-4.2426406871
 20
99.4643998664
 30
0.0
 11
-10.8187337522
 21
95.6681021464
 31
0.0
  0
LINE
  5
2B6
330
1F
100
AcDbEntity
  8
0
  6
Continuous
 62
     7
370
    15
100
AcDbLine
 10
2.8284271247
 20
76.0570936429
 30
0.0
 11
2.3334523779
 21
75.7713508038
 31
0.0
  0
LINE
  5
2B7
330
1F
100
AcDbEntity
  8
0
  6
Continuous
 62
     7
370
    15
100
AcDbLine
 10
1.6263455967
 20
76.1795548597
 30
0.0
 11
2.1213203436
 21
76.4652976989
 31
0.0
  0
LINE
  5
2B8
330
1F
100
AcDbEntity
  8
0
  6
Continuous
 62
     7
370
    15
100
AcDbLine
 10
2.1213203436
 20
73.6397239926
 30
0.0
 11
1.6263455967
 21
73.3539811535
 31
0.0
  0
LINE
  5
2B9
330
1F
100
AcDbEntity
  8
0
  6
Continuous
 62
     7
370
    15
100
AcDbLine
 10
2.3334523779
 20
75.7713508038
 30
0.0
 11
2.3334523779
 21
72.9457770976
 31
0.0
  0
LINE
  5
2BA
330
1F
100
AcDbEntity
  8
0
  6
Continuous
 62
     7
370
    15
100
AcDbLine
 10
6.3639610307
 20
95.3008777362
 30
0.0
 11
3.15
 21
97.1562579463
 31
0.0
  0
LINE
  5
2BB
330
1F
100
AcDbEntity
  8
0
  6
Continuous
 62
     7
370
    15
100
AcDbLine
 10
3.0736006335
 20
67.07037725
 30
0.0
 11
4.1012193309
 21
66.4771456033
 31
0.0
  0
LINE
  5
2BC
330
1F
100
AcDbEntity
  8
0
  6
Continuous
 62
     7
370
    15
100
AcDbLine
 10
1.9798989873
 20
77.8286965261
 30
0.0
 11
1.9798989873
 21
76.6389629371
 31
0.0
  0
LINE
  5
2BD
330
1F
100
AcDbEntity
  8
0
  6
Continuous
 62
     7
370
    15
100
AcDbLine
 10
1.9798989873
 20
73.5580831814
 30
0.0
 11
1.9798989873
 21
70.5948609415
 31
0.0
  0
LINE
  5
2BE
330
1F
100
AcDbEntity
  8
0
  6
Continuous
 62
     7
370
    15
100
AcDbLine
 10
2.1213203436
 20
76.4652976989
 30
0.0
 11
2.1213203436
 21
73.6397239926
 31
0.0
  0
LINE
  5
2BF
330
1F
100
AcDbEntity
  8
0
  6
Continuous
 62
     7
370
    15
100
AcDbLine
 10
1.6263455967
 20
73.3539811535
 30
0.0
 11
1.6263455967
 21
76.1795548597
 31
0.0
  0
LINE
  5
2C0
330
1F
100
AcDbEntity
  8
0
  6
Continuous
 62
     7
370
    15
100
AcDbLine
 10
1.5053666576
 20
67.4278160881
 30
0.0
 11
1.2727922061
 21
67.2935537151
 31
0.0
  0
LINE
  5
2C1
330
1F
100
AcDbEntity
  8
0
  6
Continuous
 62
     7
370
    15
100
AcDbLine
 10
2.8284271247
 20
70.0129916473
 30
0.0
 11
2.3334523779
 21
69.7272488082
 31
0.0
  0
LINE
  5
2C2
330
1F
100
AcDbEntity
  8
0
  6
Continuous
 62
     7
370
    15
100
AcDbLine
 10
1.6263455967
 20
70.1354528641
 30
0.0
 11
2.1213203436
 21
70.4211957032
 31
0.0
  0
LINE
  5
2C3
330
1F
100
AcDbEntity
  8
0
  6
Continuous
 62
     7
370
    15
100
AcDbLine
 10
2.1213203436
 20
67.595621997
 30
0.0
 11
1.6263455967
 21
67.3098791579
 31
0.0
  0
LINE
  5
2C4
330
1F
100
AcDbEntity
  8
0
  6
Continuous
 62
     7
370
    15
100
AcDbLine
 10
2.3334523779
 20
69.7272488082
 30
0.0
 11
2.3334523779
 21
66.901675102
 31
0.0
  0
LINE
  5
2C5
330
1F
100
AcDbEntity
  8
0
  6
Continuous
 62
     7
370
    15
100
AcDbLine
 10
-2.6870057685
 20
79.241085279
 30
0.0
 11
-3.1819805153
 21
78.9553424399
 31
0.0
  0
LINE
  5
2C6
330
1F
100
AcDbEntity
  8
0
  6
Continuous
 62
     7
370
    15
100
AcDbLine
 10
-3.8890872965
 20
79.3635464958
 30
0.0
 11
-3.3941125497
 21
79.649289335
 31
0.0
  0
LINE
  5
2C7
330
1F
100
AcDbEntity
  8
0
  6
Continuous
 62
     7
370
    15
100
AcDbLine
 10
-3.3941125497
 20
76.8237156287
 30
0.0
 11
-3.8890872965
 21
76.5379727896
 31
0.0
  0
LINE
  5
2C8
330
1F
100
AcDbEntity
  8
0
  6
Continuous
 62
     7
370
    15
100
AcDbLine
 10
-10.6773123959
 20
69.048884949
 30
0.0
 11
-6.7876274422
 21
71.2943522766
 31
0.0
  0
LINE
  5
2C9
330
1F
100
AcDbEntity
  8
0
  6
Continuous
 62
     7
370
    15
100
AcDbLine
 10
-3.1819805153
 20
78.9553424399
 30
0.0
 11
-3.1819805153
 21
76.1297687337
 31
0.0
  0
LINE
  5
2CA
330
1F
100
AcDbEntity
  8
0
  6
Continuous
 62
     7
370
    15
100
AcDbLine
 10
-2.4418322597
 20
70.2543688861
 30
0.0
 11
-1.4142135624
 21
69.6611372394
 31
0.0
  0
LINE
  5
2CB
330
1F
100
AcDbEntity
  8
0
  6
Continuous
 62
     7
370
    15
100
AcDbLine
 10
-3.5355339059
 20
81.0126881622
 30
0.0
 11
-3.5355339059
 21
79.8229545732
 31
0.0
  0
LINE
  5
2CC
330
1F
100
AcDbEntity
  8
0
  6
Continuous
 62
     7
370
    15
100
AcDbLine
 10
-3.5355339059
 20
76.7420748176
 30
0.0
 11
-3.5355339059
 21
73.7788525776
 31
0.0
  0
LINE
  5
2CD
330
1F
100
AcDbEntity
  8
0
  6
Continuous
 62
     7
370
    15
100
AcDbLine
 10
2.1213203436
 20
70.4211957032
 30
0.0
 11
2.1213203436
 21
67.595621997
 31
0.0
  0
LINE
  5
2CE
330
1F
100
AcDbEntity
  8
0
  6
Continuous
 62
     7
370
    15
100
AcDbLine
 10
1.6263455967
 20
67.3098791579
 30
0.0
 11
1.6263455967
 21
70.1354528641
 31
0.0
  0
LINE
  5
2CF
330
1F
100
AcDbEntity
  8
0
  6
Continuous
 62
     7
370
    15
100
AcDbLine
 10
-3.3941125497
 20
79.649289335
 30
0.0
 11
-3.3941125497
 21
76.8237156287
 31
0.0
  0
LINE
  5
2D0
330
1F
100
AcDbEntity
  8
0
  6
Continuous
 62
     7
370
    15
100
AcDbLine
 10
-3.8890872965
 20
76.5379727896
 30
0.0
 11
-3.8890872965
 21
79.3635464958
 31
0.0
  0
LINE
  5
2D1
330
1F
100
AcDbEntity
  8
0
  6
Continuous
 62
     7
370
    15
100
AcDbLine
 10
-4.0100662357
 20
70.6118077242
 30
0.0
 11
-4.2426406871
 21
70.4775453512
 31
0.0
  0
LINE
  5
2D2
330
1F
100
AcDbEntity
  8
0
  6
Continuous
 62
     7
370
    15
100
AcDbLine
 10
-0.2121320344
 20
84.4000379925
 30
0.0
 11
-0.2121320344
 21
81.1344055452
 31
0.0
  0
LINE
  5
2D3
330
1F
100
AcDbEntity
  8
0
  6
Continuous
 62
     7
370
    15
100
AcDbLine
 10
-4.2426406871
 20
100.4442488407
 30
0.0
 11
-3.3941125497
 21
100.9340937078
 31
0.0
  0
LINE
  5
2D4
330
1F
100
AcDbEntity
  8
0
  6
Continuous
 62
     7
370
    15
100
AcDbLine
 10
-2.9619582933
 20
100.6846163658
 30
0.0
 11
-3.3941125497
 21
100.9340937078
 31
0.0
  0
LINE
  5
2D5
330
1F
100
AcDbEntity
  8
0
  6
Continuous
 62
     7
370
    15
100
AcDbLine
 10
-2.6870057685
 20
73.1969832834
 30
0.0
 11
-3.1819805153
 21
72.9112404443
 31
0.0
  0
LINE
  5
2D6
330
1F
100
AcDbEntity
  8
0
  6
Continuous
 62
     7
370
    15
100
AcDbLine
 10
-3.8890872965
 20
73.3194445002
 30
0.0
 11
-3.3941125497
 21
73.6051873393
 31
0.0
  0
LINE
  5
2D7
330
1F
100
AcDbEntity
  8
0
  6
Continuous
 62
     7
370
    15
100
AcDbLine
 10
-3.3941125497
 20
70.7796136331
 30
0.0
 11
-3.8890872965
 21
70.493870794
 31
0.0
  0
LINE
  5
2D8
330
1F
100
AcDbEntity
  8
0
  6
Continuous
 62
     7
370
    15
100
AcDbLine
 10
-3.1819805153
 20
72.9112404443
 30
0.0
 11
-3.1819805153
 21
70.0856667381
 31
0.0
  0
LINE
  5
2D9
330
1F
100
AcDbEntity
  8
0
  6
Continuous
 62
     7
370
    15
100
AcDbLine
 10
-8.2024386618
 20
82.4250769152
 30
0.0
 11
-8.6974134086
 21
82.139334076
 31
0.0
  0
LINE
  5
2DA
330
1F
100
AcDbEntity
  8
0
  6
Continuous
 62
     7
370
    15
100
AcDbLine
 10
-9.4045201898
 20
82.5475381319
 30
0.0
 11
-8.9095454429
 21
82.8332809711
 31
0.0
  0
LINE
  5
2DB
330
1F
100
AcDbEntity
  8
0
  6
Continuous
 62
     7
370
    15
100
AcDbLine
 10
-8.9095454429
 20
80.0077072648
 30
0.0
 11
-9.4045201898
 21
79.7219644257
 31
0.0
  0
LINE
  5
2DC
330
1F
100
AcDbEntity
  8
0
  6
Continuous
 62
     7
370
    15
100
AcDbLine
 10
-8.6974134086
 20
82.139334076
 30
0.0
 11
-8.6974134086
 21
79.3137603698
 31
0.0
  0
LINE
  5
2DD
330
1F
100
AcDbEntity
  8
0
  6
Continuous
 62
     7
370
    15
100
AcDbLine
 10
-7.957265153
 20
73.4383605222
 30
0.0
 11
-6.9296464556
 21
72.8451288755
 31
0.0
  0
LINE
  5
2DE
330
1F
100
AcDbEntity
  8
0
  6
Continuous
 62
     7
370
    15
100
AcDbLine
 10
-9.0509667992
 20
84.1966797983
 30
0.0
 11
-9.0509667992
 21
83.0069462093
 31
0.0
  0
LINE
  5
2DF
330
1F
100
AcDbEntity
  8
0
  6
Continuous
 62
     7
370
    15
100
AcDbLine
 10
-9.0509667992
 20
79.9260664537
 30
0.0
 11
-9.0509667992
 21
76.9628442137
 31
0.0
  0
LINE
  5
2E0
330
1F
100
AcDbEntity
  8
0
  6
Continuous
 62
     7
370
    15
100
AcDbLine
 10
-3.3941125497
 20
73.6051873393
 30
0.0
 11
-3.3941125497
 21
70.7796136331
 31
0.0
  0
LINE
  5
2E1
330
1F
100
AcDbEntity
  8
0
  6
Continuous
 62
     7
370
    15
100
AcDbLine
 10
-3.8890872965
 20
70.493870794
 30
0.0
 11
-3.8890872965
 21
73.3194445002
 31
0.0
  0
LINE
  5
2E2
330
1F
100
AcDbEntity
  8
0
  6
Continuous
 62
     7
370
    15
100
AcDbLine
 10
-8.9095454429
 20
82.8332809711
 30
0.0
 11
-8.9095454429
 21
80.0077072648
 31
0.0
  0
LINE
  5
2E3
330
1F
100
AcDbEntity
  8
0
  6
Continuous
 62
     7
370
    15
100
AcDbLine
 10
3.6775529194
 20
65.2529322492
 30
0.0
 11
-0.2121320344
 21
63.0074649215
 31
0.0
  0
LINE
  5
2E4
330
1F
100
AcDbEntity
  8
0
  6
Continuous
 62
     7
370
    15
100
AcDbLine
 10
-9.4045201898
 20
79.7219644257
 30
0.0
 11
-9.4045201898
 21
82.5475381319
 31
0.0
  0
LINE
  5
2E5
330
1F
100
AcDbEntity
  8
0
  6
Continuous
 62
     7
370
    15
100
AcDbLine
 10
-9.5254991289
 20
73.7957993603
 30
0.0
 11
-9.7580735804
 21
73.6615369873
 31
0.0
  0
LINE
  5
2E6
330
1F
100
AcDbEntity
  8
0
  6
Continuous
 62
     7
370
    15
100
AcDbLine
 10
12.7279220614
 20
57.9857190234
 30
0.0
 11
13.5764501988
 21
58.4755638905
 31
0.0
  0
LINE
  5
2E7
330
1F
100
AcDbEntity
  8
0
  6
Continuous
 62
     7
370
    15
100
AcDbLine
 10
13.5764501988
 20
58.4755638905
 30
0.0
 11
13.5764501988
 21
66.886093493
 31
0.0
  0
LINE
  5
2E8
330
1F
100
AcDbEntity
  8
0
  6
Continuous
 62
     7
370
    15
100
AcDbLine
 10
1.3437557392
 20
61.1294210541
 30
0.0
 11
-0.2121320344
 21
60.2312261611
 31
0.0
  0
LINE
  5
2E9
330
1F
100
AcDbEntity
  8
0
  6
Continuous
 62
     7
370
    15
100
AcDbLine
 10
0.7071067812
 20
66.9677343042
 30
0.0
 11
0.7071067812
 21
66.8788553003
 31
0.0
  0
LINE
  5
2EA
330
1F
100
AcDbEntity
  8
0
  6
Continuous
 62
     7
370
    15
100
AcDbLine
 10
-8.2024386618
 20
76.3809749195
 30
0.0
 11
-8.6974134086
 21
76.0952320804
 31
0.0
  0
LINE
  5
2EB
330
1F
100
AcDbEntity
  8
0
  6
Continuous
 62
     7
370
    15
100
AcDbLine
 10
-9.4045201898
 20
76.5034361363
 30
0.0
 11
-8.9095454429
 21
76.7891789754
 31
0.0
  0
LINE
  5
2EC
330
1F
100
AcDbEntity
  8
0
  6
Continuous
 62
     7
370
    15
100
AcDbLine
 10
-8.9095454429
 20
73.9636052692
 30
0.0
 11
-9.4045201898
 21
73.6778624301
 31
0.0
  0
LINE
  5
2ED
330
1F
100
AcDbEntity
  8
0
  6
Continuous
 62
     7
370
    15
100
AcDbLine
 10
-8.6974134086
 20
76.0952320804
 30
0.0
 11
-8.6974134086
 21
73.2696583742
 31
0.0
  0
LINE
  5
2EE
330
1F
100
AcDbEntity
  8
0
  6
Continuous
 62
     7
370
    15
100
AcDbLine
 10
-5.8689862838
 20
61.2921984163
 30
0.0
 11
-4.6741422349
 21
61.9819672036
 31
0.0
  0
LINE
  5
2EF
330
1F
100
AcDbEntity
  8
0
  6
Continuous
 62
     7
370
    15
100
AcDbLine
 10
-9.616479823
 20
64.6803916054
 30
0.0
 11
-10.6773123959
 21
64.0679859965
 31
0.0
  0
LINE
  5
2F0
330
1F
100
AcDbEntity
  8
0
  6
Continuous
 62
     7
370
    15
100
AcDbLine
 10
0.8487005385
 20
58.6389715779
 30
0.0
 11
-0.2121320344
 21
58.026565969
 31
0.0
  0
LINE
  5
2F1
330
1F
100
AcDbEntity
  8
0
  6
Continuous
 62
     7
370
    15
100
AcDbLine
 10
-8.9095454429
 20
76.7891789754
 30
0.0
 11
-8.9095454429
 21
73.9636052692
 31
0.0
  0
LINE
  5
2F2
330
1F
100
AcDbEntity
  8
0
  6
Continuous
 62
     7
370
    15
100
AcDbLine
 10
-9.4045201898
 20
73.6778624301
 30
0.0
 11
-9.4045201898
 21
76.5034361363
 31
0.0
  0
LINE
  5
2F3
330
1F
100
AcDbEntity
  8
0
  6
Continuous
 62
     7
370
    15
100
AcDbLine
 10
-1.1306352718
 20
68.0286402093
 30
0.0
 11
-5.8689862838
 21
65.2932483945
 31
0.0
  0
LINE
  5
2F4
330
1F
100
AcDbEntity
  8
0
  6
Continuous
 62
     7
370
    15
100
AcDbLine
 10
-5.8689862838
 20
66.2730973688
 30
0.0
 11
-1.9793013301
 21
68.5185646965
 31
0.0
  0
LINE
  5
2F5
330
1F
100
AcDbEntity
  8
0
  6
Continuous
 62
     7
370
    15
100
AcDbLine
 10
-4.4688539108
 20
63.3252888484
 30
0.0
 11
-5.8689862838
 21
62.5170096341
 31
0.0
  0
LINE
  5
2F6
330
1F
100
AcDbEntity
  8
0
  6
Continuous
 62
     7
370
    15
100
AcDbLine
 10
-5.8689862838
 20
63.4968586084
 30
0.0
 11
-4.6455482356
 21
64.2031343601
 31
0.0
  0
LINE
  5
2F7
330
1F
100
AcDbEntity
  8
0
  6
Continuous
 62
     7
370
    15
100
AcDbLine
 10
0.1542305148
 20
66.9739876534
 30
0.0
 11
0.4252525018
 21
67.1304453162
 31
0.0
  0
LINE
  5
2F8
330
1F
100
AcDbEntity
  8
0
  6
Continuous
 62
     7
370
    15
100
AcDbLine
 10
-9.1214246223
 20
67.1708410816
 30
0.0
 11
-10.6773123959
 21
66.2726461886
 31
0.0
  0
LINE
  5
2F9
330
1F
100
AcDbEntity
  8
0
  6
Continuous
 62
     7
370
    15
100
AcDbLine
 10
-4.6439522242
 20
61.1828547139
 30
0.0
 11
-5.8689862838
 21
60.4756576044
 31
0.0
  0
LINE
  5
2FA
330
1F
100
AcDbEntity
  8
0
  6
Continuous
 62
     7
370
    15
100
AcDbLine
 10
-5.1546320512
 20
85.7963693613
 30
0.0
 11
-5.1385867746
 21
85.7954326039
 31
0.0
  0
LINE
  5
2FB
330
1F
100
AcDbEntity
  8
0
  6
Continuous
 62
     7
370
    15
100
AcDbLine
 10
-6.5295750289
 20
84.514080344
 30
0.0
 11
-6.4878739636
 21
84.3491101893
 31
0.0
  0
LINE
  5
2FC
330
1F
100
AcDbEntity
  8
0
  6
Continuous
 62
     7
370
    15
100
AcDbLine
 10
4.5295750289
 20
78.1297689096
 30
0.0
 11
4.5712760941
 21
77.9647987548
 31
0.0
  0
LINE
  5
2FD
330
1F
100
AcDbEntity
  8
0
  6
Continuous
 62
     7
370
    15
100
AcDbLine
 10
3.15
 20
235.5956120335
 30
0.0
 11
4.2426406871
 21
235.1741463021
 31
0.0
  0
LINE
  5
2FE
330
1F
100
AcDbEntity
  8
0
  6
Continuous
 62
     7
370
    15
100
AcDbLine
 10
-2.9792965944
 20
232.1344235673
 30
0.0
 11
-3.2515545681
 21
231.9772523845
 31
0.0
  0
LINE
  5
2FF
330
1F
100
AcDbEntity
  8
0
  6
Continuous
 62
     8
370
    15
100
AcDbLine
 10
4.2426406871
 20
112.69448422
 30
0.0
 11
4.949747459
 21
113.1026882705
 31
0.0
  0
LINE
  5
300
330
1F
100
AcDbEntity
  8
0
  6
Continuous
 62
     8
370
    15
100
AcDbLine
 10
4.529575588
 20
79.8750247515
 30
0.0
 11
4.5961940777
 21
79.6684540804
 31
0.0
  0
ARC
  5
301
330
1F
100
AcDbEntity
  8
0
  6
Continuous
 62
     7
370
    15
100
AcDbCircle
 10
1.584625778
 20
64.9778822217
 30
0.0
 40
1.345431923101396
100
AcDbArc
 50
353.078818774
 51
42.7054999074
  0
ARC
  5
302
330
1F
100
AcDbEntity
  8
0
  6
Continuous
 62
     7
370
    15
100
AcDbCircle
 10
-0.5445052907
 20
61.5325641293
 30
0.0
 40
5.49273325870137
100
AcDbArc
 50
73.8595731268
 51
117.0281611281
  0
ARC
  5
303
330
1F
100
AcDbEntity
  8
0
  6
Continuous
 62
     7
370
    15
100
AcDbCircle
 10
-0.5655402836
 20
67.5022109029
 30
0.0
 40
5.859019037174622
100
AcDbArc
 50
257.2996087086
 51
278.8273243567
  0
ARC
  5
304
330
1F
100
AcDbEntity
  8
0
  6
Continuous
 62
     7
370
    15
100
AcDbCircle
 10
-2.3870019508
 20
62.1099984644
 30
0.0
 40
1.683136546398326
100
AcDbArc
 50
184.1687285934
 51
247.1514123624
  0
ARC
  5
305
330
1F
100
AcDbEntity
  8
0
  6
Continuous
 62
     7
370
    15
100
AcDbCircle
 10
-0.6076414071
 20
65.2235592643
 30
0.0
 40
5.260974209468883
100
AcDbArc
 50
242.4549279805
 51
274.3114482288
  0
ARC
  5
306
330
1F
100
AcDbEntity
  8
0
  6
Continuous
 62
     7
370
    15
100
AcDbCircle
 10
4.7947055146
 20
112.5547625262
 30
0.0
 40
0.8734183948569654
100
AcDbArc
 50
230.7967147643
 51
9.2140369905
  0
ARC
  5
307
330
1F
100
AcDbEntity
  8
0
  6
Continuous
 62
     7
370
    15
100
AcDbCircle
 10
4.5186731009
 20
113.032893779
 30
0.0
 40
0.4367091974284197
100
AcDbArc
 50
230.7967147643
 51
9.2140369905
  0
ARC
  5
308
330
1F
100
AcDbEntity
  8
0
  6
Continuous
 62
     7
370
    15
100
AcDbCircle
 10
-3.4145313669
 20
127.0516197292
 30
0.0
 40
1.536804807571813
100
AcDbArc
 50
182.6054784857
 51
237.39452166
  0
ARC
  5
309
330
1F
100
AcDbEntity
  8
0
  6
Continuous
 62
     7
370
    15
100
AcDbCircle
 10
-10.4855991788
 20
122.9695791701
 30
0.0
 40
1.53680480757234
100
AcDbArc
 50
182.6054784857
 51
237.39452166
  0
ARC
  5
30A
330
1F
100
AcDbEntity
  8
0
  6
Continuous
 62
     7
370
    15
100
AcDbCircle
 10
-9.6574898586
 20
123.4476440783
 30
0.0
 40
3.073609615144109
100
AcDbArc
 50
182.6054784857
 51
237.39452166
  0
ARC
  5
30B
330
1F
100
AcDbEntity
  8
0
  6
Continuous
 62
     7
370
    15
100
AcDbCircle
 10
9.6574898586
 20
88.8745481705
 30
0.0
 40
3.073609615144227
100
AcDbArc
 50
2.6054784857
 51
57.39452166
  0
ARC
  5
30C
330
1F
100
AcDbEntity
  8
0
  6
Continuous
 62
     7
370
    15
100
AcDbCircle
 10
11.8657733265
 20
57.8458646296
 30
0.0
 40
0.8734183948569589
100
AcDbArc
 50
230.7967147643
 51
9.2140369905
  0
ARC
  5
30D
330
1F
100
AcDbEntity
  8
0
  6
Continuous
 62
     7
370
    15
100
AcDbCircle
 10
-4.7947055146
 20
99.7674297225
 30
0.0
 40
0.8734183948569594
100
AcDbArc
 50
50.7967147643
 51
189.2140369905
  0
ARC
  5
30E
330
1F
100
AcDbEntity
  8
0
  6
Continuous
 62
     7
370
    15
100
AcDbCircle
 10
-4.476976731
 20
99.1372948031
 30
0.0
 40
0.4023817887208548
100
AcDbArc
 50
54.3824225248
 51
114.3071190462
  0
ARC
  5
30F
330
1F
100
AcDbEntity
  8
0
  6
Continuous
 62
     7
370
    15
100
AcDbCircle
 10
11.4873924028
 20
58.4322945003
 30
0.0
 40
0.3943823433225658
100
AcDbArc
 50
305.0133328165
 51
6.2988475769
  0
ARC
  5
310
330
1F
100
AcDbEntity
  8
0
  6
Continuous
 62
     7
370
    15
100
AcDbCircle
 10
10.6512210428
 20
89.4482260603
 30
0.0
 40
1.229443846058055
100
AcDbArc
 50
2.6054784857
 51
57.39452166
  0
ARC
  5
311
330
1F
100
AcDbEntity
  8
0
  6
Continuous
 62
     7
370
    15
100
AcDbCircle
 10
12.5964463938
 20
117.1583288716
 30
0.0
 40
0.9859558602249252
100
AcDbArc
 50
305.0133328825
 51
6.2988475108
  0
ARC
  5
312
330
1F
100
AcDbEntity
  8
0
  6
Continuous
 62
     7
370
    15
100
AcDbCircle
 10
4.0751279778
 20
85.6519283403
 30
0.0
 40
1.229443846058027
100
AcDbArc
 50
2.6054784857
 51
57.39452166
  0
ARC
  5
313
330
1F
100
AcDbEntity
  8
0
  6
Continuous
 62
     7
370
    15
100
AcDbCircle
 10
4.958441365
 20
54.623324413
 30
0.0
 40
0.3493673579427777
100
AcDbArc
 50
230.7967147643
 51
9.2140369905
  0
ARC
  5
314
330
1F
100
AcDbEntity
  8
0
  6
Continuous
 62
     7
370
    15
100
AcDbCircle
 10
10.8630409928
 20
96.91891603
 30
0.0
 40
2.486300359696239
100
AcDbArc
 50
167.9877654048
 51
252.0068580625
  0
ARC
  5
315
330
1F
100
AcDbEntity
  8
0
  6
Continuous
 62
     7
370
    15
100
AcDbCircle
 10
10.506017996
 20
89.3643930376
 30
0.0
 40
3.073609615144366
100
AcDbArc
 50
2.6054784857
 51
57.39452166
  0
ARC
  5
316
330
1F
100
AcDbEntity
  8
0
  6
Continuous
 62
     7
370
    15
100
AcDbCircle
 10
-10.156246296
 20
64.3687705718
 30
0.0
 40
1.229443846058035
100
AcDbArc
 50
182.6054784857
 51
237.39452166
  0
ARC
  5
317
330
1F
100
AcDbEntity
  8
0
  6
Continuous
 62
     7
370
    15
100
AcDbCircle
 10
-11.0395596832
 20
95.3973744992
 30
0.0
 40
0.3493673579427698
100
AcDbArc
 50
50.7967147643
 51
189.2140369905
  0
ARC
  5
318
330
1F
100
AcDbEntity
  8
0
  6
Continuous
 62
     7
370
    15
100
AcDbCircle
 10
1.6594240353
 20
74.8486423084
 30
0.0
 40
1.681345547829828
100
AcDbArc
 50
45.9506010051
 51
74.0547755276
  0
ARC
  5
319
330
1F
100
AcDbEntity
  8
0
  6
Continuous
 62
     7
370
    15
100
AcDbCircle
 10
3.5982904504
 20
75.2530647626
 30
0.0
 40
2.187306365452711
100
AcDbArc
 50
227.5267353035
 51
234.6715447901
  0
ARC
  5
31A
330
1F
100
AcDbEntity
  8
0
  6
Continuous
 62
     7
370
    15
100
AcDbCircle
 10
3.2832731948
 20
74.1838830391
 30
0.0
 40
0.8223192081383601
100
AcDbArc
 50
302.8105368962
 51
5.9115774391
  0
ARC
  5
31B
330
1F
100
AcDbEntity
  8
0
  6
Continuous
 62
     7
370
    15
100
AcDbCircle
 10
2.8193240619
 20
75.1492486488
 30
0.0
 40
1.353379072085235
100
AcDbArc
 50
18.7051883806
 51
88.1004455328
  0
ARC
  5
31C
330
1F
100
AcDbEntity
  8
0
  6
Continuous
 62
     7
370
    15
100
AcDbCircle
 10
2.8193240619
 20
69.1051466532
 30
0.0
 40
1.353379072081601
100
AcDbArc
 50
18.7051883805
 51
88.1004455331
  0
ARC
  5
31D
330
1F
100
AcDbEntity
  8
0
  6
Continuous
 62
     7
370
    15
100
AcDbCircle
 10
1.6594240353
 20
68.8045403127
 30
0.0
 40
1.681345547829842
100
AcDbArc
 50
45.9506010051
 51
74.0547755276
  0
ARC
  5
31E
330
1F
100
AcDbEntity
  8
0
  6
Continuous
 62
     7
370
    15
100
AcDbCircle
 10
3.5982904505
 20
69.2089627671
 30
0.0
 40
2.187306365660534
100
AcDbArc
 50
227.5267353037
 51
234.6715447897
  0
ARC
  5
31F
330
1F
100
AcDbEntity
  8
0
  6
Continuous
 62
     7
370
    15
100
AcDbCircle
 10
3.2832731948
 20
68.1397810435
 30
0.0
 40
0.8223192081384517
100
AcDbArc
 50
302.8105368962
 51
5.9115774391
  0
ARC
  5
320
330
1F
100
AcDbEntity
  8
0
  6
Continuous
 62
     7
370
    15
100
AcDbCircle
 10
-3.856008858
 20
78.0326339445
 30
0.0
 40
1.681345547828526
100
AcDbArc
 50
45.9506010051
 51
74.0547755276
  0
ARC
  5
321
330
1F
100
AcDbEntity
  8
0
  6
Continuous
 62
     7
370
    15
100
AcDbCircle
 10
-1.9171424429
 20
78.4370563987
 30
0.0
 40
2.187306365467585
100
AcDbArc
 50
227.5267353035
 51
234.6715447901
  0
ARC
  5
322
330
1F
100
AcDbEntity
  8
0
  6
Continuous
 62
     7
370
    15
100
AcDbCircle
 10
-2.2321596984
 20
77.3678746752
 30
0.0
 40
0.8223192081414511
100
AcDbArc
 50
302.8105368963
 51
5.911577439
  0
ARC
  5
323
330
1F
100
AcDbEntity
  8
0
  6
Continuous
 62
     7
370
    15
100
AcDbCircle
 10
-2.6961088314
 20
78.3332402849
 30
0.0
 40
1.353379072149329
100
AcDbArc
 50
18.7051883814
 51
88.1004455276
  0
ARC
  5
324
330
1F
100
AcDbEntity
  8
0
  6
Continuous
 62
     7
370
    15
100
AcDbCircle
 10
-2.6961088313
 20
72.2891382893
 30
0.0
 40
1.353379072038984
100
AcDbArc
 50
18.7051883799
 51
88.1004455366
  0
ARC
  5
325
330
1F
100
AcDbEntity
  8
0
  6
Continuous
 62
     7
370
    15
100
AcDbCircle
 10
-3.9799526594
 20
100.1163310495
 30
0.0
 40
1.005954471803686
100
AcDbArc
 50
54.3824225248
 51
114.3071190461
  0
ARC
  5
326
330
1F
100
AcDbEntity
  8
0
  6
Continuous
 62
     7
370
    15
100
AcDbCircle
 10
-3.856008858
 20
71.9885319488
 30
0.0
 40
1.681345547828526
100
AcDbArc
 50
45.9506010051
 51
74.0547755276
  0
ARC
  5
327
330
1F
100
AcDbEntity
  8
0
  6
Continuous
 62
     7
370
    15
100
AcDbCircle
 10
-1.9171424428
 20
72.3929544032
 30
0.0
 40
2.187306365644221
100
AcDbArc
 50
227.5267353037
 51
234.6715447897
  0
ARC
  5
328
330
1F
100
AcDbEntity
  8
0
  6
Continuous
 62
     7
370
    15
100
AcDbCircle
 10
-2.2321596981
 20
71.3237726794
 30
0.0
 40
0.8223192078061394
100
AcDbArc
 50
302.810536882
 51
5.9115774533
  0
ARC
  5
329
330
1F
100
AcDbEntity
  8
0
  6
Continuous
 62
     7
370
    15
100
AcDbCircle
 10
-9.3714417512
 20
81.2166255806
 30
0.0
 40
1.681345547827866
100
AcDbArc
 50
45.9506010051
 51
74.0547755276
  0
ARC
  5
32A
330
1F
100
AcDbEntity
  8
0
  6
Continuous
 62
     7
370
    15
100
AcDbCircle
 10
-7.4325753361
 20
81.6210480348
 30
0.0
 40
2.187306365475125
100
AcDbArc
 50
227.5267353035
 51
234.6715447901
  0
ARC
  5
32B
330
1F
100
AcDbEntity
  8
0
  6
Continuous
 62
     7
370
    15
100
AcDbCircle
 10
-7.7475925917
 20
80.5518663113
 30
0.0
 40
0.8223192081443808
100
AcDbArc
 50
302.8105368964
 51
5.9115774388
  0
ARC
  5
32C
330
1F
100
AcDbEntity
  8
0
  6
Continuous
 62
     7
370
    15
100
AcDbCircle
 10
-8.2115417246
 20
81.5172319211
 30
0.0
 40
1.353379072030701
100
AcDbArc
 50
18.7051883798
 51
88.1004455373
  0
ARC
  5
32D
330
1F
100
AcDbEntity
  8
0
  6
Continuous
 62
     7
370
    15
100
AcDbCircle
 10
-8.2115417245
 20
75.4731299255
 30
0.0
 40
1.353379071943755
100
AcDbArc
 50
18.7051883787
 51
88.1004455443
  0
ARC
  5
32E
330
1F
100
AcDbEntity
  8
0
  6
Continuous
 62
     7
370
    15
100
AcDbCircle
 10
-9.3714417512
 20
75.1725235849
 30
0.0
 40
1.681345547827882
100
AcDbArc
 50
45.9506010051
 51
74.0547755276
  0
ARC
  5
32F
330
1F
100
AcDbEntity
  8
0
  6
Continuous
 62
     7
370
    15
100
AcDbCircle
 10
-7.432575336
 20
75.5769460393
 30
0.0
 40
2.187306365639741
100
AcDbArc
 50
227.5267353037
 51
234.6715447897
  0
ARC
  5
330
330
1F
100
AcDbEntity
  8
0
  6
Continuous
 62
     7
370
    15
100
AcDbCircle
 10
-7.7475925917
 20
74.5077643157
 30
0.0
 40
0.8223192081445106
100
AcDbArc
 50
302.8105368964
 51
5.9115774388
  0
ARC
  5
331
330
1F
100
AcDbEntity
  8
0
  6
Continuous
 62
     7
370
    15
100
AcDbCircle
 10
12.5964463941
 20
58.3673904158
 30
0.0
 40
0.9859558600022821
100
AcDbArc
 50
305.0133328749
 51
6.2988475185
  0
ARC
  5
332
330
1F
100
AcDbEntity
  8
0
  6
Continuous
 62
     7
370
    15
100
AcDbCircle
 10
-1.6280700246
 20
530.8599948837
 30
0.0
 40
1.475167301215246
100
AcDbArc
 50
183.7965546053
 51
247.5235863524
  0
ARC
  5
333
330
1F
100
AcDbEntity
  8
0
  6
Continuous
 62
     7
370
    15
100
AcDbCircle
 10
-3.337055997
 20
219.5117942157
 30
0.0
 40
3.173595522924975
100
AcDbArc
 50
184.6955792933
 51
246.6245616644
  0
ARC
  5
334
330
1F
100
AcDbEntity
  8
0
  6
Continuous
 62
     7
370
    15
100
AcDbCircle
 10
-0.0000280483
 20
224.3413504275
 30
0.0
 40
9.008447860718798
100
AcDbArc
 50
241.9034127405
 51
298.1019621905
  0
ARC
  5
335
330
1F
100
AcDbEntity
  8
0
  6
Continuous
 62
     7
370
    15
100
AcDbCircle
 10
3.337055997
 20
547.3529301879
 30
0.0
 40
3.173595522925459
100
AcDbArc
 50
293.3754383357
 51
355.3044207067
  0
ARC
  5
336
330
1F
100
AcDbEntity
  8
0
  6
Continuous
 62
     7
370
    15
100
AcDbCircle
 10
3.337055997
 20
535.1048180096
 30
0.0
 40
3.173595522924642
100
AcDbArc
 50
293.3754383356
 51
355.3044207067
  0
ARC
  5
337
330
1F
100
AcDbEntity
  8
0
  6
Continuous
 62
     7
370
    15
100
AcDbCircle
 10
3.35767136
 20
547.338138321
 30
0.0
 40
3.151865500449336
100
AcDbArc
 50
293.1381260423
 51
355.5417330001
  0
ARC
  5
338
330
1F
100
AcDbEntity
  8
0
  6
Continuous
 62
     7
370
    15
100
AcDbCircle
 10
-23.4865010859
 20
712.6356580877
 30
0.0
 40
47.78809379074463
100
AcDbArc
 50
223.0288228439
 51
240.9055634733
  0
ENDSEC
  0
SECTION
  2
OBJECTS
  0
DICTIONARY
  5
C
330
0
100
AcDbDictionary
281
     1
  3
ACAD_GROUP
350
D
  3
ACAD_LAYOUT
350
1A
  3
ACAD_MLINESTYLE
350
17
  3
ACAD_PLOTSETTINGS
350
19
  3
ACAD_PLOTSTYLENAME
350
E
  3
ACAD_SCALELIST
350
47
  0
DICTIONARY
  5
D
102
{ACAD_REACTORS
330
C
102
}
330
C
100
AcDbDictionary
281
     1
  0
DICTIONARY
  5
1A
102
{ACAD_REACTORS
330
C
102
}
330
C
100
AcDbDictionary
281
     1
  3
Layout1
350
1E
  3
Layout2
350
26
  3
Model
350
22
  0
DICTIONARY
  5
17
102
{ACAD_REACTORS
330
C
102
}
330
C
100
AcDbDictionary
281
     1
  3
Standard
350
18
  0
DICTIONARY
  5
19
102
{ACAD_REACTORS
330
C
102
}
330
C
100
AcDbDictionary
281
     1
  0
ACDBDICTIONARYWDFLT
  5
E
102
{ACAD_REACTORS
330
C
102
}
330
C
100
AcDbDictionary
281
     1
  3
Normal
350
F
100
AcDbDictionaryWithDefault
340
F
  0
DICTIONARY
  5
47
102
{ACAD_REACTORS
330
C
102
}
330
C
100
AcDbDictionary
281
     1
  3
A0
350
48
  3
A1
350
49
  3
A2
350
4A
  3
A3
350
4B
  3
A4
350
4C
  3
A5
350
4D
  3
A6
350
4E
  3
A7
350
4F
  3
A8
350
50
  3
A9
350
51
  3
B0
350
52
  3
B1
350
53
  3
B2
350
54
  3
B3
350
55
  3
B4
350
56
  3
B5
350
57
  3
B6
350
58
  3
B7
350
59
  3
B8
350
5A
  3
B9
350
5B
  3
C0
350
5C
  3
C1
350
5D
  3
C2
350
5E
  3
C3
350
5F
  3
C4
350
60
  3
C5
350
61
  3
C6
350
62
  3
C7
350
63
  3
C8
350
64
  3
C9
350
65
  3
D0
350
66
  3
D1
350
67
  3
D2
350
68
  0
LAYOUT
  5
1E
102
{ACAD_REACTORS
330
1A
102
}
330
1A
100
AcDbPlotSettings
  1

  2
none_device
  4

  6

 40
0.0
 41
0.0
 42
0.0
 43
0.0
 44
0.0
 45
0.0
 46
0.0
 47
0.0
 48
0.0
 49
0.0
140
0.0
141
0.0
142
1.0
143
1.0
 70
   688
 72
     1
 73
     0
 74
     5
  7

 75
    16
147
1.0
148
0.0
149
0.0
100
AcDbLayout
  1
Layout1
 70
     1
 71
     1
 10
0.0
 20
0.0
 11
420.0
 21
297.0
 12
0.0
 22
0.0
 32
0.0
 14
1.0000000000E+20
 24
1.0000000000E+20
 34
1.0000000000E+20
 15
-1.0000000000E+20
 25
-1.0000000000E+20
 35
-1.0000000000E+20
146
0.0
 13
0.0
 23
0.0
 33
0.0
 16
1.0
 26
0.0
 36
0.0
 17
0.0
 27
1.0
 37
0.0
 76
     0
330
1B
  0
LAYOUT
  5
26
102
{ACAD_REACTORS
330
1A
102
}
330
1A
100
AcDbPlotSettings
  1

  2
none_device
  4

  6

 40
0.0
 41
0.0
 42
0.0
 43
0.0
 44
0.0
 45
0.0
 46
0.0
 47
0.0
 48
0.0
 49
0.0
140
0.0
141
0.0
142
1.0
143
1.0
 70
   688
 72
     1
 73
     0
 74
     5
  7

 75
    16
147
1.0
148
0.0
149
0.0
100
AcDbLayout
  1
Layout2
 70
     1
 71
     2
 10
0.0
 20
0.0
 11
0.0
 21
0.0
 12
0.0
 22
0.0
 32
0.0
 14
0.0
 24
0.0
 34
0.0
 15
0.0
 25
0.0
 35
0.0
146
0.0
 13
0.0
 23
0.0
 33
0.0
 16
1.0
 26
0.0
 36
0.0
 17
0.0
 27
1.0
 37
0.0
 76
     0
330
23
  0
LAYOUT
  5
22
102
{ACAD_REACTORS
330
1A
102
}
330
1A
100
AcDbPlotSettings
  1

  2
none_device
  4
ANSI_A_(11.00_x_8.50_Inches)
  6

 40
6.35
 41
19.05
 42
6.35000508
 43
19.05000254
 44
279.4
 45
215.9
 46
133.3499982154
 47
-17.5102823341
 48
0.0
 49
0.0
140
0.0
141
0.0
142
0.0077254014
143
1.0
 70
  1696
 72
     0
 73
     0
 74
     0
  7

 75
     0
147
0.0179189148
148
-1300.4909072572
149
0.0
100
AcDbLayout
  1
Model
 70
     1
 71
     0
 10
0.0
 20
0.0
 11
420.0
 21
297.0
 12
0.0
 22
0.0
 32
0.0
 14
-99.9356374697
 24
-2.3453610697
 34
0.0
 15
99.9356297705
 25
1086.9184247741
 35
0.0
146
0.0
 13
0.0
 23
0.0
 33
0.0
 16
1.0
 26
0.0
 36
0.0
 17
0.0
 27
1.0
 37
0.0
 76
     0
330
1F
331
29
  0
MLINESTYLE
  5
18
102
{ACAD_REACTORS
330
17
102
}
330
17
100
AcDbMlineStyle
  2
Standard
 70
     0
  3

 62
   256
 51
90.0
 52
90.0
 71
     2
 49
0.5
 62
   256
  6
BYLAYER
 49
-0.5
 62
   256
  6
BYLAYER
  0
ACDBPLACEHOLDER
  5
F
102
{ACAD_REACTORS
330
E
102
}
330
E
  0
SCALE
  5
48
102
{ACAD_REACTORS
330
47
102
}
330
47
100
AcDbScale
 70
     0
300
1:1
140
1.0
141
1.0
290
     1
  0
SCALE
  5
49
102
{ACAD_REACTORS
330
47
102
}
330
47
100
AcDbScale
 70
     0
300
1:2
140
1.0
141
2.0
290
     0
  0
SCALE
  5
4A
102
{ACAD_REACTORS
330
47
102
}
330
47
100
AcDbScale
 70
     0
300
1:4
140
1.0
141
4.0
290
     0
  0
SCALE
  5
4B
102
{ACAD_REACTORS
330
47
102
}
330
47
100
AcDbScale
 70
     0
300
1:5
140
1.0
141
5.0
290
     0
  0
SCALE
  5
4C
102
{ACAD_REACTORS
330
47
102
}
330
47
100
AcDbScale
 70
     0
300
1:8
140
1.0
141
8.0
290
     0
  0
SCALE
  5
4D
102
{ACAD_REACTORS
330
47
102
}
330
47
100
AcDbScale
 70
     0
300
1:10
140
1.0
141
10.0
290
     0
  0
SCALE
  5
4E
102
{ACAD_REACTORS
330
47
102
}
330
47
100
AcDbScale
 70
     0
300
1:16
140
1.0
141
16.0
290
     0
  0
SCALE
  5
4F
102
{ACAD_REACTORS
330
47
102
}
330
47
100
AcDbScale
 70
     0
300
1:20
140
1.0
141
20.0
290
     0
  0
SCALE
  5
50
102
{ACAD_REACTORS
330
47
102
}
330
47
100
AcDbScale
 70
     0
300
1:30
140
1.0
141
30.0
290
     0
  0
SCALE
  5
51
102
{ACAD_REACTORS
330
47
102
}
330
47
100
AcDbScale
 70
     0
300
1:40
140
1.0
141
40.0
290
     0
  0
SCALE
  5
52
102
{ACAD_REACTORS
330
47
102
}
330
47
100
AcDbScale
 70
     0
300
1:50
140
1.0
141
50.0
290
     0
  0
SCALE
  5
53
102
{ACAD_REACTORS
330
47
102
}
330
47
100
AcDbScale
 70
     0
300
1:100
140
1.0
141
100.0
290
     0
  0
SCALE
  5
54
102
{ACAD_REACTORS
330
47
102
}
330
47
100
AcDbScale
 70
     0
300
2:1
140
2.0
141
1.0
290
     0
  0
SCALE
  5
55
102
{ACAD_REACTORS
330
47
102
}
330
47
100
AcDbScale
 70
     0
300
4:1
140
4.0
141
1.0
290
     0
  0
SCALE
  5
56
102
{ACAD_REACTORS
330
47
102
}
330
47
100
AcDbScale
 70
     0
300
8:1
140
8.0
141
1.0
290
     0
  0
SCALE
  5
57
102
{ACAD_REACTORS
330
47
102
}
330
47
100
AcDbScale
 70
     0
300
10:1
140
10.0
141
1.0
290
     0
  0
SCALE
  5
58
102
{ACAD_REACTORS
330
47
102
}
330
47
100
AcDbScale
 70
     0
300
100:1
140
100.0
141
1.0
290
     0
  0
SCALE
  5
59
102
{ACAD_REACTORS
330
47
102
}
330
47
100
AcDbScale
 70
     0
300
1/128" = 1'-0"
140
0.0078125
141
12.0
290
     0
  0
SCALE
  5
5A
102
{ACAD_REACTORS
330
47
102
}
330
47
100
AcDbScale
 70
     0
300
1/64" = 1'-0"
140
0.015625
141
12.0
290
     0
  0
SCALE
  5
5B
102
{ACAD_REACTORS
330
47
102
}
330
47
100
AcDbScale
 70
     0
300
1/32" = 1'-0"
140
0.03125
141
12.0
290
     0
  0
SCALE
  5
5C
102
{ACAD_REACTORS
330
47
102
}
330
47
100
AcDbScale
 70
     0
300
1/16" = 1'-0"
140
0.0625
141
12.0
290
     0
  0
SCALE
  5
5D
102
{ACAD_REACTORS
330
47
102
}
330
47
100
AcDbScale
 70
     0
300
3/32" = 1'-0"
140
0.09375
141
12.0
290
     0
  0
SCALE
  5
5E
102
{ACAD_REACTORS
330
47
102
}
330
47
100
AcDbScale
 70
     0
300
1/8" = 1'-0"
140
0.125
141
12.0
290
     0
  0
SCALE
  5
5F
102
{ACAD_REACTORS
330
47
102
}
330
47
100
AcDbScale
 70
     0
300
3/16" = 1'-0"
140
0.1875
141
12.0
290
     0
  0
SCALE
  5
60
102
{ACAD_REACTORS
330
47
102
}
330
47
100
AcDbScale
 70
     0
300
1/4" = 1'-0"
140
0.25
141
12.0
290
     0
  0
SCALE
  5
61
102
{ACAD_REACTORS
330
47
102
}
330
47
100
AcDbScale
 70
     0
300
3/8" = 1'-0"
140
0.375
141
12.0
290
     0
  0
SCALE
  5
62
102
{ACAD_REACTORS
330
47
102
}
330
47
100
AcDbScale
 70
     0
300
1/2" = 1'-0"
140
0.5
141
12.0
290
     0
  0
SCALE
  5
63
102
{ACAD_REACTORS
330
47
102
}
330
47
100
AcDbScale
 70
     0
300
3/4" = 1'-0"
140
0.75
141
12.0
290
     0
  0
SCALE
  5
64
102
{ACAD_REACTORS
330
47
102
}
330
47
100
AcDbScale
 70
     0
300
1" = 1'-0"
140
1.0
141
12.0
290
     0
  0
SCALE
  5
65
102
{ACAD_REACTORS
330
47
102
}
330
47
100
AcDbScale
 70
     0
300
1-1/2" = 1'-0"
140
1.5
141
12.0
290
     0
  0
SCALE
  5
66
102
{ACAD_REACTORS
330
47
102
}
330
47
100
AcDbScale
 70
     0
300
3" = 1'-0"
140
3.0
141
12.0
290
     0
  0
SCALE
  5
67
102
{ACAD_REACTORS
330
47
102
}
330
47
100
AcDbScale
 70
     0
300
6" = 1'-0"
140
6.0
141
12.0
290
     0
  0
SCALE
  5
68
102
{ACAD_REACTORS
330
47
102
}
330
47
100
AcDbScale
 70
     0
300
1'-0" = 1'-0"
140
12.0
141
12.0
290
     0
  0
ENDSEC
  0
EOF
