  0
SECTION
  2
HEADER
  9
$ACADVER
  1
AC1015
  9
$ACADMAINTVER
 70
     6
  9
$DWGCODEPAGE
  3
ANSI_1252
  9
$INSBASE
 10
0.0
 20
0.0
 30
0.0
  9
$EXTMIN
 10
-249.6711985772
 20
-2.4269850472
 30
0.0
  9
$EXTMAX
 10
249.9805666304
 20
954.1529996747
 30
0.0
  9
$LIMMIN
 10
0.0
 20
0.0
  9
$LIMMAX
 10
420.0
 20
297.0
  9
$ORTHOMODE
 70
     0
  9
$REGENMODE
 70
     1
  9
$FILLMODE
 70
     1
  9
$QTEXTMODE
 70
     0
  9
$MIRRTEXT
 70
     1
  9
$LTSCALE
 40
1.0
  9
$ATTMODE
 70
     1
  9
$TEXTSIZE
 40
3.5
  9
$TRACEWID
 40
1.0
  9
$TEXTSTYLE
  7
Standard
  9
$CLAYER
  8
0
  9
$CELTYPE
  6
ByLayer
  9
$CECOLOR
 62
   256
  9
$CELTSCALE
 40
1.0
  9
$DISPSILH
 70
     0
  9
$DIMSCALE
 40
1.0
  9
$DIMASZ
 40
2.0
  9
$DIMEXO
 40
1.0
  9
$DIMDLI
 40
3.75
  9
$DIMRND
 40
0.0
  9
$DIMDLE
 40
0.0
  9
$DIMEXE
 40
1.0
  9
$DIMTP
 40
0.0
  9
$DIMTM
 40
0.0
  9
$DIMTXT
 40
3.5
  9
$DIMCEN
 40
2.5
  9
$DIMTSZ
 40
0.0
  9
$DIMTOL
 70
     0
  9
$DIMLIM
 70
     0
  9
$DIMTIH
 70
     1
  9
$DIMTOH
 70
     1
  9
$DIMSE1
 70
     0
  9
$DIMSE2
 70
     0
  9
$DIMTAD
 70
     1
  9
$DIMZIN
 70
     0
  9
$DIMBLK
  1

  9
$DIMASO
 70
     1
  9
$DIMSHO
 70
     1
  9
$DIMPOST
  1

  9
$DIMAPOST
  1

  9
$DIMALT
 70
     0
  9
$DIMALTD
 70
     3
  9
$DIMALTF
 40
0.0393700787
  9
$DIMLFAC
 40
1.0
  9
$DIMTOFL
 70
     1
  9
$DIMTVP
 40
0.0
  9
$DIMTIX
 70
     0
  9
$DIMSOXD
 70
     0
  9
$DIMSAH
 70
     0
  9
$DIMBLK1
  1

  9
$DIMBLK2
  1

  9
$DIMSTYLE
  2
ISO-25
  9
$DIMCLRD
 70
     0
  9
$DIMCLRE
 70
     0
  9
$DIMCLRT
 70
     0
  9
$DIMTFAC
 40
1.0
  9
$DIMGAP
 40
1.524
  9
$DIMJUST
 70
     0
  9
$DIMSD1
 70
     0
  9
$DIMSD2
 70
     0
  9
$DIMTOLJ
 70
     0
  9
$DIMTZIN
 70
     0
  9
$DIMALTZ
 70
     0
  9
$DIMALTTZ
 70
     0
  9
$DIMUPT
 70
     0
  9
$DIMDEC
 70
     2
  9
$DIMTDEC
 70
     2
  9
$DIMALTU
 70
     2
  9
$DIMALTTD
 70
     3
  9
$DIMTXSTY
  7
Standard
  9
$DIMAUNIT
 70
     0
  9
$DIMADEC
 70
     2
  9
$DIMALTRND
 40
0.0
  9
$DIMAZIN
 70
     0
  9
$DIMDSEP
 70
    44
  9
$DIMATFIT
 70
     3
  9
$DIMFRAC
 70
     0
  9
$DIMLDRBLK
  1

  9
$DIMLUNIT
 70
     2
  9
$DIMLWD
 70
    -2
  9
$DIMLWE
 70
    -2
  9
$DIMTMOVE
 70
     0
  9
$LUNITS
 70
     2
  9
$LUPREC
 70
     2
  9
$SKETCHINC
 40
1.0
  9
$FILLETRAD
 40
10.0
  9
$AUNITS
 70
     0
  9
$AUPREC
 70
     2
  9
$MENU
  1
.
  9
$ELEVATION
 40
0.0
  9
$PELEVATION
 40
0.0
  9
$THICKNESS
 40
0.0
  9
$LIMCHECK
 70
     0
  9
$CHAMFERA
 40
0.0
  9
$CHAMFERB
 40
0.0
  9
$CHAMFERC
 40
0.0
  9
$CHAMFERD
 40
0.0
  9
$SKPOLY
 70
     0
  9
$TDCREATE
 40
2457358.496984676
  9
$TDUCREATE
 40
2457358.496984676
  9
$TDUPDATE
 40
2457358.497039653
  9
$TDUUPDATE
 40
2457358.497039653
  9
$TDINDWG
 40
0.0000000116
  9
$TDUSRTIMER
 40
0.0000000116
  9
$USRTIMER
 70
     1
  9
$ANGBASE
 50
0.0
  9
$ANGDIR
 70
     0
  9
$PDMODE
 70
     0
  9
$PDSIZE
 40
-1.0
  9
$PLINEWID
 40
0.0
  9
$SPLFRAME
 70
     0
  9
$SPLINETYPE
 70
     6
  9
$SPLINESEGS
 70
     8
  9
$HANDSEED
  5
326
  9
$SURFTAB1
 70
     6
  9
$SURFTAB2
 70
     6
  9
$SURFTYPE
 70
     6
  9
$SURFU
 70
     6
  9
$SURFV
 70
     6
  9
$UCSBASE
  2

  9
$UCSNAME
  2

  9
$UCSORG
 10
0.0
 20
0.0
 30
0.0
  9
$UCSXDIR
 10
1.0
 20
0.0
 30
0.0
  9
$UCSYDIR
 10
0.0
 20
1.0
 30
0.0
  9
$UCSORTHOREF
  2

  9
$UCSORTHOVIEW
 70
     0
  9
$UCSORGTOP
 10
0.0
 20
0.0
 30
0.0
  9
$UCSORGBOTTOM
 10
0.0
 20
0.0
 30
0.0
  9
$UCSORGLEFT
 10
0.0
 20
0.0
 30
0.0
  9
$UCSORGRIGHT
 10
0.0
 20
0.0
 30
0.0
  9
$UCSORGFRONT
 10
0.0
 20
0.0
 30
0.0
  9
$UCSORGBACK
 10
0.0
 20
0.0
 30
0.0
  9
$PUCSBASE
  2

  9
$PUCSNAME
  2

  9
$PUCSORG
 10
0.0
 20
0.0
 30
0.0
  9
$PUCSXDIR
 10
1.0
 20
0.0
 30
0.0
  9
$PUCSYDIR
 10
0.0
 20
1.0
 30
0.0
  9
$PUCSORTHOREF
  2

  9
$PUCSORTHOVIEW
 70
     0
  9
$PUCSORGTOP
 10
0.0
 20
0.0
 30
0.0
  9
$PUCSORGBOTTOM
 10
0.0
 20
0.0
 30
0.0
  9
$PUCSORGLEFT
 10
0.0
 20
0.0
 30
0.0
  9
$PUCSORGRIGHT
 10
0.0
 20
0.0
 30
0.0
  9
$PUCSORGFRONT
 10
0.0
 20
0.0
 30
0.0
  9
$PUCSORGBACK
 10
0.0
 20
0.0
 30
0.0
  9
$USERI1
 70
     0
  9
$USERI2
 70
     0
  9
$USERI3
 70
     0
  9
$USERI4
 70
     0
  9
$USERI5
 70
     0
  9
$USERR1
 40
0.0
  9
$USERR2
 40
0.0
  9
$USERR3
 40
0.0
  9
$USERR4
 40
0.0
  9
$USERR5
 40
0.0
  9
$WORLDVIEW
 70
     1
  9
$SHADEDGE
 70
     3
  9
$SHADEDIF
 70
    70
  9
$TILEMODE
 70
     1
  9
$MAXACTVP
 70
    64
  9
$PINSBASE
 10
0.0
 20
0.0
 30
0.0
  9
$PLIMCHECK
 70
     0
  9
$PEXTMIN
 10
1.0000000000E+20
 20
1.0000000000E+20
 30
1.0000000000E+20
  9
$PEXTMAX
 10
-1.0000000000E+20
 20
-1.0000000000E+20
 30
-1.0000000000E+20
  9
$PLIMMIN
 10
0.0
 20
0.0
  9
$PLIMMAX
 10
420.0
 20
297.0
  9
$UNITMODE
 70
     0
  9
$VISRETAIN
 70
     1
  9
$PLINEGEN
 70
     0
  9
$PSLTSCALE
 70
     1
  9
$TREEDEPTH
 70
  3020
  9
$CMLSTYLE
  2
Standard
  9
$CMLJUST
 70
     0
  9
$CMLSCALE
 40
20.0
  9
$PROXYGRAPHICS
 70
     1
  9
$MEASUREMENT
 70
     1
  9
$CELWEIGHT
370
    -1
  9
$ENDCAPS
280
     0
  9
$JOINSTYLE
280
     0
  9
$LWDISPLAY
290
     1
  9
$INSUNITS
 70
     4
  9
$HYPERLINKBASE
  1

  9
$STYLESHEET
  1

  9
$XEDIT
290
     1
  9
$CEPSNTYPE
380
     0
  9
$PSTYLEMODE
290
     1
  9
$FINGERPRINTGUID
  2
{F3CE2D28-8CFD-47B9-8010-6715A067B13A}
  9
$VERSIONGUID
  2
{FAEB1C32-E019-11D5-929B-00C0DF256EC4}
  9
$EXTNAMES
290
     1
  9
$PSVPSCALE
 40
0.0
  9
$OLESTARTUP
290
     0
  0
ENDSEC
  0
SECTION
  2
CLASSES
  0
CLASS
  1
ACDBDICTIONARYWDFLT
  2
AcDbDictionaryWithDefault
  3
ObjectDBX Classes
 90
        0
280
     0
281
     0
  0
CLASS
  1
VISUALSTYLE
  2
AcDbVisualStyle
  3
ObjectDBX Classes
 90
     4095
280
     0
281
     0
  0
CLASS
  1
MATERIAL
  2
AcDbMaterial
  3
ObjectDBX Classes
 90
     1153
280
     0
281
     0
  0
CLASS
  1
SCALE
  2
AcDbScale
  3
ObjectDBX Classes
 90
     1153
280
     0
281
     0
  0
CLASS
  1
TABLESTYLE
  2
AcDbTableStyle
  3
ObjectDBX Classes
 90
     4095
280
     0
281
     0
  0
CLASS
  1
MLEADERSTYLE
  2
AcDbMLeaderStyle
  3
ACDB_MLEADERSTYLE_CLASS
 90
     4095
280
     0
281
     0
  0
CLASS
  1
SUN
  2
AcDbSun
  3
SCENEOE
 90
     1153
280
     0
281
     0
  0
CLASS
  1
ACDBPLACEHOLDER
  2
AcDbPlaceHolder
  3
ObjectDBX Classes
 90
        0
280
     0
281
     0
  0
CLASS
  1
LAYOUT
  2
AcDbLayout
  3
ObjectDBX Classes
 90
        0
280
     0
281
     0
  0
ENDSEC
  0
SECTION
  2
TABLES
  0
TABLE
  2
VPORT
  5
8
330
0
100
AcDbSymbolTable
 70
     1
  0
VPORT
  5
29
330
8
100
AcDbSymbolTableRecord
100
AcDbViewportTableRecord
  2
*Active
 70
     0
 10
0.0
 20
0.0
 11
1.0
 21
1.0
 12
0.1546840266
 22
475.8630073138
 13
0.0
 23
0.0
 14
10.0
 24
10.0
 15
10.0
 25
10.0
 16
0.0
 26
0.0
 36
1.0
 17
0.0
 27
0.0
 37
0.0
 40
975.7115844163
 41
0.5223314027
 42
50.0
 43
0.0
 44
0.0
 50
0.0
 51
0.0
 71
     0
 72
   100
 73
     1
 74
     3
 75
     0
 76
     0
 77
     0
 78
     0
281
     0
 65
     1
110
0.0
120
0.0
130
0.0
111
1.0
121
0.0
131
0.0
112
0.0
122
1.0
132
0.0
 79
     0
146
0.0
  0
ENDTAB
  0
TABLE
  2
LTYPE
  5
5
330
0
100
AcDbSymbolTable
 70
     6
  0
LTYPE
  5
14
330
5
100
AcDbSymbolTableRecord
100
AcDbLinetypeTableRecord
  2
ByBlock
 70
     0
  3

 72
    65
 73
     0
 40
0.0
  0
LTYPE
  5
15
330
5
100
AcDbSymbolTableRecord
100
AcDbLinetypeTableRecord
  2
ByLayer
 70
     0
  3

 72
    65
 73
     0
 40
0.0
  0
LTYPE
  5
16
330
5
100
AcDbSymbolTableRecord
100
AcDbLinetypeTableRecord
  2
Continuous
 70
     0
  3
Solid line
 72
    65
 73
     0
 40
0.0
  0
LTYPE
  5
6E
330
5
100
AcDbSymbolTableRecord
100
AcDbLinetypeTableRecord
  2
HIDDEN
 70
     0
  3
Hidden __ __ __ __ __ __ __ __ __ __ __ __ __ __
 72
    65
 73
     2
 40
1.905
 49
1.27
 74
     0
 49
-0.635
 74
     0
  0
LTYPE
  5
6F
330
5
100
AcDbSymbolTableRecord
100
AcDbLinetypeTableRecord
  2
PHANTOM
 70
     0
  3
Phantom ______  __  __  ______  __  __  ______
 72
    65
 73
     6
 40
12.7
 49
6.35
 74
     0
 49
-1.27
 74
     0
 49
1.27
 74
     0
 49
-1.27
 74
     0
 49
1.27
 74
     0
 49
-1.27
 74
     0
  0
LTYPE
  5
70
330
5
100
AcDbSymbolTableRecord
100
AcDbLinetypeTableRecord
  2
CENTER
 70
     0
  3
Center ____ _ ____ _ ____ _ ____ _ ____ _ ____
 72
    65
 73
     4
 40
10.16
 49
6.35
 74
     0
 49
-1.27
 74
     0
 49
1.27
 74
     0
 49
-1.27
 74
     0
  0
LTYPE
  5
71
330
5
100
AcDbSymbolTableRecord
100
AcDbLinetypeTableRecord
  2
CENTERX2
 70
     0
  3
Center (2x) ________  __  ________  __  _____
 72
    65
 73
     4
 40
20.32
 49
12.7
 74
     0
 49
-2.54
 74
     0
 49
2.54
 74
     0
 49
-2.54
 74
     0
  0
LTYPE
  5
72
330
5
100
AcDbSymbolTableRecord
100
AcDbLinetypeTableRecord
  2
DOT2
 70
     0
  3
Dot (.5x) ........................................
 72
    65
 73
     2
 40
0.635
 49
0.0
 74
     0
 49
-0.635
 74
     0
  0
ENDTAB
  0
TABLE
  2
LAYER
  5
2
330
0
100
AcDbSymbolTable
 70
     1
  0
LAYER
  5
10
330
2
100
AcDbSymbolTableRecord
100
AcDbLayerTableRecord
  2
0
 70
     0
 62
     7
  6
Continuous
370
    -3
390
F
  0
ENDTAB
  0
TABLE
  2
STYLE
  5
3
330
0
100
AcDbSymbolTable
 70
     1
  0
STYLE
  5
11
330
3
100
AcDbSymbolTableRecord
100
AcDbTextStyleTableRecord
  2
Standard
 70
     0
 40
0.0
 41
1.0
 50
0.0
 71
     0
 42
3.5
  3
txt
  4

  0
ENDTAB
  0
TABLE
  2
VIEW
  5
6
330
0
100
AcDbSymbolTable
 70
     0
  0
ENDTAB
  0
TABLE
  2
UCS
  5
7
330
0
100
AcDbSymbolTable
 70
     0
  0
ENDTAB
  0
TABLE
  2
APPID
  5
9
330
0
100
AcDbSymbolTable
 70
     1
  0
APPID
  5
12
330
9
100
AcDbSymbolTableRecord
100
AcDbRegAppTableRecord
  2
ACAD
 70
     0
  0
ENDTAB
  0
TABLE
  2
DIMSTYLE
  5
A
330
0
100
AcDbSymbolTable
 70
     1
100
AcDbDimStyleTable
  0
DIMSTYLE
105
27
330
A
100
AcDbSymbolTableRecord
100
AcDbDimStyleTableRecord
  2
ISO-25
 70
     0
 41
2.5
 42
0.625
 43
3.75
 44
1.25
 73
     0
 74
     0
 77
     1
 78
     8
140
2.5
141
2.5
143
0.0393700787
147
0.625
171
     3
172
     1
178
     0
271
     2
272
     2
274
     3
278
    44
283
     0
284
     8
340
11
  0
ENDTAB
  0
TABLE
  2
BLOCK_RECORD
  5
1
330
0
100
AcDbSymbolTable
 70
     1
  0
BLOCK_RECORD
  5
1F
330
1
100
AcDbSymbolTableRecord
100
AcDbBlockTableRecord
  2
*Model_Space
340
22
  0
BLOCK_RECORD
  5
1B
330
1
100
AcDbSymbolTableRecord
100
AcDbBlockTableRecord
  2
*Paper_Space
340
1E
  0
BLOCK_RECORD
  5
23
330
1
100
AcDbSymbolTableRecord
100
AcDbBlockTableRecord
  2
*Paper_Space0
340
26
  0
ENDTAB
  0
ENDSEC
  0
SECTION
  2
BLOCKS
  0
BLOCK
  5
20
330
1F
100
AcDbEntity
  8
0
100
AcDbBlockBegin
  2
*Model_Space
 70
     0
 10
0.0
 20
0.0
 30
0.0
  3
*Model_Space
  1

  0
ENDBLK
  5
21
330
1F
100
AcDbEntity
  8
0
100
AcDbBlockEnd
  0
BLOCK
  5
1C
330
1B
100
AcDbEntity
 67
     1
  8
0
100
AcDbBlockBegin
  2
*Paper_Space
 70
     0
 10
0.0
 20
0.0
 30
0.0
  3
*Paper_Space
  1

  0
ENDBLK
  5
1D
330
1B
100
AcDbEntity
 67
     1
  8
0
100
AcDbBlockEnd
  0
BLOCK
  5
24
330
23
100
AcDbEntity
  8
0
100
AcDbBlockBegin
  2
*Paper_Space0
 70
     0
 10
0.0
 20
0.0
 30
0.0
  3
*Paper_Space0
  1

  0
ENDBLK
  5
25
330
23
100
AcDbEntity
  8
0
100
AcDbBlockEnd
  0
ENDSEC
  0
SECTION
  2
ENTITIES
  0
SPLINE
  5
73
330
1F
100
AcDbEntity
  8
0
  6
Continuous
 62
     7
370
    15
100
AcDbSpline
210
0.0
220
0.0
230
1.0
 70
     8
 71
     3
 72
    77
 73
    73
 74
     0
 42
0.000000001
 43
0.00000001
 40
0.0
 40
0.0
 40
0.0
 40
0.0
 40
0.0169216444354059
 40
0.0238867278216979
 40
0.0354394544577782
 40
0.0474580679627106
 40
0.0603644432173505
 40
0.0738421081924486
 40
0.0877596594933743
 40
0.1020107764041886
 40
0.1165178064992566
 40
0.1312214207163149
 40
0.1460751771175495
 40
0.1610419364740985
 40
0.1760908737148739
 40
0.1911967210693991
 40
0.2063379811004767
 40
0.2214962618715033
 40
0.2366557010776823
 40
0.2518025474380504
 40
0.2669248544935549
 40
0.2820122536646558
 40
0.2970557837437618
 40
0.3120477607932005
 40
0.326981677042909
 40
0.3418521205759787
 40
0.3566547098342914
 40
0.3713860385736958
 40
0.3860436280554182
 40
0.4006258841059998
 40
0.4151320573068718
 40
0.4295622050442329
 40
0.4439171545051717
 40
0.4581984659764483
 40
0.4724083960073081
 40
0.4865498601557073
 40
0.5006263951561729
 40
0.514642120438833
 40
0.5286016989965926
 40
0.5425102976483209
 40
0.556373546782615
 40
0.5701974996929744
 40
0.583988591634164
 40
0.5977535987419171
 40
0.6114995969672788
 40
0.6252339211829576
 40
0.6389641246241606
 40
0.652697938830835
 40
0.6664432342634585
 40
0.6802066192129909
 40
0.6939954266649552
 40
0.7078173902557925
 40
0.7216805712074014
 40
0.7355930816239141
 40
0.7495629842061893
 40
0.7635982611478662
 40
0.7777067850385526
 40
0.791896292064439
 40
0.8061743579066131
 40
0.8205483768075204
 40
0.8350255443654603
 40
0.8496128447312622
 40
0.8643170430290135
 40
0.879144684016385
 40
0.8941020982576043
 40
0.9091954174292193
 40
0.9244306008562173
 40
0.9398134760405523
 40
0.9553497968886046
 40
0.9710453247083304
 40
0.9869059390551399
 40
1.0
 40
1.0
 40
1.0
 40
1.0
 10
-0.0000000013027496
 20
609.9403768092631
 30
0.0
 10
3.191224478726315
 20
609.9633119427127
 30
0.0
 10
7.695982326781523
 20
609.9956873594377
 30
0.0
 10
14.37372213908834
 20
610.2135358431441
 30
0.0
 10
20.12278976386601
 20
610.478126911331
 30
0.0
 10
26.97906925897639
 20
610.9230088505913
 30
0.0
 10
34.18035597381529
 20
611.5312701355841
 30
0.0
 10
41.71386900581829
 20
612.3259838349558
 30
0.0
 10
49.46733925234234
 20
613.3146584453726
 30
0.0
 10
57.37295065895331
 20
614.5041870509243
 30
0.0
 10
65.37621619041434
 20
615.8989084644218
 30
0.0
 10
73.43373013159473
 20
617.5015564743485
 30
0.0
 10
81.50959143739824
 20
619.3135204301984
 30
0.0
 10
89.57319558268898
 20
621.3350691272561
 30
0.0
 10
97.59789261473968
 20
623.565525382853
 30
0.0
 10
105.5599955481589
 20
626.0033798417652
 30
0.0
 10
113.4381965311777
 20
628.6464090609556
 30
0.0
 10
121.2130325799568
 20
631.4917271821699
 30
0.0
 10
128.8665960352824
 20
634.5358580269627
 30
0.0
 10
136.3823111143806
 20
637.7747922352069
 30
0.0
 10
143.7447728032059
 20
641.2040388035966
 30
0.0
 10
150.9396293683764
 20
644.8186728817993
 30
0.0
 10
157.9534949896442
 20
648.6133808214583
 30
0.0
 10
164.7738831603218
 20
652.5825030904552
 30
0.0
 10
171.389154247276
 20
656.7200753812159
 30
0.0
 10
177.7884725190449
 20
661.019868052249
 30
0.0
 10
183.9617692980342
 20
665.4754239125681
 30
0.0
 10
189.899709860772
 20
670.0800942738174
 30
0.0
 10
195.5936624155781
 20
674.8270731420312
 30
0.0
 10
201.0356680092237
 20
679.7094293924563
 30
0.0
 10
206.2184106051811
 20
684.7201367600402
 30
0.0
 10
211.1351868720016
 20
689.8521014814249
 30
0.0
 10
215.7798754454106
 20
695.0981874375651
 30
0.0
 10
220.1469055992804
 20
700.4512386674303
 30
0.0
 10
224.2312253906763
 20
705.9040991500914
 30
0.0
 10
228.0282694415345
 20
711.4496297834675
 30
0.0
 10
231.5339265906556
 20
717.0807225216413
 30
0.0
 10
234.7445076993378
 20
722.7903116677089
 30
0.0
 10
237.6567139258846
 20
728.5713823548547
 30
0.0
 10
240.2676058011453
 20
734.4169762836044
 30
0.0
 10
242.5745734415862
 20
740.3201948179177
 30
0.0
 10
244.5753082298291
 20
746.2741995745723
 30
0.0
 10
246.2677762767137
 20
752.2722106748793
 30
0.0
 10
247.6501939552789
 20
758.3075028416129
 30
0.0
 10
248.7210057652904
 20
764.3733996024666
 30
0.0
 10
249.4788647537647
 20
770.4632656849669
 30
0.0
 10
249.9226156617306
 20
776.570498444464
 30
0.0
 10
250.0512809713919
 20
782.6885164267634
 30
0.0
 10
249.8640559774828
 20
788.8105511987371
 30
0.0
 10
249.3603504221921
 20
794.9297170222723
 30
0.0
 10
248.5398149286016
 20
801.0390080844294
 30
0.0
 10
247.4022746100946
 20
807.1317015361122
 30
0.0
 10
245.9477049644126
 20
813.2011436364425
 30
0.0
 10
244.1762187861533
 20
819.2407127299421
 30
0.0
 10
242.0880724161051
 20
825.243754054378
 30
0.0
 10
239.6836724558529
 20
831.2035607558901
 30
0.0
 10
236.9635828948323
 20
837.1133632082012
 30
0.0
 10
233.9285340055506
 20
842.9663201418475
 30
0.0
 10
230.5794326628666
 20
848.7555109172705
 30
0.0
 10
226.9173735780879
 20
854.4739293125516
 30
0.0
 10
222.943651022397
 20
860.1144790252774
 30
0.0
 10
218.6597699747635
 20
865.669970548877
 30
0.0
 10
214.0674576006743
 20
871.1331212342551
 30
0.0
 10
209.1686680224408
 20
876.4965519724923
 30
0.0
 10
203.9656027394692
 20
881.7528054051966
 30
0.0
 10
198.4606571285522
 20
886.8942913840366
 30
0.0
 10
192.6566257527222
 20
891.913515974689
 30
0.0
 10
186.555899745838
 20
896.8022450300966
 30
0.0
 10
180.1634428500997
 20
901.5547089820526
 30
0.0
 10
173.4754030798938
 20
906.1555047172801
 30
0.0
 10
166.9513484821811
 20
910.3495456708438
 30
0.0
 10
162.5627614318461
 20
912.9075512252243
 30
0.0
 10
160.5781276647583
 20
914.0643481945892
 30
0.0
  0
SPLINE
  5
74
330
1F
100
AcDbEntity
  8
0
  6
Continuous
 62
     7
370
    15
100
AcDbSpline
210
0.0
220
0.0
230
1.0
 70
     8
 71
     3
 72
    28
 73
    24
 74
     0
 42
0.000000001
 43
0.00000001
 40
0.0
 40
0.0
 40
0.0
 40
0.0
 40
0.0097056822952533
 40
0.0632280675942141
 40
0.11736184088964
 40
0.1721351696213417
 40
0.221868470126431
 40
0.2718748928404091
 40
0.3221340252137049
 40
0.3726256314972214
 40
0.4233255522957886
 40
0.4742045038036353
 40
0.5252262371860048
 40
0.5763441232319684
 40
0.6274918002279684
 40
0.678572698324059
 40
0.7294271667672002
 40
0.7797532219839347
 40
0.8288641041371902
 40
0.8746872505256252
 40
0.9114090037321247
 40
0.943476276797832
 40
1.0
 40
1.0
 40
1.0
 40
1.0
 10
-160.5781260185142
 20
650.1792000399685
 30
0.0
 10
-160.1358516891945
 20
649.9161511483492
 30
0.0
 10
-157.2546373305623
 20
648.2025082952329
 30
0.0
 10
-151.709970215882
 20
645.2323520704514
 30
0.0
 10
-143.9148578204506
 20
641.2729895063079
 30
0.0
 10
-136.1081175758143
 20
637.6492001415061
 30
0.0
 10
-128.3576992972788
 20
634.3256555733053
 30
0.0
 10
-120.7017742345408
 20
631.2970786228198
 30
0.0
 10
-112.8851494909498
 20
628.4525415353214
 30
0.0
 10
-104.9186494128681
 20
625.7974388901021
 30
0.0
 10
-96.81432105188603
 20
623.3363093131121
 30
0.0
 10
-88.58514500983159
 20
621.0735630902346
 30
0.0
 10
-80.24557652356708
 20
619.0132815103731
 30
0.0
 10
-71.81232157710438
 20
617.1592924081805
 30
0.0
 10
-63.30566015855258
 20
615.5151475698195
 30
0.0
 10
-54.75244341907278
 20
614.0841821801553
 30
0.0
 10
-46.19307692743727
 20
612.869731483734
 30
0.0
 10
-37.70172757042779
 20
611.8756397439056
 30
0.0
 10
-29.46174611052585
 20
611.1096451069589
 30
0.0
 10
-21.97144032501469
 20
610.5829219208838
 30
0.0
 10
-15.43867803501038
 20
610.2544289475129
 30
0.0
 10
-8.288243517349914
 20
610.0017804466953
 30
0.0
 10
-3.228358806282042
 20
609.964294177663
 30
0.0
 10
-0.0000000013027496
 20
609.9403768092631
 30
0.0
  0
SPLINE
  5
75
330
1F
100
AcDbEntity
  8
0
  6
Continuous
 62
     7
370
    15
100
AcDbSpline
210
0.0
220
0.0
230
1.0
 70
     8
 71
     3
 72
    98
 73
    94
 74
     0
 42
0.000000001
 43
0.00000001
 40
0.0
 40
0.0
 40
0.0
 40
0.0
 40
0.002259647884469
 40
0.0147276085194422
 40
0.0273380479560021
 40
0.0400975264558551
 40
0.051682900495772
 40
0.0633319064733143
 40
0.0750397818061966
 40
0.0868018048407448
 40
0.0986123398590649
 40
0.1104645577988004
 40
0.1223499594224645
 40
0.1342575251191797
 40
0.1461721099038328
 40
0.1580711843089982
 40
0.169917555188036
 40
0.1816408749477571
 40
0.1930811682098227
 40
0.2037556629415132
 40
0.2123100297052316
 40
0.2197800084880982
 40
0.2329473519120786
 40
0.2459629246065697
 40
0.2513202455146496
 40
0.2602062358478074
 40
0.269450574855117
 40
0.2793777515044392
 40
0.2897443427141173
 40
0.3004492728825565
 40
0.3114107591088294
 40
0.3225690691906428
 40
0.3338785648310325
 40
0.3453035202347315
 40
0.356815287608641
 40
0.3683904084222094
 40
0.3800093279969031
 40
0.3916555063209288
 40
0.4033147933324029
 40
0.414974983711024
 40
0.4266254953659363
 40
0.4382571342869635
 40
0.4498619203459683
 40
0.4614329564665273
 40
0.4729643288156574
 40
0.4844510292307702
 40
0.4958888935593503
 40
0.5072745513185621
 40
0.5186053833159551
 40
0.5298794847660341
 40
0.541095632091628
 40
0.5522532520839196
 40
0.5633523924576381
 40
0.5743936931119055
 40
0.5853783576138838
 40
0.5963081245805477
 40
0.6071852387527765
 40
0.6180124216470675
 40
0.6287928417381043
 40
0.6395300841758491
 40
0.6502281200787828
 40
0.6608912754713002
 40
0.6715241999526125
 40
0.6821318351979565
 40
0.6927193834014215
 40
0.7032922757763299
 40
0.7138561412330447
 40
0.7244168302285738
 40
0.7349805932228486
 40
0.7455532848457858
 40
0.7561397965403214
 40
0.7667455190066349
 40
0.7773767013015604
 40
0.7880396051298515
 40
0.798740478142748
 40
0.8094855285692991
 40
0.8202809011579806
 40
0.8311326546624681
 40
0.8420467411393416
 40
0.8530289873682682
 40
0.8640850787590147
 40
0.875220546177877
 40
0.8864407562130814
 40
0.8977509055117289
 40
0.9091560199685016
 40
0.9206609597430195
 40
0.93227043134821
 40
0.943989008416841
 40
0.9558211632628459
 40
0.9677713120778036
 40
0.9798438776494788
 40
0.9920433750322738
 40
1.0
 40
1.0
 40
1.0
 40
1.0
 10
160.5781276647498
 20
914.0643481945822
 30
0.0
 10
160.1361004658683
 20
914.3272517734611
 30
0.0
 10
157.2551190595101
 20
916.0407669696567
 30
0.0
 10
151.710666338777
 20
919.0108236010697
 30
0.0
 10
143.915485745023
 20
922.9702581420138
 30
0.0
 10
136.1086584880497
 20
926.5941145458518
 30
0.0
 10
128.3581487989867
 20
929.9177211897456
 30
0.0
 10
120.7021389224542
 20
932.9463498539066
 30
0.0
 10
112.8854284504515
 20
935.7909327651637
 30
0.0
 10
104.9188467048233
 20
938.4460737553025
 30
0.0
 10
96.81444600694627
 20
940.9072332769537
 30
0.0
 10
88.58522303002603
 20
943.1699976336183
 30
0.0
 10
80.2456857583069
 20
945.230275198355
 30
0.0
 10
71.81251367107583
 20
947.0842508162793
 30
0.0
 10
63.3059599468616
 20
948.7283839575358
 30
0.0
 10
54.75280996537158
 20
950.1593435150082
 30
0.0
 10
46.1934782524671
 20
951.3738159299107
 30
0.0
 10
37.70213174075077
 20
952.3678590799884
 30
0.0
 10
29.46211429190958
 20
953.1340762728562
 30
0.0
 10
21.97173909001428
 20
953.660131289744
 30
0.0
 10
15.43891980997218
 20
953.990582380213
 30
0.0
 10
8.288382705889177
 20
954.2357040142117
 30
0.0
 10
0.0372208505925037
 20
954.3457878091408
 30
0.0
 10
-7.695993539482082
 20
954.2438031199969
 30
0.0
 10
-14.37374461607868
 20
954.0312735000105
 30
0.0
 10
-20.12282800064909
 20
953.7650494808922
 30
0.0
 10
-26.97912629687807
 20
953.3206955867965
 30
0.0
 10
-34.18043264796791
 20
952.7122753983564
 30
0.0
 10
-41.71396315540812
 20
951.9176023165575
 30
0.0
 10
-49.46744550594813
 20
950.9289107111822
 30
0.0
 10
-57.37306004421511
 20
949.7393818690251
 30
0.0
 10
-65.3763161175645
 20
948.3446576497141
 30
0.0
 10
-73.43380449420323
 20
946.7420115663642
 30
0.0
 10
-81.50960211774728
 20
944.9300588322542
 30
0.0
 10
-89.57314388029705
 20
942.9085243960924
 30
0.0
 10
-97.5977960668111
 20
940.6780804829027
 30
0.0
 10
-105.5598994902528
 20
938.2402253887005
 30
0.0
 10
-113.4381170764721
 20
935.5971892942952
 30
0.0
 10
-121.2129828748917
 20
932.7518577721033
 30
0.0
 10
-128.8665862797394
 20
929.7077070109806
 30
0.0
 10
-136.3823481571666
 20
926.4687468875967
 30
0.0
 10
-143.7448600466155
 20
923.0394693746535
 30
0.0
 10
-150.9397669026233
 20
919.4248006747463
 30
0.0
 10
-157.9536799337818
 20
915.6300560712052
 30
0.0
 10
-164.7741101610881
 20
911.6608968966168
 30
0.0
 10
-171.3894160840274
 20
907.5232892991595
 30
0.0
 10
-177.7887607597875
 20
903.2234646778551
 30
0.0
 10
-183.9620749541181
 20
898.7678817859342
 30
0.0
 10
-189.9000239935089
 20
894.163190585214
 30
0.0
 10
-195.5939766567608
 20
889.4161979852194
 30
0.0
 10
-201.0359749680283
 20
884.5338356273116
 30
0.0
 10
-206.2187041453849
 20
879.5231298827097
 30
0.0
 10
-211.1354622548635
 20
874.3911742281417
 30
0.0
 10
-215.7801293443306
 20
869.1451041477361
 30
0.0
 10
-220.1471360018164
 20
863.7920746869397
 30
0.0
 10
-224.2314314112054
 20
858.3392407563887
 30
0.0
 10
-228.0284510736712
 20
852.7937402517392
 30
0.0
 10
-231.5340844321699
 20
847.1626800215258
 30
0.0
 10
-234.7446426839624
 20
841.4531246801345
 30
0.0
 10
-237.656827096009
 20
835.6720882264431
 30
0.0
 10
-240.2676981531839
 20
829.82652839769
 30
0.0
 10
-242.5746458723058
 20
823.9233436398542
 30
0.0
 10
-244.575361605992
 20
817.9693725972352
 30
0.0
 10
-246.2678116475446
 20
811.9713957956608
 30
0.0
 10
-247.6502129083156
 20
805.9361399039644
 30
0.0
 10
-248.721010963695
 20
799.870282190354
 30
0.0
 10
-249.4788618301163
 20
793.7804524436445
 30
0.0
 10
-249.92261634177
 20
787.6731721217665
 30
0.0
 10
-250.0512827999732
 20
781.555075143799
 30
0.0
 10
-249.8640477158816
 20
775.4329434471664
 30
0.0
 10
-249.3603278560934
 20
769.3137790325582
 30
0.0
 10
-248.5397846909191
 20
763.2045410142517
 30
0.0
 10
-247.4022540601805
 20
757.1119520979242
 30
0.0
 10
-245.947701285352
 20
751.0425952527762
 30
0.0
 10
-244.176234172797
 20
745.0030837174093
 30
0.0
 10
-242.0881057321023
 20
739.0000727727221
 30
0.0
 10
-239.6837192992558
 20
733.0402708280384
 30
0.0
 10
-236.9636358090386
 20
727.130449565098
 30
0.0
 10
-233.9285828704921
 20
721.2774529361529
 30
0.0
 10
-230.5794652525051
 20
715.4882048024607
 30
0.0
 10
-226.9173762608459
 20
709.7697150900308
 30
0.0
 10
-222.943609616717
 20
704.129084153727
 30
0.0
 10
-218.6596705882837
 20
698.573505890348
 30
0.0
 10
-214.0672879411832
 20
693.110267105997
 30
0.0
 10
-209.1684171437815
 20
687.7467522885469
 30
0.0
 10
-203.9652666994842
 20
682.4904191337406
 30
0.0
 10
-198.4602220452285
 20
677.3488759755039
 30
0.0
 10
-192.6561358761682
 20
672.3295653828804
 30
0.0
 10
-186.555202975333
 20
667.4409306528951
 30
0.0
 10
-180.1631567224391
 20
662.6879604283095
 30
0.0
 10
-173.4732558906657
 20
658.0890240138814
 30
0.0
 10
-167.3569792658943
 20
654.1470740808072
 30
0.0
 10
-163.3877088880039
 20
651.8293535911561
 30
0.0
 10
-161.8208402590504
 20
650.9144339257823
 30
0.0
  0
SPLINE
  5
9A
330
1F
100
AcDbEntity
  8
0
  6
Continuous
 62
     7
370
    15
100
AcDbSpline
210
0.0
220
0.0
230
1.0
 70
     8
 71
     3
 72
    10
 73
     6
 74
     0
 42
0.000000001
 43
0.00000001
 40
0.0
 40
0.0
 40
0.0
 40
0.0
 40
0.2214285080291596
 40
0.5652305599023782
 40
1.0
 40
1.0
 40
1.0
 40
1.0
 10
4.350687753444531
 20
80.14136459877751
 30
0.0
 10
4.357438852051288
 20
80.13387435915071
 30
0.0
 10
4.374672076803682
 20
80.11475436247201
 30
0.0
 10
4.407623281090114
 20
80.07151482978536
 30
0.0
 10
4.430988470930444
 20
80.03343213158531
 30
0.0
 10
4.444036046662944
 20
80.01216601338734
 30
0.0
  0
SPLINE
  5
9B
330
1F
100
AcDbEntity
  8
0
  6
Continuous
 62
     7
370
    15
100
AcDbSpline
210
0.0
220
0.0
230
1.0
 70
     8
 71
     3
 72
     9
 73
     5
 74
     0
 42
0.000000001
 43
0.00000001
 40
0.0
 40
0.0
 40
0.0
 40
0.0
 40
0.3276740049991109
 40
1.0
 40
1.0
 40
1.0
 40
1.0
 10
0.2032953014481928
 20
85.07062278341127
 30
0.0
 10
0.2640204462517031
 20
84.93617907536682
 30
0.0
 10
0.4493422718376998
 20
84.52588193249511
 30
0.0
 10
0.7384250595961178
 20
84.18226342186364
 30
0.0
 10
0.9327829325134268
 20
83.95123976480262
 30
0.0
  0
SPLINE
  5
9C
330
1F
100
AcDbEntity
  8
0
  6
Continuous
 62
     7
370
    15
100
AcDbSpline
210
0.0
220
0.0
230
1.0
 70
     8
 71
     3
 72
     9
 73
     5
 74
     0
 42
0.000000001
 43
0.00000001
 40
0.0
 40
0.0
 40
0.0
 40
0.0
 40
0.2930009542904225
 40
1.0
 40
1.0
 40
1.0
 40
1.0
 10
2.414536484759523
 20
85.283262118788
 30
0.0
 10
2.384299870926089
 20
85.31617948362513
 30
0.0
 10
2.281103572788903
 20
85.42852507279508
 30
0.0
 10
2.191827441244083
 20
85.57254660660152
 30
0.0
 10
2.128709301437253
 20
85.67436969356423
 30
0.0
  0
SPLINE
  5
9F
330
1F
100
AcDbEntity
  8
0
  6
Continuous
 62
     7
370
    15
100
AcDbSpline
210
0.0
220
0.0
230
1.0
 70
     8
 71
     3
 72
    13
 73
     9
 74
     0
 42
0.000000001
 43
0.00000001
 40
0.0
 40
0.0
 40
0.0
 40
0.0
 40
0.0074574422063542
 40
0.2243564476414178
 40
0.446179622057235
 40
0.6943154031852579
 40
0.9538572590538538
 40
0.9999999999999999
 40
0.9999999999999999
 40
0.9999999999999999
 40
0.9999999999999999
 10
-5.047881420306211
 20
87.68839492953767
 30
0.0
 10
-5.053669581475769
 20
87.6895840056257
 30
0.0
 10
-5.227805866068254
 20
87.72535724793973
 30
0.0
 10
-5.59298011727201
 20
87.63495570368696
 30
0.0
 10
-6.07844878997128
 20
87.36580780021957
 30
0.0
 10
-6.418612280559159
 20
86.87465660528414
 30
0.0
 10
-6.539777981345793
 20
86.44083894745962
 30
0.0
 10
-6.523426515373243
 20
86.19394691617771
 30
0.0
 10
-6.520958280250103
 20
86.15667884588623
 30
0.0
  0
SPLINE
  5
A9
330
1F
100
AcDbEntity
  8
0
  6
Continuous
 62
     7
370
    15
100
AcDbSpline
210
0.0
220
0.0
230
1.0
 70
     8
 71
     3
 72
    12
 73
     8
 74
     0
 42
0.000000001
 43
0.00000001
 40
0.0
 40
0.0
 40
0.0
 40
0.0
 40
0.2086392593009624
 40
0.4611738653397777
 40
0.7147794964843238
 40
0.9693673928401637
 40
1.0
 40
1.0
 40
1.0
 40
1.0
 10
2.484239259157415
 20
127.2987501423645
 30
0.0
 10
2.467868091855402
 20
128.0682639834625
 30
0.0
 10
2.431681448315307
 20
129.7691886978269
 30
0.0
 10
2.165517463312039
 20
132.2888174351052
 30
0.0
 10
1.702225745915783
 20
134.8497785792344
 30
0.0
 10
1.290069283226243
 20
136.609521401775
 30
0.0
 10
0.9805300576789129
 20
137.4686029429594
 30
0.0
 10
0.94728562616058
 20
137.5608680748311
 30
0.0
  0
SPLINE
  5
AA
330
1F
100
AcDbEntity
  8
0
  6
Continuous
 62
     7
370
    15
100
AcDbSpline
210
0.0
220
0.0
230
1.0
 70
     8
 71
     3
 72
    12
 73
     8
 74
     0
 42
0.000000001
 43
0.00000001
 40
0.0
 40
0.0
 40
0.0
 40
0.0
 40
0.2128235246284638
 40
0.43984671021483
 40
0.6661627436454999
 40
0.8921240197933094
 40
0.9999999999999999
 40
0.9999999999999999
 40
0.9999999999999999
 40
0.9999999999999999
 10
-4.386658830844462
 20
137.6424873639819
 30
0.0
 10
-4.149252667643094
 20
137.0142312616263
 30
0.0
 10
-3.658600517928248
 20
135.7158015872004
 30
0.0
 10
-3.115192765715683
 20
133.5167237887155
 30
0.0
 10
-2.729545357705737
 20
131.1146461539327
 30
0.0
 10
-2.530194641944567
 20
129.0255594935715
 30
0.0
 10
-2.527140726363697
 20
127.6979176512132
 30
0.0
 10
-2.526153885828424
 20
127.2689042251152
 30
0.0
  0
SPLINE
  5
AF
330
1F
100
AcDbEntity
  8
0
  6
Continuous
 62
     7
370
    15
100
AcDbSpline
210
0.0
220
0.0
230
1.0
 70
     8
 71
     3
 72
    12
 73
     8
 74
     0
 42
0.000000001
 43
0.00000001
 40
0.0
 40
0.0
 40
0.0
 40
0.0
 40
0.2142938014352388
 40
0.4375181961308997
 40
0.6887704752153625
 40
0.95291494079589
 40
1.0
 40
1.0
 40
1.0
 40
1.0
 10
-5.058925031029588
 20
87.53969950869839
 30
0.0
 10
-5.212889459799789
 20
87.53147021765089
 30
0.0
 10
-5.527234712404868
 20
87.51466868372675
 30
0.0
 10
-5.969481543522997
 20
87.25227915132034
 30
0.0
 10
-6.278434037022781
 20
86.81482525603134
 30
0.0
 10
-6.389361891817414
 20
86.41797082697283
 30
0.0
 10
-6.37377518142704
 20
86.19088197832336
 30
0.0
 10
-6.371417110861477
 20
86.15652633070076
 30
0.0
  0
SPLINE
  5
B6
330
1F
100
AcDbEntity
  8
0
  6
Continuous
 62
     7
370
    15
100
AcDbSpline
210
0.0
220
0.0
230
1.0
 70
     8
 71
     3
 72
    16
 73
    12
 74
     0
 42
0.000000001
 43
0.00000001
 40
0.0
 40
0.0
 40
0.0
 40
0.0
 40
0.1444684630622126
 40
0.2036334390737974
 40
0.3021514547415193
 40
0.4052769614918968
 40
0.5167084669560964
 40
0.6339035360784937
 40
0.7557678425681634
 40
0.881373181308953
 40
0.9999999999999999
 40
0.9999999999999999
 40
0.9999999999999999
 40
0.9999999999999999
 10
-49.79780958687019
 20
200.5381015417569
 30
0.0
 10
-50.49678555954389
 20
199.2675061039343
 30
0.0
 10
-51.48201706355876
 20
197.4765566247813
 30
0.0
 10
-52.74655501294954
 20
194.7204673582777
 30
0.0
 10
-53.74646564003808
 20
192.3013938964907
 30
0.0
 10
-54.78907897416202
 20
189.3367853470702
 30
0.0
 10
-55.71640169159696
 20
186.1383723309593
 30
0.0
 10
-56.49344775972718
 20
182.7064276684742
 30
0.0
 10
-57.07156775470864
 20
179.0920222985853
 30
0.0
 10
-57.43701796665007
 20
175.4331002539232
 30
0.0
 10
-57.47312170246807
 20
172.9821872753014
 30
0.0
 10
-57.49065776884028
 20
171.7917461286491
 30
0.0
  0
SPLINE
  5
B7
330
1F
100
AcDbEntity
  8
0
  6
Continuous
 62
     7
370
    15
100
AcDbSpline
210
0.0
220
0.0
230
1.0
 70
     8
 71
     3
 72
    28
 73
    24
 74
     0
 42
0.000000001
 43
0.00000001
 40
0.0
 40
0.0
 40
0.0
 40
0.0
 40
0.0035909422593765
 40
0.0506695480174169
 40
0.0984548299761013
 40
0.1468107116776203
 40
0.1956280330770088
 40
0.2448197881321886
 40
0.2943170431732124
 40
0.3440654677626852
 40
0.3940224491093732
 40
0.4441547484084165
 40
0.4944366396252864
 40
0.5448484627592911
 40
0.5953755252103029
 40
0.646007293221392
 40
0.6967368272357021
 40
0.747560428362995
 40
0.7984774772252139
 40
0.849490461491521
 40
0.9006052055653844
 40
0.9518313372896768
 40
1.0
 40
1.0
 40
1.0
 40
1.0
 10
57.49065776904131
 20
171.7891298340028
 30
0.0
 10
57.49372890412771
 20
171.8893805186971
 30
0.0
 10
57.53706377711877
 20
173.3039554449947
 30
0.0
 10
57.36944401743479
 20
176.0548560338709
 30
0.0
 10
56.95849444022108
 20
180.0341157500702
 30
0.0
 10
56.23190270726511
 20
184.0216746077126
 30
0.0
 10
55.22328974224722
 20
187.986286681909
 30
0.0
 10
53.92205733848507
 20
191.8990567357642
 30
0.0
 10
52.33363470897011
 20
195.7323158658942
 30
0.0
 10
50.46259079138642
 20
199.4599142003596
 30
0.0
 10
48.31680438591339
 20
203.0571181874074
 30
0.0
 10
45.90599392307374
 20
206.5006177808939
 30
0.0
 10
43.24182766809597
 20
209.7685135216942
 30
0.0
 10
40.33764774550095
 20
212.8403233523508
 30
0.0
 10
37.20832589497235
 20
215.6969896907972
 30
0.0
 10
33.87010496796077
 20
218.3209183768869
 30
0.0
 10
30.34044497483816
 20
220.6959272002001
 30
0.0
 10
26.63791104729962
 20
222.8075433466967
 30
0.0
 10
22.7819080624303
 20
224.6419888340238
 30
0.0
 10
18.79298692621307
 20
226.190051601266
 30
0.0
 10
14.69099344059085
 20
227.4326258603345
 30
0.0
 10
10.58803560249595
 20
228.3748786061213
 30
0.0
 10
7.834444258058284
 20
228.736968366841
 30
0.0
 10
6.500000000018835
 20
228.9124441516059
 30
0.0
  0
SPLINE
  5
B8
330
1F
100
AcDbEntity
  8
0
  6
Continuous
 62
     7
370
    15
100
AcDbSpline
210
0.0
220
0.0
230
1.0
 70
     8
 71
     3
 72
    22
 73
    18
 74
     0
 42
0.000000001
 43
0.00000001
 40
0.0
 40
0.0
 40
0.0
 40
0.0
 40
0.0043057431857323
 40
0.0856782416292925
 40
0.1675724850792323
 40
0.250148107362532
 40
0.3336381318341023
 40
0.4085051964521503
 40
0.4832251681650344
 40
0.5576825646307957
 40
0.6316679016170101
 40
0.7047214327892449
 40
0.7756437027933889
 40
0.8401259723640977
 40
0.8873123752875254
 40
0.9351654390495304
 40
1.0
 40
1.0
 40
1.0
 40
1.0
 10
-6.49999999998117
 20
228.9135374815453
 30
0.0
 10
-6.576830274236358
 20
228.9075486577133
 30
0.0
 10
-8.105644817540677
 20
228.7883794752483
 30
0.0
 10
-11.06459426700694
 20
228.2489282049723
 30
0.0
 10
-15.35390899430401
 20
227.2677607178996
 30
0.0
 10
-19.58577511469868
 20
225.9115056198699
 30
0.0
 10
-23.58495420179915
 20
224.2888503693094
 30
0.0
 10
-27.32591343605038
 20
222.4354286194301
 30
0.0
 10
-30.78893885880004
 20
220.407787327317
 30
0.0
 10
-34.08932979133847
 20
218.1527843592311
 30
0.0
 10
-37.20214467740612
 20
215.693160857823
 30
0.0
 10
-40.09202064524811
 20
213.068418581196
 30
0.0
 10
-42.68061689594587
 20
210.3780754055615
 30
0.0
 10
-44.7951870913181
 20
207.8837602372207
 30
0.0
 10
-46.5235571079288
 20
205.6106244280399
 30
0.0
 10
-48.16200402801486
 20
203.2629410937836
 30
0.0
 10
-49.20038152562442
 20
201.5332660354588
 30
0.0
 10
-49.79780958687019
 20
200.5381015417569
 30
0.0
  0
SPLINE
  5
B9
330
1F
100
AcDbEntity
  8
0
  6
Continuous
 62
     7
370
    15
100
AcDbSpline
210
0.0
220
0.0
230
1.0
 70
     8
 71
     3
 72
    56
 73
    52
 74
     0
 42
0.000000001
 43
0.00000001
 40
0.0
 40
0.0
 40
0.0
 40
0.0
 40
0.0057164891823133
 40
0.0288908837275756
 40
0.0526657103528775
 40
0.0771394104680242
 40
0.0992538183675448
 40
0.1214913098688206
 40
0.1438278746684618
 40
0.1662344897613554
 40
0.1886813789721076
 40
0.2111424261622647
 40
0.2335965911579568
 40
0.2560252473233797
 40
0.2784131853072722
 40
0.3007487699132294
 40
0.323016989883275
 40
0.3451955275709931
 40
0.367246988006206
 40
0.3891021588290865
 40
0.4106173754570311
 40
0.4314409225173736
 40
0.4504227033309373
 40
0.4654383928489709
 40
0.4794689103894171
 40
0.5018865403602941
 40
0.5265285559161618
 40
0.5364628959582062
 40
0.5529382339792729
 40
0.569999283223193
 40
0.5882553530405688
 40
0.6072551517130003
 40
0.6268170672801425
 40
0.6467970335808887
 40
0.6670941392761324
 40
0.6876352595712534
 40
0.7083670530923937
 40
0.729250500919791
 40
0.750257268754251
 40
0.7713672287335559
 40
0.7925667449806257
 40
0.8138445530613593
 40
0.8351946370179815
 40
0.8566156440494097
 40
0.8781109148430591
 40
0.899690467617751
 40
0.9213745254340241
 40
0.9431984687565927
 40
0.9652181514777555
 40
0.9875135486984553
 40
1.0
 40
1.0
 40
1.0
 40
1.0
 10
-57.47106923259197
 20
171.7517824640862
 30
0.0
 10
-57.47933089576581
 20
171.5395065764045
 30
0.0
 10
-57.52108497638058
 20
170.4666736200936
 30
0.0
 10
-57.28023753922128
 20
168.5121812887168
 30
0.0
 10
-56.72013611650364
 20
165.8900804964521
 30
0.0
 10
-55.81604307041882
 20
163.3550910630213
 30
0.0
 10
-54.64094023268196
 20
160.9384412496628
 30
0.0
 10
-53.23595844055051
 20
158.6660838541967
 30
0.0
 10
-51.56871336220246
 20
156.4635320173531
 30
0.0
 10
-49.64866227979949
 20
154.3428211603657
 30
0.0
 10
-47.48764040217036
 20
152.3148892136951
 30
0.0
 10
-45.09857117112944
 20
150.3895048337362
 30
0.0
 10
-42.49549754106623
 20
148.5753981783559
 30
0.0
 10
-39.6933953227255
 20
146.880382335915
 30
0.0
 10
-36.70811286718848
 20
145.3114343791843
 30
0.0
 10
-33.55647057071767
 20
143.8748240557669
 30
0.0
 10
-30.25667701923732
 20
142.5762542554825
 30
0.0
 10
-26.82925987891072
 20
141.4209949847827
 30
0.0
 10
-23.29865465735638
 20
140.4139306391906
 30
0.0
 10
-19.69707646502088
 20
139.559719159737
 30
0.0
 10
-16.07580576698864
 20
138.8633773080275
 30
0.0
 10
-12.55021703627562
 20
138.3331590016484
 30
0.0
 10
-9.355001900057589
 20
137.9743308722407
 30
0.0
 10
-6.53208618279192
 20
137.7470707108794
 30
0.0
 10
-3.491843657558606
 20
137.5837472726046
 30
0.0
 10
0.1318502433948869
 20
137.5097710598321
 30
0.0
 10
3.513072029314952
 20
137.5856505213031
 30
0.0
 10
6.528244916539965
 20
137.7486116997539
 30
0.0
 10
9.084832734798418
 20
137.949020270158
 30
0.0
 10
12.1055467706174
 20
138.2804432516285
 30
0.0
 10
15.23672063200685
 20
138.7294182925567
 30
0.0
 10
18.46073072423186
 20
139.3095198963809
 30
0.0
 10
21.71625943299094
 20
140.0230717722307
 30
0.0
 10
24.96222670548265
 20
140.8713784287719
 30
0.0
 10
28.16420168394954
 20
141.8536876600862
 30
0.0
 10
31.29347177051033
 20
142.9679163999043
 30
0.0
 10
34.32548345533819
 20
144.2109657204769
 30
0.0
 10
37.23890330559863
 20
145.5789938743895
 30
0.0
 10
40.01495683722044
 20
147.0676347918576
 30
0.0
 10
42.63693827962017
 20
148.672179496711
 30
0.0
 10
45.08969900804341
 20
150.3876447172127
 30
0.0
 10
47.35936995149381
 20
152.2088781966403
 30
0.0
 10
49.43307402543108
 20
154.1306226204532
 30
0.0
 10
51.29875078869556
 20
156.147621219289
 30
0.0
 10
52.94468851927415
 20
158.2545946158471
 30
0.0
 10
54.35978033320458
 20
160.4462069532126
 30
0.0
 10
55.5312523621469
 20
162.7171043025641
 30
0.0
 10
56.45192034736543
 20
165.0618486067071
 30
0.0
 10
57.09119538332373
 20
167.4753253347243
 30
0.0
 10
57.44019759607568
 20
169.5746480291724
 30
0.0
 10
57.45256595367641
 20
170.8670043857622
 30
0.0
 10
57.45700611144325
 20
171.3309516857592
 30
0.0
  0
LWPOLYLINE
  5
BA
330
1F
100
AcDbEntity
  8
0
  6
Continuous
 62
     7
370
    15
100
AcDbPolyline
 90
       54
 70
   128
 43
0.0
 10
70.7106781186
 20
909.0049808722
 10
74.7754361712
 20
906.5150628324
 10
78.5775427772
 20
903.8905075571
 10
82.1036428983
 20
901.1405338925
 10
85.3413509792
 20
898.2748012212
 10
88.2792944524
 20
895.303375534
 10
90.9071536841
 20
892.2366940717
 10
93.215698223
 20
889.085528665
 10
95.1968192222
 20
885.8609478973
 10
96.8435579219
 20
882.5742782261
 10
98.1501300924
 20
879.2370641984
 10
99.1119463513
 20
875.8610279004
 10
99.7256282838
 20
872.4580277825
 10
99.9890203099
 20
869.0400170069
 10
99.9011972554
 20
865.619001461
 10
99.4624676021
 20
862.2069975868
 10
98.6743724037
 20
858.8159901721
 10
97.5396798735
 20
855.4578902544
 10
96.0623756603
 20
852.144493282
 10
94.2476488491
 20
848.8874376826
 10
92.101873734
 20
845.6981639828
 10
89.6325874283
 20
842.5878746228
 10
86.8484633902
 20
839.5674946074
 10
83.759280957
 20
836.6476331316
 10
80.3758909946
 20
833.8385463153
 10
76.7101777837
 20
831.1501011784
 10
72.7750172756
 20
828.5917409824
 10
68.5842318651
 20
826.172452061
 10
64.1525418388
 20
823.9007322546
 10
59.4955136696
 20
821.7845610619
 10
54.6295053387
 20
819.8313716114
 10
49.571608878
 20
818.0480245523
 10
44.3395903331
 20
816.4407839562
 10
38.95182736
 20
815.0152953143
 10
33.4272446727
 20
813.7765657074
 10
27.7852475693
 20
812.7289462185
 10
22.0456537705
 20
811.8761166492
 10
16.2286238088
 20
811.2210725946
 10
10.3545902141
 20
810.7661149206
 10
4.4441857436
 20
810.5128416828
 10
-1.4818290914
 20
810.4621425126
 10
-7.4026389477
 20
810.6141954927
 10
-13.2974467647
 20
810.9684665315
 10
-19.1455468149
 20
811.523711239
 10
-24.9263974337
 20
812.277979298
 10
-30.6196931724
 20
813.2286213144
 10
-36.2054361221
 20
814.3722981233
 10
-41.664006157
 20
815.7049925184
 10
-46.9762298507
 20
817.222023362
 10
-52.1234478238
 20
818.9180620278
 10
-57.0875802853
 20
820.7871511183
 10
-61.8511905391
 20
822.8227253898
 10
-66.3975462303
 20
825.0176348134
 10
-70.7106781187
 20
827.3641696898
  0
LWPOLYLINE
  5
BB
330
1F
100
AcDbEntity
  8
0
  6
Continuous
 62
     7
370
    15
100
AcDbPolyline
 90
       15
 70
   128
 43
0.0
 10
99.9973981218
 20
867.768139577
 10
99.9890203099
 20
868.207145596
 10
99.7256282838
 20
871.6251563716
 10
99.1119463513
 20
875.0281564895
 10
98.1501300924
 20
878.4041927875
 10
96.8435579219
 20
881.7414068152
 10
95.1968192222
 20
885.0280764864
 10
93.215698223
 20
888.2526572541
 10
90.9071536841
 20
891.4038226608
 10
88.2792944524
 20
894.470504123
 10
85.3413509792
 20
897.4419298103
 10
82.1036428983
 20
900.3076624815
 10
78.5775427772
 20
903.0576361462
 10
74.7754361712
 20
905.6821914215
 10
70.7106781186
 20
908.1721094613
  0
LWPOLYLINE
  5
BC
330
1F
100
AcDbEntity
  8
0
  6
Continuous
 62
     7
370
    15
100
AcDbPolyline
 90
       54
 70
   128
 43
0.0
 10
-70.7106781187
 20
827.3641696898
 10
-74.7754361713
 20
829.8540877296
 10
-78.5775427773
 20
832.4786430049
 10
-82.1036428983
 20
835.2286166696
 10
-85.3413509793
 20
838.0943493408
 10
-88.2792944525
 20
841.0657750281
 10
-90.9071536842
 20
844.1324564903
 10
-93.2156982231
 20
847.283621897
 10
-95.1968192223
 20
850.5082026647
 10
-96.843557922
 20
853.794872336
 10
-98.1501300925
 20
857.1320863636
 10
-99.1119463513
 20
860.5081226616
 10
-99.7256282839
 20
863.9111227795
 10
-99.98902031
 20
867.3291335551
 10
-99.9011972555
 20
870.750149101
 10
-99.4624676021
 20
874.1621529753
 10
-98.6743724038
 20
877.5531603899
 10
-97.5396798736
 20
880.9112603076
 10
-96.0623756604
 20
884.22465728
 10
-94.2476488492
 20
887.4817128794
 10
-92.101873734
 20
890.6709865792
 10
-89.6325874283
 20
893.7812759392
 10
-86.8484633903
 20
896.8016559546
 10
-83.7592809571
 20
899.7215174304
 10
-80.3758909947
 20
902.5306042467
 10
-76.7101777838
 20
905.2190493836
 10
-72.7750172757
 20
907.7774095796
 10
-68.5842318652
 20
910.1966985011
 10
-64.1525418389
 20
912.4684183075
 10
-59.4955136697
 20
914.5845895002
 10
-54.6295053388
 20
916.5377789506
 10
-49.571608878
 20
918.3211260097
 10
-44.3395903331
 20
919.9283666058
 10
-38.9518273601
 20
921.3538552477
 10
-33.4272446728
 20
922.5925848546
 10
-27.7852475694
 20
923.6402043435
 10
-22.0456537706
 20
924.4930339128
 10
-16.2286238089
 20
925.1480779675
 10
-10.3545902142
 20
925.6030356414
 10
-4.4441857437
 20
925.8563088793
 10
1.4818290913
 20
925.9070080495
 10
7.4026389476
 20
925.7549550693
 10
13.2974467646
 20
925.4006840305
 10
19.1455468148
 20
924.845439323
 10
24.9263974336
 20
924.091171264
 10
30.6196931724
 20
923.1405292477
 10
36.2054361221
 20
921.9968524387
 10
41.6640061569
 20
920.6641580436
 10
46.9762298506
 20
919.1471272
 10
52.1234478237
 20
917.4510885342
 10
57.0875802852
 20
915.5819994437
 10
61.851190539
 20
913.5464251722
 10
66.3975462302
 20
911.3515157486
 10
70.7106781186
 20
909.0049808722
  0
LWPOLYLINE
  5
BD
330
1F
100
AcDbEntity
  8
0
  6
Continuous
 62
     7
370
    15
100
AcDbPolyline
 90
       41
 70
   128
 43
0.0
 10
70.7106781186
 20
908.1721094613
 10
66.3975462302
 20
910.5186443377
 10
61.851190539
 20
912.7135537613
 10
57.0875802852
 20
914.7491280328
 10
52.1234478237
 20
916.6182171233
 10
46.9762298506
 20
918.3142557891
 10
41.6640061569
 20
919.8312866327
 10
36.2054361221
 20
921.1639810278
 10
30.6196931724
 20
922.3076578368
 10
24.9263974336
 20
923.2582998531
 10
19.1455468148
 20
924.0125679121
 10
13.2974467646
 20
924.5678126196
 10
7.4026389476
 20
924.9220836584
 10
1.4818290913
 20
925.0741366385
 10
-4.4441857437
 20
925.0234374683
 10
-10.3545902142
 20
924.7701642305
 10
-16.2286238089
 20
924.3152065565
 10
-22.0456537706
 20
923.6601625019
 10
-27.7852475694
 20
922.8073329326
 10
-33.4272446728
 20
921.7597134437
 10
-38.9518273601
 20
920.5209838368
 10
-44.3395903331
 20
919.0954951949
 10
-49.571608878
 20
917.4882545988
 10
-54.6295053388
 20
915.7049075397
 10
-59.4955136697
 20
913.7517180892
 10
-64.1525418389
 20
911.6355468965
 10
-68.5842318652
 20
909.3638270901
 10
-72.7750172757
 20
906.9445381687
 10
-76.7101777838
 20
904.3861779727
 10
-80.3758909947
 20
901.6977328358
 10
-83.7592809571
 20
898.8886460195
 10
-86.8484633903
 20
895.9687845437
 10
-89.6325874283
 20
892.9484045283
 10
-92.101873734
 20
889.8381151683
 10
-94.2476488492
 20
886.6488414685
 10
-96.0623756604
 20
883.3917858691
 10
-97.5396798736
 20
880.0783888967
 10
-98.6743724038
 20
876.720288979
 10
-99.4624676021
 20
873.3292815644
 10
-99.9011972555
 20
869.9172776901
 10
-99.997398122
 20
867.7681395706
  0
LWPOLYLINE
  5
BE
330
1F
100
AcDbEntity
  8
0
  6
Continuous
 62
     7
370
    15
100
AcDbPolyline
 90
       11
 70
   128
 43
0.0
 10
-3.1
 20
525.7608799309
 10
-2.9943700615
 20
525.2976994623
 10
-2.5393713373
 20
524.7344121821
 10
-1.7780869527
 20
524.2949320615
 10
-0.8023390398
 20
524.032266889
 10
0.2701828025
 20
523.978097961
 10
1.3101166114
 20
524.1389588496
 10
2.1920310217
 20
524.4954473576
 10
2.8095541398
 20
525.0045657098
 10
3.0882035641
 20
525.604906719
 10
3.1
 20
525.7608799309
  0
LWPOLYLINE
  5
BF
330
1F
100
AcDbEntity
  8
0
  6
Continuous
 62
     7
370
    15
100
AcDbPolyline
 90
       11
 70
   128
 43
0.0
 10
-6.5
 20
542.0916961687
 10
-6.3935293951
 20
541.4153125492
 10
-5.9273489989
 20
540.5516754171
 10
-5.1166926239
 20
539.7775386933
 10
-4.0086726721
 20
539.1378923903
 10
-2.6676832354
 20
538.6699104263
 10
-1.1716577458
 20
538.400790212
 10
0.3924602333
 20
538.3461720359
 10
1.9337698501
 20
538.5092301081
 10
3.3626957922
 20
538.8804880859
 10
4.5961940777
 20
539.4383698052
  0
SPLINE
  5
C0
330
1F
100
AcDbEntity
  8
0
  6
Continuous
 62
     7
370
    15
100
AcDbSpline
210
0.0
220
0.0
230
1.0
 70
     8
 71
     3
 72
    10
 73
     6
 74
     0
 42
0.000000001
 43
0.00000001
 40
0.0
 40
0.0
 40
0.0
 40
0.0
 40
0.5
 40
0.5
 40
1.0
 40
1.0
 40
1.0
 40
1.0
 10
4.596194077729487
 20
539.4383698052328
 30
0.0
 10
5.1978344756051
 20
539.7856894140207
 30
0.0
 10
5.679611524319607
 20
540.2019313505392
 30
0.0
 10
6.330822398360984
 20
541.109521226174
 30
0.0
 10
6.500000000016933
 20
541.6005120674308
 30
0.0
 10
6.500000000016936
 20
542.0916961686568
 30
0.0
  0
LWPOLYLINE
  5
C1
330
1F
100
AcDbEntity
  8
0
  6
Continuous
 62
     7
370
    15
100
AcDbPolyline
 90
       12
 70
   128
 43
0.0
 10
4.5961940777
 20
539.4383698052
 10
3.4123477722
 20
538.8979913911
 10
2.044540915
 20
538.5297864282
 10
0.5665123279
 20
538.3536049413
 10
-0.9420570855
 20
538.3789449201
 10
-2.3998399575
 20
538.6044402797
 10
-3.7282468363
 20
539.0179345069
 10
-4.855662963
 20
539.5971360209
 10
-5.7213090427
 20
540.3108199182
 10
-6.2785178709
 20
541.1205113151
 10
-6.4972501755
 20
541.9825595388
 10
-6.5
 20
542.0916961687
  0
LWPOLYLINE
  5
C4
330
1F
100
AcDbEntity
  8
0
  6
Continuous
 62
     7
370
    15
100
AcDbPolyline
 90
       12
 70
   128
 43
0.0
 10
-6.5
 20
529.8435839904
 10
-6.4972501755
 20
529.7344473606
 10
-6.2785178709
 20
528.8723991368
 10
-5.7213090427
 20
528.0627077399
 10
-4.855662963
 20
527.3490238427
 10
-3.7282468363
 20
526.7698223286
 10
-2.3998399575
 20
526.3563281014
 10
-0.9420570855
 20
526.1308327418
 10
0.5665123279
 20
526.105492763
 10
2.044540915
 20
526.2816742499
 10
3.4123477722
 20
526.6498792128
 10
4.5961940777
 20
527.1902576269
  0
LWPOLYLINE
  5
D2
330
1F
100
AcDbEntity
  8
0
  6
Continuous
 62
     7
370
    15
100
AcDbPolyline
 90
        6
 70
   128
 43
0.0
 10
3.9822287263
 20
137.629786757
 10
4.0473940322
 20
137.4513069226
 10
4.1012193309
 20
137.1077575984
 10
4.0473940322
 20
136.8263536414
 10
3.8941125497
 20
136.6499362531
 10
3.894071916
 20
136.649912792
  0
LWPOLYLINE
  5
DD
330
1F
100
AcDbEntity
  8
0
  6
Continuous
 62
     7
370
    15
100
AcDbPolyline
 90
       10
 70
   128
 43
0.0
 10
6.2225396745
 20
97.0974568661
 10
6.3717928233
 20
97.9887517766
 10
6.8015501371
 20
98.6002193492
 10
7.4599765415
 20
98.8581075704
 10
8.2676560947
 20
98.7313113146
 10
9.1271707225
 20
98.2351240816
 10
9.9348502757
 20
97.4293933747
 10
10.5932766801
 20
96.4113022084
 10
11.023033994
 20
95.3036474028
 10
11.1722871428
 20
94.2400284747
  0
LWPOLYLINE
  5
E2
330
1F
100
AcDbEntity
  8
0
  6
Continuous
 62
     7
370
    15
100
AcDbPolyline
 90
       15
 70
   128
 43
0.0
 10
20.1030457892
 20
75.2032174465
 10
21.2831412493
 20
74.3684199662
 10
22.4040617955
 20
73.2683969732
 10
23.4095997909
 20
71.9583082137
 10
24.2493333616
 20
70.5038470086
 10
24.8811547601
 20
68.9779461159
 10
25.2733818232
 20
67.4571205781
 10
25.4063466481
 20
66.017630938
 10
25.2733818232
 20
64.731659217
 10
24.8811547601
 20
63.6636894069
 10
24.2493333616
 20
62.8672739734
 10
23.4095997909
 20
62.382348512
 10
22.4040617955
 20
62.23322921
 10
21.2831412493
 20
62.4273935321
 10
20.1030457892
 20
62.9551052682
  0
LWPOLYLINE
  5
EB
330
1F
100
AcDbEntity
  8
0
  6
Continuous
 62
     7
370
    15
100
AcDbPolyline
 90
       22
 70
   128
 43
0.0
 10
20.1030457892
 20
72.4480996462
 10
20.9629728176
 20
71.8020018638
 10
21.7464915559
 20
70.9139677533
 10
22.3839829256
 20
69.8629030427
 10
22.8188030211
 20
68.7421994439
 10
23.0123161686
 20
67.6514363898
 10
22.9473278757
 20
66.6875329646
 10
22.6296126375
 20
65.9361362176
 10
22.0874008472
 20
65.4640110472
 10
21.3688704018
 20
65.3131078467
 10
20.5378658846
 20
65.4968350276
 10
19.6682256937
 20
65.9988676238
 10
18.8372211765
 20
66.7745978358
 10
18.1186907311
 20
67.7550986301
 10
17.5764789408
 20
68.8532482083
 10
17.2587637026
 20
69.9714711612
 10
17.1937754098
 20
71.0104084722
 10
17.3872885572
 20
71.8777460019
 10
17.8221086527
 20
72.4964170045
 10
18.4596000224
 20
72.8114498465
 10
19.2431187607
 20
72.7948524774
 10
20.1030457892
 20
72.4480996462
  0
LWPOLYLINE
  5
EC
330
1F
100
AcDbEntity
  8
0
  6
Continuous
 62
     7
370
    15
100
AcDbPolyline
 90
       17
 70
   128
 43
0.0
 10
8.6974134086
 20
97.193876284
 10
9.2028360108
 20
96.7860081427
 10
9.6313126034
 20
96.2080464613
 10
9.9176115095
 20
95.5479806665
 10
10.0181463158
 20
94.9062997922
 10
9.9176115095
 20
94.3806939344
 10
9.6313126034
 20
94.0511818206
 10
9.2028360108
 20
93.9679286829
 10
8.6974134086
 20
94.1436090569
 10
8.1919908064
 20
94.5514771982
 10
7.7635142138
 20
95.1294388796
 10
7.4772153077
 20
95.7895046743
 10
7.3766805014
 20
96.4311855487
 10
7.4772153077
 20
96.9567914064
 10
7.7635142138
 20
97.2863035203
 10
8.1919908064
 20
97.3695566579
 10
8.6974134086
 20
97.193876284
  0
LWPOLYLINE
  5
F6
330
1F
100
AcDbEntity
  8
0
  6
Continuous
 62
     7
370
    15
100
AcDbPolyline
 90
       10
 70
   128
 43
0.0
 10
1.0709045712
 20
137.1904490914
 10
1.2727922062
 20
137.1078902985
 10
1.5433902562
 20
136.8895219009
 10
1.7727922062
 20
136.5800871758
 10
1.9260736886
 20
136.2266947548
 10
1.9798989873
 20
135.8831454307
 10
1.9260736886
 20
135.6017414737
 10
1.7727922062
 20
135.4253240854
 10
1.5433902562
 20
135.3807512138
 10
1.5418904921
 20
135.3809019711
  0
LWPOLYLINE
  5
117
330
1F
100
AcDbEntity
  8
0
  6
Continuous
 62
     7
370
    15
100
AcDbPolyline
 90
        8
 70
   128
 43
0.0
 10
12.0208152802
 20
94.7298733418
 10
11.8715621314
 20
95.7934922699
 10
11.4418048175
 20
96.9011470755
 10
10.7833784131
 20
97.9192382418
 10
9.9756988599
 20
98.7249689487
 10
9.1161842321
 20
99.2211561817
 10
8.308504679
 20
99.3479524375
 10
7.7960837639
 20
99.1897585559
  0
LWPOLYLINE
  5
119
330
1F
100
AcDbEntity
  8
0
  6
Continuous
 62
     7
370
    15
100
AcDbPolyline
 90
       12
 70
   128
 43
0.0
 10
24.701269174
 20
63.0736397566
 10
25.0978614991
 20
63.3571188405
 10
25.7296828976
 20
64.153534274
 10
26.1219099606
 20
65.2215040841
 10
26.2548747855
 20
66.5074758051
 10
26.1219099606
 20
67.9469654452
 10
25.7296828976
 20
69.467790983
 10
25.0978614991
 20
70.9936918757
 10
24.2581279283
 20
72.4481530808
 10
23.2525899329
 20
73.7582418403
 10
22.1316693868
 20
74.8582648333
 10
20.9515739266
 20
75.6930623136
  0
LWPOLYLINE
  5
121
330
1F
100
AcDbEntity
  8
0
  6
Continuous
 62
     7
370
    15
100
AcDbPolyline
 90
       11
 70
   128
 43
0.0
 10
22.5459876901
 20
65.8272523324
 10
22.2173985392
 20
65.8029527138
 10
21.386394022
 20
65.9866798947
 10
20.5167538311
 20
66.4887124909
 10
19.6857493139
 20
67.2644427029
 10
18.9672188685
 20
68.2449434972
 10
18.4250070782
 20
69.3430930754
 10
18.10729184
 20
70.4613160283
 10
18.0423035472
 20
71.5002533393
 10
18.2358166947
 20
72.3675908689
 10
18.5086320256
 20
72.8209152494
  0
LWPOLYLINE
  5
15A
330
1F
100
AcDbEntity
  8
0
  6
Continuous
 62
     7
370
    15
100
AcDbPolyline
 90
        9
 70
   128
 43
0.0
 10
2.1920310217
 20
75.6897268263
 10
2.5614235051
 20
75.2743586214
 10
2.8563343398
 20
74.7772588069
 10
3.0463802758
 20
74.2496411946
 10
3.111981791
 20
73.7458636984
 10
3.0463802758
 20
73.3178280994
 10
2.8563343398
 20
73.0096328542
 10
2.5614235051
 20
72.8530298418
 10
2.1920310217
 20
72.8641531201
  0
LWPOLYLINE
  5
15E
330
1F
100
AcDbEntity
  8
0
  6
Continuous
 62
     7
370
    15
100
AcDbPolyline
 90
        9
 70
   128
 43
0.0
 10
1.4849242405
 20
73.272357176
 10
1.1155317571
 20
73.687725381
 10
0.8206209224
 20
74.1848251954
 10
0.6305749864
 20
74.7124428077
 10
0.5649734712
 20
75.216220304
 10
0.6305749864
 20
75.6442559029
 10
0.8206209224
 20
75.9524511481
 10
1.1155317571
 20
76.1090541605
 10
1.4849242405
 20
76.0979308822
  0
LWPOLYLINE
  5
162
330
1F
100
AcDbEntity
  8
0
  6
Continuous
 62
     7
370
    15
100
AcDbPolyline
 90
        7
 70
   128
 43
0.0
 10
3.9600136116
 20
74.2770481169
 10
3.8635701964
 20
74.8544432531
 10
3.5875091959
 20
75.4909054256
 10
3.1743547116
 20
76.0481994867
 10
2.6870057685
 20
76.4414824676
 10
2.1996568255
 20
76.6108805994
 10
1.7865755227
 20
76.5306468059
  0
LWPOLYLINE
  5
16D
330
1F
100
AcDbEntity
  8
0
  6
Continuous
 62
     7
370
    15
100
AcDbPolyline
 90
        9
 70
   128
 43
0.0
 10
2.1920310217
 20
69.6456248307
 10
2.5614235051
 20
69.2302566257
 10
2.8563343398
 20
68.7331568113
 10
3.0463802758
 20
68.205539199
 10
3.111981791
 20
67.7017617027
 10
3.0463802758
 20
67.2737261038
 10
2.8563343398
 20
66.9655308586
 10
2.5614235051
 20
66.8089278462
 10
2.1920310217
 20
66.8200511245
  0
LWPOLYLINE
  5
171
330
1F
100
AcDbEntity
  8
0
  6
Continuous
 62
     7
370
    15
100
AcDbPolyline
 90
        9
 70
   128
 43
0.0
 10
1.4849242405
 20
67.2282551804
 10
1.1155317571
 20
67.6436233853
 10
0.8206209224
 20
68.1407231998
 10
0.6305749864
 20
68.6683408121
 10
0.5649734712
 20
69.1721183083
 10
0.6305749864
 20
69.6001539073
 10
0.8206209224
 20
69.9083491525
 10
1.1155317571
 20
70.0649521649
 10
1.4849242405
 20
70.0538288866
  0
LWPOLYLINE
  5
175
330
1F
100
AcDbEntity
  8
0
  6
Continuous
 62
     7
370
    15
100
AcDbPolyline
 90
        7
 70
   128
 43
0.0
 10
3.9600136116
 20
68.2329461214
 10
3.8635701964
 20
68.8103412575
 10
3.5875091959
 20
69.44680343
 10
3.1743547116
 20
70.0040974911
 10
2.6870057685
 20
70.3973804719
 10
2.1996568255
 20
70.5667786037
 10
1.7865755227
 20
70.4865448102
  0
LWPOLYLINE
  5
177
330
1F
100
AcDbEntity
  8
0
  6
Continuous
 62
     7
370
    15
100
AcDbPolyline
 90
        9
 70
   128
 43
0.0
 10
-3.3234018716
 20
78.8737184624
 10
-2.9540093881
 20
78.4583502575
 10
-2.6590985534
 20
77.961250443
 10
-2.4690526175
 20
77.4336328307
 10
-2.4034511023
 20
76.9298553345
 10
-2.4690526175
 20
76.5018197355
 10
-2.6590985534
 20
76.1936244903
 10
-2.9540093881
 20
76.0370214779
 10
-3.3234018716
 20
76.0481447562
  0
LWPOLYLINE
  5
17B
330
1F
100
AcDbEntity
  8
0
  6
Continuous
 62
     7
370
    15
100
AcDbPolyline
 90
        9
 70
   128
 43
0.0
 10
-4.0305086527
 20
76.4563488121
 10
-4.3999011362
 20
76.8717170171
 10
-4.6948119709
 20
77.3688168315
 10
-4.8848579068
 20
77.8964344438
 10
-4.950459422
 20
78.4002119401
 10
-4.8848579068
 20
78.828247539
 10
-4.6948119709
 20
79.1364427842
 10
-4.3999011362
 20
79.2930457966
 10
-4.0305086527
 20
79.2819225183
  0
LWPOLYLINE
  5
17F
330
1F
100
AcDbEntity
  8
0
  6
Continuous
 62
     7
370
    15
100
AcDbPolyline
 90
        7
 70
   128
 43
0.0
 10
-1.5554192817
 20
77.4610397533
 10
-1.6518626968
 20
78.0384348892
 10
-1.9279236974
 20
78.6748970617
 10
-2.3410781817
 20
79.2321911228
 10
-2.8284271247
 20
79.6254741037
 10
-3.3157760678
 20
79.7948722355
 10
-3.7288573705
 20
79.714638442
  0
LWPOLYLINE
  5
190
330
1F
100
AcDbEntity
  8
0
  6
Continuous
 62
     7
370
    15
100
AcDbPolyline
 90
        9
 70
   128
 43
0.0
 10
-3.3234018716
 20
72.8296164668
 10
-2.9540093881
 20
72.4142482618
 10
-2.6590985534
 20
71.9171484474
 10
-2.4690526175
 20
71.3895308351
 10
-2.4034511023
 20
70.8857533388
 10
-2.4690526175
 20
70.4577177399
 10
-2.6590985534
 20
70.1495224947
 10
-2.9540093881
 20
69.9929194823
 10
-3.3234018716
 20
70.0040427606
  0
LWPOLYLINE
  5
194
330
1F
100
AcDbEntity
  8
0
  6
Continuous
 62
     7
370
    15
100
AcDbPolyline
 90
        9
 70
   128
 43
0.0
 10
-4.0305086527
 20
70.4122468165
 10
-4.3999011362
 20
70.8276150214
 10
-4.6948119709
 20
71.3247148359
 10
-4.8848579068
 20
71.8523324482
 10
-4.950459422
 20
72.3561099444
 10
-4.8848579068
 20
72.7841455434
 10
-4.6948119709
 20
73.0923407886
 10
-4.3999011362
 20
73.248943801
 10
-4.0305086527
 20
73.2378205227
  0
LWPOLYLINE
  5
198
330
1F
100
AcDbEntity
  8
0
  6
Continuous
 62
     7
370
    15
100
AcDbPolyline
 90
        7
 70
   128
 43
0.0
 10
-1.5554192817
 20
71.4169377574
 10
-1.6518626968
 20
71.9943328936
 10
-1.9279236974
 20
72.6307950661
 10
-2.3410781817
 20
73.1880891272
 10
-2.8284271247
 20
73.581372108
 10
-3.3157760678
 20
73.7507702398
 10
-3.7288573705
 20
73.6705364463
  0
LWPOLYLINE
  5
19A
330
1F
100
AcDbEntity
  8
0
  6
Continuous
 62
     7
370
    15
100
AcDbPolyline
 90
        9
 70
   128
 43
0.0
 10
-8.8388347648
 20
82.0577100985
 10
-8.4694422814
 20
81.6423418936
 10
-8.1745314467
 20
81.1452420791
 10
-7.9844855107
 20
80.6176244668
 10
-7.9188839955
 20
80.1138469706
 10
-7.9844855107
 20
79.6858113716
 10
-8.1745314467
 20
79.3776161264
 10
-8.4694422814
 20
79.221013114
 10
-8.8388347648
 20
79.2321363923
  0
LWPOLYLINE
  5
19E
330
1F
100
AcDbEntity
  8
0
  6
Continuous
 62
     7
370
    15
100
AcDbPolyline
 90
        9
 70
   128
 43
0.0
 10
-9.545941546
 20
79.6403404482
 10
-9.9153340294
 20
80.0557086532
 10
-10.2102448641
 20
80.5528084676
 10
-10.4002908001
 20
81.08042608
 10
-10.4658923153
 20
81.5842035762
 10
-10.4002908001
 20
82.0122391751
 10
-10.2102448641
 20
82.3204344203
 10
-9.9153340294
 20
82.4770374327
 10
-9.545941546
 20
82.4659141544
  0
LWPOLYLINE
  5
1A2
330
1F
100
AcDbEntity
  8
0
  6
Continuous
 62
     7
370
    15
100
AcDbPolyline
 90
        7
 70
   128
 43
0.0
 10
-7.0708521749
 20
80.6450313888
 10
-7.1672955901
 20
81.2224265253
 10
-7.4433565907
 20
81.8588886978
 10
-7.8565110749
 20
82.416182759
 10
-8.343860018
 20
82.8094657398
 10
-8.831208961
 20
82.9788638716
 10
-9.2442902638
 20
82.8986300781
  0
LWPOLYLINE
  5
1B4
330
1F
100
AcDbEntity
  8
0
  6
Continuous
 62
     7
370
    15
100
AcDbPolyline
 90
        9
 70
   128
 43
0.0
 10
-8.8388347648
 20
76.0136081029
 10
-8.4694422814
 20
75.598239898
 10
-8.1745314467
 20
75.1011400835
 10
-7.9844855107
 20
74.5735224712
 10
-7.9188839955
 20
74.069744975
 10
-7.9844855107
 20
73.641709376
 10
-8.1745314467
 20
73.3335141308
 10
-8.4694422814
 20
73.1769111184
 10
-8.8388347648
 20
73.1880343967
  0
LWPOLYLINE
  5
1B8
330
1F
100
AcDbEntity
  8
0
  6
Continuous
 62
     7
370
    15
100
AcDbPolyline
 90
        9
 70
   128
 43
0.0
 10
-9.545941546
 20
73.5962384526
 10
-9.9153340294
 20
74.0116066575
 10
-10.2102448641
 20
74.508706472
 10
-10.4002908001
 20
75.0363240843
 10
-10.4658923153
 20
75.5401015805
 10
-10.4002908001
 20
75.9681371795
 10
-10.2102448641
 20
76.2763324247
 10
-9.9153340294
 20
76.4329354371
 10
-9.545941546
 20
76.4218121588
  0
LWPOLYLINE
  5
1BC
330
1F
100
AcDbEntity
  8
0
  6
Continuous
 62
     7
370
    15
100
AcDbPolyline
 90
        7
 70
   128
 43
0.0
 10
-7.0708521749
 20
74.6009293936
 10
-7.1672955901
 20
75.1783245297
 10
-7.4433565907
 20
75.8147867022
 10
-7.8565110749
 20
76.3720807633
 10
-8.343860018
 20
76.7653637441
 10
-8.831208961
 20
76.934761876
 10
-9.2442902638
 20
76.8545280824
  0
LWPOLYLINE
  5
1CB
330
1F
100
AcDbEntity
  8
0
  6
Continuous
 62
     7
370
    15
100
AcDbPolyline
 90
        7
 70
   128
 43
0.0
 10
-4.2071067812
 20
64.4288997914
 10
-4.1326157398
 20
64.0142607575
 10
-3.7137956215
 20
63.3946324704
 10
-2.9691541137
 20
62.8870830959
 10
-1.9793846781
 20
62.546613484
 10
-0.851744191
 20
62.4101188002
 10
-0.3535533906
 20
62.418727941
  0
LWPOLYLINE
  5
1CC
330
1F
100
AcDbEntity
  8
0
  6
Continuous
 62
     7
370
    15
100
AcDbPolyline
 90
        3
 70
   128
 43
0.0
 10
2.7561528991
 20
65.2070523044
 10
2.9094765228
 20
65.0537754071
 10
3.0466641734
 20
64.8887447621
  0
LWPOLYLINE
  5
1CD
330
1F
100
AcDbEntity
  8
0
  6
Continuous
 62
     7
370
    15
100
AcDbPolyline
 90
       10
 70
   128
 43
0.0
 10
0.1699406967
 20
61.6437852658
 10
-0.8600600833
 20
61.5905206968
 10
-2.0581541104
 20
61.7213869838
 10
-3.1362016533
 20
62.0503051795
 10
-3.9984134569
 20
62.5480494589
 10
-4.5681782187
 20
63.1703930585
 10
-4.7948698392
 20
63.8620380182
 10
-4.6583457732
 20
64.5615286483
 10
-4.170736783
 20
65.2067121364
 10
-4.1703664615
 20
65.2070523044
  0
LWPOLYLINE
  5
1CE
330
1F
100
AcDbEntity
  8
0
  6
Continuous
 62
     7
370
    15
100
AcDbPolyline
 90
        9
 70
   128
 43
0.0
 10
-3.1819805153
 20
66.3437750905
 10
-3.8514752178
 20
65.8024606736
 10
-4.1802288102
 20
65.1649827212
 10
-4.1326157398
 20
64.500421861
 10
-3.7137956215
 20
63.8807935739
 10
-2.9691541137
 20
63.3732441993
 10
-1.9793846781
 20
63.0327745874
 10
-0.851744191
 20
62.8962799037
 10
-0.3535533906
 20
62.9048890444
  0
LWPOLYLINE
  5
1D1
330
1F
100
AcDbEntity
  8
0
  6
Continuous
 62
     7
370
    15
100
AcDbPolyline
 90
        9
 70
   128
 43
0.0
 10
-2.7577164466
 20
66.098852657
 10
-1.8784776953
 20
66.446548747
 10
-0.8410388112
 20
66.5874089163
 10
0.2144883356
 20
66.5024092185
 10
1.1455489552
 20
66.2030293338
 10
1.8263981517
 20
65.7297021746
 10
2.1650834684
 20
65.1463531964
 10
2.1158635765
 20
64.5317669112
 10
1.9647257532
 20
64.2641550069
  0
LWPOLYLINE
  5
1D2
330
1F
100
AcDbEntity
  8
0
  6
Continuous
 62
     7
370
    15
100
AcDbPolyline
 90
        9
 70
   128
 43
0.0
 10
0.4204174573
 20
63.372644804
 10
-0.0431501863
 20
63.2853947958
 10
-1.1077602105
 20
63.256980757
 10
-2.118259769
 20
63.4524996286
 10
-2.938175297
 20
63.8455455035
 10
-3.4567726592
 20
64.3830353584
 10
-3.6040124081
 20
64.99237821
 10
-3.3600089998
 20
65.5912789298
 10
-2.7577164466
 20
66.098852657
  0
LWPOLYLINE
  5
1D6
330
1F
100
AcDbEntity
  8
0
  6
Continuous
 62
     7
370
    15
100
AcDbPolyline
 90
        9
 70
   128
 43
0.0
 10
-0.3441744628
 20
59.1643388696
 10
-0.8623718776
 20
59.1568415682
 10
-2.0785743524
 20
59.2896858179
 10
-3.172915915
 20
59.6235754081
 10
-4.048159515
 20
60.1288427834
 10
-4.6265359176
 20
60.7605927203
 10
-4.8566538413
 20
61.4626914645
 10
-4.7180662988
 20
62.1727544613
 10
-4.2666686504
 20
62.7867438736
  0
LWPOLYLINE
  5
1D7
330
1F
100
AcDbEntity
  8
0
  6
Continuous
 62
     7
370
    15
100
AcDbPolyline
 90
       11
 70
   128
 43
0.0
 10
-4.2071067812
 20
-0.408204056
 10
-4.1326157398
 20
-0.8228430899
 10
-3.7137956215
 20
-1.442471377
 10
-2.9691541137
 20
-1.9500207516
 10
-1.9793846781
 20
-2.2904903634
 10
-0.851744191
 20
-2.4269850472
 10
0.2915700037
 20
-2.344713486
 10
1.3266620727
 20
-2.05259108
 10
2.1413637293
 20
-1.5822738246
 10
2.6473894074
 20
-0.9847278923
 10
2.7928932188
 20
-0.408204056
  0
LWPOLYLINE
  5
1D8
330
1F
100
AcDbEntity
  8
0
  6
Continuous
 62
     7
370
    15
100
AcDbPolyline
 90
       10
 70
   128
 43
0.0
 10
2.4133472463
 20
85.2801169825
 10
2.3798304575
 20
85.3028007784
 10
2.2146292646
 20
85.2940374398
 10
1.9665755225
 20
85.1812507925
 10
1.6734331645
 20
84.9816115813
 10
1.3798304575
 20
84.7255130663
 10
1.130465752
 20
84.4519439249
 10
0.9633025639
 20
84.202552579
 10
0.9037899733
 20
84.0153066002
 10
0.9274714439
 20
83.9413962873
  0
LWPOLYLINE
  5
1DA
330
1F
100
AcDbEntity
  8
0
  6
Continuous
 62
     7
370
    15
100
AcDbPolyline
 90
        3
 70
   128
 43
0.0
 10
-6.5295750289
 20
84.4118868413
 10
-6.4534545614
 20
84.1909683982
 10
-6.4153866621
 20
84.1439993722
  0
LWPOLYLINE
  5
1DB
330
1F
100
AcDbEntity
  8
0
  6
Continuous
 62
     7
370
    15
100
AcDbPolyline
 90
       10
 70
   128
 43
0.0
 10
2.2273863608
 20
96.1993813207
 10
1.3312475245
 20
95.8371429981
 10
0.2745405897
 20
95.673687579
 10
-0.8152799921
 20
95.7287301994
 10
-1.8067657745
 20
95.9956319069
 10
-2.5803289395
 20
96.4422004166
 10
-3.0426663528
 20
97.0145729755
 10
-3.138013299
 20
97.6437130057
 10
-2.8548695291
 20
98.2537369345
 10
-2.5
 20
98.5915248693
  0
LWPOLYLINE
  5
1DC
330
1F
100
AcDbEntity
  8
0
  6
Continuous
 62
     7
370
    15
100
AcDbPolyline
 90
        6
 70
   128
 43
0.0
 10
2.5
 20
98.5915248693
 10
2.5803289395
 20
98.5282477771
 10
3.0426663528
 20
97.9558752182
 10
3.138013299
 20
97.326735188
 10
2.8548695292
 20
96.7167112592
 10
2.2273863608
 20
96.1993813207
  0
LWPOLYLINE
  5
1DD
330
1F
100
AcDbEntity
  8
0
  6
Continuous
 62
     7
370
    15
100
AcDbPolyline
 90
        3
 70
   128
 43
0.0
 10
2.2273863608
 20
85.5843507662
 10
2.8548695292
 20
86.1016807047
 10
3.1244528759
 20
86.6390662382
  0
LWPOLYLINE
  5
1DE
330
1F
100
AcDbEntity
  8
0
  6
Continuous
 62
     7
370
    15
100
AcDbPolyline
 90
        8
 70
   128
 43
0.0
 10
-3.15
 20
86.8701935424
 10
-3.0426663528
 20
86.399542421
 10
-2.5803289395
 20
85.8271698621
 10
-1.8067657745
 20
85.3806013524
 10
-0.8152799921
 20
85.1136996449
 10
0.2745405897
 20
85.0586570245
 10
1.3312475245
 20
85.2221124436
 10
2.2273863608
 20
85.5843507662
  0
LWPOLYLINE
  5
1DF
330
1F
100
AcDbEntity
  8
0
  6
Continuous
 62
     7
370
    15
100
AcDbPolyline
 90
        4
 70
   128
 43
0.0
 10
1.803122292
 20
96.4443037543
 10
2.3558928079
 20
96.9218820669
 10
2.55
 20
97.4852240969
 10
2.5
 20
97.7753075821
  0
LWPOLYLINE
  5
1E0
330
1F
100
AcDbEntity
  8
0
  6
Continuous
 62
     7
370
    15
100
AcDbPolyline
 90
        8
 70
   128
 43
0.0
 10
-2.5
 20
97.7753075821
 10
-2.55
 20
97.4852240969
 10
-2.3558928079
 20
96.9218820669
 10
-1.803122292
 20
96.4443037543
 10
-0.9758427525
 20
96.1251961279
 10
0.0
 20
96.013140431
 10
0.9758427526
 20
96.1251961279
 10
1.803122292
 20
96.4443037543
  0
LWPOLYLINE
  5
1E1
330
1F
100
AcDbEntity
  8
0
  6
Continuous
 62
     7
370
    15
100
AcDbPolyline
 90
       15
 70
   128
 43
0.0
 10
2.5
 20
237.8117332958
 10
2.8548695292
 20
237.473945361
 10
3.138013299
 20
236.8639214323
 10
3.0426663528
 20
236.2347814021
 10
2.5803289395
 20
235.6624088431
 10
1.8067657745
 20
235.2158403335
 10
0.8152799921
 20
234.9489386259
 10
-0.2745405896
 20
234.8938960055
 10
-1.3312475245
 20
235.0573514246
 10
-2.2273863607
 20
235.4195897473
 10
-2.8548695291
 20
235.9369196858
 10
-3.138013299
 20
236.5469436145
 10
-3.0426663528
 20
237.1760836447
 10
-2.5803289395
 20
237.7484562036
 10
-2.5
 20
237.8117332958
  0
LWPOLYLINE
  5
1E2
330
1F
100
AcDbEntity
  8
0
  6
Continuous
 62
     7
370
    15
100
AcDbPolyline
 90
       11
 70
   128
 43
0.0
 10
-2.5
 20
236.9955160086
 10
-2.55
 20
236.7054325234
 10
-2.3558928079
 20
236.1420904934
 10
-1.803122292
 20
235.6645121808
 10
-0.9758427525
 20
235.3454045544
 10
0.0
 20
235.2333488576
 10
0.9758427525
 20
235.3454045544
 10
1.803122292
 20
235.6645121808
 10
2.3558928079
 20
236.1420904934
 10
2.55
 20
236.7054325234
 10
2.5
 20
236.9955160086
  0
SPLINE
  5
1E3
330
1F
100
AcDbEntity
  8
0
  6
Continuous
 62
     7
370
    15
100
AcDbSpline
210
0.0
220
0.0
230
1.0
 70
     8
 71
     3
 72
    12
 73
     8
 74
     0
 42
0.000000001
 43
0.00000001
 40
0.0
 40
0.0
 40
0.0
 40
0.0
 40
0.2192345655710663
 40
0.4384691311421325
 40
0.6577036967131987
 40
0.876938262284265
 40
1.0
 40
1.0
 40
1.0
 40
1.0
 10
-4.242640687120748
 20
230.1735041284323
 30
0.0
 10
-4.733830179696791
 20
230.5305866711836
 30
0.0
 10
-5.716209164848878
 20
231.2447517566864
 30
0.0
 10
-6.152185823936083
 20
232.630795675826
 30
0.0
 10
-5.675047539465861
 20
233.9684363234825
 30
0.0
 10
-4.592665647964851
 20
235.007017082787
 30
0.0
 10
-3.53150612202262
 20
235.3647919634227
 30
0.0
 10
-3.149999999981214
 20
235.4934185308128
 30
0.0
  0
LWPOLYLINE
  5
1E5
330
1F
100
AcDbEntity
  8
0
  6
Continuous
 62
     7
370
    15
100
AcDbPolyline
 90
       13
 70
   128
 43
0.0
 10
4.2426406872
 20
235.0719527994
 10
5.1961524228
 20
234.3545916002
 10
5.7955549578
 20
233.5192067903
 10
6.0
 20
232.6227284639
 10
5.7955549578
 20
231.7262501376
 10
5.1961524228
 20
230.8908653276
 10
4.2426406872
 20
230.1735041284
 10
3.0
 20
229.6230535201
 10
1.5529142706
 20
229.2770258021
 10
0.0
 20
229.1590021914
 10
-1.5529142706
 20
229.2770258021
 10
-3.0
 20
229.6230535201
 10
-4.2426406871
 20
230.1735041284
  0
LWPOLYLINE
  5
1E6
330
1F
100
AcDbEntity
  8
0
  6
Continuous
 62
     7
370
    15
100
AcDbPolyline
 90
        8
 70
   128
 43
0.0
 10
-4.5961940777
 20
229.5611316946
 10
-5.5322583708
 20
230.2445516198
 10
-6.1700771832
 20
231.0341697109
 10
-6.4752655376
 20
231.8874174524
 10
-6.4313706508
 20
232.7582960376
 10
-6.0407589075
 20
233.5998561765
 10
-5.3244882879
 20
234.3667291442
 10
-4.5969409064
 20
234.8673532163
  0
LWPOLYLINE
  5
1E7
330
1F
100
AcDbEntity
  8
0
  6
Continuous
 62
     7
370
    15
100
AcDbPolyline
 90
       15
 70
   128
 43
0.0
 10
4.5969409064
 20
234.8673532163
 10
5.098701822
 20
234.5418111881
 10
5.8910006158
 20
233.8002781992
 10
6.3657140415
 20
232.9732532359
 10
6.4972501756
 20
232.1053214282
 10
6.2785178709
 20
231.2432732045
 10
5.7213090427
 20
230.4335818076
 10
4.8556629631
 20
229.7198979103
 10
3.7282468363
 20
229.1406963963
 10
2.3998399576
 20
228.7272021691
 10
0.9420570855
 20
228.5017068095
 10
-0.5665123278
 20
228.4763668307
 10
-2.044540915
 20
228.6525483175
 10
-3.4123477722
 20
229.0207532804
 10
-4.5961940777
 20
229.5611316946
  0
LWPOLYLINE
  5
1E8
330
1F
100
AcDbEntity
  8
0
  6
Continuous
 62
     7
370
    15
100
AcDbPolyline
 90
       12
 70
   128
 43
0.0
 10
-4.5961940777
 20
216.4964787044
 10
-3.4123477722
 20
215.9561002903
 10
-2.044540915
 20
215.5878953273
 10
-0.5665123278
 20
215.4117138405
 10
0.9420570855
 20
215.4370538193
 10
2.3998399576
 20
215.6625491789
 10
3.7282468363
 20
216.0760434061
 10
4.8556629631
 20
216.6552449201
 10
5.7213090427
 20
217.3689288174
 10
6.2785178709
 20
218.1786202143
 10
6.4972501756
 20
219.040668438
 10
6.5
 20
219.1498050678
  0
SPLINE
  5
1EB
330
1F
100
AcDbEntity
  8
0
  6
Continuous
 62
     7
370
    15
100
AcDbSpline
210
0.0
220
0.0
230
1.0
 70
     8
 71
     3
 72
    21
 73
    17
 74
     0
 42
0.000000001
 43
0.00000001
 40
0.0
 40
0.0
 40
0.0
 40
0.0
 40
0.0769093801030843
 40
0.1538187602061683
 40
0.2307281403092525
 40
0.3076375204123368
 40
0.3845469005154211
 40
0.4614562806185051
 40
0.5383656607215894
 40
0.6152750408246737
 40
0.692184420927758
 40
0.769093801030842
 40
0.8460031811339264
 40
0.9229125612370105
 40
0.9998219413400947
 40
1.0
 40
1.0
 40
1.0
 40
1.0
 10
-3.251554568088069
 20
231.8750588817923
 30
0.0
 10
-3.125653725515321
 20
231.7248431013515
 30
0.0
 10
-2.873852040369826
 20
231.4244115404697
 30
0.0
 10
-2.268562365366169
 20
231.0587593854252
 30
0.0
 10
-1.539600314466238
 20
230.7848864271039
 30
0.0
 10
-0.7132771794595919
 20
230.6235716558345
 30
0.0
 10
0.1553749648693554
 20
230.5835107272585
 30
0.0
 10
1.01484966749136
 20
230.667431481026
 30
0.0
 10
1.812610698906051
 20
230.870167973352
 30
0.0
 10
2.500124136983529
 20
231.1793712548519
 30
0.0
 10
3.036135158190144
 20
231.5764326168534
 30
0.0
 10
3.386025883495104
 20
232.0365263428316
 30
0.0
 10
3.536188378740276
 20
232.5342978837509
 30
0.0
 10
3.448923589103136
 20
233.0297745823981
 30
0.0
 10
3.306927029331734
 20
233.3630672031117
 30
0.0
 10
3.150361639009998
 20
233.5027989042349
 30
0.0
 10
3.1500000000188
 20
233.5031216603136
 30
0.0
  0
SPLINE
  5
1ED
330
1F
100
AcDbEntity
  8
0
  6
Continuous
 62
     8
370
    15
100
AcDbSpline
210
0.0
220
0.0
230
1.0
 70
     8
 71
     3
 72
    18
 73
    14
 74
     0
 42
0.000000001
 43
0.00000001
 40
0.0
 40
0.0
 40
0.0
 40
0.0
 40
0.0391272307233961
 40
0.1082020441283121
 40
0.1809516667720712
 40
0.2681189697808589
 40
0.3600334019771415
 40
0.4565719470564275
 40
0.5575420091645137
 40
0.6626920711123583
 40
0.7717205713713208
 40
0.8842833544076655
 40
1.0
 40
1.0
 40
1.0
 40
1.0
 10
160.5430063630345
 20
914.0042710283545
 30
0.0
 10
159.6258637057095
 20
914.543857608483
 30
0.0
 10
157.0896067704469
 20
916.0360248248866
 30
0.0
 10
152.4270863666945
 20
917.7701261607491
 30
0.0
 10
146.2765386587765
 20
919.4253999939248
 30
0.0
 10
139.1745388187798
 20
920.4887114392845
 30
0.0
 10
131.1148489873054
 20
920.9134185818964
 30
0.0
 10
122.3996017125204
 20
920.6419069097949
 30
0.0
 10
113.0744342215233
 20
919.6794613533705
 30
0.0
 10
103.1852484038954
 20
918.0325658520649
 30
0.0
 10
92.77953967424948
 20
915.6981809334853
 30
0.0
 10
81.91613944761149
 20
912.7331353361508
 30
0.0
 10
74.48007694167407
 20
910.2590926518053
 30
0.0
 10
70.71067811861295
 20
909.0049808722003
 30
0.0
  0
SPLINE
  5
1EE
330
1F
100
AcDbEntity
  8
0
  6
Continuous
 62
     8
370
    15
100
AcDbSpline
210
0.0
220
0.0
230
1.0
 70
     8
 71
     3
 72
    32
 73
    28
 74
     0
 42
0.000000001
 43
0.00000001
 40
0.0
 40
0.0
 40
0.0
 40
0.0
 40
0.0652406873840141
 40
0.12870323679994
 40
0.1901731685019175
 40
0.2494564486629822
 40
0.306383057824684
 40
0.3608111913726764
 40
0.4126322643592062
 40
0.4617769205717471
 40
0.5035191113512334
 40
0.543114212809144
 40
0.5806238027067386
 40
0.6161567412290138
 40
0.6498754397958939
 40
0.6814405957940912
 40
0.7117368285671585
 40
0.7410873637241499
 40
0.7698625938787503
 40
0.7989845280059733
 40
0.828361164873196
 40
0.8584120083804528
 40
0.8895189017107727
 40
0.9220104811631048
 40
0.9555297347711654
 40
0.990839487253136
 40
1.0
 40
1.0
 40
1.0
 40
1.0
 10
-70.71067811869685
 20
827.3641696898319
 30
0.0
 10
-74.48007714122959
 20
824.2662263393222
 30
0.0
 10
-81.91614004067361
 20
818.1547742283632
 30
0.0
 10
-92.77953740759118
 20
808.5772032538838
 30
0.0
 10
-103.1852564912558
 20
798.8974185660088
 30
0.0
 10
-113.0744056763769
 20
789.1264820569875
 30
0.0
 10
-122.3997017881774
 20
779.3223924872501
 30
0.0
 10
-131.1145003713596
 20
769.5312353951746
 30
0.0
 10
-139.1757458059256
 20
759.801904469799
 30
0.0
 10
-146.3088782306755
 20
750.4884314380728
 30
0.0
 10
-152.5386688181302
 20
741.6450645037357
 30
0.0
 10
-157.9082035188373
 20
733.3153399259238
 30
0.0
 10
-162.64585620434
 20
725.1767425664628
 30
0.0
 10
-166.7322984368095
 20
717.2605099846727
 30
0.0
 10
-170.131310463082
 20
709.639432268671
 30
0.0
 10
-172.83886744182
 20
702.3423774048349
 30
0.0
 10
-174.856044350493
 20
695.3944143064022
 30
0.0
 10
-176.1893090206355
 20
688.7777394724022
 30
0.0
 10
-176.8343658310393
 20
682.4846923393357
 30
0.0
 10
-176.7721936448781
 20
676.5506042008449
 30
0.0
 10
-175.9876938259951
 20
671.0148156365755
 30
0.0
 10
-174.4872554533504
 20
665.9371484076806
 30
0.0
 10
-172.2782048239506
 20
661.3419661060068
 30
0.0
 10
-169.3996497088933
 20
657.2574896128507
 30
0.0
 10
-165.8468162113582
 20
653.742702498921
 30
0.0
 10
-162.8549849378122
 20
651.4064041604929
 30
0.0
 10
-160.946787686909
 20
650.4238294389957
 30
0.0
 10
-160.553714581757
 20
650.2214270423673
 30
0.0
  0
LWPOLYLINE
  5
1F0
330
1F
100
AcDbEntity
  8
0
  6
Continuous
 62
     8
370
    15
100
AcDbPolyline
 90
        4
 70
   128
 43
0.0
 10
4.3510400876
 20
80.1415014891
 10
4.3273586171
 20
80.2154118019
 10
4.3868712077
 20
80.4026577807
 10
4.4547727215
 20
80.5166086739
  0
LWPOLYLINE
  5
1F1
330
1F
100
AcDbEntity
  8
0
  6
Continuous
 62
     8
370
    15
100
AcDbPolyline
 90
       10
 70
   128
 43
0.0
 10
-5.049369203
 20
87.6912481665
 10
-5.0970018082
 20
87.6914415247
 10
-5.3901441662
 20
87.6046839813
 10
-5.6381979084
 20
87.3790156663
 10
-5.8033991012
 20
87.0487925349
 10
-5.8605973606
 20
86.6642880655
 10
-5.80108477
 20
86.2840395779
 10
-5.6339215819
 20
85.9659364575
 10
-5.3845568764
 20
85.7584070206
 10
-5.1546320512
 20
85.6941758586
  0
LWPOLYLINE
  5
1F2
330
1F
100
AcDbEntity
  8
0
  6
Continuous
 62
     8
370
    15
100
AcDbPolyline
 90
        7
 70
   128
 43
0.0
 10
-6.5295741893
 20
86.1570050994
 10
-6.4534545614
 20
85.9368347216
 10
-6.23668181
 20
85.7495491088
 10
-5.9122584612
 20
85.6244088632
 10
-5.5295750289
 20
85.5804654527
 10
-5.1468915965
 20
85.6244088632
 10
-4.9555105551
 20
85.6850641554
  0
SPLINE
  5
1F3
330
1F
100
AcDbEntity
  8
0
  6
Continuous
 62
     8
370
    15
100
AcDbSpline
210
0.0
220
0.0
230
1.0
 70
     8
 71
     3
 72
    13
 73
     9
 74
     0
 42
0.000000001
 43
0.00000001
 40
0.0
 40
0.0
 40
0.0
 40
0.0
 40
0.1606386231847704
 40
0.3285108985478165
 40
0.4963831739108625
 40
0.6642554492739079
 40
0.832127724636954
 40
1.0
 40
1.0
 40
1.0
 40
1.0
 10
-2.491799881999935
 20
127.2733305816412
 30
0.0
 10
-2.455317194832522
 20
127.0926616625509
 30
0.0
 10
-2.380708983524457
 20
126.7231881961247
 30
0.0
 10
-1.808861418415339
 20
126.2502785018252
 30
0.0
 10
-0.9821136870004484
 20
125.9285202110287
 30
0.0
 10
-0.0029353189425934
 20
125.8182509634647
 30
0.0
 10
0.9938549628874384
 20
125.9219350867256
 30
0.0
 10
1.509796289619684
 20
126.158391028267
 30
0.0
 10
1.767766952985808
 20
126.2766189990377
 30
0.0
  0
SPLINE
  5
1F4
330
1F
100
AcDbEntity
  8
0
  6
Continuous
 62
     8
370
    15
100
AcDbSpline
210
0.0
220
0.0
230
1.0
 70
     8
 71
     3
 72
    10
 73
     6
 74
     0
 42
0.000000001
 43
0.00000001
 40
0.0
 40
0.0
 40
0.0
 40
0.0
 40
0.4983720338181234
 40
0.9967440676362469
 40
1.0
 40
1.0
 40
1.0
 40
1.0
 10
1.767766952985808
 20
126.2766189990377
 30
0.0
 10
1.963878925428223
 20
126.4246899446296
 30
0.0
 10
2.356102870313053
 20
126.7208318358135
 30
0.0
 10
2.563385557546109
 20
127.1142594815816
 30
0.0
 10
2.499173519656609
 20
127.2995347922321
 30
0.0
 10
2.498756736569537
 20
127.3007373644984
 30
0.0
  0
LWPOLYLINE
  5
1F5
330
1F
100
AcDbEntity
  8
0
  6
Continuous
 62
     8
370
    15
100
AcDbPolyline
 90
       32
 70
   128
 43
0.0
 10
-57.4999999968
 20
171.7907852657
 10
-57.5
 20
171.7904379785
 10
-57.3227466896
 20
169.1860633462
 10
-56.7920795842
 20
166.5977455496
 10
-55.9112704228
 20
164.0414424286
 10
-54.685749687
 20
161.532914442
 10
-53.1230731194
 20
159.0876274989
 10
-51.2328751408
 20
156.7206576065
 10
-49.0268094503
 20
154.4465979214
 10
-46.5184771765
 20
152.2794687776
 10
-43.723343022
 20
150.232631247
 10
-40.6586399182
 20
148.3187047636
 10
-37.343262779
 20
146.5494893206
 10
-33.7976520068
 20
144.9358927195
 10
-30.0436674711
 20
143.48786332
 10
-26.104453735
 20
142.2143287049
 10
-22.004297361
 20
141.1231406384
 10
-17.7684771765
 20
140.221026658
 10
-13.4231084217
 20
139.5135485963
 10
-8.9949817398
 20
139.0050682907
 10
-4.5113980043
 20
138.6987206915
 10
0.0
 20
138.5963945336
 10
4.5113980044
 20
138.6987206915
 10
8.9949817398
 20
139.0050682907
 10
13.4231084217
 20
139.5135485963
 10
17.7684771766
 20
140.221026658
 10
22.004297361
 20
141.1231406384
 10
26.104453735
 20
142.2143287049
 10
30.0436674712
 20
143.48786332
 10
33.7976520068
 20
144.9358927195
 10
37.343262779
 20
146.5494893206
 10
40.6586399182
 20
148.3187047636
  0
LWPOLYLINE
  5
1F6
330
1F
100
AcDbEntity
  8
0
  6
Continuous
 62
     8
370
    15
100
AcDbPolyline
 90
       11
 70
   128
 43
0.0
 10
40.6586399182
 20
148.3187047636
 10
43.723343022
 20
150.2326312474
 10
46.5184771766
 20
152.2794687784
 10
49.0268094504
 20
154.4465979226
 10
51.2328751409
 20
156.7206576082
 10
53.1230731194
 20
159.087627501
 10
54.685749687
 20
161.5329144444
 10
55.9112704229
 20
164.0414424315
 10
56.7920795842
 20
166.5977455528
 10
57.3227466897
 20
169.1860633498
 10
57.4999999969
 20
171.790090697
  0
LINE
  5
1F7
330
1F
100
AcDbEntity
  8
0
  6
Continuous
 62
     7
370
    15
100
AcDbLine
 10
-161.4940442947
 20
650.7210898255
 30
0.0
 11
-160.5781260185
 21
650.17920004
 31
0.0
  0
LINE
  5
1F8
330
1F
100
AcDbEntity
  8
0
  6
Continuous
 62
     7
370
    15
100
AcDbLine
 10
3.1
 20
525.7608799309
 30
0.0
 11
3.1
 21
526.5454568875
 31
0.0
  0
LINE
  5
1F9
330
1F
100
AcDbEntity
  8
0
  6
Continuous
 62
     7
370
    15
100
AcDbLine
 10
-3.1
 20
526.5454568875
 30
0.0
 11
-3.1
 21
525.7608799309
 31
0.0
  0
LINE
  5
1FA
330
1F
100
AcDbEntity
  8
0
  6
Continuous
 62
     7
370
    15
100
AcDbLine
 10
6.5
 20
529.8435839904
 30
0.0
 11
6.5
 21
610.0261081039
 31
0.0
  0
LINE
  5
1FB
330
1F
100
AcDbEntity
  8
0
  6
Continuous
 62
     7
370
    15
100
AcDbLine
 10
-6.5
 20
610.0271064324
 30
0.0
 11
-6.5
 21
529.8435839904
 31
0.0
  0
LINE
  5
1FC
330
1F
100
AcDbEntity
  8
0
  6
Continuous
 62
     7
370
    15
100
AcDbLine
 10
1.7727515725
 20
135.4253006242
 30
0.0
 11
3.894071916
 21
136.649912792
 31
0.0
  0
LINE
  5
1FD
330
1F
100
AcDbEntity
  8
0
  6
Continuous
 62
     7
370
    15
100
AcDbLine
 10
1.4929464267
 20
137.573111074
 30
0.0
 11
1.0365756908
 21
137.309653856
 31
0.0
  0
LINE
  5
1FE
330
1F
100
AcDbEntity
  8
0
  6
Continuous
 62
     7
370
    15
100
AcDbLine
 10
5.1011380635
 20
111.6973033296
 30
0.0
 11
13.0207340128
 21
116.2691887558
 31
0.0
  0
LINE
  5
1FF
330
1F
100
AcDbEntity
  8
0
  6
Continuous
 62
     7
370
    15
100
AcDbLine
 10
7.7960837639
 20
99.1897585559
 30
0.0
 11
6.9475556265
 21
98.6999136888
 31
0.0
  0
LINE
  5
200
330
1F
100
AcDbEntity
  8
0
  6
Continuous
 62
     7
370
    15
100
AcDbLine
 10
23.8527410365
 20
62.5837948895
 30
0.0
 11
24.701269174
 21
63.0736397566
 31
0.0
  0
LINE
  5
201
330
1F
100
AcDbEntity
  8
0
  6
Continuous
 62
     7
370
    15
100
AcDbLine
 10
2.7389078769
 20
72.9212820636
 30
0.0
 11
3.5874360143
 21
73.4111269306
 31
0.0
  0
LINE
  5
202
330
1F
100
AcDbEntity
  8
0
  6
Continuous
 62
     7
370
    15
100
AcDbLine
 10
1.7865755227
 20
76.5306468059
 30
0.0
 11
0.9380473853
 21
76.0408019388
 31
0.0
  0
LINE
  5
203
330
1F
100
AcDbEntity
  8
0
  6
Continuous
 62
     7
370
    15
100
AcDbLine
 10
-4.7840295364
 20
99.4223823293
 30
0.0
 11
-11.3601226014
 21
95.6260846094
 31
0.0
  0
LINE
  5
204
330
1F
100
AcDbEntity
  8
0
  6
Continuous
 62
     7
370
    15
100
AcDbLine
 10
2.7389078769
 20
66.8771800679
 30
0.0
 11
3.5874360143
 21
67.367024935
 31
0.0
  0
LINE
  5
205
330
1F
100
AcDbEntity
  8
0
  6
Continuous
 62
     7
370
    15
100
AcDbLine
 10
1.7865755227
 20
70.4865448102
 30
0.0
 11
0.9380473853
 21
69.9966999431
 31
0.0
  0
LINE
  5
206
330
1F
100
AcDbEntity
  8
0
  6
Continuous
 62
     7
370
    15
100
AcDbLine
 10
-2.7765250164
 20
76.1052736997
 30
0.0
 11
-1.9279968789
 21
76.5951185668
 31
0.0
  0
LINE
  5
207
330
1F
100
AcDbEntity
  8
0
  6
Continuous
 62
     7
370
    15
100
AcDbLine
 10
-3.7288573705
 20
79.714638442
 30
0.0
 11
-4.5773855079
 21
79.2247935749
 31
0.0
  0
LINE
  5
208
330
1F
100
AcDbEntity
  8
0
  6
Continuous
 62
     7
370
    15
100
AcDbLine
 10
-4.5354526385
 20
100.9514858313
 30
0.0
 11
-5.383980776
 21
100.4616409642
 31
0.0
  0
LINE
  5
209
330
1F
100
AcDbEntity
  8
0
  6
Continuous
 62
     7
370
    15
100
AcDbLine
 10
-2.7765250164
 20
70.061171704
 30
0.0
 11
-1.9279968789
 21
70.5510165711
 31
0.0
  0
LINE
  5
20A
330
1F
100
AcDbEntity
  8
0
  6
Continuous
 62
     7
370
    15
100
AcDbLine
 10
-3.7288573705
 20
73.6705364463
 30
0.0
 11
-4.5773855079
 21
73.1806915792
 31
0.0
  0
LINE
  5
20B
330
1F
100
AcDbEntity
  8
0
  6
Continuous
 62
     7
370
    15
100
AcDbLine
 10
-8.2919579096
 20
79.2892653358
 30
0.0
 11
-7.4434297722
 21
79.7791102029
 31
0.0
  0
LINE
  5
20C
330
1F
100
AcDbEntity
  8
0
  6
Continuous
 62
     7
370
    15
100
AcDbLine
 10
-9.2442902638
 20
82.8986300781
 30
0.0
 11
-10.0928184012
 21
82.408785211
 31
0.0
  0
LINE
  5
20D
330
1F
100
AcDbEntity
  8
0
  6
Continuous
 62
     7
370
    15
100
AcDbLine
 10
4.9961615708
 20
54.2313663478
 30
0.0
 11
11.5722546358
 21
58.0276640678
 31
0.0
  0
LINE
  5
20E
330
1F
100
AcDbEntity
  8
0
  6
Continuous
 62
     7
370
    15
100
AcDbLine
 10
-8.2919579096
 20
73.2451633401
 30
0.0
 11
-7.4434297722
 21
73.7350082072
 31
0.0
  0
LINE
  5
20F
330
1F
100
AcDbEntity
  8
0
  6
Continuous
 62
     7
370
    15
100
AcDbLine
 10
-9.2442902638
 20
76.8545280824
 30
0.0
 11
-10.0928184012
 21
76.3646832154
 31
0.0
  0
LINE
  5
210
330
1F
100
AcDbEntity
  8
0
  6
Continuous
 62
     7
370
    15
100
AcDbLine
 10
12.1722058754
 20
56.988405433
 30
0.0
 11
13.0207340128
 21
57.4782503
 31
0.0
  0
LINE
  5
211
330
1F
100
AcDbEntity
  8
0
  6
Continuous
 62
     7
370
    15
100
AcDbLine
 10
-4.2071067812
 20
64.9150608948
 30
0.0
 11
-4.2071067812
 21
64.4288997914
 31
0.0
  0
LINE
  5
212
330
1F
100
AcDbEntity
  8
0
  6
Continuous
 62
     7
370
    15
100
AcDbLine
 10
2.7928932188
 20
64.7422459083
 30
0.0
 11
2.7928932188
 21
64.9150608948
 31
0.0
  0
LINE
  5
213
330
1F
100
AcDbEntity
  8
0
  6
Continuous
 62
     7
370
    15
100
AcDbLine
 10
-2.2124293765
 20
61.7545772529
 30
0.0
 11
-1.9950837705
 21
61.7049202579
 31
0.0
  0
LINE
  5
214
330
1F
100
AcDbEntity
  8
0
  6
Continuous
 62
     7
370
    15
100
AcDbLine
 10
-4.2071067812
 20
62.7280117839
 30
0.0
 11
-4.2071067812
 21
61.9060207894
 31
0.0
  0
LINE
  5
215
330
1F
100
AcDbEntity
  8
0
  6
Continuous
 62
     7
370
    15
100
AcDbLine
 10
-4.2071067812
 20
60.2623930724
 30
0.0
 11
-4.2071067812
 21
-0.408204056
 31
0.0
  0
LINE
  5
216
330
1F
100
AcDbEntity
  8
0
  6
Continuous
 62
     7
370
    15
100
AcDbLine
 10
2.7928932188
 20
-0.408204056
 30
0.0
 11
2.7928932188
 21
55.3119962153
 31
0.0
  0
LINE
  5
217
330
1F
100
AcDbEntity
  8
0
  6
Continuous
 62
     7
370
    15
100
AcDbLine
 10
0.9274714439
 20
83.9413962873
 30
0.0
 11
4.3510400876
 21
80.1415014891
 31
0.0
  0
LINE
  5
218
330
1F
100
AcDbEntity
  8
0
  6
Continuous
 62
     7
370
    15
100
AcDbLine
 10
4.4547727215
 20
83.0142935534
 30
0.0
 11
2.4133472463
 21
85.2801169825
 31
0.0
  0
LINE
  5
219
330
1F
100
AcDbEntity
  8
0
  6
Continuous
 62
     7
370
    15
100
AcDbLine
 10
-5.1385867746
 20
85.6932391012
 30
0.0
 11
-2.1869799149
 21
85.5614403016
 31
0.0
  0
LINE
  5
21A
330
1F
100
AcDbEntity
  8
0
  6
Continuous
 62
     7
370
    15
100
AcDbLine
 10
-3.15
 20
87.606435184
 30
0.0
 11
-5.049369203
 21
87.6912481665
 31
0.0
  0
LINE
  5
21B
330
1F
100
AcDbEntity
  8
0
  6
Continuous
 62
     7
370
    15
100
AcDbLine
 10
-4.5295750289
 20
85.0099988628
 30
0.0
 11
-4.5295750289
 21
85.6660447556
 31
0.0
  0
LINE
  5
21C
330
1F
100
AcDbEntity
  8
0
  6
Continuous
 62
     7
370
    15
100
AcDbLine
 10
-6.5295750289
 20
86.1577531647
 30
0.0
 11
-6.5295750289
 21
84.4118868413
 31
0.0
  0
LINE
  5
21D
330
1F
100
AcDbEntity
  8
0
  6
Continuous
 62
     7
370
    15
100
AcDbLine
 10
3.15
 20
92.3023837631
 30
0.0
 11
3.15
 21
97.4852240969
 31
0.0
  0
LINE
  5
21E
330
1F
100
AcDbEntity
  8
0
  6
Continuous
 62
     7
370
    15
100
AcDbLine
 10
-3.15
 20
97.4852240969
 30
0.0
 11
-3.15
 21
91.8189025886
 31
0.0
  0
LINE
  5
21F
330
1F
100
AcDbEntity
  8
0
  6
Continuous
 62
     7
370
    15
100
AcDbLine
 10
-3.15
 20
90.1116730165
 30
0.0
 11
-3.15
 21
86.8701935424
 31
0.0
  0
LINE
  5
220
330
1F
100
AcDbEntity
  8
0
  6
Continuous
 62
     7
370
    15
100
AcDbLine
 10
3.15
 20
231.7769381863
 30
0.0
 11
3.15
 21
236.7054325234
 31
0.0
  0
LINE
  5
221
330
1F
100
AcDbEntity
  8
0
  6
Continuous
 62
     7
370
    15
100
AcDbLine
 10
-3.15
 20
236.7054325234
 30
0.0
 11
-3.15
 21
232.622728464
 31
0.0
  0
LINE
  5
222
330
1F
100
AcDbEntity
  8
0
  6
Continuous
 62
     7
370
    15
100
AcDbLine
 10
-2.5
 20
524.7026940756
 30
0.0
 11
-2.5
 21
236.4153490382
 31
0.0
  0
LINE
  5
223
330
1F
100
AcDbEntity
  8
0
  6
Continuous
 62
     7
370
    15
100
AcDbLine
 10
2.5
 20
236.4153490382
 30
0.0
 11
2.5
 21
524.7026940756
 31
0.0
  0
LINE
  5
224
330
1F
100
AcDbEntity
  8
0
  6
Continuous
 62
     7
370
    15
100
AcDbLine
 10
-2.5
 20
127.3176872519
 30
0.0
 11
-2.5
 21
97.1951406117
 31
0.0
  0
LINE
  5
225
330
1F
100
AcDbEntity
  8
0
  6
Continuous
 62
     7
370
    15
100
AcDbLine
 10
2.5
 20
97.1951406117
 30
0.0
 11
2.5
 21
112.7206836747
 31
0.0
  0
LINE
  5
226
330
1F
100
AcDbEntity
  8
0
  6
Continuous
 62
     7
370
    15
100
AcDbLine
 10
2.5
 20
119.2257659483
 30
0.0
 11
2.5
 21
127.3176872519
 31
0.0
  0
LINE
  5
227
330
1F
100
AcDbEntity
  8
0
  6
Continuous
 62
     7
370
    15
100
AcDbLine
 10
0.3632351558
 20
85.0653666886
 30
0.0
 11
0.526518906
 21
84.7494448659
 31
0.0
  0
LINE
  5
228
330
1F
100
AcDbEntity
  8
0
  6
Continuous
 62
     7
370
    15
100
AcDbLine
 10
4.5969409064
 20
234.8673532163
 30
0.0
 11
4.242443216
 21
235.0720668988
 31
0.0
  0
LINE
  5
229
330
1F
100
AcDbEntity
  8
0
  6
Continuous
 62
     7
370
    15
100
AcDbLine
 10
-4.242443216
 20
235.0720668988
 30
0.0
 11
-4.5969409064
 21
234.8673532163
 31
0.0
  0
LINE
  5
22A
330
1F
100
AcDbEntity
  8
0
  6
Continuous
 62
     7
370
    15
100
AcDbLine
 10
6.5
 20
219.1498050678
 30
0.0
 11
6.5
 21
232.214458058
 31
0.0
  0
LINE
  5
22B
330
1F
100
AcDbEntity
  8
0
  6
Continuous
 62
     7
370
    15
100
AcDbLine
 10
-6.5
 20
232.214458058
 30
0.0
 11
-6.5
 21
219.1498050678
 31
0.0
  0
LINE
  5
22C
330
1F
100
AcDbEntity
  8
0
  6
Continuous
 62
     7
370
    15
100
AcDbLine
 10
-4.5969409064
 20
216.4969099096
 30
0.0
 11
-4.2424432159
 21
216.2921962271
 31
0.0
  0
LINE
  5
22D
330
1F
100
AcDbEntity
  8
0
  6
Continuous
 62
     7
370
    15
100
AcDbLine
 10
4.2433300675
 20
216.292708362
 30
0.0
 11
4.5969409064
 21
216.4969099096
 31
0.0
  0
LINE
  5
22E
330
1F
100
AcDbEntity
  8
0
  6
Continuous
 62
     7
370
    15
100
AcDbLine
 10
5.5154328933
 20
137.6992227349
 30
0.0
 11
5.5154328933
 21
112.6129929426
 31
0.0
  0
LINE
  5
22F
330
1F
100
AcDbEntity
  8
0
  6
Continuous
 62
     7
370
    15
100
AcDbLine
 10
4.1012193309
 20
111.7963194306
 30
0.0
 11
-1.5556349186
 21
115.0619518779
 31
0.0
  0
LINE
  5
230
330
1F
100
AcDbEntity
  8
0
  6
Continuous
 62
     7
370
    15
100
AcDbLine
 10
-1.5556349186
 20
115.8784926898
 30
0.0
 11
-1.5556349186
 21
115.0619518779
 31
0.0
  0
LINE
  5
231
330
1F
100
AcDbEntity
  8
0
  6
Continuous
 62
     7
370
    15
100
AcDbLine
 10
4.1012193309
 20
112.6128602425
 30
0.0
 11
-1.5556349186
 21
115.8784926898
 31
0.0
  0
LINE
  5
232
330
1F
100
AcDbEntity
  8
0
  6
Continuous
 62
     7
370
    15
100
AcDbLine
 10
4.8083261121
 20
137.6610065555
 30
0.0
 11
4.8083261121
 21
113.0211969985
 31
0.0
  0
LINE
  5
233
330
1F
100
AcDbEntity
  8
0
  6
Continuous
 62
     7
370
    15
100
AcDbLine
 10
5.5154328933
 20
112.6129929426
 30
0.0
 11
13.4350288426
 21
117.1848783688
 31
0.0
  0
LINE
  5
234
330
1F
100
AcDbEntity
  8
0
  6
Continuous
 62
     7
370
    15
100
AcDbLine
 10
13.4350288426
 20
117.1848783688
 30
0.0
 11
13.4350288426
 21
138.4896162937
 31
0.0
  0
LINE
  5
235
330
1F
100
AcDbEntity
  8
0
  6
Continuous
 62
     7
370
    15
100
AcDbLine
 10
4.8083261121
 20
120.3687373048
 30
0.0
 11
2.5
 21
121.7013056048
 31
0.0
  0
LINE
  5
236
330
1F
100
AcDbEntity
  8
0
  6
Continuous
 62
     7
370
    15
100
AcDbLine
 10
-2.5
 20
124.5877441652
 30
0.0
 11
-4.3840620433
 21
125.6753900317
 31
0.0
  0
LINE
  5
237
330
1F
100
AcDbEntity
  8
0
  6
Continuous
 62
     7
370
    15
100
AcDbLine
 10
-5.0911688245
 20
126.9001348994
 30
0.0
 11
-5.0911688245
 21
137.6803338629
 31
0.0
  0
LINE
  5
238
330
1F
100
AcDbEntity
  8
0
  6
Continuous
 62
     7
370
    15
100
AcDbLine
 10
-12.1622366364
 20
122.8180943403
 30
0.0
 11
-12.1622366364
 21
138.3094096336
 31
0.0
  0
LINE
  5
239
330
1F
100
AcDbEntity
  8
0
  6
Continuous
 62
     7
370
    15
100
AcDbLine
 10
-5.7982756057
 20
118.3277170252
 30
0.0
 11
-11.4551298552
 21
121.5933494725
 31
0.0
  0
LINE
  5
23A
330
1F
100
AcDbEntity
  8
0
  6
Continuous
 62
     7
370
    15
100
AcDbLine
 10
-5.7982756057
 20
117.5111762134
 30
0.0
 11
-5.7982756057
 21
118.3277170252
 31
0.0
  0
LINE
  5
23B
330
1F
100
AcDbEntity
  8
0
  6
Continuous
 62
     7
370
    15
100
AcDbLine
 10
-5.7982756057
 20
117.5111762134
 30
0.0
 11
-11.4551298552
 21
120.7768086607
 31
0.0
  0
LINE
  5
23C
330
1F
100
AcDbEntity
  8
0
  6
Continuous
 62
     7
370
    15
100
AcDbLine
 10
-12.8693434176
 20
123.2262983962
 30
0.0
 11
-12.8693434176
 21
138.4053398141
 31
0.0
  0
LINE
  5
23D
330
1F
100
AcDbEntity
  8
0
  6
Continuous
 62
     7
370
    15
100
AcDbLine
 10
-12.1622366364
 20
122.8180943403
 30
0.0
 11
-5.0911688245
 21
126.9001348994
 31
0.0
  0
LINE
  5
23E
330
1F
100
AcDbEntity
  8
0
  6
Continuous
 62
     7
370
    15
100
AcDbLine
 10
3.15
 20
96.0133034235
 30
0.0
 11
6.2225396745
 21
94.2395640245
 31
0.0
  0
LINE
  5
23F
330
1F
100
AcDbEntity
  8
0
  6
Continuous
 62
     7
370
    15
100
AcDbLine
 10
6.2225396745
 20
94.2395640245
 30
0.0
 11
6.2225396745
 21
97.0974568661
 31
0.0
  0
LINE
  5
240
330
1F
100
AcDbEntity
  8
0
  6
Continuous
 62
     7
370
    15
100
AcDbLine
 10
11.1722871428
 20
94.2400284747
 30
0.0
 11
11.1722871428
 21
91.3821356331
 31
0.0
  0
LINE
  5
241
330
1F
100
AcDbEntity
  8
0
  6
Continuous
 62
     7
370
    15
100
AcDbLine
 10
12.5865007051
 20
88.9326458975
 30
0.0
 11
12.5865007051
 21
79.5424265609
 31
0.0
  0
LINE
  5
242
330
1F
100
AcDbEntity
  8
0
  6
Continuous
 62
     7
370
    15
100
AcDbLine
 10
12.5865007051
 20
79.5424265609
 30
0.0
 11
20.1030457892
 21
75.2032174465
 31
0.0
  0
LINE
  5
243
330
1F
100
AcDbEntity
  8
0
  6
Continuous
 62
     7
370
    15
100
AcDbLine
 10
20.1030457892
 20
62.9551052682
 30
0.0
 11
12.5865007051
 21
67.2943143826
 31
0.0
  0
LINE
  5
244
330
1F
100
AcDbEntity
  8
0
  6
Continuous
 62
     7
370
    15
100
AcDbLine
 10
12.5865007051
 20
67.2943143826
 30
0.0
 11
12.5865007051
 21
57.9040950459
 31
0.0
  0
LINE
  5
245
330
1F
100
AcDbEntity
  8
0
  6
Continuous
 62
     7
370
    15
100
AcDbLine
 10
11.1722871428
 20
57.0874215339
 30
0.0
 11
10.5579087314
 21
57.4420946414
 31
0.0
  0
LINE
  5
246
330
1F
100
AcDbEntity
  8
0
  6
Continuous
 62
     7
370
    15
100
AcDbLine
 10
-5.7982756057
 20
98.8368705365
 30
0.0
 11
-5.7982756057
 21
99.5459513512
 31
0.0
  0
LINE
  5
247
330
1F
100
AcDbEntity
  8
0
  6
Continuous
 62
     7
370
    15
100
AcDbLine
 10
-4.3840620433
 20
100.3626248632
 30
0.0
 11
-3.1033796495
 21
99.6233026542
 31
0.0
  0
LINE
  5
248
330
1F
100
AcDbEntity
  8
0
  6
Continuous
 62
     7
370
    15
100
AcDbLine
 10
-3.1033796495
 20
99.6233026542
 30
0.0
 11
-3.1033796495
 21
119.0669065342
 31
0.0
  0
LINE
  5
249
330
1F
100
AcDbEntity
  8
0
  6
Continuous
 62
     7
370
    15
100
AcDbLine
 10
-4.3840620433
 20
99.3827758889
 30
0.0
 11
-2.7073140035
 21
98.4148098493
 31
0.0
  0
LINE
  5
24A
330
1F
100
AcDbEntity
  8
0
  6
Continuous
 62
     7
370
    15
100
AcDbLine
 10
11.7379725677
 20
89.4224907646
 30
0.0
 11
11.7379725677
 21
58.393939913
 31
0.0
  0
LINE
  5
24B
330
1F
100
AcDbEntity
  8
0
  6
Continuous
 62
     7
370
    15
100
AcDbLine
 10
5.5154328933
 20
93.6679191062
 30
0.0
 11
11.1722871428
 21
90.4022866589
 31
0.0
  0
LINE
  5
24C
330
1F
100
AcDbEntity
  8
0
  6
Continuous
 62
     7
370
    15
100
AcDbLine
 10
-4.2426406871
 20
89.2576830916
 30
0.0
 11
-3.15
 21
88.6269150492
 31
0.0
  0
LINE
  5
24D
330
1F
100
AcDbEntity
  8
0
  6
Continuous
 62
     7
370
    15
100
AcDbLine
 10
2.1732747963
 20
85.5538539212
 30
0.0
 11
4.4547727215
 21
84.2367732038
 31
0.0
  0
LINE
  5
24E
330
1F
100
AcDbEntity
  8
0
  6
Continuous
 62
     7
370
    15
100
AcDbLine
 10
-4.2426406871
 20
89.4909954976
 30
0.0
 11
-4.2426406871
 21
89.2576830916
 31
0.0
  0
LINE
  5
24F
330
1F
100
AcDbEntity
  8
0
  6
Continuous
 62
     7
370
    15
100
AcDbLine
 10
-5.7982756057
 20
118.3277170252
 30
0.0
 11
-2.5
 21
120.2317710035
 31
0.0
  0
LINE
  5
250
330
1F
100
AcDbEntity
  8
0
  6
Continuous
 62
     7
370
    15
100
AcDbLine
 10
-4.3840620433
 20
125.6753900317
 30
0.0
 11
-11.4551298552
 21
121.5933494725
 31
0.0
  0
LINE
  5
251
330
1F
100
AcDbEntity
  8
0
  6
Continuous
 62
     7
370
    15
100
AcDbLine
 10
1.9798989873
 20
117.9195129693
 30
0.0
 11
-1.5556349186
 21
115.8784926898
 31
0.0
  0
LINE
  5
252
330
1F
100
AcDbEntity
  8
0
  6
Continuous
 62
     7
370
    15
100
AcDbLine
 10
-2.5
 20
119.4152301916
 30
0.0
 11
-5.7982756057
 21
117.5111762134
 31
0.0
  0
LINE
  5
253
330
1F
100
AcDbEntity
  8
0
  6
Continuous
 62
     7
370
    15
100
AcDbLine
 10
-2.1414704989
 20
88.2911901177
 30
0.0
 11
-1.8383026039
 21
87.9179611514
 31
0.0
  0
LINE
  5
254
330
1F
100
AcDbEntity
  8
0
  6
Continuous
 62
     7
370
    15
100
AcDbLine
 10
-2.1414704989
 20
88.2911901177
 30
0.0
 11
-1.0606601718
 21
89.8716213862
 31
0.0
  0
LINE
  5
255
330
1F
100
AcDbEntity
  8
0
  6
Continuous
 62
     7
370
    15
100
AcDbLine
 10
-1.0606601718
 20
89.8716213862
 30
0.0
 11
4.5961940777
 21
86.6059889389
 31
0.0
  0
LINE
  5
256
330
1F
100
AcDbEntity
  8
0
  6
Continuous
 62
     7
370
    15
100
AcDbLine
 10
5.1618795027
 20
85.6261930447
 30
0.0
 11
5.1618795027
 21
54.597642193
 31
0.0
  0
LINE
  5
257
330
1F
100
AcDbEntity
  8
0
  6
Continuous
 62
     7
370
    15
100
AcDbLine
 10
4.5961940777
 20
54.2709727882
 30
0.0
 11
-0.3535533906
 21
57.1284011796
 31
0.0
  0
LINE
  5
258
330
1F
100
AcDbEntity
  8
0
  6
Continuous
 62
     7
370
    15
100
AcDbLine
 10
-0.3535533906
 20
57.9449419915
 30
0.0
 11
-0.3535533906
 21
57.1284011796
 31
0.0
  0
LINE
  5
259
330
1F
100
AcDbEntity
  8
0
  6
Continuous
 62
     7
370
    15
100
AcDbLine
 10
4.4547727215
 20
55.1691544113
 30
0.0
 11
-0.3535533906
 21
57.9449419915
 31
0.0
  0
LINE
  5
25A
330
1F
100
AcDbEntity
  8
0
  6
Continuous
 62
     7
370
    15
100
AcDbLine
 10
4.4547727215
 20
55.1691544113
 30
0.0
 11
4.4547727215
 21
56.3939656291
 31
0.0
  0
LINE
  5
25B
330
1F
100
AcDbEntity
  8
0
  6
Continuous
 62
     7
370
    15
100
AcDbLine
 10
-0.3535533906
 20
59.1697532093
 30
0.0
 11
4.4547727215
 21
56.3939656291
 31
0.0
  0
LINE
  5
25C
330
1F
100
AcDbEntity
  8
0
  6
Continuous
 62
     7
370
    15
100
AcDbLine
 10
-0.3535533906
 20
60.1496021836
 30
0.0
 11
-0.3535533906
 21
59.1697532093
 31
0.0
  0
LINE
  5
25D
330
1F
100
AcDbEntity
  8
0
  6
Continuous
 62
     7
370
    15
100
AcDbLine
 10
4.4547727215
 20
57.3738146034
 30
0.0
 11
-0.3535533906
 21
60.1496021836
 31
0.0
  0
LINE
  5
25E
330
1F
100
AcDbEntity
  8
0
  6
Continuous
 62
     7
370
    15
100
AcDbLine
 10
4.4547727215
 20
59.1702043895
 30
0.0
 11
4.4547727215
 21
57.3738146034
 31
0.0
  0
LINE
  5
25F
330
1F
100
AcDbEntity
  8
0
  6
Continuous
 62
     7
370
    15
100
AcDbLine
 10
-0.3535533906
 20
61.9459919697
 30
0.0
 11
4.4547727215
 21
59.1702043895
 31
0.0
  0
LINE
  5
260
330
1F
100
AcDbEntity
  8
0
  6
Continuous
 62
     7
370
    15
100
AcDbLine
 10
-0.3535533906
 20
62.925840944
 30
0.0
 11
-0.3535533906
 21
61.9459919697
 31
0.0
  0
LINE
  5
261
330
1F
100
AcDbEntity
  8
0
  6
Continuous
 62
     7
370
    15
100
AcDbLine
 10
4.4547727215
 20
60.1500533638
 30
0.0
 11
-0.3535533906
 21
62.925840944
 31
0.0
  0
LINE
  5
262
330
1F
100
AcDbEntity
  8
0
  6
Continuous
 62
     7
370
    15
100
AcDbLine
 10
4.4547727215
 20
60.1500533638
 30
0.0
 11
4.4547727215
 21
85.8710889382
 31
0.0
  0
LINE
  5
263
330
1F
100
AcDbEntity
  8
0
  6
Continuous
 62
     7
370
    15
100
AcDbLine
 10
4.4547727215
 20
85.8710889382
 30
0.0
 11
-1.0606601718
 21
89.0550805743
 31
0.0
  0
LINE
  5
264
330
1F
100
AcDbEntity
  8
0
  6
Continuous
 62
     7
370
    15
100
AcDbLine
 10
-1.0606601718
 20
89.0550805743
 30
0.0
 11
-1.8383026039
 21
87.9179611514
 31
0.0
  0
LINE
  5
265
330
1F
100
AcDbEntity
  8
0
  6
Continuous
 62
     7
370
    15
100
AcDbLine
 10
4.5961940777
 20
86.6059889389
 30
0.0
 11
11.1722871428
 21
90.4022866589
 31
0.0
  0
LINE
  5
266
330
1F
100
AcDbEntity
  8
0
  6
Continuous
 62
     7
370
    15
100
AcDbLine
 10
11.7379725677
 20
89.4224907646
 30
0.0
 11
5.1618795027
 21
85.6261930447
 31
0.0
  0
LINE
  5
267
330
1F
100
AcDbEntity
  8
0
  6
Continuous
 62
     7
370
    15
100
AcDbLine
 10
5.5154328933
 20
93.6679191062
 30
0.0
 11
2.8004742289
 21
92.1006068304
 31
0.0
  0
LINE
  5
268
330
1F
100
AcDbEntity
  8
0
  6
Continuous
 62
     7
370
    15
100
AcDbLine
 10
1.4421664582
 20
91.3164724452
 30
0.0
 11
-1.0606601718
 21
89.8716213862
 31
0.0
  0
LINE
  5
269
330
1F
100
AcDbEntity
  8
0
  6
Continuous
 62
     7
370
    15
100
AcDbLine
 10
5.1618795027
 20
54.597642193
 30
0.0
 11
11.7379725677
 21
58.393939913
 31
0.0
  0
LINE
  5
26A
330
1F
100
AcDbEntity
  8
0
  6
Continuous
 62
     7
370
    15
100
AcDbLine
 10
11.1722871428
 20
94.2400284747
 30
0.0
 11
12.0208152802
 21
94.7298733418
 31
0.0
  0
LINE
  5
26B
330
1F
100
AcDbEntity
  8
0
  6
Continuous
 62
     7
370
    15
100
AcDbLine
 10
20.1030457892
 20
75.2032174465
 30
0.0
 11
20.9515739266
 21
75.6930623136
 31
0.0
  0
LINE
  5
26C
330
1F
100
AcDbEntity
  8
0
  6
Continuous
 62
     7
370
    15
100
AcDbLine
 10
11.1722871428
 20
91.3821356331
 30
0.0
 11
12.0208152802
 21
91.8719805002
 31
0.0
  0
LINE
  5
26D
330
1F
100
AcDbEntity
  8
0
  6
Continuous
 62
     7
370
    15
100
AcDbLine
 10
12.0208152802
 20
91.8719805002
 30
0.0
 11
12.0208152802
 21
94.7298733418
 31
0.0
  0
LINE
  5
26E
330
1F
100
AcDbEntity
  8
0
  6
Continuous
 62
     7
370
    15
100
AcDbLine
 10
12.5865007051
 20
88.9326458975
 30
0.0
 11
13.4350288426
 21
89.4224907646
 31
0.0
  0
LINE
  5
26F
330
1F
100
AcDbEntity
  8
0
  6
Continuous
 62
     7
370
    15
100
AcDbLine
 10
12.5865007051
 20
79.5424265609
 30
0.0
 11
13.4350288426
 21
80.032271428
 31
0.0
  0
LINE
  5
270
330
1F
100
AcDbEntity
  8
0
  6
Continuous
 62
     7
370
    15
100
AcDbLine
 10
13.4350288426
 20
80.032271428
 30
0.0
 11
13.4350288426
 21
89.4224907646
 31
0.0
  0
LINE
  5
271
330
1F
100
AcDbEntity
  8
0
  6
Continuous
 62
     7
370
    15
100
AcDbLine
 10
20.9515739266
 20
75.6930623136
 30
0.0
 11
13.4350288426
 21
80.032271428
 31
0.0
  0
LINE
  5
272
330
1F
100
AcDbEntity
  8
0
  6
Continuous
 62
     7
370
    15
100
AcDbLine
 10
-1.8383026039
 20
87.9179611514
 30
0.0
 11
-0.4646003666
 21
88.7109825731
 31
0.0
  0
LINE
  5
273
330
1F
100
AcDbEntity
  8
0
  6
Continuous
 62
     7
370
    15
100
AcDbLine
 10
-5.3033008589
 20
92.3208457217
 30
0.0
 11
-4.2224905317
 21
89.4925374112
 31
0.0
  0
LINE
  5
274
330
1F
100
AcDbEntity
  8
0
  6
Continuous
 62
     7
370
    15
100
AcDbLine
 10
-3.15
 20
93.5639198479
 30
0.0
 11
-5.3033008589
 21
92.3208457217
 31
0.0
  0
LINE
  5
275
330
1F
100
AcDbEntity
  8
0
  6
Continuous
 62
     7
370
    15
100
AcDbLine
 10
-4.2224905317
 20
89.4925374112
 30
0.0
 11
-3.0099233569
 21
90.1925375413
 31
0.0
  0
LINE
  5
276
330
1F
100
AcDbEntity
  8
0
  6
Continuous
 62
     7
370
    15
100
AcDbLine
 10
-4.5256584267
 20
89.4693386459
 30
0.0
 11
-4.2224905317
 21
89.4925374112
 31
0.0
  0
LINE
  5
277
330
1F
100
AcDbEntity
  8
0
  6
Continuous
 62
     7
370
    15
100
AcDbLine
 10
-4.5256584267
 20
89.4693386459
 30
0.0
 11
-5.3033008589
 21
91.5043049098
 31
0.0
  0
LINE
  5
278
330
1F
100
AcDbEntity
  8
0
  6
Continuous
 62
     7
370
    15
100
AcDbLine
 10
-5.3033008589
 20
91.5043049098
 30
0.0
 11
-10.8187337521
 21
94.6882965459
 31
0.0
  0
LINE
  5
279
330
1F
100
AcDbEntity
  8
0
  6
Continuous
 62
     7
370
    15
100
AcDbLine
 10
-10.8187337521
 20
94.6882965459
 30
0.0
 11
-10.8187337521
 21
68.9672609715
 31
0.0
  0
LINE
  5
27A
330
1F
100
AcDbEntity
  8
0
  6
Continuous
 62
     7
370
    15
100
AcDbLine
 10
-10.8187337521
 20
68.9672609715
 30
0.0
 11
-6.0104076401
 21
66.1914733913
 31
0.0
  0
LINE
  5
27B
330
1F
100
AcDbEntity
  8
0
  6
Continuous
 62
     7
370
    15
100
AcDbLine
 10
-6.0104076401
 20
65.211624417
 30
0.0
 11
-6.0104076401
 21
66.1914733913
 31
0.0
  0
LINE
  5
27C
330
1F
100
AcDbEntity
  8
0
  6
Continuous
 62
     7
370
    15
100
AcDbLine
 10
-10.8187337521
 20
67.9874119972
 30
0.0
 11
-6.0104076401
 21
65.211624417
 31
0.0
  0
LINE
  5
27D
330
1F
100
AcDbEntity
  8
0
  6
Continuous
 62
     7
370
    15
100
AcDbLine
 10
-10.8187337521
 20
66.1910222111
 30
0.0
 11
-10.8187337521
 21
67.9874119972
 31
0.0
  0
LINE
  5
27E
330
1F
100
AcDbEntity
  8
0
  6
Continuous
 62
     7
370
    15
100
AcDbLine
 10
-6.0104076401
 20
63.4152346309
 30
0.0
 11
-10.8187337521
 21
66.1910222111
 31
0.0
  0
LINE
  5
27F
330
1F
100
AcDbEntity
  8
0
  6
Continuous
 62
     7
370
    15
100
AcDbLine
 10
-6.0104076401
 20
62.4353856566
 30
0.0
 11
-6.0104076401
 21
63.4152346309
 31
0.0
  0
LINE
  5
280
330
1F
100
AcDbEntity
  8
0
  6
Continuous
 62
     7
370
    15
100
AcDbLine
 10
-10.8187337521
 20
65.2111732368
 30
0.0
 11
-6.0104076401
 21
62.4353856566
 31
0.0
  0
LINE
  5
281
330
1F
100
AcDbEntity
  8
0
  6
Continuous
 62
     7
370
    15
100
AcDbLine
 10
-10.8187337521
 20
65.2111732368
 30
0.0
 11
-10.8187337521
 21
63.986362019
 31
0.0
  0
LINE
  5
282
330
1F
100
AcDbEntity
  8
0
  6
Continuous
 62
     7
370
    15
100
AcDbLine
 10
-6.0104076401
 20
61.2105744388
 30
0.0
 11
-10.8187337521
 21
63.986362019
 31
0.0
  0
LINE
  5
283
330
1F
100
AcDbEntity
  8
0
  6
Continuous
 62
     7
370
    15
100
AcDbLine
 10
-6.0104076401
 20
60.3940336269
 30
0.0
 11
-6.0104076401
 21
61.2105744388
 31
0.0
  0
LINE
  5
284
330
1F
100
AcDbEntity
  8
0
  6
Continuous
 62
     7
370
    15
100
AcDbLine
 10
-6.0104076401
 20
60.3940336269
 30
0.0
 11
-10.9601551084
 21
63.2514620183
 31
0.0
  0
LINE
  5
285
330
1F
100
AcDbEntity
  8
0
  6
Continuous
 62
     7
370
    15
100
AcDbLine
 10
-11.5258405333
 20
64.2312579125
 30
0.0
 11
-11.5258405333
 21
95.2598087642
 31
0.0
  0
LINE
  5
286
330
1F
100
AcDbEntity
  8
0
  6
Continuous
 62
     7
370
    15
100
AcDbLine
 10
-10.9601551084
 20
95.586478169
 30
0.0
 11
-5.3033008589
 21
92.3208457217
 31
0.0
  0
LINE
  5
287
330
1F
100
AcDbEntity
  8
0
  6
Continuous
 62
     7
370
    15
100
AcDbLine
 10
-10.6066017178
 20
73.3357344101
 30
0.0
 11
-10.6066017178
 21
85.5838465884
 31
0.0
  0
LINE
  5
288
330
1F
100
AcDbEntity
  8
0
  6
Continuous
 62
     7
370
    15
100
AcDbLine
 10
-10.6066017178
 20
85.5838465884
 30
0.0
 11
4.4547727215
 21
76.8891001974
 31
0.0
  0
LINE
  5
289
330
1F
100
AcDbEntity
  8
0
  6
Continuous
 62
     7
370
    15
100
AcDbLine
 10
-10.6066017178
 20
73.3357344101
 30
0.0
 11
4.4547727215
 21
64.6409880192
 31
0.0
  0
LINE
  5
28A
330
1F
100
AcDbEntity
  8
0
  6
Continuous
 62
     7
370
    15
100
AcDbLine
 10
-1.5556349186
 20
68.7631051501
 30
0.0
 11
-4.3840620433
 21
70.3959213737
 31
0.0
  0
LINE
  5
28B
330
1F
100
AcDbEntity
  8
0
  6
Continuous
 62
     7
370
    15
100
AcDbLine
 10
-1.5556349186
 20
79.706452017
 30
0.0
 11
-1.5556349186
 21
68.7631051501
 31
0.0
  0
LINE
  5
28C
330
1F
100
AcDbEntity
  8
0
  6
Continuous
 62
     7
370
    15
100
AcDbLine
 10
-4.3840620433
 20
81.3392682407
 30
0.0
 11
-1.5556349186
 21
79.706452017
 31
0.0
  0
LINE
  5
28D
330
1F
100
AcDbEntity
  8
0
  6
Continuous
 62
     7
370
    15
100
AcDbLine
 10
-4.3840620433
 20
70.3959213737
 30
0.0
 11
-4.3840620433
 21
70.8060606716
 31
0.0
  0
LINE
  5
28E
330
1F
100
AcDbEntity
  8
0
  6
Continuous
 62
     7
370
    15
100
AcDbLine
 10
-4.3840620433
 20
73.2922948398
 30
0.0
 11
-4.3840620433
 21
76.8501626672
 31
0.0
  0
LINE
  5
28F
330
1F
100
AcDbEntity
  8
0
  6
Continuous
 62
     7
370
    15
100
AcDbLine
 10
-4.3840620433
 20
79.3363968354
 30
0.0
 11
-4.3840620433
 21
81.3392682407
 31
0.0
  0
LINE
  5
290
330
1F
100
AcDbEntity
  8
0
  6
Continuous
 62
     7
370
    15
100
AcDbLine
 10
3.9597979747
 20
76.5224603809
 30
0.0
 11
3.9597979747
 21
65.579113514
 31
0.0
  0
LINE
  5
291
330
1F
100
AcDbEntity
  8
0
  6
Continuous
 62
     7
370
    15
100
AcDbLine
 10
1.1313708499
 20
78.1552766046
 30
0.0
 11
3.9597979747
 21
76.5224603809
 31
0.0
  0
LINE
  5
292
330
1F
100
AcDbEntity
  8
0
  6
Continuous
 62
     7
370
    15
100
AcDbLine
 10
1.1313708499
 20
67.2119297376
 30
0.0
 11
1.1313708499
 21
67.6220690354
 31
0.0
  0
LINE
  5
293
330
1F
100
AcDbEntity
  8
0
  6
Continuous
 62
     7
370
    15
100
AcDbLine
 10
1.1313708499
 20
70.1083032037
 30
0.0
 11
1.1313708499
 21
73.6661710311
 31
0.0
  0
LINE
  5
294
330
1F
100
AcDbEntity
  8
0
  6
Continuous
 62
     7
370
    15
100
AcDbLine
 10
1.1313708499
 20
76.1524051993
 30
0.0
 11
1.1313708499
 21
78.1552766046
 31
0.0
  0
LINE
  5
295
330
1F
100
AcDbEntity
  8
0
  6
Continuous
 62
     7
370
    15
100
AcDbLine
 10
3.9597979747
 20
65.579113514
 30
0.0
 11
1.1313708499
 21
67.2119297376
 31
0.0
  0
LINE
  5
296
330
1F
100
AcDbEntity
  8
0
  6
Continuous
 62
     7
370
    15
100
AcDbLine
 10
-7.0710678118
 20
71.9470967862
 30
0.0
 11
-9.8994949366
 21
73.5799130098
 31
0.0
  0
LINE
  5
297
330
1F
100
AcDbEntity
  8
0
  6
Continuous
 62
     7
370
    15
100
AcDbLine
 10
-7.0710678118
 20
82.8904436531
 30
0.0
 11
-7.0710678118
 21
71.9470967862
 31
0.0
  0
LINE
  5
298
330
1F
100
AcDbEntity
  8
0
  6
Continuous
 62
     7
370
    15
100
AcDbLine
 10
-9.8994949366
 20
84.5232598768
 30
0.0
 11
-7.0710678118
 21
82.8904436531
 31
0.0
  0
LINE
  5
299
330
1F
100
AcDbEntity
  8
0
  6
Continuous
 62
     7
370
    15
100
AcDbLine
 10
-9.8994949366
 20
73.5799130098
 30
0.0
 11
-9.8994949366
 21
73.9900523077
 31
0.0
  0
LINE
  5
29A
330
1F
100
AcDbEntity
  8
0
  6
Continuous
 62
     7
370
    15
100
AcDbLine
 10
-9.8994949366
 20
76.4762864759
 30
0.0
 11
-9.8994949366
 21
80.0341543033
 31
0.0
  0
LINE
  5
29B
330
1F
100
AcDbEntity
  8
0
  6
Continuous
 62
     7
370
    15
100
AcDbLine
 10
-9.8994949366
 20
82.5203884716
 30
0.0
 11
-9.8994949366
 21
84.5232598768
 31
0.0
  0
LINE
  5
29C
330
1F
100
AcDbEntity
  8
0
  6
Continuous
 62
     7
370
    15
100
AcDbLine
 10
-4.2426406871
 20
89.2576830916
 30
0.0
 11
-10.6066017178
 21
85.5838465884
 31
0.0
  0
LINE
  5
29D
330
1F
100
AcDbEntity
  8
0
  6
Continuous
 62
     7
370
    15
100
AcDbLine
 10
2.2012280904
 20
82.5276255238
 30
0.0
 11
-0.7071067812
 21
80.8486795398
 31
0.0
  0
LINE
  5
29E
330
1F
100
AcDbEntity
  8
0
  6
Continuous
 62
     7
370
    15
100
AcDbLine
 10
-0.3535533906
 20
84.318414015
 30
0.0
 11
1.6080548172
 21
83.1860017007
 31
0.0
  0
LINE
  5
29F
330
1F
100
AcDbEntity
  8
0
  6
Continuous
 62
     7
370
    15
100
AcDbLine
 10
-3.5355339059
 20
82.4814957634
 30
0.0
 11
-0.3535533906
 21
84.318414015
 31
0.0
  0
LINE
  5
2A0
330
1F
100
AcDbEntity
  8
0
  6
Continuous
 62
     7
370
    15
100
AcDbLine
 10
-0.7071067812
 20
80.8486795398
 30
0.0
 11
-3.5355339059
 21
82.4814957634
 31
0.0
  0
LINE
  5
2A1
330
1F
100
AcDbEntity
  8
0
  6
Continuous
 62
     7
370
    15
100
AcDbLine
 10
1.9798989873
 20
79.2975041273
 30
0.0
 11
4.0399743102
 21
80.4867602972
 31
0.0
  0
LINE
  5
2A2
330
1F
100
AcDbEntity
  8
0
  6
Continuous
 62
     7
370
    15
100
AcDbLine
 10
4.4547727215
 20
77.8687899316
 30
0.0
 11
1.9798989873
 21
79.2975041273
 31
0.0
  0
LINE
  5
2A3
330
1F
100
AcDbEntity
  8
0
  6
Continuous
 62
     7
370
    15
100
AcDbLine
 10
-3.474738723
 20
85.6189429004
 30
0.0
 11
-6.2225396744
 21
84.0326711759
 31
0.0
  0
LINE
  5
2A4
330
1F
100
AcDbEntity
  8
0
  6
Continuous
 62
     7
370
    15
100
AcDbLine
 10
-9.0509667992
 20
85.6654873995
 30
0.0
 11
-5.8689862838
 21
87.5024056511
 31
0.0
  0
LINE
  5
2A5
330
1F
100
AcDbEntity
  8
0
  6
Continuous
 62
     7
370
    15
100
AcDbLine
 10
-6.2225396744
 20
84.0326711759
 30
0.0
 11
-9.0509667992
 21
85.6654873995
 31
0.0
  0
LINE
  5
2A6
330
1F
100
AcDbEntity
  8
0
  6
Continuous
 62
     7
370
    15
100
AcDbLine
 10
-4.3840620433
 20
99.3827758889
 30
0.0
 11
-10.9601551084
 21
95.586478169
 31
0.0
  0
LINE
  5
2A7
330
1F
100
AcDbEntity
  8
0
  6
Continuous
 62
     7
370
    15
100
AcDbLine
 10
2.6870057685
 20
75.9754696655
 30
0.0
 11
2.1920310217
 21
75.6897268263
 31
0.0
  0
LINE
  5
2A8
330
1F
100
AcDbEntity
  8
0
  6
Continuous
 62
     7
370
    15
100
AcDbLine
 10
1.4849242405
 20
76.0979308822
 30
0.0
 11
1.9798989873
 21
76.3836737214
 31
0.0
  0
LINE
  5
2A9
330
1F
100
AcDbEntity
  8
0
  6
Continuous
 62
     7
370
    15
100
AcDbLine
 10
1.9798989873
 20
73.5581000151
 30
0.0
 11
1.4849242405
 21
73.272357176
 31
0.0
  0
LINE
  5
2AA
330
1F
100
AcDbEntity
  8
0
  6
Continuous
 62
     7
370
    15
100
AcDbLine
 10
2.1920310217
 20
75.6897268263
 30
0.0
 11
2.1920310217
 21
72.8641531201
 31
0.0
  0
LINE
  5
2AB
330
1F
100
AcDbEntity
  8
0
  6
Continuous
 62
     7
370
    15
100
AcDbLine
 10
6.2225396745
 20
95.2192537587
 30
0.0
 11
3.15
 21
96.9929931577
 31
0.0
  0
LINE
  5
2AC
330
1F
100
AcDbEntity
  8
0
  6
Continuous
 62
     7
370
    15
100
AcDbLine
 10
2.9321792773
 20
66.9887532725
 30
0.0
 11
3.9597979747
 21
66.3955216258
 31
0.0
  0
LINE
  5
2AD
330
1F
100
AcDbEntity
  8
0
  6
Continuous
 62
     7
370
    15
100
AcDbLine
 10
1.8384776311
 20
77.7470725486
 30
0.0
 11
1.8384776311
 21
76.5573389596
 31
0.0
  0
LINE
  5
2AE
330
1F
100
AcDbEntity
  8
0
  6
Continuous
 62
     7
370
    15
100
AcDbLine
 10
1.8384776311
 20
73.476459204
 30
0.0
 11
1.8384776311
 21
70.513236964
 31
0.0
  0
LINE
  5
2AF
330
1F
100
AcDbEntity
  8
0
  6
Continuous
 62
     7
370
    15
100
AcDbLine
 10
1.9798989873
 20
76.3836737214
 30
0.0
 11
1.9798989873
 21
73.5581000151
 31
0.0
  0
LINE
  5
2B0
330
1F
100
AcDbEntity
  8
0
  6
Continuous
 62
     7
370
    15
100
AcDbLine
 10
1.4849242405
 20
73.272357176
 30
0.0
 11
1.4849242405
 21
76.0979308822
 31
0.0
  0
LINE
  5
2B1
330
1F
100
AcDbEntity
  8
0
  6
Continuous
 62
     7
370
    15
100
AcDbLine
 10
1.3639453014
 20
67.3461921106
 30
0.0
 11
1.1313708499
 21
67.2119297376
 31
0.0
  0
LINE
  5
2B2
330
1F
100
AcDbEntity
  8
0
  6
Continuous
 62
     7
370
    15
100
AcDbLine
 10
2.6870057685
 20
69.9313676698
 30
0.0
 11
2.1920310217
 21
69.6456248307
 31
0.0
  0
LINE
  5
2B3
330
1F
100
AcDbEntity
  8
0
  6
Continuous
 62
     7
370
    15
100
AcDbLine
 10
1.4849242405
 20
70.0538288866
 30
0.0
 11
1.9798989873
 21
70.3395717257
 31
0.0
  0
LINE
  5
2B4
330
1F
100
AcDbEntity
  8
0
  6
Continuous
 62
     7
370
    15
100
AcDbLine
 10
1.9798989873
 20
67.5139980195
 30
0.0
 11
1.4849242405
 21
67.2282551804
 31
0.0
  0
LINE
  5
2B5
330
1F
100
AcDbEntity
  8
0
  6
Continuous
 62
     7
370
    15
100
AcDbLine
 10
2.1920310217
 20
69.6456248307
 30
0.0
 11
2.1920310217
 21
66.8200511245
 31
0.0
  0
LINE
  5
2B6
330
1F
100
AcDbEntity
  8
0
  6
Continuous
 62
     7
370
    15
100
AcDbLine
 10
-2.8284271247
 20
79.1594613016
 30
0.0
 11
-3.3234018716
 21
78.8737184624
 31
0.0
  0
LINE
  5
2B7
330
1F
100
AcDbEntity
  8
0
  6
Continuous
 62
     7
370
    15
100
AcDbLine
 10
-4.0305086527
 20
79.2819225183
 30
0.0
 11
-3.5355339059
 21
79.5676653575
 31
0.0
  0
LINE
  5
2B8
330
1F
100
AcDbEntity
  8
0
  6
Continuous
 62
     7
370
    15
100
AcDbLine
 10
-3.5355339059
 20
76.7420916512
 30
0.0
 11
-4.0305086527
 21
76.4563488121
 31
0.0
  0
LINE
  5
2B9
330
1F
100
AcDbEntity
  8
0
  6
Continuous
 62
     7
370
    15
100
AcDbLine
 10
-10.8187337521
 20
68.9672609715
 30
0.0
 11
-6.9290487984
 21
71.2127282992
 31
0.0
  0
LINE
  5
2BA
330
1F
100
AcDbEntity
  8
0
  6
Continuous
 62
     7
370
    15
100
AcDbLine
 10
-3.3234018716
 20
78.8737184624
 30
0.0
 11
-3.3234018716
 21
76.0481447562
 31
0.0
  0
LINE
  5
2BB
330
1F
100
AcDbEntity
  8
0
  6
Continuous
 62
     7
370
    15
100
AcDbLine
 10
-2.583253616
 20
70.1727449086
 30
0.0
 11
-1.5556349186
 21
69.5795132619
 31
0.0
  0
LINE
  5
2BC
330
1F
100
AcDbEntity
  8
0
  6
Continuous
 62
     7
370
    15
100
AcDbLine
 10
-3.6769552622
 20
80.9310641847
 30
0.0
 11
-3.6769552622
 21
79.7413305957
 31
0.0
  0
LINE
  5
2BD
330
1F
100
AcDbEntity
  8
0
  6
Continuous
 62
     7
370
    15
100
AcDbLine
 10
-3.6769552622
 20
76.6604508401
 30
0.0
 11
-3.6769552622
 21
73.6972286001
 31
0.0
  0
LINE
  5
2BE
330
1F
100
AcDbEntity
  8
0
  6
Continuous
 62
     7
370
    15
100
AcDbLine
 10
1.9798989873
 20
70.3395717257
 30
0.0
 11
1.9798989873
 21
67.5139980195
 31
0.0
  0
LINE
  5
2BF
330
1F
100
AcDbEntity
  8
0
  6
Continuous
 62
     7
370
    15
100
AcDbLine
 10
1.4849242405
 20
67.2282551804
 30
0.0
 11
1.4849242405
 21
70.0538288866
 31
0.0
  0
LINE
  5
2C0
330
1F
100
AcDbEntity
  8
0
  6
Continuous
 62
     7
370
    15
100
AcDbLine
 10
-3.5355339059
 20
79.5676653575
 30
0.0
 11
-3.5355339059
 21
76.7420916512
 31
0.0
  0
LINE
  5
2C1
330
1F
100
AcDbEntity
  8
0
  6
Continuous
 62
     7
370
    15
100
AcDbLine
 10
-4.0305086527
 20
76.4563488121
 30
0.0
 11
-4.0305086527
 21
79.2819225183
 31
0.0
  0
LINE
  5
2C2
330
1F
100
AcDbEntity
  8
0
  6
Continuous
 62
     7
370
    15
100
AcDbLine
 10
-4.1514875919
 20
70.5301837467
 30
0.0
 11
-4.3840620433
 21
70.3959213737
 31
0.0
  0
LINE
  5
2C3
330
1F
100
AcDbEntity
  8
0
  6
Continuous
 62
     7
370
    15
100
AcDbLine
 10
-0.3535533906
 20
84.318414015
 30
0.0
 11
-0.3535533906
 21
81.0527815677
 31
0.0
  0
LINE
  5
2C4
330
1F
100
AcDbEntity
  8
0
  6
Continuous
 62
     7
370
    15
100
AcDbLine
 10
-4.3840620433
 20
100.3626248632
 30
0.0
 11
-3.5355339059
 21
100.8524697303
 31
0.0
  0
LINE
  5
2C5
330
1F
100
AcDbEntity
  8
0
  6
Continuous
 62
     7
370
    15
100
AcDbLine
 10
-3.1033796495
 20
100.6029923883
 30
0.0
 11
-3.5355339059
 21
100.8524697303
 31
0.0
  0
LINE
  5
2C6
330
1F
100
AcDbEntity
  8
0
  6
Continuous
 62
     7
370
    15
100
AcDbLine
 10
-2.8284271247
 20
73.1153593059
 30
0.0
 11
-3.3234018716
 21
72.8296164668
 31
0.0
  0
LINE
  5
2C7
330
1F
100
AcDbEntity
  8
0
  6
Continuous
 62
     7
370
    15
100
AcDbLine
 10
-4.0305086527
 20
73.2378205227
 30
0.0
 11
-3.5355339059
 21
73.5235633618
 31
0.0
  0
LINE
  5
2C8
330
1F
100
AcDbEntity
  8
0
  6
Continuous
 62
     7
370
    15
100
AcDbLine
 10
-3.5355339059
 20
70.6979896556
 30
0.0
 11
-4.0305086527
 21
70.4122468165
 31
0.0
  0
LINE
  5
2C9
330
1F
100
AcDbEntity
  8
0
  6
Continuous
 62
     7
370
    15
100
AcDbLine
 10
-3.3234018716
 20
72.8296164668
 30
0.0
 11
-3.3234018716
 21
70.0040427606
 31
0.0
  0
LINE
  5
2CA
330
1F
100
AcDbEntity
  8
0
  6
Continuous
 62
     7
370
    15
100
AcDbLine
 10
-8.343860018
 20
82.3434529377
 30
0.0
 11
-8.8388347648
 21
82.0577100985
 31
0.0
  0
LINE
  5
2CB
330
1F
100
AcDbEntity
  8
0
  6
Continuous
 62
     7
370
    15
100
AcDbLine
 10
-9.545941546
 20
82.4659141544
 30
0.0
 11
-9.0509667992
 21
82.7516569936
 31
0.0
  0
LINE
  5
2CC
330
1F
100
AcDbEntity
  8
0
  6
Continuous
 62
     7
370
    15
100
AcDbLine
 10
-9.0509667992
 20
79.9260832874
 30
0.0
 11
-9.545941546
 21
79.6403404482
 31
0.0
  0
LINE
  5
2CD
330
1F
100
AcDbEntity
  8
0
  6
Continuous
 62
     7
370
    15
100
AcDbLine
 10
-8.8388347648
 20
82.0577100985
 30
0.0
 11
-8.8388347648
 21
79.2321363923
 31
0.0
  0
LINE
  5
2CE
330
1F
100
AcDbEntity
  8
0
  6
Continuous
 62
     7
370
    15
100
AcDbLine
 10
-8.0986865092
 20
73.3567365447
 30
0.0
 11
-7.0710678118
 21
72.763504898
 31
0.0
  0
LINE
  5
2CF
330
1F
100
AcDbEntity
  8
0
  6
Continuous
 62
     7
370
    15
100
AcDbLine
 10
-9.1923881554
 20
84.1150558209
 30
0.0
 11
-9.1923881554
 21
82.9253222318
 31
0.0
  0
LINE
  5
2D0
330
1F
100
AcDbEntity
  8
0
  6
Continuous
 62
     7
370
    15
100
AcDbLine
 10
-9.1923881554
 20
79.8444424762
 30
0.0
 11
-9.1923881554
 21
76.8812202362
 31
0.0
  0
LINE
  5
2D1
330
1F
100
AcDbEntity
  8
0
  6
Continuous
 62
     7
370
    15
100
AcDbLine
 10
-3.5355339059
 20
73.5235633618
 30
0.0
 11
-3.5355339059
 21
70.6979896556
 31
0.0
  0
LINE
  5
2D2
330
1F
100
AcDbEntity
  8
0
  6
Continuous
 62
     7
370
    15
100
AcDbLine
 10
-4.0305086527
 20
70.4122468165
 30
0.0
 11
-4.0305086527
 21
73.2378205227
 31
0.0
  0
LINE
  5
2D3
330
1F
100
AcDbEntity
  8
0
  6
Continuous
 62
     7
370
    15
100
AcDbLine
 10
-9.0509667992
 20
82.7516569936
 30
0.0
 11
-9.0509667992
 21
79.9260832874
 31
0.0
  0
LINE
  5
2D4
330
1F
100
AcDbEntity
  8
0
  6
Continuous
 62
     7
370
    15
100
AcDbLine
 10
3.5361315632
 20
65.1713082717
 30
0.0
 11
-0.3535533906
 21
62.925840944
 31
0.0
  0
LINE
  5
2D5
330
1F
100
AcDbEntity
  8
0
  6
Continuous
 62
     7
370
    15
100
AcDbLine
 10
-9.545941546
 20
79.6403404482
 30
0.0
 11
-9.545941546
 21
82.4659141544
 31
0.0
  0
LINE
  5
2D6
330
1F
100
AcDbEntity
  8
0
  6
Continuous
 62
     7
370
    15
100
AcDbLine
 10
-9.6669204852
 20
73.7141753828
 30
0.0
 11
-9.8994949366
 21
73.5799130098
 31
0.0
  0
LINE
  5
2D7
330
1F
100
AcDbEntity
  8
0
  6
Continuous
 62
     7
370
    15
100
AcDbLine
 10
12.5865007051
 20
57.9040950459
 30
0.0
 11
13.4350288426
 21
58.393939913
 31
0.0
  0
LINE
  5
2D8
330
1F
100
AcDbEntity
  8
0
  6
Continuous
 62
     7
370
    15
100
AcDbLine
 10
13.4350288426
 20
58.393939913
 30
0.0
 11
13.4350288426
 21
66.8044695155
 31
0.0
  0
LINE
  5
2D9
330
1F
100
AcDbEntity
  8
0
  6
Continuous
 62
     7
370
    15
100
AcDbLine
 10
-5.8689862838
 20
87.5024056511
 30
0.0
 11
-5.8689862838
 21
87.2746259721
 31
0.0
  0
LINE
  5
2DA
330
1F
100
AcDbEntity
  8
0
  6
Continuous
 62
     7
370
    15
100
AcDbLine
 10
1.202334383
 20
61.0477970767
 30
0.0
 11
-0.3535533906
 21
60.1496021836
 31
0.0
  0
LINE
  5
2DB
330
1F
100
AcDbEntity
  8
0
  6
Continuous
 62
     7
370
    15
100
AcDbLine
 10
0.565685425
 20
66.8861103267
 30
0.0
 11
0.565685425
 21
66.7972313228
 31
0.0
  0
LINE
  5
2DC
330
1F
100
AcDbEntity
  8
0
  6
Continuous
 62
     7
370
    15
100
AcDbLine
 10
-8.343860018
 20
76.299350942
 30
0.0
 11
-8.8388347648
 21
76.0136081029
 31
0.0
  0
LINE
  5
2DD
330
1F
100
AcDbEntity
  8
0
  6
Continuous
 62
     7
370
    15
100
AcDbLine
 10
-9.545941546
 20
76.4218121588
 30
0.0
 11
-9.0509667992
 21
76.707554998
 31
0.0
  0
LINE
  5
2DE
330
1F
100
AcDbEntity
  8
0
  6
Continuous
 62
     7
370
    15
100
AcDbLine
 10
-9.0509667992
 20
73.8819812917
 30
0.0
 11
-9.545941546
 21
73.5962384526
 31
0.0
  0
LINE
  5
2DF
330
1F
100
AcDbEntity
  8
0
  6
Continuous
 62
     7
370
    15
100
AcDbLine
 10
-8.8388347648
 20
76.0136081029
 30
0.0
 11
-8.8388347648
 21
73.1880343967
 31
0.0
  0
LINE
  5
2E0
330
1F
100
AcDbEntity
  8
0
  6
Continuous
 62
     7
370
    15
100
AcDbLine
 10
-6.0104076401
 20
61.2105744388
 30
0.0
 11
-4.8155635911
 21
61.9003432261
 31
0.0
  0
LINE
  5
2E1
330
1F
100
AcDbEntity
  8
0
  6
Continuous
 62
     7
370
    15
100
AcDbLine
 10
-9.7579011792
 20
64.5987676279
 30
0.0
 11
-10.8187337521
 21
63.986362019
 31
0.0
  0
LINE
  5
2E2
330
1F
100
AcDbEntity
  8
0
  6
Continuous
 62
     7
370
    15
100
AcDbLine
 10
0.7072791823
 20
58.5573476004
 30
0.0
 11
-0.3535533906
 21
57.9449419915
 31
0.0
  0
LINE
  5
2E3
330
1F
100
AcDbEntity
  8
0
  6
Continuous
 62
     7
370
    15
100
AcDbLine
 10
-9.0509667992
 20
76.707554998
 30
0.0
 11
-9.0509667992
 21
73.8819812917
 31
0.0
  0
LINE
  5
2E4
330
1F
100
AcDbEntity
  8
0
  6
Continuous
 62
     7
370
    15
100
AcDbLine
 10
-9.545941546
 20
73.5962384526
 30
0.0
 11
-9.545941546
 21
76.4218121588
 31
0.0
  0
LINE
  5
2E5
330
1F
100
AcDbEntity
  8
0
  6
Continuous
 62
     7
370
    15
100
AcDbLine
 10
-6.0104076401
 20
66.1914733913
 30
0.0
 11
-2.1207226863
 21
68.436940719
 31
0.0
  0
LINE
  5
2E6
330
1F
100
AcDbEntity
  8
0
  6
Continuous
 62
     7
370
    15
100
AcDbLine
 10
-1.272056628
 20
67.9470162318
 30
0.0
 11
-6.0104076401
 21
65.211624417
 31
0.0
  0
LINE
  5
2E7
330
1F
100
AcDbEntity
  8
0
  6
Continuous
 62
     7
370
    15
100
AcDbLine
 10
-4.610275267
 20
63.2436648709
 30
0.0
 11
-6.0104076401
 21
62.4353856566
 31
0.0
  0
LINE
  5
2E8
330
1F
100
AcDbEntity
  8
0
  6
Continuous
 62
     7
370
    15
100
AcDbLine
 10
-6.0104076401
 20
63.4152346309
 30
0.0
 11
-4.7869695918
 21
64.1215103826
 31
0.0
  0
LINE
  5
2E9
330
1F
100
AcDbEntity
  8
0
  6
Continuous
 62
     7
370
    15
100
AcDbLine
 10
0.0128091585
 20
66.8923636759
 30
0.0
 11
0.2838311456
 21
67.0488213388
 31
0.0
  0
LINE
  5
2EA
330
1F
100
AcDbEntity
  8
0
  6
Continuous
 62
     7
370
    15
100
AcDbLine
 10
-9.2628459786
 20
67.0892171041
 30
0.0
 11
-10.8187337521
 21
66.1910222111
 31
0.0
  0
LINE
  5
2EB
330
1F
100
AcDbEntity
  8
0
  6
Continuous
 62
     7
370
    15
100
AcDbLine
 10
-4.7853735804
 20
61.1012307364
 30
0.0
 11
-6.0104076401
 21
60.3940336269
 31
0.0
  0
LINE
  5
2EC
330
1F
100
AcDbEntity
  8
0
  6
Continuous
 62
     7
370
    15
100
AcDbLine
 10
-5.1546320512
 20
85.6941758586
 30
0.0
 11
-5.1385867746
 21
85.6932391012
 31
0.0
  0
LINE
  5
2ED
330
1F
100
AcDbEntity
  8
0
  6
Continuous
 62
     7
370
    15
100
AcDbLine
 10
3.15
 20
235.4934185308
 30
0.0
 11
4.2426406872
 21
235.0719527994
 31
0.0
  0
LINE
  5
2EE
330
1F
100
AcDbEntity
  8
0
  6
Continuous
 62
     7
370
    15
100
AcDbLine
 10
-2.9792965944
 20
232.0322300645
 30
0.0
 11
-3.2515545681
 21
231.8750588818
 31
0.0
  0
LINE
  5
2EF
330
1F
100
AcDbEntity
  8
0
  6
Continuous
 62
     8
370
    15
100
AcDbLine
 10
4.1012193309
 20
112.6128602425
 30
0.0
 11
4.8083261027
 21
113.021064293
 31
0.0
  0
ARC
  5
2F0
330
1F
100
AcDbEntity
  8
0
  6
Continuous
 62
     7
370
    15
100
AcDbCircle
 10
3.3370559971
 20
542.3514918138
 30
0.0
 40
3.173595522925502
100
AcDbArc
 50
293.3754383357
 51
355.3044207067
  0
ARC
  5
2F1
330
1F
100
AcDbEntity
  8
0
  6
Continuous
 62
     7
370
    15
100
AcDbCircle
 10
3.3370559971
 20
530.1033796355
 30
0.0
 40
3.173595522924839
100
AcDbArc
 50
293.3754383356
 51
355.3044207067
  0
ARC
  5
2F2
330
1F
100
AcDbEntity
  8
0
  6
Continuous
 62
     7
370
    15
100
AcDbCircle
 10
4.6532841584
 20
112.4731385487
 30
0.0
 40
0.8734183948569734
100
AcDbArc
 50
230.7967147643
 51
9.2140369905
  0
ARC
  5
2F3
330
1F
100
AcDbEntity
  8
0
  6
Continuous
 62
     7
370
    15
100
AcDbCircle
 10
4.3772517447
 20
112.9512698016
 30
0.0
 40
0.4367091974284859
100
AcDbArc
 50
230.7967147643
 51
9.2140369905
  0
ARC
  5
2F4
330
1F
100
AcDbEntity
  8
0
  6
Continuous
 62
     7
370
    15
100
AcDbCircle
 10
-3.5559527232
 20
126.9699957517
 30
0.0
 40
1.536804807571946
100
AcDbArc
 50
182.6054784857
 51
237.39452166
  0
ARC
  5
2F5
330
1F
100
AcDbEntity
  8
0
  6
Continuous
 62
     7
370
    15
100
AcDbCircle
 10
-10.627020535
 20
122.8879551926
 30
0.0
 40
1.536804807572004
100
AcDbArc
 50
182.6054784857
 51
237.39452166
  0
ARC
  5
2F6
330
1F
100
AcDbEntity
  8
0
  6
Continuous
 62
     7
370
    15
100
AcDbCircle
 10
-9.7989112148
 20
123.3660201008
 30
0.0
 40
3.073609615144165
100
AcDbArc
 50
182.6054784857
 51
237.39452166
  0
ARC
  5
2F7
330
1F
100
AcDbEntity
  8
0
  6
Continuous
 62
     7
370
    15
100
AcDbCircle
 10
9.5160685024
 20
88.792924193
 30
0.0
 40
3.073609615144105
100
AcDbArc
 50
2.6054784857
 51
57.39452166
  0
ARC
  5
2F8
330
1F
100
AcDbEntity
  8
0
  6
Continuous
 62
     7
370
    15
100
AcDbCircle
 10
11.7243519703
 20
57.7642406521
 30
0.0
 40
0.8734183948569576
100
AcDbArc
 50
230.7967147643
 51
9.2140369905
  0
ARC
  5
2F9
330
1F
100
AcDbEntity
  8
0
  6
Continuous
 62
     7
370
    15
100
AcDbCircle
 10
-4.9361268709
 20
99.685805745
 30
0.0
 40
0.8734183948569461
100
AcDbArc
 50
50.7967147643
 51
189.2140369905
  0
ARC
  5
2FA
330
1F
100
AcDbEntity
  8
0
  6
Continuous
 62
     7
370
    15
100
AcDbCircle
 10
-4.6183980872
 20
99.0556708256
 30
0.0
 40
0.4023817887215134
100
AcDbArc
 50
54.3824225248
 51
114.3071190461
  0
ARC
  5
2FB
330
1F
100
AcDbEntity
  8
0
  6
Continuous
 62
     7
370
    15
100
AcDbCircle
 10
11.3459710459
 20
58.3506705231
 30
0.0
 40
0.3943823438925646
100
AcDbArc
 50
305.0133328656
 51
6.2988475278
  0
ARC
  5
2FC
330
1F
100
AcDbEntity
  8
0
  6
Continuous
 62
     7
370
    15
100
AcDbCircle
 10
10.5097996866
 20
89.3666020828
 30
0.0
 40
1.229443846057773
100
AcDbArc
 50
2.6054784857
 51
57.39452166
  0
ARC
  5
2FD
330
1F
100
AcDbEntity
  8
0
  6
Continuous
 62
     7
370
    15
100
AcDbCircle
 10
12.4550250379
 20
117.0767048941
 30
0.0
 40
0.9859558600063183
100
AcDbArc
 50
305.013332875
 51
6.2988475184
  0
ARC
  5
2FE
330
1F
100
AcDbEntity
  8
0
  6
Continuous
 62
     7
370
    15
100
AcDbCircle
 10
1.6746048864
 20
118.7368175398
 30
0.0
 40
0.8724627493070967
100
AcDbArc
 50
290.4825577347
 51
21.9245683691
  0
ARC
  5
2FF
330
1F
100
AcDbEntity
  8
0
  6
Continuous
 62
     7
370
    15
100
AcDbCircle
 10
3.9337066216
 20
85.5703043629
 30
0.0
 40
1.229443846057838
100
AcDbArc
 50
2.6054784857
 51
57.39452166
  0
ARC
  5
300
330
1F
100
AcDbEntity
  8
0
  6
Continuous
 62
     7
370
    15
100
AcDbCircle
 10
4.8170200087
 20
54.5417004355
 30
0.0
 40
0.3493673579427873
100
AcDbArc
 50
230.7967147643
 51
9.2140369905
  0
ARC
  5
301
330
1F
100
AcDbEntity
  8
0
  6
Continuous
 62
     7
370
    15
100
AcDbCircle
 10
10.7216196366
 20
96.8372920526
 30
0.0
 40
2.486300359695354
100
AcDbArc
 50
167.9877654048
 51
252.0068580625
  0
ARC
  5
302
330
1F
100
AcDbEntity
  8
0
  6
Continuous
 62
     7
370
    15
100
AcDbCircle
 10
10.3645966398
 20
89.2827690601
 30
0.0
 40
3.07360961514402
100
AcDbArc
 50
2.6054784857
 51
57.39452166
  0
ARC
  5
303
330
1F
100
AcDbEntity
  8
0
  6
Continuous
 62
     7
370
    15
100
AcDbCircle
 10
-10.2976676522
 20
64.2871465943
 30
0.0
 40
1.229443846057767
100
AcDbArc
 50
182.6054784857
 51
237.39452166
  0
ARC
  5
304
330
1F
100
AcDbEntity
  8
0
  6
Continuous
 62
     7
370
    15
100
AcDbCircle
 10
-11.1809810394
 20
95.3157505217
 30
0.0
 40
0.3493673579427994
100
AcDbArc
 50
50.7967147643
 51
189.2140369905
  0
ARC
  5
305
330
1F
100
AcDbEntity
  8
0
  6
Continuous
 62
     7
370
    15
100
AcDbCircle
 10
1.5180026791
 20
74.7670183309
 30
0.0
 40
1.681345547827902
100
AcDbArc
 50
45.9506010051
 51
74.0547755276
  0
ARC
  5
306
330
1F
100
AcDbEntity
  8
0
  6
Continuous
 62
     7
370
    15
100
AcDbCircle
 10
3.4568690941
 20
75.1714407851
 30
0.0
 40
2.187306365435293
100
AcDbArc
 50
227.5267353035
 51
234.6715447902
  0
ARC
  5
307
330
1F
100
AcDbEntity
  8
0
  6
Continuous
 62
     7
370
    15
100
AcDbCircle
 10
3.141851839
 20
74.1022590614
 30
0.0
 40
0.822319207803066
100
AcDbArc
 50
302.8105368818
 51
5.9115774534
  0
ARC
  5
308
330
1F
100
AcDbEntity
  8
0
  6
Continuous
 62
     7
370
    15
100
AcDbCircle
 10
2.6779027057
 20
75.0676246714
 30
0.0
 40
1.353379072022304
100
AcDbArc
 50
18.7051883797
 51
88.100445538
  0
ARC
  5
309
330
1F
100
AcDbEntity
  8
0
  6
Continuous
 62
     7
370
    15
100
AcDbCircle
 10
2.6779027057
 20
69.0235226757
 30
0.0
 40
1.353379072080964
100
AcDbArc
 50
18.7051883805
 51
88.1004455332
  0
ARC
  5
30A
330
1F
100
AcDbEntity
  8
0
  6
Continuous
 62
     7
370
    15
100
AcDbCircle
 10
1.5180026791
 20
68.7229163352
 30
0.0
 40
1.681345547827889
100
AcDbArc
 50
45.9506010051
 51
74.0547755276
  0
ARC
  5
30B
330
1F
100
AcDbEntity
  8
0
  6
Continuous
 62
     7
370
    15
100
AcDbCircle
 10
3.4568690942
 20
69.1273387896
 30
0.0
 40
2.187306365592983
100
AcDbArc
 50
227.5267353036
 51
234.6715447898
  0
ARC
  5
30C
330
1F
100
AcDbEntity
  8
0
  6
Continuous
 62
     7
370
    15
100
AcDbCircle
 10
3.1418518386
 20
68.058157066
 30
0.0
 40
0.8223192081384458
100
AcDbArc
 50
302.8105368962
 51
5.9115774391
  0
ARC
  5
30D
330
1F
100
AcDbEntity
  8
0
  6
Continuous
 62
     7
370
    15
100
AcDbCircle
 10
-3.9974302142
 20
77.951009967
 30
0.0
 40
1.681345547829125
100
AcDbArc
 50
45.9506010051
 51
74.0547755276
  0
ARC
  5
30E
330
1F
100
AcDbEntity
  8
0
  6
Continuous
 62
     7
370
    15
100
AcDbCircle
 10
-2.0585637991
 20
78.3554324212
 30
0.0
 40
2.187306365452783
100
AcDbArc
 50
227.5267353035
 51
234.6715447901
  0
ARC
  5
30F
330
1F
100
AcDbEntity
  8
0
  6
Continuous
 62
     7
370
    15
100
AcDbCircle
 10
-2.3735810546
 20
77.2862506977
 30
0.0
 40
0.8223192081406853
100
AcDbArc
 50
302.8105368963
 51
5.911577439
  0
ARC
  5
310
330
1F
100
AcDbEntity
  8
0
  6
Continuous
 62
     7
370
    15
100
AcDbCircle
 10
-2.8375301877
 20
78.2516163074
 30
0.0
 40
1.353379072161887
100
AcDbArc
 50
18.7051883816
 51
88.1004455266
  0
ARC
  5
311
330
1F
100
AcDbEntity
  8
0
  6
Continuous
 62
     7
370
    15
100
AcDbCircle
 10
-2.8375301875
 20
72.2075143119
 30
0.0
 40
1.35337907201851
100
AcDbArc
 50
18.7051883797
 51
88.1004455383
  0
ARC
  5
312
330
1F
100
AcDbEntity
  8
0
  6
Continuous
 62
     7
370
    15
100
AcDbCircle
 10
-4.1213740156
 20
100.034707072
 30
0.0
 40
1.005954471803909
100
AcDbArc
 50
54.3824225248
 51
114.3071190461
  0
ARC
  5
313
330
1F
100
AcDbEntity
  8
0
  6
Continuous
 62
     7
370
    15
100
AcDbCircle
 10
-3.9974302142
 20
71.9069079714
 30
0.0
 40
1.681345547829125
100
AcDbArc
 50
45.9506010051
 51
74.0547755276
  0
ARC
  5
314
330
1F
100
AcDbEntity
  8
0
  6
Continuous
 62
     7
370
    15
100
AcDbCircle
 10
-2.058563799
 20
72.3113304257
 30
0.0
 40
2.187306365604687
100
AcDbArc
 50
227.5267353037
 51
234.6715447898
  0
ARC
  5
315
330
1F
100
AcDbEntity
  8
0
  6
Continuous
 62
     7
370
    15
100
AcDbCircle
 10
-2.3735810543
 20
71.2421487019
 30
0.0
 40
0.82231920780533
100
AcDbArc
 50
302.8105368819
 51
5.9115774533
  0
ARC
  5
316
330
1F
100
AcDbEntity
  8
0
  6
Continuous
 62
     7
370
    15
100
AcDbCircle
 10
-9.5128631074
 20
81.1350016031
 30
0.0
 40
1.681345547828463
100
AcDbArc
 50
45.9506010051
 51
74.0547755276
  0
ARC
  5
317
330
1F
100
AcDbEntity
  8
0
  6
Continuous
 62
     7
370
    15
100
AcDbCircle
 10
-7.5739966924
 20
81.5394240573
 30
0.0
 40
2.18730636544748
100
AcDbArc
 50
227.5267353035
 51
234.6715447901
  0
ARC
  5
318
330
1F
100
AcDbEntity
  8
0
  6
Continuous
 62
     7
370
    15
100
AcDbCircle
 10
-7.8890139475
 20
80.4702423337
 30
0.0
 40
0.8223192078060918
100
AcDbArc
 50
302.810536882
 51
5.9115774533
  0
ARC
  5
319
330
1F
100
AcDbEntity
  8
0
  6
Continuous
 62
     7
370
    15
100
AcDbCircle
 10
-8.3529630806
 20
81.4356079437
 30
0.0
 40
1.353379071847287
100
AcDbArc
 50
18.7051883774
 51
88.1004455522
  0
ARC
  5
31A
330
1F
100
AcDbEntity
  8
0
  6
Continuous
 62
     7
370
    15
100
AcDbCircle
 10
-8.3529630808
 20
75.3915059479
 30
0.0
 40
1.353379072079274
100
AcDbArc
 50
18.7051883805
 51
88.1004455333
  0
ARC
  5
31B
330
1F
100
AcDbEntity
  8
0
  6
Continuous
 62
     7
370
    15
100
AcDbCircle
 10
-9.5128631074
 20
75.0908996075
 30
0.0
 40
1.681345547828464
100
AcDbArc
 50
45.9506010051
 51
74.0547755276
  0
ARC
  5
31C
330
1F
100
AcDbEntity
  8
0
  6
Continuous
 62
     7
370
    15
100
AcDbCircle
 10
-7.5739966923
 20
75.4953220618
 30
0.0
 40
2.187306365582095
100
AcDbArc
 50
227.5267353036
 51
234.6715447899
  0
ARC
  5
31D
330
1F
100
AcDbEntity
  8
0
  6
Continuous
 62
     7
370
    15
100
AcDbCircle
 10
-7.8890139479
 20
74.4261403382
 30
0.0
 40
0.8223192081413759
100
AcDbArc
 50
302.8105368963
 51
5.911577439
  0
ARC
  5
31E
330
1F
100
AcDbEntity
  8
0
  6
Continuous
 62
     7
370
    15
100
AcDbCircle
 10
12.4550250381
 20
58.2857664382
 30
0.0
 40
0.9859558597757877
100
AcDbArc
 50
305.0133328671
 51
6.2988475263
  0
ARC
  5
31F
330
1F
100
AcDbEntity
  8
0
  6
Continuous
 62
     7
370
    15
100
AcDbCircle
 10
1.4432044218
 20
64.8962582442
 30
0.0
 40
1.345431923101696
100
AcDbArc
 50
353.078818774
 51
42.7054999074
  0
ARC
  5
320
330
1F
100
AcDbEntity
  8
0
  6
Continuous
 62
     7
370
    15
100
AcDbCircle
 10
-0.6859266469
 20
61.4509401518
 30
0.0
 40
5.49273325870162
100
AcDbArc
 50
73.8595731268
 51
117.0281611281
  0
ARC
  5
321
330
1F
100
AcDbEntity
  8
0
  6
Continuous
 62
     7
370
    15
100
AcDbCircle
 10
-0.7069616398
 20
67.4205869255
 30
0.0
 40
5.859019037174433
100
AcDbArc
 50
257.2996087086
 51
278.8273243567
  0
ARC
  5
322
330
1F
100
AcDbEntity
  8
0
  6
Continuous
 62
     7
370
    15
100
AcDbCircle
 10
-2.528423307
 20
62.0283744869
 30
0.0
 40
1.683136546398424
100
AcDbArc
 50
184.1687285934
 51
247.1514123624
  0
ARC
  5
323
330
1F
100
AcDbEntity
  8
0
  6
Continuous
 62
     7
370
    15
100
AcDbCircle
 10
-0.7490627633
 20
65.1419352869
 30
0.0
 40
5.260974209468916
100
AcDbArc
 50
242.4549279805
 51
274.3114482288
  0
ARC
  5
324
330
1F
100
AcDbEntity
  8
0
  6
Continuous
 62
     7
370
    15
100
AcDbCircle
 10
-3.337055997
 20
219.409600713
 30
0.0
 40
3.173595522924973
100
AcDbArc
 50
184.6955792933
 51
246.6245616644
  0
ARC
  5
325
330
1F
100
AcDbEntity
  8
0
  6
Continuous
 62
     7
370
    15
100
AcDbCircle
 10
-0.0000280483
 20
224.2391569246
 30
0.0
 40
9.008447860561375
100
AcDbArc
 50
241.90341274
 51
298.1019621911
  0
ENDSEC
  0
SECTION
  2
OBJECTS
  0
DICTIONARY
  5
C
330
0
100
AcDbDictionary
281
     1
  3
ACAD_GROUP
350
D
  3
ACAD_LAYOUT
350
1A
  3
ACAD_MLINESTYLE
350
17
  3
ACAD_PLOTSETTINGS
350
19
  3
ACAD_PLOTSTYLENAME
350
E
  3
ACAD_SCALELIST
350
47
  0
DICTIONARY
  5
D
102
{ACAD_REACTORS
330
C
102
}
330
C
100
AcDbDictionary
281
     1
  0
DICTIONARY
  5
1A
102
{ACAD_REACTORS
330
C
102
}
330
C
100
AcDbDictionary
281
     1
  3
Layout1
350
1E
  3
Layout2
350
26
  3
Model
350
22
  0
DICTIONARY
  5
17
102
{ACAD_REACTORS
330
C
102
}
330
C
100
AcDbDictionary
281
     1
  3
Standard
350
18
  0
DICTIONARY
  5
19
102
{ACAD_REACTORS
330
C
102
}
330
C
100
AcDbDictionary
281
     1
  0
ACDBDICTIONARYWDFLT
  5
E
102
{ACAD_REACTORS
330
C
102
}
330
C
100
AcDbDictionary
281
     1
  3
Normal
350
F
100
AcDbDictionaryWithDefault
340
F
  0
DICTIONARY
  5
47
102
{ACAD_REACTORS
330
C
102
}
330
C
100
AcDbDictionary
281
     1
  3
A0
350
48
  3
A1
350
49
  3
A2
350
4A
  3
A3
350
4B
  3
A4
350
4C
  3
A5
350
4D
  3
A6
350
4E
  3
A7
350
4F
  3
A8
350
50
  3
A9
350
51
  3
B0
350
52
  3
B1
350
53
  3
B2
350
54
  3
B3
350
55
  3
B4
350
56
  3
B5
350
57
  3
B6
350
58
  3
B7
350
59
  3
B8
350
5A
  3
B9
350
5B
  3
C0
350
5C
  3
C1
350
5D
  3
C2
350
5E
  3
C3
350
5F
  3
C4
350
60
  3
C5
350
61
  3
C6
350
62
  3
C7
350
63
  3
C8
350
64
  3
C9
350
65
  3
D0
350
66
  3
D1
350
67
  3
D2
350
68
  0
LAYOUT
  5
1E
102
{ACAD_REACTORS
330
1A
102
}
330
1A
100
AcDbPlotSettings
  1

  2
none_device
  4

  6

 40
0.0
 41
0.0
 42
0.0
 43
0.0
 44
0.0
 45
0.0
 46
0.0
 47
0.0
 48
0.0
 49
0.0
140
0.0
141
0.0
142
1.0
143
1.0
 70
   688
 72
     1
 73
     0
 74
     5
  7

 75
    16
147
1.0
148
0.0
149
0.0
100
AcDbLayout
  1
Layout1
 70
     1
 71
     1
 10
0.0
 20
0.0
 11
420.0
 21
297.0
 12
0.0
 22
0.0
 32
0.0
 14
1.0000000000E+20
 24
1.0000000000E+20
 34
1.0000000000E+20
 15
-1.0000000000E+20
 25
-1.0000000000E+20
 35
-1.0000000000E+20
146
0.0
 13
0.0
 23
0.0
 33
0.0
 16
1.0
 26
0.0
 36
0.0
 17
0.0
 27
1.0
 37
0.0
 76
     0
330
1B
  0
LAYOUT
  5
26
102
{ACAD_REACTORS
330
1A
102
}
330
1A
100
AcDbPlotSettings
  1

  2
none_device
  4

  6

 40
0.0
 41
0.0
 42
0.0
 43
0.0
 44
0.0
 45
0.0
 46
0.0
 47
0.0
 48
0.0
 49
0.0
140
0.0
141
0.0
142
1.0
143
1.0
 70
   688
 72
     1
 73
     0
 74
     5
  7

 75
    16
147
1.0
148
0.0
149
0.0
100
AcDbLayout
  1
Layout2
 70
     1
 71
     2
 10
0.0
 20
0.0
 11
0.0
 21
0.0
 12
0.0
 22
0.0
 32
0.0
 14
0.0
 24
0.0
 34
0.0
 15
0.0
 25
0.0
 35
0.0
146
0.0
 13
0.0
 23
0.0
 33
0.0
 16
1.0
 26
0.0
 36
0.0
 17
0.0
 27
1.0
 37
0.0
 76
     0
330
23
  0
LAYOUT
  5
22
102
{ACAD_REACTORS
330
1A
102
}
330
1A
100
AcDbPlotSettings
  1

  2
none_device
  4
ANSI_A_(11.00_x_8.50_Inches)
  6

 40
6.35
 41
19.05
 42
6.35000508
 43
19.05000254
 44
279.4
 45
215.9
 46
133.3154344135
 47
-17.4282087077
 48
0.0
 49
0.0
140
0.0
141
0.0
142
0.0087969643
143
1.0
 70
  1696
 72
     0
 73
     0
 74
     0
  7

 75
     0
147
0.0179189148
148
-1300.4909072572
149
0.0
100
AcDbLayout
  1
Model
 70
     1
 71
     0
 10
0.0
 20
0.0
 11
420.0
 21
297.0
 12
0.0
 22
0.0
 32
0.0
 14
-249.6711985772
 24
-2.4269850472
 34
0.0
 15
249.9805666304
 25
954.1529996747
 35
0.0
146
0.0
 13
0.0
 23
0.0
 33
0.0
 16
1.0
 26
0.0
 36
0.0
 17
0.0
 27
1.0
 37
0.0
 76
     0
330
1F
331
29
  0
MLINESTYLE
  5
18
102
{ACAD_REACTORS
330
17
102
}
330
17
100
AcDbMlineStyle
  2
Standard
 70
     0
  3

 62
   256
 51
90.0
 52
90.0
 71
     2
 49
0.5
 62
   256
  6
BYLAYER
 49
-0.5
 62
   256
  6
BYLAYER
  0
ACDBPLACEHOLDER
  5
F
102
{ACAD_REACTORS
330
E
102
}
330
E
  0
SCALE
  5
48
102
{ACAD_REACTORS
330
47
102
}
330
47
100
AcDbScale
 70
     0
300
1:1
140
1.0
141
1.0
290
     1
  0
SCALE
  5
49
102
{ACAD_REACTORS
330
47
102
}
330
47
100
AcDbScale
 70
     0
300
1:2
140
1.0
141
2.0
290
     0
  0
SCALE
  5
4A
102
{ACAD_REACTORS
330
47
102
}
330
47
100
AcDbScale
 70
     0
300
1:4
140
1.0
141
4.0
290
     0
  0
SCALE
  5
4B
102
{ACAD_REACTORS
330
47
102
}
330
47
100
AcDbScale
 70
     0
300
1:5
140
1.0
141
5.0
290
     0
  0
SCALE
  5
4C
102
{ACAD_REACTORS
330
47
102
}
330
47
100
AcDbScale
 70
     0
300
1:8
140
1.0
141
8.0
290
     0
  0
SCALE
  5
4D
102
{ACAD_REACTORS
330
47
102
}
330
47
100
AcDbScale
 70
     0
300
1:10
140
1.0
141
10.0
290
     0
  0
SCALE
  5
4E
102
{ACAD_REACTORS
330
47
102
}
330
47
100
AcDbScale
 70
     0
300
1:16
140
1.0
141
16.0
290
     0
  0
SCALE
  5
4F
102
{ACAD_REACTORS
330
47
102
}
330
47
100
AcDbScale
 70
     0
300
1:20
140
1.0
141
20.0
290
     0
  0
SCALE
  5
50
102
{ACAD_REACTORS
330
47
102
}
330
47
100
AcDbScale
 70
     0
300
1:30
140
1.0
141
30.0
290
     0
  0
SCALE
  5
51
102
{ACAD_REACTORS
330
47
102
}
330
47
100
AcDbScale
 70
     0
300
1:40
140
1.0
141
40.0
290
     0
  0
SCALE
  5
52
102
{ACAD_REACTORS
330
47
102
}
330
47
100
AcDbScale
 70
     0
300
1:50
140
1.0
141
50.0
290
     0
  0
SCALE
  5
53
102
{ACAD_REACTORS
330
47
102
}
330
47
100
AcDbScale
 70
     0
300
1:100
140
1.0
141
100.0
290
     0
  0
SCALE
  5
54
102
{ACAD_REACTORS
330
47
102
}
330
47
100
AcDbScale
 70
     0
300
2:1
140
2.0
141
1.0
290
     0
  0
SCALE
  5
55
102
{ACAD_REACTORS
330
47
102
}
330
47
100
AcDbScale
 70
     0
300
4:1
140
4.0
141
1.0
290
     0
  0
SCALE
  5
56
102
{ACAD_REACTORS
330
47
102
}
330
47
100
AcDbScale
 70
     0
300
8:1
140
8.0
141
1.0
290
     0
  0
SCALE
  5
57
102
{ACAD_REACTORS
330
47
102
}
330
47
100
AcDbScale
 70
     0
300
10:1
140
10.0
141
1.0
290
     0
  0
SCALE
  5
58
102
{ACAD_REACTORS
330
47
102
}
330
47
100
AcDbScale
 70
     0
300
100:1
140
100.0
141
1.0
290
     0
  0
SCALE
  5
59
102
{ACAD_REACTORS
330
47
102
}
330
47
100
AcDbScale
 70
     0
300
1/128" = 1'-0"
140
0.0078125
141
12.0
290
     0
  0
SCALE
  5
5A
102
{ACAD_REACTORS
330
47
102
}
330
47
100
AcDbScale
 70
     0
300
1/64" = 1'-0"
140
0.015625
141
12.0
290
     0
  0
SCALE
  5
5B
102
{ACAD_REACTORS
330
47
102
}
330
47
100
AcDbScale
 70
     0
300
1/32" = 1'-0"
140
0.03125
141
12.0
290
     0
  0
SCALE
  5
5C
102
{ACAD_REACTORS
330
47
102
}
330
47
100
AcDbScale
 70
     0
300
1/16" = 1'-0"
140
0.0625
141
12.0
290
     0
  0
SCALE
  5
5D
102
{ACAD_REACTORS
330
47
102
}
330
47
100
AcDbScale
 70
     0
300
3/32" = 1'-0"
140
0.09375
141
12.0
290
     0
  0
SCALE
  5
5E
102
{ACAD_REACTORS
330
47
102
}
330
47
100
AcDbScale
 70
     0
300
1/8" = 1'-0"
140
0.125
141
12.0
290
     0
  0
SCALE
  5
5F
102
{ACAD_REACTORS
330
47
102
}
330
47
100
AcDbScale
 70
     0
300
3/16" = 1'-0"
140
0.1875
141
12.0
290
     0
  0
SCALE
  5
60
102
{ACAD_REACTORS
330
47
102
}
330
47
100
AcDbScale
 70
     0
300
1/4" = 1'-0"
140
0.25
141
12.0
290
     0
  0
SCALE
  5
61
102
{ACAD_REACTORS
330
47
102
}
330
47
100
AcDbScale
 70
     0
300
3/8" = 1'-0"
140
0.375
141
12.0
290
     0
  0
SCALE
  5
62
102
{ACAD_REACTORS
330
47
102
}
330
47
100
AcDbScale
 70
     0
300
1/2" = 1'-0"
140
0.5
141
12.0
290
     0
  0
SCALE
  5
63
102
{ACAD_REACTORS
330
47
102
}
330
47
100
AcDbScale
 70
     0
300
3/4" = 1'-0"
140
0.75
141
12.0
290
     0
  0
SCALE
  5
64
102
{ACAD_REACTORS
330
47
102
}
330
47
100
AcDbScale
 70
     0
300
1" = 1'-0"
140
1.0
141
12.0
290
     0
  0
SCALE
  5
65
102
{ACAD_REACTORS
330
47
102
}
330
47
100
AcDbScale
 70
     0
300
1-1/2" = 1'-0"
140
1.5
141
12.0
290
     0
  0
SCALE
  5
66
102
{ACAD_REACTORS
330
47
102
}
330
47
100
AcDbScale
 70
     0
300
3" = 1'-0"
140
3.0
141
12.0
290
     0
  0
SCALE
  5
67
102
{ACAD_REACTORS
330
47
102
}
330
47
100
AcDbScale
 70
     0
300
6" = 1'-0"
140
6.0
141
12.0
290
     0
  0
SCALE
  5
68
102
{ACAD_REACTORS
330
47
102
}
330
47
100
AcDbScale
 70
     0
300
1'-0" = 1'-0"
140
12.0
141
12.0
290
     0
  0
ENDSEC
  0
EOF
