  0
SECTION
  2
HEADER
  9
$ACADVER
  1
AC1015
  9
$ACADMAINTVER
 70
     6
  9
$DWGCODEPAGE
  3
ANSI_1252
  9
$INSBASE
 10
0.0
 20
0.0
 30
0.0
  9
$EXTMIN
 10
-136.3077783593
 20
-128.5389807247
 30
0.0
  9
$EXTMAX
 10
124.4058102103
 20
128.0566735502
 30
0.0
  9
$LIMMIN
 10
0.0
 20
0.0
  9
$LIMMAX
 10
420.0
 20
297.0
  9
$ORTHOMODE
 70
     0
  9
$REGENMODE
 70
     1
  9
$FILLMODE
 70
     1
  9
$QTEXTMODE
 70
     0
  9
$MIRRTEXT
 70
     1
  9
$LTSCALE
 40
1.0
  9
$ATTMODE
 70
     1
  9
$TEXTSIZE
 40
3.5
  9
$TRACEWID
 40
1.0
  9
$TEXTSTYLE
  7
Standard
  9
$CLAYER
  8
0
  9
$CELTYPE
  6
ByLayer
  9
$CECOLOR
 62
   256
  9
$CELTSCALE
 40
1.0
  9
$DISPSILH
 70
     0
  9
$DIMSCALE
 40
1.0
  9
$DIMASZ
 40
3.302
  9
$DIMEXO
 40
1.0
  9
$DIMDLI
 40
3.75
  9
$DIMRND
 40
0.0
  9
$DIMDLE
 40
0.0
  9
$DIMEXE
 40
1.0
  9
$DIMTP
 40
0.0
  9
$DIMTM
 40
0.0
  9
$DIMTXT
 40
3.5
  9
$DIMCEN
 40
2.5
  9
$DIMTSZ
 40
0.0
  9
$DIMTOL
 70
     0
  9
$DIMLIM
 70
     0
  9
$DIMTIH
 70
     1
  9
$DIMTOH
 70
     1
  9
$DIMSE1
 70
     0
  9
$DIMSE2
 70
     0
  9
$DIMTAD
 70
     1
  9
$DIMZIN
 70
     0
  9
$DIMBLK
  1

  9
$DIMASO
 70
     1
  9
$DIMSHO
 70
     1
  9
$DIMPOST
  1

  9
$DIMAPOST
  1

  9
$DIMALT
 70
     0
  9
$DIMALTD
 70
     3
  9
$DIMALTF
 40
0.0393700787
  9
$DIMLFAC
 40
1.0
  9
$DIMTOFL
 70
     1
  9
$DIMTVP
 40
0.0
  9
$DIMTIX
 70
     0
  9
$DIMSOXD
 70
     0
  9
$DIMSAH
 70
     0
  9
$DIMBLK1
  1

  9
$DIMBLK2
  1

  9
$DIMSTYLE
  2
ISO-25
  9
$DIMCLRD
 70
     0
  9
$DIMCLRE
 70
     0
  9
$DIMCLRT
 70
     0
  9
$DIMTFAC
 40
1.0
  9
$DIMGAP
 40
1.524
  9
$DIMJUST
 70
     0
  9
$DIMSD1
 70
     0
  9
$DIMSD2
 70
     0
  9
$DIMTOLJ
 70
     0
  9
$DIMTZIN
 70
     0
  9
$DIMALTZ
 70
     0
  9
$DIMALTTZ
 70
     0
  9
$DIMUPT
 70
     0
  9
$DIMDEC
 70
     2
  9
$DIMTDEC
 70
     2
  9
$DIMALTU
 70
     2
  9
$DIMALTTD
 70
     3
  9
$DIMTXSTY
  7
Standard
  9
$DIMAUNIT
 70
     0
  9
$DIMADEC
 70
     2
  9
$DIMALTRND
 40
0.0
  9
$DIMAZIN
 70
     0
  9
$DIMDSEP
 70
    44
  9
$DIMATFIT
 70
     3
  9
$DIMFRAC
 70
     0
  9
$DIMLDRBLK
  1

  9
$DIMLUNIT
 70
     2
  9
$DIMLWD
 70
    -2
  9
$DIMLWE
 70
    -2
  9
$DIMTMOVE
 70
     0
  9
$LUNITS
 70
     2
  9
$LUPREC
 70
     2
  9
$SKETCHINC
 40
1.0
  9
$FILLETRAD
 40
10.0
  9
$AUNITS
 70
     0
  9
$AUPREC
 70
     2
  9
$MENU
  1
.
  9
$ELEVATION
 40
0.0
  9
$PELEVATION
 40
0.0
  9
$THICKNESS
 40
0.0
  9
$LIMCHECK
 70
     0
  9
$CHAMFERA
 40
0.0
  9
$CHAMFERB
 40
0.0
  9
$CHAMFERC
 40
0.0
  9
$CHAMFERD
 40
0.0
  9
$SKPOLY
 70
     0
  9
$TDCREATE
 40
2457221.397960938
  9
$TDUCREATE
 40
2457221.356294271
  9
$TDUPDATE
 40
2457221.397992072
  9
$TDUUPDATE
 40
2457221.356325405
  9
$TDINDWG
 40
0.0000000116
  9
$TDUSRTIMER
 40
0.0000000116
  9
$USRTIMER
 70
     1
  9
$ANGBASE
 50
0.0
  9
$ANGDIR
 70
     0
  9
$PDMODE
 70
     0
  9
$PDSIZE
 40
-1.0
  9
$PLINEWID
 40
0.0
  9
$SPLFRAME
 70
     0
  9
$SPLINETYPE
 70
     6
  9
$SPLINESEGS
 70
     8
  9
$HANDSEED
  5
14E
  9
$SURFTAB1
 70
     6
  9
$SURFTAB2
 70
     6
  9
$SURFTYPE
 70
     6
  9
$SURFU
 70
     6
  9
$SURFV
 70
     6
  9
$UCSBASE
  2

  9
$UCSNAME
  2

  9
$UCSORG
 10
0.0
 20
0.0
 30
0.0
  9
$UCSXDIR
 10
1.0
 20
0.0
 30
0.0
  9
$UCSYDIR
 10
0.0
 20
1.0
 30
0.0
  9
$UCSORTHOREF
  2

  9
$UCSORTHOVIEW
 70
     0
  9
$UCSORGTOP
 10
0.0
 20
0.0
 30
0.0
  9
$UCSORGBOTTOM
 10
0.0
 20
0.0
 30
0.0
  9
$UCSORGLEFT
 10
0.0
 20
0.0
 30
0.0
  9
$UCSORGRIGHT
 10
0.0
 20
0.0
 30
0.0
  9
$UCSORGFRONT
 10
0.0
 20
0.0
 30
0.0
  9
$UCSORGBACK
 10
0.0
 20
0.0
 30
0.0
  9
$PUCSBASE
  2

  9
$PUCSNAME
  2

  9
$PUCSORG
 10
0.0
 20
0.0
 30
0.0
  9
$PUCSXDIR
 10
1.0
 20
0.0
 30
0.0
  9
$PUCSYDIR
 10
0.0
 20
1.0
 30
0.0
  9
$PUCSORTHOREF
  2

  9
$PUCSORTHOVIEW
 70
     0
  9
$PUCSORGTOP
 10
0.0
 20
0.0
 30
0.0
  9
$PUCSORGBOTTOM
 10
0.0
 20
0.0
 30
0.0
  9
$PUCSORGLEFT
 10
0.0
 20
0.0
 30
0.0
  9
$PUCSORGRIGHT
 10
0.0
 20
0.0
 30
0.0
  9
$PUCSORGFRONT
 10
0.0
 20
0.0
 30
0.0
  9
$PUCSORGBACK
 10
0.0
 20
0.0
 30
0.0
  9
$USERI1
 70
     0
  9
$USERI2
 70
     0
  9
$USERI3
 70
     0
  9
$USERI4
 70
     0
  9
$USERI5
 70
     0
  9
$USERR1
 40
0.0
  9
$USERR2
 40
0.0
  9
$USERR3
 40
0.0
  9
$USERR4
 40
0.0
  9
$USERR5
 40
0.0
  9
$WORLDVIEW
 70
     1
  9
$SHADEDGE
 70
     3
  9
$SHADEDIF
 70
    70
  9
$TILEMODE
 70
     1
  9
$MAXACTVP
 70
    64
  9
$PINSBASE
 10
0.0
 20
0.0
 30
0.0
  9
$PLIMCHECK
 70
     0
  9
$PEXTMIN
 10
1.0000000000E+20
 20
1.0000000000E+20
 30
1.0000000000E+20
  9
$PEXTMAX
 10
-1.0000000000E+20
 20
-1.0000000000E+20
 30
-1.0000000000E+20
  9
$PLIMMIN
 10
0.0
 20
0.0
  9
$PLIMMAX
 10
420.0
 20
297.0
  9
$UNITMODE
 70
     0
  9
$VISRETAIN
 70
     1
  9
$PLINEGEN
 70
     0
  9
$PSLTSCALE
 70
     1
  9
$TREEDEPTH
 70
  3020
  9
$CMLSTYLE
  2
Standard
  9
$CMLJUST
 70
     0
  9
$CMLSCALE
 40
20.0
  9
$PROXYGRAPHICS
 70
     1
  9
$MEASUREMENT
 70
     1
  9
$CELWEIGHT
370
    -1
  9
$ENDCAPS
280
     0
  9
$JOINSTYLE
280
     0
  9
$LWDISPLAY
290
     1
  9
$INSUNITS
 70
     4
  9
$HYPERLINKBASE
  1

  9
$STYLESHEET
  1

  9
$XEDIT
290
     1
  9
$CEPSNTYPE
380
     0
  9
$PSTYLEMODE
290
     1
  9
$FINGERPRINTGUID
  2
{3ABC5FDD-D6AA-44D7-BBE9-E05EA6D7F781}
  9
$VERSIONGUID
  2
{FAEB1C32-E019-11D5-929B-00C0DF256EC4}
  9
$EXTNAMES
290
     1
  9
$PSVPSCALE
 40
0.0
  9
$OLESTARTUP
290
     0
  0
ENDSEC
  0
SECTION
  2
CLASSES
  0
CLASS
  1
ACDBDICTIONARYWDFLT
  2
AcDbDictionaryWithDefault
  3
ObjectDBX Classes
 90
        0
280
     0
281
     0
  0
CLASS
  1
VISUALSTYLE
  2
AcDbVisualStyle
  3
ObjectDBX Classes
 90
     4095
280
     0
281
     0
  0
CLASS
  1
MATERIAL
  2
AcDbMaterial
  3
ObjectDBX Classes
 90
     1153
280
     0
281
     0
  0
CLASS
  1
SCALE
  2
AcDbScale
  3
ObjectDBX Classes
 90
     1153
280
     0
281
     0
  0
CLASS
  1
TABLESTYLE
  2
AcDbTableStyle
  3
ObjectDBX Classes
 90
     4095
280
     0
281
     0
  0
CLASS
  1
MLEADERSTYLE
  2
AcDbMLeaderStyle
  3
ACDB_MLEADERSTYLE_CLASS
 90
     4095
280
     0
281
     0
  0
CLASS
  1
SUN
  2
AcDbSun
  3
SCENEOE
 90
     1153
280
     0
281
     0
  0
CLASS
  1
ACDBPLACEHOLDER
  2
AcDbPlaceHolder
  3
ObjectDBX Classes
 90
        0
280
     0
281
     0
  0
CLASS
  1
LAYOUT
  2
AcDbLayout
  3
ObjectDBX Classes
 90
        0
280
     0
281
     0
  0
ENDSEC
  0
SECTION
  2
TABLES
  0
TABLE
  2
VPORT
  5
8
330
0
100
AcDbSymbolTable
 70
     1
  0
VPORT
  5
29
330
8
100
AcDbSymbolTableRecord
100
AcDbViewportTableRecord
  2
*Active
 70
     0
 10
0.0
 20
0.0
 11
1.0
 21
1.0
 12
-5.9509840745
 22
-0.2411535873
 13
0.0
 23
0.0
 14
10.0
 24
10.0
 15
10.0
 25
10.0
 16
0.0
 26
0.0
 36
1.0
 17
0.0
 27
0.0
 37
0.0
 40
261.7275673604
 41
1.01604834
 42
50.0
 43
0.0
 44
0.0
 50
0.0
 51
0.0
 71
     0
 72
   100
 73
     1
 74
     3
 75
     0
 76
     0
 77
     0
 78
     0
281
     0
 65
     1
110
0.0
120
0.0
130
0.0
111
1.0
121
0.0
131
0.0
112
0.0
122
1.0
132
0.0
 79
     0
146
0.0
  0
ENDTAB
  0
TABLE
  2
LTYPE
  5
5
330
0
100
AcDbSymbolTable
 70
     6
  0
LTYPE
  5
14
330
5
100
AcDbSymbolTableRecord
100
AcDbLinetypeTableRecord
  2
ByBlock
 70
     0
  3

 72
    65
 73
     0
 40
0.0
  0
LTYPE
  5
15
330
5
100
AcDbSymbolTableRecord
100
AcDbLinetypeTableRecord
  2
ByLayer
 70
     0
  3

 72
    65
 73
     0
 40
0.0
  0
LTYPE
  5
16
330
5
100
AcDbSymbolTableRecord
100
AcDbLinetypeTableRecord
  2
Continuous
 70
     0
  3
Solid line
 72
    65
 73
     0
 40
0.0
  0
LTYPE
  5
6E
330
5
100
AcDbSymbolTableRecord
100
AcDbLinetypeTableRecord
  2
HIDDEN
 70
     0
  3
Hidden __ __ __ __ __ __ __ __ __ __ __ __ __ __
 72
    65
 73
     2
 40
1.905
 49
1.27
 74
     0
 49
-0.635
 74
     0
  0
LTYPE
  5
6F
330
5
100
AcDbSymbolTableRecord
100
AcDbLinetypeTableRecord
  2
PHANTOM
 70
     0
  3
Phantom ______  __  __  ______  __  __  ______
 72
    65
 73
     6
 40
12.7
 49
6.35
 74
     0
 49
-1.27
 74
     0
 49
1.27
 74
     0
 49
-1.27
 74
     0
 49
1.27
 74
     0
 49
-1.27
 74
     0
  0
LTYPE
  5
70
330
5
100
AcDbSymbolTableRecord
100
AcDbLinetypeTableRecord
  2
CENTER
 70
     0
  3
Center ____ _ ____ _ ____ _ ____ _ ____ _ ____
 72
    65
 73
     4
 40
10.16
 49
6.35
 74
     0
 49
-1.27
 74
     0
 49
1.27
 74
     0
 49
-1.27
 74
     0
  0
LTYPE
  5
71
330
5
100
AcDbSymbolTableRecord
100
AcDbLinetypeTableRecord
  2
CENTERX2
 70
     0
  3
Center (2x) ________  __  ________  __  _____
 72
    65
 73
     4
 40
20.32
 49
12.7
 74
     0
 49
-2.54
 74
     0
 49
2.54
 74
     0
 49
-2.54
 74
     0
  0
LTYPE
  5
72
330
5
100
AcDbSymbolTableRecord
100
AcDbLinetypeTableRecord
  2
DOT2
 70
     0
  3
Dot (.5x) ........................................
 72
    65
 73
     2
 40
0.635
 49
0.0
 74
     0
 49
-0.635
 74
     0
  0
ENDTAB
  0
TABLE
  2
LAYER
  5
2
330
0
100
AcDbSymbolTable
 70
     1
  0
LAYER
  5
10
330
2
100
AcDbSymbolTableRecord
100
AcDbLayerTableRecord
  2
0
 70
     0
 62
     7
  6
Continuous
370
    -3
390
F
  0
ENDTAB
  0
TABLE
  2
STYLE
  5
3
330
0
100
AcDbSymbolTable
 70
     1
  0
STYLE
  5
11
330
3
100
AcDbSymbolTableRecord
100
AcDbTextStyleTableRecord
  2
Standard
 70
     0
 40
0.0
 41
1.0
 50
0.0
 71
     0
 42
3.5
  3
txt
  4

  0
ENDTAB
  0
TABLE
  2
VIEW
  5
6
330
0
100
AcDbSymbolTable
 70
     0
  0
ENDTAB
  0
TABLE
  2
UCS
  5
7
330
0
100
AcDbSymbolTable
 70
     0
  0
ENDTAB
  0
TABLE
  2
APPID
  5
9
330
0
100
AcDbSymbolTable
 70
     1
  0
APPID
  5
12
330
9
100
AcDbSymbolTableRecord
100
AcDbRegAppTableRecord
  2
ACAD
 70
     0
  0
ENDTAB
  0
TABLE
  2
DIMSTYLE
  5
A
330
0
100
AcDbSymbolTable
 70
     1
100
AcDbDimStyleTable
  0
DIMSTYLE
105
27
330
A
100
AcDbSymbolTableRecord
100
AcDbDimStyleTableRecord
  2
ISO-25
 70
     0
 41
2.5
 42
0.625
 43
3.75
 44
1.25
 73
     0
 74
     0
 77
     1
 78
     8
140
2.5
141
2.5
143
0.0393700787
147
0.625
171
     3
172
     1
178
     0
271
     2
272
     2
274
     3
278
    44
283
     0
284
     8
340
11
  0
ENDTAB
  0
TABLE
  2
BLOCK_RECORD
  5
1
330
0
100
AcDbSymbolTable
 70
     1
  0
BLOCK_RECORD
  5
1F
330
1
100
AcDbSymbolTableRecord
100
AcDbBlockTableRecord
  2
*Model_Space
340
22
  0
BLOCK_RECORD
  5
1B
330
1
100
AcDbSymbolTableRecord
100
AcDbBlockTableRecord
  2
*Paper_Space
340
1E
  0
BLOCK_RECORD
  5
23
330
1
100
AcDbSymbolTableRecord
100
AcDbBlockTableRecord
  2
*Paper_Space0
340
26
  0
ENDTAB
  0
ENDSEC
  0
SECTION
  2
BLOCKS
  0
BLOCK
  5
20
330
1F
100
AcDbEntity
  8
0
100
AcDbBlockBegin
  2
*Model_Space
 70
     0
 10
0.0
 20
0.0
 30
0.0
  3
*Model_Space
  1

  0
ENDBLK
  5
21
330
1F
100
AcDbEntity
  8
0
100
AcDbBlockEnd
  0
BLOCK
  5
1C
330
1B
100
AcDbEntity
 67
     1
  8
0
100
AcDbBlockBegin
  2
*Paper_Space
 70
     0
 10
0.0
 20
0.0
 30
0.0
  3
*Paper_Space
  1

  0
ENDBLK
  5
1D
330
1B
100
AcDbEntity
 67
     1
  8
0
100
AcDbBlockEnd
  0
BLOCK
  5
24
330
23
100
AcDbEntity
  8
0
100
AcDbBlockBegin
  2
*Paper_Space0
 70
     0
 10
0.0
 20
0.0
 30
0.0
  3
*Paper_Space0
  1

  0
ENDBLK
  5
25
330
23
100
AcDbEntity
  8
0
100
AcDbBlockEnd
  0
ENDSEC
  0
SECTION
  2
ENTITIES
  0
SPLINE
  5
79
330
1F
100
AcDbEntity
  8
0
  6
Continuous
 62
     7
370
    15
100
AcDbSpline
210
0.0
220
0.0
230
1.0
 70
     8
 71
     3
 72
    45
 73
    41
 74
     0
 42
0.000000001
 43
0.00000001
 40
0.0
 40
0.0
 40
0.0
 40
0.0
 40
0.005687896003181
 40
0.0313475377521724
 40
0.0523810443020731
 40
0.0696688099602774
 40
0.0849253403361451
 40
0.1023794344619616
 40
0.1214912880314811
 40
0.1428691951880279
 40
0.1686709431123814
 40
0.1921266200529828
 40
0.2171751571312335
 40
0.2453299268473753
 40
0.2755063506211078
 40
0.3068862118017821
 40
0.3387854600694885
 40
0.3707332308560495
 40
0.4021271818487626
 40
0.4318826890553895
 40
0.4501385663720796
 40
0.4663528920470884
 40
0.4824356510807942
 40
0.4991239845127144
 40
0.5194582033942086
 40
0.543816110073382
 40
0.5675862209642278
 40
0.6201741726292487
 40
0.6774982804079742
 40
0.7300821066806367
 40
0.784736116264607
 40
0.8302304486812536
 40
0.882392992135044
 40
0.9003724051842444
 40
0.9186942246710453
 40
0.9392577375914508
 40
0.9596816389232692
 40
0.9761550275665303
 40
0.9911237384034591
 40
1.0
 40
1.0
 40
1.0
 40
1.0
 10
112.4866788748676
 20
74.50041727439464
 30
0.0
 10
112.3476239758364
 20
74.79219093299837
 30
0.0
 10
111.5812547077331
 20
76.40023471105877
 30
0.0
 10
110.1790898177252
 20
79.03544975214567
 30
0.0
 10
108.4087408873181
 20
82.23285961294502
 30
0.0
 10
106.8352133654817
 20
84.8749633542237
 30
0.0
 10
105.3047717455658
 20
87.30666752213146
 30
0.0
 10
103.6491238008563
 20
89.79275821167661
 30
0.0
 10
101.7099982606407
 20
92.52355324358858
 30
0.0
 10
99.38111566556177
 20
95.57067923335332
 30
0.0
 10
96.7585307166753
 20
98.70877378840288
 30
0.0
 10
93.84461699918124
 20
101.8743080988487
 30
0.0
 10
90.68398561878344
 20
104.9907862147151
 30
0.0
 10
87.06829697460822
 20
108.1905239215256
 30
0.0
 10
82.98035644066341
 20
111.3953807202078
 30
0.0
 10
78.52105385509617
 20
114.4607252649102
 30
0.0
 10
73.7864083111274
 20
117.2875403635047
 30
0.0
 10
68.87584946034043
 20
119.8021676271078
 30
0.0
 10
63.92593476771968
 20
121.9398822433491
 30
0.0
 10
59.6038483139298
 20
123.4833406325021
 30
0.0
 10
56.06208980138136
 20
124.5474064338088
 30
0.0
 10
53.26262282738485
 20
125.2786818036062
 30
0.0
 10
50.54938185137088
 20
125.8918910579543
 30
0.0
 10
47.61911066390628
 20
126.4549842907005
 30
0.0
 10
44.25657117423995
 20
126.9815218608287
 30
0.0
 10
40.51922373022419
 20
127.4226489151948
 30
0.0
 10
35.02563641328248
 20
127.8726971144755
 30
0.0
 10
27.8490519063166
 20
128.1162528486749
 30
0.0
 10
19.12130806056095
 20
128.028259755089
 30
0.0
 10
10.16810352735141
 20
127.6598659428889
 30
0.0
 10
1.698697433433254
 20
127.0748723498155
 30
0.0
 10
-6.775113399767877
 20
126.2529402419138
 30
0.0
 10
-13.20684545705218
 20
125.4331658940742
 30
0.0
 10
-18.12468969720832
 20
124.6954675676412
 30
0.0
 10
-21.28082773038066
 20
124.1851137996615
 30
0.0
 10
-24.56265405745476
 20
123.6144689551356
 30
0.0
 10
-27.73503529565902
 20
123.0252961262351
 30
0.0
 10
-30.5924928743964
 20
122.4654845935749
 30
0.0
 10
-32.80948073548684
 20
122.0175862071215
 30
0.0
 10
-34.11843587195126
 20
121.7404995214908
 30
0.0
 10
-34.60569280805432
 20
121.6373543443077
 30
0.0
  0
SPLINE
  5
7A
330
1F
100
AcDbEntity
  8
0
  6
Continuous
 62
     7
370
    15
100
AcDbSpline
210
0.0
220
0.0
230
1.0
 70
     8
 71
     3
 72
    67
 73
    63
 74
     0
 42
0.000000001
 43
0.00000001
 40
0.0
 40
0.0
 40
0.0
 40
0.0
 40
0.0104227467335763
 40
0.0370855245205572
 40
0.0601567347507263
 40
0.0728165288445047
 40
0.0848262110660765
 40
0.0963365274811865
 40
0.1102688160147834
 40
0.127814202285686
 40
0.1516361716733588
 40
0.1702631228975951
 40
0.1951683908749886
 40
0.2218924299782647
 40
0.2430278320561954
 40
0.2615572048482421
 40
0.2839706745964298
 40
0.3126234182016854
 40
0.336029116547667
 40
0.3554734057482663
 40
0.3724834068972179
 40
0.3896462423719871
 40
0.4091759446751264
 40
0.4242970138295263
 40
0.4415892602962721
 40
0.4569809538953571
 40
0.4689070650467583
 40
0.4791989243778736
 40
0.4887621107935385
 40
0.5003948138527357
 40
0.515355541099622
 40
0.5288293843186811
 40
0.5381122069226895
 40
0.5472902806247876
 40
0.5601009320395378
 40
0.5753864612601045
 40
0.5903708786629861
 40
0.6019879952260822
 40
0.6147975549663219
 40
0.6303048307338528
 40
0.6460848749603945
 40
0.6602957239537492
 40
0.6825945479285741
 40
0.7070958438728511
 40
0.7312604771780026
 40
0.7548743161139244
 40
0.7720970221043043
 40
0.7917032095313965
 40
0.8130514392660166
 40
0.8307342412233394
 40
0.8434652088226634
 40
0.8546605264293912
 40
0.8703506805250959
 40
0.8878350981770224
 40
0.9052393620827136
 40
0.9211989721165108
 40
0.9352743888168795
 40
0.9467989398449047
 40
0.9582288074408005
 40
0.9721159551212927
 40
0.9892671313946094
 40
1.0
 40
1.0
 40
1.0
 40
1.0
 10
-46.62058797708376
 20
118.414489755091
 30
0.0
 10
-47.32522717277376
 20
118.1815262979969
 30
0.0
 10
-49.83242751428494
 20
117.3526112124343
 30
0.0
 10
-53.84585072031076
 20
115.8603039654888
 30
0.0
 10
-57.96192254315964
 20
114.2013974190638
 30
0.0
 10
-61.07404121955482
 20
112.8530464377892
 30
0.0
 10
-63.41293231197749
 20
111.7912800088323
 30
0.0
 10
-65.81235203183527
 20
110.6498423849814
 30
0.0
 10
-68.53541830120555
 20
109.2878270598652
 30
0.0
 10
-71.98981435344055
 20
107.4521246061811
 30
0.0
 10
-75.66941367880129
 20
105.3381184541159
 30
0.0
 10
-79.70005149671802
 20
102.8392081476402
 30
0.0
 10
-83.79965380572774
 20
100.1039183691085
 30
0.0
 10
-87.91923888453822
 20
97.12464283166184
 30
0.0
 10
-91.57568549187245
 20
94.29298983805955
 30
0.0
 10
-94.89697910591332
 20
91.58051458374655
 30
0.0
 10
-98.51222231508014
 20
88.47062790769868
 30
0.0
 10
-102.261575089339
 20
85.03963187906027
 30
0.0
 10
-105.7551476240087
 20
81.63640400342072
 30
0.0
 10
-108.5802334787034
 20
78.73434945878229
 30
0.0
 10
-111.0304649501044
 20
76.09628227285464
 30
0.0
 10
-113.4347565475963
 20
73.38271493979565
 30
0.0
 10
-115.6873894192552
 20
70.69643776569337
 30
0.0
 10
-117.8904378537979
 20
67.91218543750236
 30
0.0
 10
-119.8567135491329
 20
65.2736051706476
 30
0.0
 10
-121.6204080817422
 20
62.74271746062166
 30
0.0
 10
-123.0595628540111
 20
60.54584152469872
 30
0.0
 10
-124.2360425707774
 20
58.64954980803276
 30
0.0
 10
-125.3622963879322
 20
56.73805110826515
 30
0.0
 10
-126.609558715749
 20
54.49327184291173
 30
0.0
 10
-127.9116835747862
 20
51.95658929116997
 30
0.0
 10
-129.0510266627167
 20
49.52411125619781
 30
0.0
 10
-129.955408379952
 20
47.43434030229276
 30
0.0
 10
-130.7898688525951
 20
45.37026534698347
 30
0.0
 10
-131.7107438742294
 20
42.88776751166929
 30
0.0
 10
-132.6667506316931
 20
39.98493787744327
 30
0.0
 10
-133.4817027619919
 20
37.13230380538842
 30
0.0
 10
-134.1513722651398
 20
34.43730756376095
 30
0.0
 10
-134.73964674515
 20
31.70619773764918
 30
0.0
 10
-135.2788832418378
 20
28.68132672902114
 30
0.0
 10
-135.712994582652
 20
25.54951789226587
 30
0.0
 10
-136.0802277287488
 20
21.94630544516422
 30
0.0
 10
-136.3263445785841
 20
17.75126534224784
 30
0.0
 10
-136.3570555993453
 20
12.89963710625686
 30
0.0
 10
-136.1331183313075
 20
7.942865492379233
 30
0.0
 10
-135.7140767581662
 20
3.47217305857225
 30
0.0
 10
-135.1639537152626
 20
-0.6607608942577605
 30
0.0
 10
-134.5019073155745
 20
-4.621181467750816
 30
0.0
 10
-133.6957379164886
 20
-8.58680336397735
 30
0.0
 10
-132.8711735500969
 20
-12.08109035443617
 30
0.0
 10
-132.1392985265965
 20
-14.89192954616401
 30
0.0
 10
-131.386789374606
 20
-17.5885648034185
 30
0.0
 10
-130.4855833480734
 20
-20.59842816456042
 30
0.0
 10
-129.3792607448135
 20
-24.0221394578334
 30
0.0
 10
-128.1927916388445
 20
-27.44779124308878
 30
0.0
 10
-127.0292648575432
 20
-30.62299697013666
 30
0.0
 10
-125.9833618743054
 20
-33.36041036799324
 30
0.0
 10
-125.0384782894254
 20
-35.76373929184456
 30
0.0
 10
-124.0945963375542
 20
-38.11333988687431
 30
0.0
 10
-122.9965583971784
 20
-40.78966045554404
 30
0.0
 10
-121.9049208296105
 20
-43.4008558778423
 30
0.0
 10
-121.1577860989937
 20
-45.14041565338047
 30
0.0
 10
-120.870205910068
 20
-45.80999090988605
 30
0.0
  0
SPLINE
  5
7B
330
1F
100
AcDbEntity
  8
0
  6
Continuous
 62
     7
370
    15
100
AcDbSpline
210
0.0
220
0.0
230
1.0
 70
     8
 71
     3
 72
    40
 73
    36
 74
     0
 42
0.000000001
 43
0.00000001
 40
0.0
 40
0.0
 40
0.0
 40
0.0
 40
0.021555455684789
 40
0.0519828226372457
 40
0.0772660264968701
 40
0.0973959947050018
 40
0.1124536260108756
 40
0.1231618827687086
 40
0.1349114473352384
 40
0.1551084694149954
 40
0.1793774265686363
 40
0.2055732559367315
 40
0.2297145981249833
 40
0.2519225283274354
 40
0.2772370316746527
 40
0.2986284791799382
 40
0.3166623851802058
 40
0.3336095487645693
 40
0.3588440910893622
 40
0.3876217833621333
 40
0.4178515215261702
 40
0.4400126167418925
 40
0.4620846685687743
 40
0.4844040389268472
 40
0.508276029178347
 40
0.5442138851102363
 40
0.5852697639692614
 40
0.6318121313289774
 40
0.6762894263935526
 40
0.7251343921083969
 40
0.7784483380173733
 40
0.8363414800106649
 40
0.8989770264174984
 40
0.9665744371407485
 40
1.0
 40
1.0
 40
1.0
 40
1.0
 10
50.40113559341683
 20
-124.3147854794152
 30
0.0
 10
51.60977874529591
 20
-123.8569819000987
 30
0.0
 10
54.52452494758511
 20
-122.7529494632851
 30
0.0
 10
58.86228729854582
 20
-121.0949328204256
 30
0.0
 10
63.11285114635442
 20
-119.4296488135692
 30
0.0
 10
66.49234397541099
 20
-118.0494582348983
 30
0.0
 10
69.04871191523083
 20
-116.9539425196023
 30
0.0
 10
71.15132397520493
 20
-116.0126498871275
 30
0.0
 10
73.56870651600404
 20
-114.8832530708365
 30
0.0
 10
76.74026485550709
 20
-113.3010634071575
 30
0.0
 10
80.65951823823623
 20
-111.1393661593492
 30
0.0
 10
84.68455724651523
 20
-108.6357259497029
 30
0.0
 10
88.47729859204567
 20
-105.9629191197917
 30
0.0
 10
92.08822005318378
 20
-103.1019401722653
 30
0.0
 10
95.36122774530823
 20
-100.1389040456564
 30
0.0
 10
98.29524827164474
 20
-97.16209821931332
 30
0.0
 10
100.6681454301672
 20
-94.5873783927326
 30
0.0
 10
102.7905193041434
 20
-92.15431536779906
 30
0.0
 10
105.3754976273571
 20
-88.80249967047335
 30
0.0
 10
108.2394862299866
 20
-84.54900649979426
 30
0.0
 10
110.7931611362637
 20
-80.1283116636353
 30
0.0
 10
112.9107851565434
 20
-75.8525988712796
 30
0.0
 10
114.5974356323942
 20
-71.9111768368245
 30
0.0
 10
116.0656548985923
 20
-67.82774833997152
 30
0.0
 10
117.576187467555
 20
-62.82712328923036
 30
0.0
 10
119.1468065846103
 20
-56.53162971857507
 30
0.0
 10
120.660644141262
 20
-48.74578909098915
 30
0.0
 10
121.8862106570407
 20
-40.38670091423278
 30
0.0
 10
122.8466780444365
 20
-31.5398427709542
 30
0.0
 10
123.5697635318806
 20
-22.28474609961885
 30
0.0
 10
124.0911362199932
 20
-12.2164612767262
 30
0.0
 10
124.3989183012027
 20
-1.321478972415586
 30
0.0
 10
124.4311654053761
 20
10.41827960131655
 30
0.0
 10
124.2453599413199
 20
20.59737698920419
 30
0.0
 10
123.9198821813155
 20
26.84340145644653
 30
0.0
 10
123.8121910597765
 20
28.91002923472839
 30
0.0
  0
SPLINE
  5
7C
330
1F
100
AcDbEntity
  8
0
  6
Continuous
 62
     7
370
    15
100
AcDbSpline
210
0.0
220
0.0
230
1.0
 70
     8
 71
     3
 72
    12
 73
     8
 74
     0
 42
0.000000001
 43
0.00000001
 40
0.0
 40
0.0
 40
0.0
 40
0.0
 40
0.310067131532349
 40
0.579787762330307
 40
0.777160356395369
 40
0.9663672660383866
 40
1.0
 40
1.0
 40
1.0
 40
1.0
 10
-34.59376598674894
 20
121.6384008979226
 30
0.0
 10
-35.82875800661679
 20
121.3708593608614
 30
0.0
 10
-38.13804263203431
 20
120.8705892795518
 30
0.0
 10
-41.24121218851842
 20
120.0738766823451
 30
0.0
 10
-43.85169260635724
 20
119.318867569227
 30
0.0
 10
-45.54014522555189
 20
118.8075581757141
 30
0.0
 10
-46.42405188061242
 20
118.492948368506
 30
0.0
 10
-46.5574581134338
 20
118.4454649504912
 30
0.0
  0
SPLINE
  5
7D
330
1F
100
AcDbEntity
  8
0
  6
Continuous
 62
     7
370
    15
100
AcDbSpline
210
0.0
220
0.0
230
1.0
 70
     8
 71
     3
 72
    16
 73
    12
 74
     0
 42
0.000000001
 43
0.00000001
 40
0.0
 40
0.0
 40
0.0
 40
0.0
 40
0.035912409107842
 40
0.1475748571083402
 40
0.2645808616640171
 40
0.3676380013331208
 40
0.4843896141536674
 40
0.6148402875813099
 40
0.7588931062861415
 40
0.9163779335821405
 40
1.0
 40
1.0
 40
1.0
 40
1.0
 10
123.8943917987077
 20
28.07446782896727
 30
0.0
 10
123.8717495802753
 20
28.67338322669802
 30
0.0
 10
123.778705915626
 20
31.1345061765588
 30
0.0
 10
123.3792756893825
 20
35.57051899387788
 30
0.0
 10
122.6939386367699
 20
41.15724261642106
 30
0.0
 10
121.7249228488654
 20
46.83033050182316
 30
0.0
 10
120.4468659384712
 20
52.67242004084314
 30
0.0
 10
118.6715586767523
 20
59.10402234727376
 30
0.0
 10
116.2449389519372
 20
66.03836834633174
 30
0.0
 10
113.7331340884132
 20
72.09222627236122
 30
0.0
 10
111.7737935577191
 20
75.68739822576907
 30
0.0
 10
111.0942439128742
 20
76.93429624365939
 30
0.0
  0
SPLINE
  5
7E
330
1F
100
AcDbEntity
  8
0
  6
Continuous
 62
     7
370
    15
100
AcDbSpline
210
0.0
220
0.0
230
1.0
 70
     8
 71
     3
 72
    43
 73
    39
 74
     0
 42
0.000000001
 43
0.00000001
 40
0.0
 40
0.0
 40
0.0
 40
0.0
 40
0.0073273455114626
 40
0.0482238569999558
 40
0.0949803276048609
 40
0.1233544049713097
 40
0.1482299892712466
 40
0.1694580579575277
 40
0.1830289402287392
 40
0.194634590536857
 40
0.2043658708261989
 40
0.2123906947642607
 40
0.2210380261841122
 40
0.2297645670582949
 40
0.2400454412059112
 40
0.2523715320999629
 40
0.2670411180567555
 40
0.2842386227098798
 40
0.30837104603113
 40
0.3365601656978505
 40
0.3694566800738488
 40
0.4043278508152338
 40
0.4388087278469332
 40
0.4809930566087091
 40
0.5217367300398313
 40
0.5606159153274821
 40
0.5972505729641048
 40
0.6416674947320551
 40
0.6824633499104299
 40
0.7224711400581002
 40
0.7618147823426218
 40
0.8006397380991864
 40
0.8391319678611366
 40
0.8781134766472682
 40
0.9187469409517205
 40
0.9610446131888895
 40
0.9939282773537402
 40
0.9999999999999999
 40
0.9999999999999999
 40
0.9999999999999999
 40
0.9999999999999999
 10
-120.7443379200833
 20
-46.05498644927141
 30
0.0
 10
-120.5440631492206
 20
-46.52866307327037
 30
0.0
 10
-119.2259839218013
 20
-49.64609676657897
 30
0.0
 10
-116.5385132230091
 20
-55.78076682017049
 30
0.0
 10
-113.3846753970401
 20
-63.31473739532162
 30
0.0
 10
-110.458452414977
 20
-69.73958827061351
 30
0.0
 10
-108.1726304511614
 20
-74.4851981860213
 30
0.0
 10
-106.1621427567647
 20
-78.19529921780828
 30
0.0
 10
-104.4935362686219
 20
-80.99118443540402
 30
0.0
 10
-103.1858590871415
 20
-83.03118949372833
 30
0.0
 10
-102.0817030451574
 20
-84.64915403119072
 30
0.0
 10
-101.081187476528
 20
-86.0344215623205
 30
0.0
 10
-100.3698028525796
 20
-86.9384966620024
 30
0.0
 10
-99.46172510549053
 20
-88.05969763889492
 30
0.0
 10
-98.17555947743388
 20
-89.62068659414862
 30
0.0
 10
-96.52567915514624
 20
-91.52987525129795
 30
0.0
 10
-94.43966523128528
 20
-93.79688423600892
 30
0.0
 10
-91.6560732201146
 20
-96.58389657085748
 30
0.0
 10
-87.99623544100702
 20
-99.86227200694002
 30
0.0
 10
-83.22189647594882
 20
-103.5432107712305
 30
0.0
 10
-77.52975366820044
 20
-107.2470631976262
 30
0.0
 10
-71.16104548715387
 20
-110.6765420489001
 30
0.0
 10
-63.97354502112254
 20
-113.8677592397892
 30
0.0
 10
-56.2143271844506
 20
-116.6432282774992
 30
0.0
 10
-48.04358730789904
 20
-118.9402500070443
 30
0.0
 10
-40.19047358527241
 20
-120.6877086847458
 30
0.0
 10
-32.08011604967006
 20
-122.0683262413591
 30
0.0
 10
-23.83367251584467
 20
-123.4673126520009
 30
0.0
 10
-15.31164445105462
 20
-124.8409352558203
 30
0.0
 10
-7.011522803492757
 20
-126.0768943618517
 30
0.0
 10
1.239202382608073
 20
-127.1528862773923
 30
0.0
 10
9.448065557229622
 20
-127.9965123591956
 30
0.0
 10
17.65424198198127
 20
-128.5245999059117
 30
0.0
 10
25.95232188413651
 20
-128.6181375157459
 30
0.0
 10
34.40737455525451
 20
-128.1373425519132
 30
0.0
 10
42.18573414761725
 20
-126.8159945122099
 30
0.0
 10
47.52665980133833
 20
-125.4958093136447
 30
0.0
 10
49.90742290297481
 20
-124.4467389401092
 30
0.0
 10
50.2784969551894
 20
-124.283227167645
 30
0.0
  0
SPLINE
  5
85
330
1F
100
AcDbEntity
  8
0
  6
Continuous
 62
     7
370
    15
100
AcDbSpline
210
0.0
220
0.0
230
1.0
 70
     8
 71
     3
 72
     9
 73
     5
 74
     0
 42
0.000000001
 43
0.00000001
 40
0.0
 40
0.0
 40
0.0
 40
0.0
 40
0.2710686601414187
 40
1.0
 40
1.0
 40
1.0
 40
1.0
 10
2.699165673621482
 20
-2.218638129905933
 30
0.0
 10
2.666992911821601
 20
-2.20001129616288
 30
0.0
 10
2.548304304355523
 20
-2.131295002168083
 30
0.0
 10
2.428621334055057
 20
-2.062446032032324
 30
0.0
 10
2.341380666155683
 20
-2.012259859983382
 30
0.0
  0
CIRCLE
  5
94
330
1F
100
AcDbEntity
  8
0
  6
Continuous
 62
     7
370
    15
100
AcDbCircle
 10
7.82
 20
0.0
 30
0.0
 40
1.000000000000001
  0
CIRCLE
  5
95
330
1F
100
AcDbEntity
  8
0
  6
Continuous
 62
     7
370
    15
100
AcDbCircle
 10
7.82
 20
0.0
 30
0.0
 40
0.8999999999999989
  0
LWPOLYLINE
  5
97
330
1F
100
AcDbEntity
  8
0
  6
Continuous
 62
     7
370
    15
100
AcDbPolyline
 90
        3
 70
   128
 43
0.0
 10
2.6164579131
 20
-2.1712088774
 10
3.1136293106
 20
-1.3657644438
 10
3.2482404103
 20
-1.0044571853
  0
LWPOLYLINE
  5
98
330
1F
100
AcDbEntity
  8
0
  6
Continuous
 62
     7
370
    15
100
AcDbPolyline
 90
        3
 70
   128
 43
0.0
 10
3.2338058074
 20
1.05
 10
2.8463660261
 20
1.8596237376
 10
2.5
 20
2.3043437244
  0
SPLINE
  5
99
330
1F
100
AcDbEntity
  8
0
  6
Continuous
 62
     7
370
    15
100
AcDbSpline
210
0.0
220
0.0
230
1.0
 70
     8
 71
     3
 72
    42
 73
    38
 74
     0
 42
0.000000001
 43
0.00000001
 40
0.0
 40
0.0
 40
0.0
 40
0.0
 40
0.002962945926209
 40
0.0059301752921828
 40
0.0454096055217192
 40
0.0860380269709878
 40
0.1259351909638509
 40
0.165760333893824
 40
0.2058827478502313
 40
0.2459244340907468
 40
0.2857012752450045
 40
0.3256065040856772
 40
0.365817170870523
 40
0.4056988558099962
 40
0.4455373994650563
 40
0.4652618121938331
 40
0.4857219835867961
 40
0.5057677510693864
 40
0.5259811072135626
 40
0.5662264535620826
 40
0.6073581004052253
 40
0.6459755074562337
 40
0.6861450888217582
 40
0.7261152687805053
 40
0.7658369653051006
 40
0.8057846767971586
 40
0.8460053018045146
 40
0.865635683790481
 40
0.8859670890501604
 40
0.9056650806916703
 40
0.9260157130052308
 40
0.9459513768852054
 40
0.966238725452251
 40
0.9747095495890528
 40
0.9831585068244276
 40
0.9915878706676869
 40
1.0
 40
1.0
 40
1.0
 40
1.0
 10
105.0540030077232
 20
49.77632665508551
 30
0.0
 10
104.9718142868108
 20
49.75658904018582
 30
0.0
 10
104.8073180272809
 20
49.71708527632384
 30
0.0
 10
103.5290743059678
 20
49.4339724516315
 30
0.0
 10
100.994628014212
 20
49.11537546348101
 30
0.0
 10
96.79341031200896
 20
49.13821906820115
 30
0.0
 10
92.0442190193335
 20
49.58257322167237
 30
0.0
 10
86.80913714936752
 20
50.39005260658698
 30
0.0
 10
81.09609002983906
 20
51.53385785820837
 30
0.0
 10
74.9632131538545
 20
53.00456169888081
 30
0.0
 10
68.48504977249446
 20
54.81055560168674
 30
0.0
 10
61.71139742752919
 20
56.96983039384185
 30
0.0
 10
54.71444865679738
 20
59.47506765593725
 30
0.0
 10
47.56962339661514
 20
62.27868161233936
 30
0.0
 10
41.56339009619401
 20
64.79079075721711
 30
0.0
 10
36.70865383163796
 20
66.88212138271479
 30
0.0
 10
33.04810028709417
 20
68.48181581616
 30
0.0
 10
29.35341077529127
 20
70.09946906922458
 30
0.0
 10
24.45814377156084
 20
72.23822419523917
 30
0.0
 10
18.3056879750892
 20
74.91697651500317
 30
0.0
 10
11.17017912912684
 20
78.04731122850939
 30
0.0
 10
4.266956967493159
 20
81.17668175567302
 30
0.0
 10
-2.247225255278149
 20
84.32704130742918
 30
0.0
 10
-8.375979737973203
 20
87.62207889521757
 30
0.0
 10
-13.93762634180728
 20
91.0808449550816
 30
0.0
 10
-18.85846651232981
 20
94.74087781404332
 30
0.0
 10
-22.36154765636084
 20
97.92973046631133
 30
0.0
 10
-24.82425328890386
 20
100.5246913983743
 30
0.0
 10
-26.48867589628302
 20
102.4572889114709
 30
0.0
 10
-28.00672367878868
 20
104.4015086680803
 30
0.0
 10
-29.35329365581461
 20
106.3093329677191
 30
0.0
 10
-30.55320970743088
 20
108.2005938792761
 30
0.0
 10
-31.38956300064927
 20
109.6863397612631
 30
0.0
 10
-31.95934352369733
 20
110.8004546724197
 30
0.0
 10
-32.31882951826363
 20
111.5508614697722
 30
0.0
 10
-32.65120520540538
 20
112.2916425649559
 30
0.0
 10
-32.84846877285548
 20
112.7779041340899
 30
0.0
 10
-32.94699962309804
 20
113.0207861141046
 30
0.0
  0
SPLINE
  5
9A
330
1F
100
AcDbEntity
  8
0
  6
Continuous
 62
     7
370
    15
100
AcDbSpline
210
0.0
220
0.0
230
1.0
 70
     8
 71
     3
 72
    59
 73
    55
 74
     0
 42
0.000000001
 43
0.00000001
 40
0.0
 40
0.0
 40
0.0
 40
0.0
 40
0.0066750531019411
 40
0.0131549714706137
 40
0.0194415467914392
 40
0.0255361011730998
 40
0.0314395536784905
 40
0.0476155563943616
 40
0.0628477863353426
 40
0.078924919692659
 40
0.0942869984520198
 40
0.1256537504544553
 40
0.1879697658224166
 40
0.2500384286888663
 40
0.3122640315917679
 40
0.3750435792389084
 40
0.4375102593932974
 40
0.4996337451066853
 40
0.5618444977488464
 40
0.5932163887115607
 40
0.6245501146355151
 40
0.6402536412594922
 40
0.6480893461333925
 40
0.6518269944771995
 40
0.6559154480670524
 40
0.6636446142304849
 40
0.6714284360105767
 40
0.6792618679446468
 40
0.6871391045081154
 40
0.7027188197012468
 40
0.718271676377064
 40
0.7203665124512361
 40
0.7221593743755642
 40
0.7238068817930272
 40
0.7260468768209724
 40
0.7273503358741887
 40
0.7299336855818197
 40
0.7316232321788114
 40
0.7338200535683201
 40
0.7415919991328833
 40
0.7493636609896613
 40
0.7804942778641274
 40
0.8116148868851036
 40
0.8742822948570913
 40
0.8899915012239189
 40
0.9057338066115798
 40
0.9215020548485563
 40
0.9371366708784159
 40
0.9461072299839292
 40
0.9550791599962868
 40
0.9640442674477872
 40
0.9730317473080174
 40
0.9866336986741436
 40
1.0
 40
1.0
 40
1.0
 40
1.0
 10
-117.4929066578862
 20
-32.20075591873687
 30
0.0
 10
-117.4100060895328
 20
-32.08686122259993
 30
0.0
 10
-117.2466284212308
 20
-31.86240136356148
 30
0.0
 10
-116.997088821322
 20
-31.52737007458672
 30
0.0
 10
-116.7496796428846
 20
-31.20005252558891
 30
0.0
 10
-116.5044673881137
 20
-30.88032998090974
 30
0.0
 10
-116.1191254777036
 20
-30.38407798490168
 30
0.0
 10
-115.5910841401662
 20
-29.71772006374985
 30
0.0
 10
-114.8903154444532
 20
-28.85249604792307
 30
0.0
 10
-114.176874420189
 20
-27.98372470877119
 30
0.0
 10
-113.1879163386682
 20
-26.78851400874488
 30
0.0
 10
-111.4077557263201
 20
-24.64092842236156
 30
0.0
 10
-108.7460829266173
 20
-21.34031283665533
 30
0.0
 10
-105.5193030078141
 20
-16.95883009905755
 30
0.0
 10
-102.3426999840465
 20
-12.11707651154166
 30
0.0
 10
-99.26424030228448
 20
-6.829843433481076
 30
0.0
 10
-96.2995567899239
 20
-1.155859639311241
 30
0.0
 10
-93.42705757881063
 20
4.821817866292617
 30
0.0
 10
-91.06938126212893
 20
10.01561959422861
 30
0.0
 10
-89.18390351694616
 20
14.27538206670669
 30
0.0
 10
-87.9990494112124
 20
16.98269305134474
 30
0.0
 10
-87.17049167388421
 20
18.89224038736937
 30
0.0
 10
-86.75693468403885
 20
19.84411963214705
 30
0.0
 10
-86.52331669093263
 20
20.39320030635523
 30
0.0
 10
-86.28752664959968
 20
20.93753441025821
 30
0.0
 10
-85.98803106729565
 20
21.62360032572333
 30
0.0
 10
-85.63626184949128
 20
22.44424441839412
 30
0.0
 10
-85.27973397030672
 20
23.27077086533649
 30
0.0
 10
-84.80575922492994
 20
24.37374261741265
 30
0.0
 10
-84.21409991780627
 20
25.75186922596415
 30
0.0
 10
-83.71180318911532
 20
26.9296542900994
 30
0.0
 10
-83.41692887959266
 20
27.61919283908365
 30
0.0
 10
-83.33177493726278
 20
27.81505648284288
 30
0.0
 10
-83.24606312386295
 20
28.01685464040128
 30
0.0
 10
-83.17057259632669
 20
28.20246443809406
 30
0.0
 10
-83.07823564350072
 20
28.42023013977639
 30
0.0
 10
-82.98926692099234
 20
28.61638038390956
 30
0.0
 10
-82.88890743676382
 20
28.84523673196258
 30
0.0
 10
-82.71333951241479
 20
29.26002099919517
 30
0.0
 10
-82.44013492717762
 20
29.88895954690678
 30
0.0
 10
-81.72704122149446
 20
31.54739110538208
 30
0.0
 10
-80.64854155815324
 20
34.03624815658118
 30
0.0
 10
-78.717091780417
 20
38.47582402386833
 30
0.0
 10
-77.00956648319698
 20
42.35731260436047
 30
0.0
 10
-75.54022895320152
 20
45.67012806070906
 30
0.0
 10
-74.80309208189249
 20
47.32740973200027
 30
0.0
 10
-74.06566544126864
 20
48.97560200148976
 30
0.0
 10
-73.4397074669122
 20
50.38405783005516
 30
0.0
 10
-72.91260591013024
 20
51.54835603552825
 30
0.0
 10
-72.49104457700427
 20
52.47922577755308
 30
0.0
 10
-72.07046440875143
 20
53.40862425001757
 30
0.0
 10
-71.57949257286643
 20
54.49523435619479
 30
0.0
 10
-71.02178320900839
 20
55.72976914826961
 30
0.0
 10
-70.60834844755867
 20
56.65169074074939
 30
0.0
 10
-70.40343737440772
 20
57.10862363679727
 30
0.0
  0
SPLINE
  5
9D
330
1F
100
AcDbEntity
  8
0
  6
Continuous
 62
     7
370
    15
100
AcDbSpline
210
0.0
220
0.0
230
1.0
 70
     8
 71
     3
 72
    46
 73
    42
 74
     0
 42
0.000000001
 43
0.00000001
 40
0.0
 40
0.0
 40
0.0
 40
0.0
 40
0.0135713809293393
 40
0.0270888384071266
 40
0.0404605122684682
 40
0.0577021252999861
 40
0.0663255831512123
 40
0.0922065616418227
 40
0.1180864349567611
 40
0.1267049949105506
 40
0.143948415634104
 40
0.1698298220285894
 40
0.1784616669671299
 40
0.1956892901676457
 40
0.2301730682329588
 40
0.2474303066480001
 40
0.2818576958482377
 40
0.3507750863520523
 40
0.3852664952569836
 40
0.4197606445261863
 40
0.4398515415483375
 40
0.4484397564083124
 40
0.4656200134647592
 40
0.4913990463995025
 40
0.4999942989985839
 40
0.5343838935991432
 40
0.6148677792449924
 40
0.6494044867534159
 40
0.675306197981107
 40
0.6954619365404087
 40
0.70698346098804
 40
0.7530607964270923
 40
0.8106339683618417
 40
0.8278996443442046
 40
0.8624396691710237
 40
0.8883518903704908
 40
0.8969878764729723
 40
0.9287496582148631
 40
0.9603965602597648
 40
0.9801985049224747
 40
1.0
 40
1.0
 40
1.0
 40
1.0
 10
-70.40334685147688
 20
57.10859933962772
 30
0.0
 10
-70.28233477853583
 20
57.37946645287933
 30
0.0
 10
-70.04079145245284
 20
57.92012443741903
 30
0.0
 10
-69.68336444065878
 20
58.72572571188215
 30
0.0
 10
-69.29668107969204
 20
59.602911135034
 30
0.0
 10
-68.9564021579205
 20
60.38113411274171
 30
0.0
 10
-68.51182862647553
 20
61.40556203201105
 30
0.0
 10
-67.99958808827684
 20
62.59798353684366
 30
0.0
 10
-67.49767467824032
 20
63.78534758478753
 30
0.0
 10
-67.07363418212604
 20
64.79975427659899
 30
0.0
 10
-66.65419389511435
 20
65.81183643295407
 30
0.0
 10
-66.24250428411898
 20
66.82007130046475
 30
0.0
 10
-65.83742256813244
 20
67.82443031110132
 30
0.0
 10
-65.37067399632018
 20
68.99261333867501
 30
0.0
 10
-64.85037994888523
 20
70.32027685928514
 30
0.0
 10
-64.2170833521656
 20
71.96853457530086
 30
0.0
 10
-63.35391296471096
 20
74.26010782149446
 30
0.0
 10
-62.41931035351896
 20
76.84124617211793
 30
0.0
 10
-61.53365991028519
 20
79.3773159429331
 30
0.0
 10
-60.98170504291065
 20
80.99415444565845
 30
0.0
 10
-60.60091997390472
 20
82.12790724376215
 30
0.0
 10
-60.32841073480044
 20
82.94583219261763
 30
0.0
 10
-60.02601433568474
 20
83.85998301793494
 30
0.0
 10
-59.72996892016657
 20
84.76529062631784
 30
0.0
 10
-59.3417277970719
 20
85.96277398069729
 30
0.0
 10
-58.65954979539514
 20
88.09020051832819
 30
0.0
 10
-57.87989628090583
 20
90.58829517328748
 30
0.0
 10
-57.1849311896753
 20
92.86291257265334
 30
0.0
 10
-56.79879134050463
 20
94.13850937450933
 30
0.0
 10
-56.52881222480741
 20
95.03560671328849
 30
0.0
 10
-56.16944774462868
 20
96.23352915110584
 30
0.0
 10
-55.65096759715014
 20
97.97108930330803
 30
0.0
 10
-55.13194937187655
 20
99.72252474398572
 30
0.0
 10
-54.67902811673562
 20
101.2568453474156
 30
0.0
 10
-54.36565493329202
 20
102.3224724267829
 30
0.0
 10
-54.09665658346401
 20
103.2439402946815
 30
0.0
 10
-53.84381413994577
 20
104.1140656471725
 30
0.0
 10
-53.57599733084538
 20
105.0413946263891
 30
0.0
 10
-53.27994414306217
 20
106.0780062360739
 30
0.0
 10
-53.0363009367163
 20
106.9434796611268
 30
0.0
 10
-52.90710743422107
 20
107.4120100670163
 30
0.0
 10
-52.84251141628709
 20
107.6462726105414
 30
0.0
  0
SPLINE
  5
9E
330
1F
100
AcDbEntity
  8
0
  6
Continuous
 62
     7
370
    15
100
AcDbSpline
210
0.0
220
0.0
230
1.0
 70
     8
 71
     3
 72
    60
 73
    56
 74
     0
 42
0.000000001
 43
0.00000001
 40
0.0
 40
0.0
 40
0.0
 40
0.0
 40
0.0072462524575289
 40
0.0144917060400341
 40
0.0216942806528174
 40
0.0344888451675614
 40
0.0400529558092701
 40
0.0623051189957095
 40
0.0734294643267935
 40
0.0882761891953524
 40
0.1142161828909003
 40
0.1364047804325019
 40
0.1474980029240424
 40
0.1770776918859472
 40
0.1992080232402807
 40
0.2102726099531233
 40
0.2213367090822453
 40
0.2323727902691325
 40
0.2434085272689001
 40
0.3095557544471393
 40
0.3535623547450519
 40
0.3645573690643772
 40
0.397545378788922
 40
0.4304696019962614
 40
0.4414471400254785
 40
0.4707557365649024
 40
0.4927197391219871
 40
0.5000421506337156
 40
0.514688073232918
 40
0.5403220922505376
 40
0.5513100514680709
 40
0.5622985108207417
 40
0.5732873254702334
 40
0.5879587865552499
 40
0.5952946490458256
 40
0.6136371197496163
 40
0.6246437034083102
 40
0.6356498020610041
 40
0.6687258796209042
 40
0.6797607409242018
 40
0.7018468583050079
 40
0.7128985014421473
 40
0.7184239265675306
 40
0.7349982676153992
 40
0.8383238593059271
 40
0.8531078706235776
 40
0.8752810418946992
 40
0.8974506991683098
 40
0.9196187804839567
 40
0.9417863458259119
 40
0.958436347431944
 40
0.9639864596489802
 40
0.9750867409106121
 40
0.9876066433903387
 40
0.9999999999999999
 40
0.9999999999999999
 40
0.9999999999999999
 40
0.9999999999999999
 10
109.1673341625684
 20
29.91492034727043
 30
0.0
 10
109.0846785925617
 20
29.82905657381944
 30
0.0
 10
108.9193765650476
 20
29.6573384931104
 30
0.0
 10
108.6705528138252
 20
29.39292170822384
 30
0.0
 10
108.3564760583407
 20
29.05438158005862
 30
0.0
 10
108.0593118933708
 20
28.72765222369619
 30
0.0
 10
107.5838684354993
 20
28.19563042814162
 30
0.0
 10
107.1240915677323
 20
27.666059382308
 30
0.0
 10
106.5485409592979
 20
26.98218078098994
 30
0.0
 10
105.9233618938848
 20
26.22274104338447
 30
0.0
 10
105.1554667246231
 20
25.25683579486071
 30
0.0
 10
104.4240047937778
 20
24.29991236874066
 30
0.0
 10
103.6404366989853
 20
23.24931880262437
 30
0.0
 10
102.8497680811266
 20
22.15670692766766
 30
0.0
 10
102.0513633323525
 20
21.01066743463636
 30
0.0
 10
101.4844779586483
 20
20.17904491179803
 30
0.0
 10
101.0580987942395
 20
19.54401067834491
 30
0.0
 10
100.6306588287361
 20
18.89772325624226
 30
0.0
 10
99.4892780639412
 20
17.14592013591576
 30
0.0
 10
97.90379834957845
 20
14.58954217785636
 30
0.0
 10
96.30705197429309
 20
11.83416344995154
 30
0.0
 10
95.1445467375286
 20
9.764223553153625
 30
0.0
 10
94.12678326734448
 20
7.907019251538468
 30
0.0
 10
93.10737700048263
 20
5.982309060955187
 30
0.0
 10
92.13554050682303
 20
4.109282007313586
 30
0.0
 10
91.30808091247825
 20
2.485341235076602
 30
0.0
 10
90.52736590702189
 20
0.9220534583567978
 30
0.0
 10
89.94094755076517
 20
-0.2640728946780397
 30
0.0
 10
89.30460395526634
 20
-1.560541053956717
 30
0.0
 10
88.61709067067697
 20
-2.97830388156366
 30
0.0
 10
87.97632387915138
 20
-4.311510958678471
 30
0.0
 10
87.53155973556021
 20
-5.241297551231517
 30
0.0
 10
87.03573786375765
 20
-6.282082688795238
 30
0.0
 10
86.5877548953339
 20
-7.226351067596715
 30
0.0
 10
86.03809452861557
 20
-8.388175425195813
 30
0.0
 10
85.5362767215719
 20
-9.451892396892834
 30
0.0
 10
84.98119565064054
 20
-10.6304617221161
 30
0.0
 10
84.22002677144296
 20
-12.24748381933173
 30
0.0
 10
83.45095230146248
 20
-13.88109750973486
 30
0.0
 10
82.51695439447406
 20
-15.85828750147042
 30
0.0
 10
81.88820467561271
 20
-17.18495242580643
 30
0.0
 10
81.33289691927395
 20
-18.35152228538944
 30
0.0
 10
80.85458563143
 20
-19.35397121743584
 30
0.0
 10
79.03439917913414
 20
-23.15689203385296
 30
0.0
 10
77.01300762720209
 20
-27.30228642606965
 30
0.0
 10
74.86948311423767
 20
-31.63349116681718
 30
0.0
 10
73.96097029609032
 20
-33.4614211687212
 30
0.0
 10
72.93309433149956
 20
-35.51899451229089
 30
0.0
 10
71.89976637939341
 20
-37.57627121651914
 30
0.0
 10
70.94762827639799
 20
-39.46127081212144
 30
0.0
 10
70.2521575138769
 20
-40.83063920981908
 30
0.0
 10
69.72920525839113
 20
-41.85733954509978
 30
0.0
 10
69.26974255847887
 20
-42.75553872008637
 30
0.0
 10
68.70321077347944
 20
-43.86390575414909
 30
0.0
 10
68.31003629102052
 20
-44.62869506043179
 30
0.0
 10
68.11444760655941
 20
-45.00914735573402
 30
0.0
  0
SPLINE
  5
9F
330
1F
100
AcDbEntity
  8
0
  6
Continuous
 62
     7
370
    15
100
AcDbSpline
210
0.0
220
0.0
230
1.0
 70
     8
 71
     3
 72
    10
 73
     6
 74
     0
 42
0.000000001
 43
0.00000001
 40
0.0
 40
0.0
 40
0.0
 40
0.0
 40
0.5
 40
0.5
 40
1.0
 40
1.0
 40
1.0
 40
1.0
 10
68.11473984069761
 20
-45.00904429390516
 30
0.0
 10
66.73457113272957
 20
-43.981463979483
 30
0.0
 10
65.30885200902902
 20
-42.96793512564653
 30
0.0
 10
62.38216504958717
 20
-40.96553645796011
 30
0.0
 10
60.88129636961824
 20
-39.97727090684002
 30
0.0
 10
59.34870338855888
 20
-38.97090460968102
 30
0.0
  0
SPLINE
  5
A0
330
1F
100
AcDbEntity
  8
0
  6
Continuous
 62
     7
370
    15
100
AcDbSpline
210
0.0
220
0.0
230
1.0
 70
     8
 71
     3
 72
    38
 73
    34
 74
     0
 42
0.000000001
 43
0.00000001
 40
0.0
 40
0.0
 40
0.0
 40
0.0
 40
0.0624999999999999
 40
0.0624999999999999
 40
0.1249999999999998
 40
0.1249999999999998
 40
0.1874999999999997
 40
0.1874999999999997
 40
0.2499999999999997
 40
0.2499999999999997
 40
0.3124999999999997
 40
0.3124999999999997
 40
0.3749999999999996
 40
0.3749999999999996
 40
0.4374999999999997
 40
0.4374999999999997
 40
0.4999999999999997
 40
0.4999999999999997
 40
0.5624999999999998
 40
0.5624999999999998
 40
0.6249999999999999
 40
0.6249999999999999
 40
0.6875
 40
0.6875
 40
0.75
 40
0.75
 40
0.8125
 40
0.8125
 40
0.875
 40
0.875
 40
0.9375
 40
0.9375
 40
1.0
 40
1.0
 40
1.0
 40
1.0
 10
-54.88095594031358
 20
45.04531801505411
 30
0.0
 10
-52.03246051185022
 20
48.51578196101708
 30
0.0
 10
-48.85385423672153
 20
51.71517158845526
 30
0.0
 10
-41.95020180868333
 20
57.45727642707183
 30
0.0
 10
-38.22530443140448
 20
59.99986789429334
 30
0.0
 10
-30.36270427526828
 20
64.33711398018104
 30
0.0
 10
-26.22517093763191
 20
66.1316751299874
 30
0.0
 10
-17.68574544021494
 20
68.9084352922784
 30
0.0
 10
-13.28403730742972
 20
69.89057446480908
 30
0.0
 10
-4.374194407014262
 20
71.00721420740182
 30
0.0
 10
0.1337483510225092
 20
71.14169071356685
 30
0.0
 10
9.094309560585138
 20
70.55814325662527
 30
0.0
 10
13.54673490952385
 20
69.84013186912874
 30
0.0
 10
22.23649548215178
 20
67.57733580778724
 30
0.0
 10
26.47364343908293
 20
66.03259989782703
 30
0.0
 10
34.58080117894571
 20
62.17174789265969
 30
0.0
 10
38.45063625037236
 20
59.85571499988749
 30
0.0
 10
45.68429366218158
 20
54.53534045730127
 30
0.0
 10
49.04796011523425
 20
51.53111346303895
 30
0.0
 10
55.14856226119425
 20
44.94211974005438
 30
0.0
 10
57.88536648442793
 20
41.35749500598017
 30
0.0
 10
62.63401422121938
 20
33.7363054993029
 30
0.0
 10
64.64575540009716
 20
29.69990496545424
 30
0.0
 10
67.87205982238922
 20
21.31997987035224
 30
0.0
 10
69.08655353804554
 20
16.97663589881625
 30
0.0
 10
70.67474979882307
 20
8.13866002975699
 30
0.0
 10
71.04841811787304
 20
3.644218593072679
 30
0.0
 10
70.94151925214652
 20
-5.334687657542032
 30
0.0
 10
70.46095437107033
 20
-9.818958973544536
 30
0.0
 10
68.66279607727894
 20
-18.61661841087733
 30
0.0
 10
67.34524141537524
 20
-22.92981694019896
 30
0.0
 10
63.92034442452975
 20
-31.23055578845332
 30
0.0
 10
61.81307590307102
 20
-35.21791722415436
 30
0.0
 10
59.34870338855887
 20
-38.97090460968105
 30
0.0
  0
SPLINE
  5
A1
330
1F
100
AcDbEntity
  8
0
  6
Continuous
 62
     7
370
    15
100
AcDbSpline
210
0.0
220
0.0
230
1.0
 70
     8
 71
     3
 72
    14
 73
    10
 74
     0
 42
0.000000001
 43
0.00000001
 40
0.0
 40
0.0
 40
0.0
 40
0.0
 40
0.25
 40
0.25
 40
0.5
 40
0.5
 40
0.75
 40
0.75
 40
1.0
 40
1.0
 40
1.0
 40
1.0
 10
-54.88095594031359
 20
45.04531801505406
 30
0.0
 10
-56.19041070133426
 20
46.12009532397433
 30
0.0
 10
-57.47599588903572
 20
47.17450713842222
 30
0.0
 10
-60.04495661259404
 20
49.25109796387759
 30
0.0
 10
-61.32812130054457
 20
50.27322083851686
 30
0.0
 10
-63.90818620833659
 20
52.28614940908506
 30
0.0
 10
-65.20487558027177
 20
53.27689896864577
 30
0.0
 10
-67.80509786171287
 20
55.22221033679696
 30
0.0
 10
-69.10841992331243
 20
56.17671600901918
 30
0.0
 10
-70.40346188610422
 20
57.1086414666553
 30
0.0
  0
SPLINE
  5
A2
330
1F
100
AcDbEntity
  8
0
  6
Continuous
 62
     7
370
    15
100
AcDbSpline
210
0.0
220
0.0
230
1.0
 70
     8
 71
     3
 72
    19
 73
    15
 74
     0
 42
0.000000001
 43
0.00000001
 40
0.0
 40
0.0
 40
0.0
 40
0.0
 40
0.0324661583390761
 40
0.0651055442216793
 40
0.097919462897534
 40
0.1309094432103326
 40
0.25954640687925
 40
0.3932442110249602
 40
0.5205917364160759
 40
0.6560394803742428
 40
0.781989546270245
 40
0.9210827474426334
 40
0.9590654476321151
 40
0.9999999999999999
 40
0.9999999999999999
 40
0.9999999999999999
 40
0.9999999999999999
 10
-32.94697422016456
 20
113.0207668078798
 30
0.0
 10
-33.17012726323554
 20
112.9992995024279
 30
0.0
 10
-33.61762401237733
 20
112.9562503498357
 30
0.0
 10
-34.28978891076849
 20
112.8828682886347
 30
0.0
 10
-34.96480112050662
 20
112.8025814201796
 30
0.0
 10
-36.29626383943631
 20
112.629681747895
 30
0.0
 10
-38.31161156512628
 20
112.3139652162373
 30
0.0
 10
-40.94976983021736
 20
111.7795575860966
 30
0.0
 10
-43.60611892133547
 20
111.1128443844122
 30
0.0
 10
-46.17689539278163
 20
110.3365101403378
 30
0.0
 10
-48.78381203706252
 20
109.4109168893073
 30
0.0
 10
-50.71990045207568
 20
108.6146707249714
 30
0.0
 10
-52.09347708418407
 20
107.9985602259864
 30
0.0
 10
-52.58655179328877
 20
107.7665281880287
 30
0.0
 10
-52.84231072871869
 20
107.6461726599153
 30
0.0
  0
SPLINE
  5
A3
330
1F
100
AcDbEntity
  8
0
  6
Continuous
 62
     7
370
    15
100
AcDbSpline
210
0.0
220
0.0
230
1.0
 70
     8
 71
     3
 72
    28
 73
    24
 74
     0
 42
0.000000001
 43
0.00000001
 40
0.0
 40
0.0
 40
0.0
 40
0.0
 40
0.0483928954957162
 40
0.0960956675484759
 40
0.1431132430571604
 40
0.1894506055499358
 40
0.2351127788610007
 40
0.280104839748405
 40
0.3244318579577666
 40
0.3680988596974805
 40
0.4111109076871911
 40
0.4534730574706995
 40
0.4951903145768434
 40
0.5362676815413888
 40
0.5767101507587821
 40
0.6165226731655413
 40
0.6557101881870772
 40
0.6942776240056273
 40
0.7322298954987556
 40
0.8009812803971215
 40
0.8685151312947472
 40
0.9348489676081421
 40
1.0
 40
1.0
 40
1.0
 40
1.0
 10
109.1675048400706
 20
29.91470120352515
 30
0.0
 10
109.1377761235071
 20
30.24133355795113
 30
0.0
 10
109.0787426469137
 20
30.88994021436156
 30
0.0
 10
108.9779996935723
 20
31.85466110605765
 30
0.0
 10
108.8694685756613
 20
32.80450286801755
 30
0.0
 10
108.7525617678197
 20
33.73941901787256
 30
0.0
 10
108.6278395269348
 20
34.65947086161265
 30
0.0
 10
108.4955588098852
 20
35.56469916991937
 30
0.0
 10
108.3560549744612
 20
36.45515729964222
 30
0.0
 10
108.2096444783179
 20
37.33090275925407
 30
0.0
 10
108.0566445890879
 20
38.19199850812782
 30
0.0
 10
107.897369788596
 20
39.03851276552108
 30
0.0
 10
107.7321356637697
 20
39.87051934446169
 30
0.0
 10
107.5612543656423
 20
40.68809685026829
 30
0.0
 10
107.3850351689051
 20
41.49132871095885
 30
0.0
 10
107.2037863947462
 20
42.28030368301368
 30
0.0
 10
107.01781179798
 20
43.0551144348959
 30
0.0
 10
106.8274150702732
 20
43.81586077878887
 30
0.0
 10
106.5792253040267
 20
44.7686419534004
 30
0.0
 10
106.2663035525242
 20
45.90738216666281
 30
0.0
 10
105.8789916509736
 20
47.22492140009412
 30
0.0
 10
105.4778611395189
 20
48.51283621838191
 30
0.0
 10
105.1944412687081
 20
49.35771673768948
 30
0.0
 10
105.0540061192835
 20
49.776356833867
 30
0.0
  0
SPLINE
  5
A4
330
1F
100
AcDbEntity
  8
0
  6
Continuous
 62
     7
370
    15
100
AcDbSpline
210
0.0
220
0.0
230
1.0
 70
     8
 71
     3
 72
    34
 73
    30
 74
     0
 42
0.000000001
 43
0.00000001
 40
0.0
 40
0.0
 40
0.0
 40
0.0
 40
0.125
 40
0.125
 40
0.1875000000000001
 40
0.2500000000000001
 40
0.3125000000000002
 40
0.3125000000000002
 40
0.3437500000000002
 40
0.3750000000000003
 40
0.3750000000000003
 40
0.4062500000000003
 40
0.4375000000000004
 40
0.4375000000000004
 40
0.5000000000000006
 40
0.5000000000000006
 40
0.5625000000000007
 40
0.5625000000000007
 40
0.5937500000000007
 40
0.6250000000000007
 40
0.6250000000000007
 40
0.6562500000000007
 40
0.6875000000000007
 40
0.6875000000000007
 40
0.7500000000000006
 40
0.8125000000000004
 40
0.8750000000000003
 40
0.8750000000000003
 40
1.0
 40
1.0
 40
1.0
 40
1.0
 10
59.34870338855888
 20
-38.97090460968102
 30
0.0
 10
53.94309143499125
 20
-47.20309895259155
 30
0.0
 10
46.99798236106793
 20
-54.06406538936405
 30
0.0
 10
35.07274430616423
 20
-61.9137489621211
 30
0.0
 10
26.6192936696435
 20
-66.33380003552487
 30
0.0
 10
12.84390209031797
 20
-70.32136598376029
 30
0.0
 10
3.18404196833422
 20
-71.0987057322826
 30
0.0
 10
-4.138263221603089
 20
-70.92116779061148
 30
0.0
 10
-9.043299171052048
 20
-70.54863335945188
 30
0.0
 10
-13.85188035390708
 20
-69.67876563098817
 30
0.0
 10
-18.56815813391956
 20
-68.57367903689243
 30
0.0
 10
-23.19443672108179
 20
-67.234035129522
 30
0.0
 10
-27.63842766971003
 20
-65.44401082917663
 30
0.0
 10
-34.13416683637139
 20
-62.43868404423078
 30
0.0
 10
-38.24038683684589
 20
-60.00850098204249
 30
0.0
 10
-45.89277656322617
 20
-54.38015000217093
 30
0.0
 10
-49.43582749935427
 20
-51.18426488787332
 30
0.0
 10
-54.23971950434123
 20
-45.87868873578831
 30
0.0
 10
-57.27228365394821
 20
-42.16970278565206
 30
0.0
 10
-59.92923814573377
 20
-38.15248054097398
 30
0.0
 10
-62.38907966790267
 20
-33.97951364257202
 30
0.0
 10
-64.651858442726
 20
-29.64841930946635
 30
0.0
 10
-66.4685815910477
 20
-25.07719951434102
 30
0.0
 10
-68.8192729939202
 20
-18.14026283831955
 30
0.0
 10
-70.95494512304069
 20
-8.686926438654963
 30
0.0
 10
-71.25183551616593
 20
5.650597519279534
 30
0.0
 10
-69.55067708404977
 20
15.03706173275782
 30
0.0
 10
-65.60977058982392
 20
28.7592715249097
 30
0.0
 10
-61.12914319573403
 20
37.43284007990066
 30
0.0
 10
-54.88095594031363
 20
45.04531801505402
 30
0.0
  0
SPLINE
  5
A5
330
1F
100
AcDbEntity
  8
0
  6
Continuous
 62
     7
370
    15
100
AcDbSpline
210
0.0
220
0.0
230
1.0
 70
     8
 71
     3
 72
    38
 73
    34
 74
     0
 42
0.000000001
 43
0.00000001
 40
0.0
 40
0.0
 40
0.0
 40
0.0
 40
0.0077979422711974
 40
0.0156330470378693
 40
0.023510140775815
 40
0.0314351145969526
 40
0.0471400894435479
 40
0.0628398550713645
 40
0.0942783004125668
 40
0.1256875478928707
 40
0.1883174694224356
 40
0.2506904097941944
 40
0.3131879695930835
 40
0.3759097532780037
 40
0.4007750230305001
 40
0.4258954623518895
 40
0.4445502412327895
 40
0.4537155534791563
 40
0.463172380689293
 40
0.4817742430565167
 40
0.5003651919815242
 40
0.5623721408121308
 40
0.6246983556119504
 40
0.6873874306430584
 40
0.7498031985318516
 40
0.8120658222775737
 40
0.8432008244302996
 40
0.8744150857433837
 40
0.9066243628077489
 40
0.9371178249236767
 40
0.959176902909121
 40
0.9801251846407465
 40
1.0
 40
1.0
 40
1.0
 40
1.0
 10
68.1147623533365
 20
-45.00906122633449
 30
0.0
 10
68.00653427792031
 20
-45.21712582086001
 30
0.0
 10
67.78956234674186
 20
-45.63424657913323
 30
0.0
 10
67.4670781122296
 20
-46.26282136986903
 30
0.0
 10
67.14245421201474
 20
-46.89393649026479
 30
0.0
 10
66.71088445334786
 20
-47.73481748451419
 30
0.0
 10
66.17374765438551
 20
-48.78345239414205
 30
0.0
 10
65.32003131272272
 20
-50.45672134860349
 30
0.0
 10
64.26354856645624
 20
-52.54417311993493
 30
0.0
 10
62.60693125711266
 20
-55.86919650860485
 30
0.0
 10
60.61351386451617
 20
-59.99630679107312
 30
0.0
 10
58.3950997639512
 20
-64.91191719610308
 30
0.0
 10
56.40565222452863
 20
-69.79488876512505
 30
0.0
 10
55.04352596151926
 20
-73.6668827455509
 30
0.0
 10
54.15961099319139
 20
-76.54755871178125
 30
0.0
 10
53.67210635021176
 20
-78.29203794581112
 30
0.0
 10
53.3273494898266
 20
-79.62861266597506
 30
0.0
 10
53.10100533715584
 20
-80.56589776471841
 30
0.0
 10
52.88766749601001
 20
-81.50004664016639
 30
0.0
 10
52.63163211810577
 20
-82.66279744313437
 30
0.0
 10
52.1486904090937
 20
-85.12078572960405
 30
0.0
 10
51.61811830447739
 20
-88.606237681544
 30
0.0
 10
51.21085998066983
 20
-93.01856378446182
 30
0.0
 10
51.02570368741879
 20
-97.26140283911666
 30
0.0
 10
50.98120546301126
 20
-101.2921522687465
 30
0.0
 10
50.99429406103425
 20
-104.4430202426647
 30
0.0
 10
51.00125723450085
 20
-106.8251157088744
 30
0.0
 10
50.99975044779183
 20
-108.5586960092916
 30
0.0
 10
50.98670973042305
 20
-110.2023078437343
 30
0.0
 10
50.96575802588018
 20
-111.6133488075751
 30
0.0
 10
50.94389334576601
 20
-112.7828867818911
 30
0.0
 10
50.92505301066421
 20
-113.7487595068603
 30
0.0
 10
50.91733236659726
 20
-114.3478526307573
 30
0.0
 10
50.91357355390983
 20
-114.6395224468408
 30
0.0
  0
SPLINE
  5
A6
330
1F
100
AcDbEntity
  8
0
  6
Continuous
 62
     7
370
    15
100
AcDbSpline
210
0.0
220
0.0
230
1.0
 70
     8
 71
     3
 72
    54
 73
    50
 74
     0
 42
0.000000001
 43
0.00000001
 40
0.0
 40
0.0
 40
0.0
 40
0.0
 40
0.0043898064465941
 40
0.0086709779085113
 40
0.0128421927738182
 40
0.0169021163408091
 40
0.031709377896654
 40
0.0458708400738307
 40
0.060503187778959
 40
0.0747818729677861
 40
0.1036538029192752
 40
0.1180829462313313
 40
0.1325087879126251
 40
0.1465689909381774
 40
0.1613572943981058
 40
0.175517811260967
 40
0.1902135582086773
 40
0.2040279658788196
 40
0.2191346977901493
 40
0.2324201575059637
 40
0.2482175077826046
 40
0.2627089192447731
 40
0.2771362620295783
 40
0.3058665278738131
 40
0.3345604164989684
 40
0.3633639349917308
 40
0.3923978949782388
 40
0.4501122229365569
 40
0.5075243967723951
 40
0.5651957670932092
 40
0.5941787096265658
 40
0.6014141574678009
 40
0.6086465235771313
 40
0.6231054120524667
 40
0.6528484700705319
 40
0.6808866939381288
 40
0.7104038898753801
 40
0.7386622544093904
 40
0.7676086310405075
 40
0.7966361532402526
 40
0.8255762178716163
 40
0.8544371954830924
 40
0.8833315993258811
 40
0.9124060908559272
 40
0.9413248601275341
 40
0.955728892380173
 40
0.9701410026670951
 40
0.9991432549413669
 40
0.9999999999999999
 40
0.9999999999999999
 40
0.9999999999999999
 40
0.9999999999999999
 10
-117.4932888159197
 20
-32.20068673867011
 30
0.0
 10
-117.3949703409648
 20
-32.49455889361493
 30
0.0
 10
-117.2007664883111
 20
-33.07503071952655
 30
0.0
 10
-116.9049141347891
 20
-33.93195367138649
 30
0.0
 10
-116.6112241100493
 20
-34.76496061383477
 30
0.0
 10
-116.0599799356405
 20
-36.2950028539722
 30
0.0
 10
-115.2371245347418
 20
-38.47673336925602
 30
0.0
 10
-114.0932963223909
 20
-41.33431743180873
 30
0.0
 10
-112.9143297554558
 20
-44.13712782794954
 30
0.0
 10
-111.2772809288431
 20
-47.87329372026215
 30
0.0
 10
-109.5774826587102
 20
-51.56578632532061
 30
0.0
 10
-107.8290329230532
 20
-55.24666320384495
 30
0.0
 10
-106.4980442007104
 20
-57.96813045044833
 30
0.0
 10
-105.1262822288065
 20
-60.6976479123274
 30
0.0
 10
-103.7333708244664
 20
-63.39541648038691
 30
0.0
 10
-102.2877511845681
 20
-66.11613012749821
 30
0.0
 10
-100.8538124010104
 20
-68.76529496835286
 30
0.0
 10
-99.31390797906998
 20
-71.43202093559161
 30
0.0
 10
-97.74504107157335
 20
-73.96556766715963
 30
0.0
 10
-96.019426316533
 20
-76.56472261970676
 30
0.0
 10
-94.23270275524062
 20
-79.06943926648212
 30
0.0
 10
-92.30729035827987
 20
-81.57160995655134
 30
0.0
 10
-89.71274717575518
 20
-84.70768441567084
 30
0.0
 10
-86.27136262975733
 20
-88.44012185397571
 30
0.0
 10
-81.83057450238704
 20
-92.61049529289265
 30
0.0
 10
-77.08655504337776
 20
-96.46657599693312
 30
0.0
 10
-70.41791322073462
 20
-101.1728623717815
 30
0.0
 10
-61.56900225128874
 20
-106.2495820376127
 30
0.0
 10
-50.38823282616431
 20
-111.1715429281097
 30
0.0
 10
-40.73609604938499
 20
-114.4148663949415
 30
0.0
 10
-34.34112180922522
 20
-116.1606839644667
 30
0.0
 10
-31.36439601648113
 20
-116.9004475165138
 30
0.0
 10
-29.37940998002628
 20
-117.3795085037658
 30
0.0
 10
-25.84424790087307
 20
-118.207570127431
 30
0.0
 10
-20.86182903467043
 20
-119.2959461508706
 30
0.0
 10
-14.81519043596837
 20
-120.4875050244872
 30
0.0
 10
-8.845382056964775
 20
-121.5196793017953
 30
0.0
 10
-2.785712185293701
 20
-122.3957244182387
 30
0.0
 10
3.265650752193022
 20
-123.0680392270928
 30
0.0
 10
9.38795212977316
 20
-123.4977934568004
 30
0.0
 10
15.51880209346708
 20
-123.6281718137964
 30
0.0
 10
21.63855441084681
 20
-123.4007936669476
 30
0.0
 10
27.73940509441593
 20
-122.7537681038059
 30
0.0
 10
33.77457530789342
 20
-121.6196338177756
 30
0.0
 10
38.69886733346757
 20
-120.2205513873127
 30
0.0
 10
42.52615638045603
 20
-118.8148952267926
 30
0.0
 10
46.2807601520963
 20
-117.2113002218376
 30
0.0
 10
49.05510971498863
 20
-115.7553979302681
 30
0.0
 10
50.86287131984435
 20
-114.6715850356371
 30
0.0
 10
50.91474147492284
 20
-114.6404871614652
 30
0.0
  0
SPLINE
  5
AE
330
1F
100
AcDbEntity
  8
0
  6
Continuous
 62
     7
370
    15
100
AcDbSpline
210
0.0
220
0.0
230
1.0
 70
     8
 71
     3
 72
     9
 73
     5
 74
     0
 42
0.000000001
 43
0.00000001
 40
0.0
 40
0.0
 40
0.0
 40
0.0
 40
0.4857697889063277
 40
1.0
 40
1.0
 40
1.0
 40
1.0
 10
1.57865666164976
 20
-2.659764404974387
 30
0.0
 10
1.77412224966966
 20
-2.648148633239524
 30
0.0
 10
2.176505420636254
 20
-2.624236541544779
 30
0.0
 10
2.393547457031202
 20
-2.600324449850033
 30
0.0
 10
2.505157029222778
 20
-2.588028129890153
 30
0.0
  0
LWPOLYLINE
  5
AF
330
1F
100
AcDbEntity
  8
0
  6
Continuous
 62
     7
370
    15
100
AcDbPolyline
 90
        3
 70
   128
 43
0.0
 10
2.5
 20
2.4494897428
 10
2.9300826739
 20
1.9143185534
 10
3.3541019662
 20
1.0
  0
LWPOLYLINE
  5
B1
330
1F
100
AcDbEntity
  8
0
  6
Continuous
 62
     7
370
    15
100
AcDbPolyline
 90
        3
 70
   128
 43
0.0
 10
-3.3541019662
 20
1.0
 10
-2.9300826739
 20
1.9143185534
 10
-2.5
 20
2.4494897428
  0
CIRCLE
  5
B9
330
1F
100
AcDbEntity
  8
0
  6
Continuous
 62
     7
370
    15
100
AcDbCircle
 10
0.0
 20
0.0
 30
0.0
 40
57.50000000000004
  0
CIRCLE
  5
BA
330
1F
100
AcDbEntity
  8
0
  6
Continuous
 62
     7
370
    15
100
AcDbCircle
 10
0.0
 20
0.0
 30
0.0
 40
52.49999999999989
  0
CIRCLE
  5
CD
330
1F
100
AcDbEntity
  8
0
  6
Continuous
 62
     7
370
    15
100
AcDbCircle
 10
0.0
 20
0.0
 30
0.0
 40
60.24999999998022
  0
CIRCLE
  5
F3
330
1F
100
AcDbEntity
  8
0
  6
Continuous
 62
     7
370
    15
100
AcDbCircle
 10
-7.82
 20
0.0
 30
0.0
 40
1.000000000000001
  0
CIRCLE
  5
F4
330
1F
100
AcDbEntity
  8
0
  6
Continuous
 62
     7
370
    15
100
AcDbCircle
 10
-7.82
 20
0.0
 30
0.0
 40
0.9000000000000021
  0
LWPOLYLINE
  5
F8
330
1F
100
AcDbEntity
  8
0
  6
Continuous
 62
     8
370
    15
100
AcDbPolyline
 90
        5
 70
   128
 43
0.0
 10
6.7851305335
 20
0.0
 10
6.8170129994
 20
-0.3826834324
 10
6.9078065809
 20
-0.7071067812
 10
7.043688778
 20
-0.9238795325
 10
7.2039727582
 20
-1.0
  0
LWPOLYLINE
  5
F9
330
1F
100
AcDbEntity
  8
0
  6
Continuous
 62
     8
370
    15
100
AcDbPolyline
 90
        5
 70
   128
 43
0.0
 10
7.2039727582
 20
1.0
 10
7.043688778
 20
0.9238795325
 10
6.9078065809
 20
0.7071067812
 10
6.8170129994
 20
0.3826834324
 10
6.7851305335
 20
0.0
  0
LWPOLYLINE
  5
FA
330
1F
100
AcDbEntity
  8
0
  6
Continuous
 62
     8
370
    15
100
AcDbPolyline
 90
       10
 70
   128
 43
0.0
 10
2.3623155505
 20
-1.0
 10
2.2020315703
 20
-0.9238795325
 10
2.0661493731
 20
-0.7071067812
 10
1.9753557917
 20
-0.3826834324
 10
1.9434733258
 20
0.0
 10
1.9753557917
 20
0.3826834324
 10
2.0661493731
 20
0.7071067812
 10
2.2020315703
 20
0.9238795325
 10
2.3623155505
 20
1.0
 10
2.3623155505
 20
1.0
  0
SPLINE
  5
FB
330
1F
100
AcDbEntity
  8
0
  6
Continuous
 62
     8
370
    15
100
AcDbSpline
210
0.0
220
0.0
230
1.0
 70
     8
 71
     3
 72
    18
 73
    14
 74
     0
 42
0.000000001
 43
0.00000001
 40
0.0
 40
0.0
 40
0.0
 40
0.0
 40
0.0924458211259485
 40
0.1849262481589753
 40
0.2776760853765876
 40
0.3848421872009102
 40
0.4923464602435734
 40
0.5998525531128399
 40
0.6801988024567415
 40
0.7609819692364561
 40
0.839201506133318
 40
0.9221429778254427
 40
1.0
 40
1.0
 40
1.0
 40
1.0
 10
105.0539972247697
 20
49.77638291935683
 30
0.0
 10
105.9343039529611
 20
50.04510648816101
 30
0.0
 10
107.6952469408735
 20
50.58265421898965
 30
0.0
 10
109.9090941148159
 20
51.95155265238437
 30
0.0
 10
111.8994324491083
 20
53.77749766917714
 30
0.0
 10
113.5551730215177
 20
56.10961604689257
 30
0.0
 10
114.7790908623457
 20
58.89481058835469
 30
0.0
 10
115.3884285321217
 20
61.66065908926281
 30
0.0
 10
115.4985347814358
 20
64.27512223130557
 30
0.0
 10
115.2259206177146
 20
66.62342697627676
 30
0.0
 10
114.6385842223898
 20
69.15164561461408
 30
0.0
 10
113.7936388363184
 20
71.75186947456112
 30
0.0
 10
112.8958032328196
 20
73.59551011687503
 30
0.0
 10
112.4610802151484
 20
74.48818247293305
 30
0.0
  0
SPLINE
  5
FC
330
1F
100
AcDbEntity
  8
0
  6
Continuous
 62
     8
370
    15
100
AcDbSpline
210
0.0
220
0.0
230
1.0
 70
     8
 71
     3
 72
    17
 73
    13
 74
     0
 42
0.000000001
 43
0.00000001
 40
0.0
 40
0.0
 40
0.0
 40
0.0
 40
0.0471356812664328
 40
0.1539373064377397
 40
0.2661715914058782
 40
0.3741092622245848
 40
0.4956446321011571
 40
0.6055049604860376
 40
0.7033409260278118
 40
0.8047443346623344
 40
0.9018809741034229
 40
1.0
 40
1.0
 40
1.0
 40
1.0
 10
-34.59556906978644
 20
121.5903843023812
 30
0.0
 10
-34.64489661905993
 20
121.5961561376726
 30
0.0
 10
-34.80599220237006
 20
121.6150059931131
 30
0.0
 10
-34.93373460714633
 20
121.3655169258932
 30
0.0
 10
-35.02763708567213
 20
120.9262414130805
 30
0.0
 10
-35.00720994396207
 20
120.2283921918012
 30
0.0
 10
-34.88105553712752
 20
119.3242437680749
 30
0.0
 10
-34.65172302130429
 20
118.2464721795462
 30
0.0
 10
-34.34771420426299
 20
117.0813684081152
 30
0.0
 10
-33.96973299376627
 20
115.8345300886069
 30
0.0
 10
-33.51179721080079
 20
114.4792130695101
 30
0.0
 10
-33.13586342871223
 20
113.5085449188332
 30
0.0
 10
-32.94695082309661
 20
113.0207689905469
 30
0.0
  0
SPLINE
  5
FD
330
1F
100
AcDbEntity
  8
0
  6
Continuous
 62
     8
370
    15
100
AcDbSpline
210
0.0
220
0.0
230
1.0
 70
     8
 71
     3
 72
    19
 73
    15
 74
     0
 42
0.000000001
 43
0.00000001
 40
0.0
 40
0.0
 40
0.0
 40
0.0
 40
0.064150643429135
 40
0.1738172489241216
 40
0.2861736416608187
 40
0.3979307342988337
 40
0.4658854653923933
 40
0.5328295919280569
 40
0.599516929880726
 40
0.666172550426468
 40
0.7328953083541309
 40
0.8443879500153265
 40
0.9559702944123966
 40
1.0
 40
1.0
 40
1.0
 40
1.0
 10
-117.4933474619484
 20
-32.20051012401445
 30
0.0
 10
-117.7901372489727
 20
-32.61992017370556
 30
0.0
 10
-118.5942941760396
 20
-33.75631876788286
 30
0.0
 10
-119.6780654576419
 20
-35.5369658252546
 30
0.0
 10
-120.640779260694
 20
-37.49750330449578
 30
0.0
 10
-121.2005812393435
 20
-39.09174444763553
 30
0.0
 10
-121.4931626302753
 20
-40.34801454731458
 30
0.0
 10
-121.6271885638903
 20
-41.31540707383464
 30
0.0
 10
-121.6612114706391
 20
-42.21572762778556
 30
0.0
 10
-121.6083897933474
 20
-43.04807148217348
 30
0.0
 10
-121.4169537791067
 20
-43.99626919279481
 30
0.0
 10
-121.1737453720004
 20
-44.91062777612355
 30
0.0
 10
-120.9810848117121
 20
-45.56399106875722
 30
0.0
 10
-120.888539127085
 20
-45.75312293488842
 30
0.0
 10
-120.862353756171
 20
-45.80663691651009
 30
0.0
  0
SPLINE
  5
FE
330
1F
100
AcDbEntity
  8
0
  6
Continuous
 62
     8
370
    15
100
AcDbSpline
210
0.0
220
0.0
230
1.0
 70
     8
 71
     3
 72
    13
 73
     9
 74
     0
 42
0.000000001
 43
0.00000001
 40
0.0
 40
0.0
 40
0.0
 40
0.0
 40
0.0504169315107312
 40
0.2614274020482868
 40
0.4742797620990446
 40
0.6504959798214773
 40
0.8253514497764175
 40
1.0
 40
1.0
 40
1.0
 40
1.0
 10
-46.61355512422623
 20
118.3934288078872
 30
0.0
 10
-46.76702153956306
 20
118.3524477196814
 30
0.0
 10
-47.56279242567167
 20
118.1399480870827
 30
0.0
 10
-48.79175172098675
 20
117.1839001338302
 30
0.0
 10
-50.1159660505576
 20
115.4079880408131
 30
0.0
 10
-51.15232261628699
 20
113.1377464002258
 30
0.0
 10
-52.01314079870135
 20
110.6232914356691
 30
0.0
 10
-52.56597504166007
 20
108.6381799098478
 30
0.0
 10
-52.84222851364409
 20
107.6462117778654
 30
0.0
  0
SPLINE
  5
FF
330
1F
100
AcDbEntity
  8
0
  6
Continuous
 62
     8
370
    15
100
AcDbSpline
210
0.0
220
0.0
230
1.0
 70
     8
 71
     3
 72
    17
 73
    13
 74
     0
 42
0.000000001
 43
0.00000001
 40
0.0
 40
0.0
 40
0.0
 40
0.0
 40
0.0936192130760196
 40
0.1862036376837502
 40
0.2784840830650261
 40
0.3924912363582388
 40
0.5104172680690514
 40
0.6297517990473485
 40
0.7462462569833024
 40
0.8630132649934154
 40
0.9807806087594269
 40
1.0
 40
1.0
 40
1.0
 40
1.0
 10
109.1674953883111
 20
29.91480863094252
 30
0.0
 10
109.8781398182299
 20
30.60830967099331
 30
0.0
 10
111.2915738089976
 20
31.9876463707161
 30
0.0
 10
113.3517386870946
 20
33.46958247738616
 30
0.0
 10
115.4709163967378
 20
34.62147028468303
 30
0.0
 10
117.6064100306975
 20
35.30374865758691
 30
0.0
 10
119.6358136353643
 20
35.40262737771581
 30
0.0
 10
121.3068901486068
 20
34.85624849296221
 30
0.0
 10
122.4855268359699
 20
33.73860706450273
 30
0.0
 10
123.3200379381041
 20
31.90938821138056
 30
0.0
 10
123.7788435678762
 20
30.27432006352522
 30
0.0
 10
123.8217655379286
 20
29.07854585775231
 30
0.0
 10
123.827787538053
 20
28.91077740706962
 30
0.0
  0
SPLINE
  5
100
330
1F
100
AcDbEntity
  8
0
  6
Continuous
 62
     8
370
    15
100
AcDbSpline
210
0.0
220
0.0
230
1.0
 70
     8
 71
     3
 72
    14
 73
    10
 74
     0
 42
0.000000001
 43
0.00000001
 40
0.0
 40
0.0
 40
0.0
 40
0.0
 40
0.0969858245276232
 40
0.2802682971884215
 40
0.4625593431218866
 40
0.6454260864221534
 40
0.828713140862853
 40
0.9161421163749488
 40
0.9999999999999999
 40
0.9999999999999999
 40
0.9999999999999999
 40
0.9999999999999999
 10
50.39014564601213
 20
-124.2866030502371
 30
0.0
 10
50.49942694629743
 20
-124.2322613345859
 30
0.0
 10
50.81522653963669
 20
-124.0752253946841
 30
0.0
 10
51.00672056236182
 20
-123.2474568515319
 30
0.0
 10
51.05620668144041
 20
-121.7658894756881
 30
0.0
 10
50.99188404332354
 20
-119.7735203225359
 30
0.0
 10
50.93127060226194
 20
-117.7612705307117
 30
0.0
 10
50.90800886580534
 20
-116.0059467031361
 30
0.0
 10
50.91281883410044
 20
-115.0890954953101
 30
0.0
 10
50.91517367768599
 20
-114.6402274252512
 30
0.0
  0
LWPOLYLINE
  5
101
330
1F
100
AcDbEntity
  8
0
  6
Continuous
 62
     8
370
    15
100
AcDbPolyline
 90
       10
 70
   128
 43
0.0
 10
2.5
 20
16.6365202248
 10
2.3096988313
 20
17.2395332133
 10
1.767766953
 20
17.7507429407
 10
0.9567085809
 20
18.09232236
 10
0.0
 20
18.2122691012
 10
-0.9567085809
 20
18.09232236
 10
-1.767766953
 20
17.7507429407
 10
-2.3096988313
 20
17.2395332133
 10
-2.5
 20
16.6365202248
 10
-2.5
 20
16.6365202248
  0
LWPOLYLINE
  5
102
330
1F
100
AcDbEntity
  8
0
  6
Continuous
 62
     8
370
    15
100
AcDbPolyline
 90
       10
 70
   128
 43
0.0
 10
-7.2039727582
 20
-1.0
 10
-7.043688778
 20
-0.9238795325
 10
-6.9078065809
 20
-0.7071067812
 10
-6.8170129994
 20
-0.3826834324
 10
-6.7851305335
 20
0.0
 10
-6.8170129994
 20
0.3826834324
 10
-6.9078065809
 20
0.7071067812
 10
-7.043688778
 20
0.9238795325
 10
-7.2039727582
 20
1.0
 10
-7.2039727582
 20
1.0
  0
LWPOLYLINE
  5
103
330
1F
100
AcDbEntity
  8
0
  6
Continuous
 62
     8
370
    15
100
AcDbPolyline
 90
        5
 70
   128
 43
0.0
 10
-1.9434733258
 20
0.0
 10
-1.9753557917
 20
-0.3826834324
 10
-2.0661493731
 20
-0.7071067812
 10
-2.2020315703
 20
-0.9238795325
 10
-2.3623155505
 20
-1.0
  0
LWPOLYLINE
  5
104
330
1F
100
AcDbEntity
  8
0
  6
Continuous
 62
     8
370
    15
100
AcDbPolyline
 90
        5
 70
   128
 43
0.0
 10
-2.3623155505
 20
1.0
 10
-2.2020315703
 20
0.9238795325
 10
-2.0661493731
 20
0.7071067812
 10
-1.9753557917
 20
0.3826834324
 10
-1.9434733258
 20
0.0
  0
LINE
  5
105
330
1F
100
AcDbEntity
  8
0
  6
Continuous
 62
     7
370
    15
100
AcDbLine
 10
7.82
 20
1.0
 30
0.0
 11
1.2
 21
1.0
 31
0.0
  0
LINE
  5
106
330
1F
100
AcDbEntity
  8
0
  6
Continuous
 62
     7
370
    15
100
AcDbLine
 10
1.2
 20
-1.0
 30
0.0
 11
7.82
 21
-1.0
 31
0.0
  0
LINE
  5
107
330
1F
100
AcDbEntity
  8
0
  6
Continuous
 62
     7
370
    15
100
AcDbLine
 10
-0.2737006411
 20
-2.5718694254
 30
0.0
 11
-0.2250261609
 21
-2.4877764481
 31
0.0
  0
LINE
  5
108
330
1F
100
AcDbEntity
  8
0
  6
Continuous
 62
     7
370
    15
100
AcDbLine
 10
-1.3249753975
 20
-3.0
 30
0.0
 11
-1.2250253488
 21
-3.0
 31
0.0
  0
LINE
  5
109
330
1F
100
AcDbEntity
  8
0
  6
Continuous
 62
     7
370
    15
100
AcDbLine
 10
-1.383392569
 20
-2.905241262
 30
0.0
 11
-1.330406927
 21
-2.9968056984
 31
0.0
  0
LINE
  5
10A
330
1F
100
AcDbEntity
  8
0
  6
Continuous
 62
     7
370
    15
100
AcDbLine
 10
-1.220381178
 20
-2.9980727234
 30
0.0
 11
-1.1707277299
 21
-2.9122735952
 31
0.0
  0
LINE
  5
10B
330
1F
100
AcDbEntity
  8
0
  6
Continuous
 62
     7
370
    15
100
AcDbLine
 10
-0.2352868859
 20
-2.4700520159
 30
0.0
 11
-0.2053408657
 21
-2.5217809342
 31
0.0
  0
LINE
  5
10C
330
1F
100
AcDbEntity
  8
0
  6
Continuous
 62
     7
370
    15
100
AcDbLine
 10
-0.0439599122
 20
-2.5439587882
 30
0.0
 11
0.0
 21
-2.4999988955
 31
0.0
  0
LINE
  5
10D
330
1F
100
AcDbEntity
  8
0
  6
Continuous
 62
     7
370
    15
100
AcDbLine
 10
-7.82
 20
-0.85
 30
0.0
 11
-7.5241960108
 21
-0.85
 31
0.0
  0
LINE
  5
10E
330
1F
100
AcDbEntity
  8
0
  6
Continuous
 62
     7
370
    15
100
AcDbLine
 10
-7.5241960108
 20
0.85
 30
0.0
 11
-7.82
 21
0.85
 31
0.0
  0
LINE
  5
10F
330
1F
100
AcDbEntity
  8
0
  6
Continuous
 62
     7
370
    15
100
AcDbLine
 10
7.82
 20
0.85
 30
0.0
 11
7.5241960108
 21
0.85
 31
0.0
  0
LINE
  5
110
330
1F
100
AcDbEntity
  8
0
  6
Continuous
 62
     7
370
    15
100
AcDbLine
 10
7.5241960108
 20
-0.85
 30
0.0
 11
7.82
 21
-0.85
 31
0.0
  0
LINE
  5
111
330
1F
100
AcDbEntity
  8
0
  6
Continuous
 62
     7
370
    15
100
AcDbLine
 10
-2.5
 20
26.5
 30
0.0
 11
-2.5
 21
1.9163767897
 31
0.0
  0
LINE
  5
112
330
1F
100
AcDbEntity
  8
0
  6
Continuous
 62
     7
370
    15
100
AcDbLine
 10
2.5
 20
1.9163767897
 30
0.0
 11
2.5
 21
26.5
 31
0.0
  0
LINE
  5
113
330
1F
100
AcDbEntity
  8
0
  6
Continuous
 62
     7
370
    15
100
AcDbLine
 10
-7.82
 20
-1.0
 30
0.0
 11
-1.2
 21
-1.0
 31
0.0
  0
LINE
  5
114
330
1F
100
AcDbEntity
  8
0
  6
Continuous
 62
     7
370
    15
100
AcDbLine
 10
-1.2
 20
1.0
 30
0.0
 11
-7.82
 21
1.0
 31
0.0
  0
LINE
  5
115
330
1F
100
AcDbEntity
  8
0
  6
Continuous
 62
     7
370
    15
100
AcDbLine
 10
-120.8623537562
 20
-45.8066369165
 30
0.0
 11
-120.7484131056
 21
-46.0567111163
 31
0.0
  0
LINE
  5
116
330
1F
100
AcDbEntity
  8
0
  6
Continuous
 62
     7
370
    15
100
AcDbLine
 10
-46.5461050952
 20
118.4133443665
 30
0.0
 11
-46.6135551242
 21
118.3934288079
 31
0.0
  0
LINE
  5
117
330
1F
100
AcDbEntity
  8
0
  6
Continuous
 62
     7
370
    15
100
AcDbLine
 10
123.8277875381
 20
28.9107774071
 30
0.0
 11
123.8650137985
 21
28.0732385925
 31
0.0
  0
LINE
  5
118
330
1F
100
AcDbEntity
  8
0
  6
Continuous
 62
     7
370
    15
100
AcDbLine
 10
50.305037189
 20
-124.3438085057
 30
0.0
 11
50.390145646
 21
-124.2866030502
 31
0.0
  0
LINE
  5
119
330
1F
100
AcDbEntity
  8
0
  6
Continuous
 62
     7
370
    15
100
AcDbLine
 10
-1.2250253144
 20
-3.0
 30
0.0
 11
-1.2184179249
 21
-2.9655114923
 31
0.0
  0
LINE
  5
11A
330
1F
100
AcDbEntity
  8
0
  6
Continuous
 62
     7
370
    15
100
AcDbLine
 10
-1.324975431
 20
-3.0
 30
0.0
 11
-1.3323713115
 21
-2.9613927632
 31
0.0
  0
LINE
  5
11B
330
1F
100
AcDbEntity
  8
0
  6
Continuous
 62
     7
370
    15
100
AcDbLine
 10
2.4270132822
 20
-2.5000864432
 30
0.0
 11
2.5471610429
 21
-2.45484919
 31
0.0
  0
LINE
  5
11C
330
1F
100
AcDbEntity
  8
0
  6
Continuous
 62
     7
370
    15
100
AcDbLine
 10
1.7977804187
 20
-2.5474974118
 30
0.0
 11
2.4270536615
 21
-2.5000864432
 31
0.0
  0
LINE
  5
11D
330
1F
100
AcDbEntity
  8
0
  6
Continuous
 62
     7
370
    15
100
AcDbLine
 10
-1.0712224459
 20
-3.28023586
 30
0.0
 11
-1.2488536762
 21
-3.2968761743
 31
0.0
  0
LINE
  5
11E
330
1F
100
AcDbEntity
  8
0
  6
Continuous
 62
     7
370
    15
100
AcDbLine
 10
-6.0
 20
11.35
 30
0.0
 11
-6.0
 21
1.0
 31
0.0
  0
LINE
  5
11F
330
1F
100
AcDbEntity
  8
0
  6
Continuous
 62
     7
370
    15
100
AcDbLine
 10
6.0
 20
1.0
 30
0.0
 11
6.0
 21
11.35
 31
0.0
  0
LINE
  5
120
330
1F
100
AcDbEntity
  8
0
  6
Continuous
 62
     7
370
    15
100
AcDbLine
 10
6.0
 20
10.0
 30
0.0
 11
27.5
 21
10.0
 31
0.0
  0
LINE
  5
121
330
1F
100
AcDbEntity
  8
0
  6
Continuous
 62
     7
370
    15
100
AcDbLine
 10
34.5
 20
-3.0
 30
0.0
 11
34.5
 21
3.0
 31
0.0
  0
LINE
  5
122
330
1F
100
AcDbEntity
  8
0
  6
Continuous
 62
     7
370
    15
100
AcDbLine
 10
11.3
 20
10.0
 30
0.0
 11
11.3
 21
-10.0
 31
0.0
  0
LINE
  5
123
330
1F
100
AcDbEntity
  8
0
  6
Continuous
 62
     7
370
    15
100
AcDbLine
 10
27.0
 20
-2.5
 30
0.0
 11
22.0
 21
-2.5
 31
0.0
  0
LINE
  5
124
330
1F
100
AcDbEntity
  8
0
  6
Continuous
 62
     7
370
    15
100
AcDbLine
 10
22.0
 20
2.5
 30
0.0
 11
27.0
 21
2.5
 31
0.0
  0
LINE
  5
125
330
1F
100
AcDbEntity
  8
0
  6
Continuous
 62
     7
370
    15
100
AcDbLine
 10
-27.5
 20
10.0
 30
0.0
 11
-6.0
 21
10.0
 31
0.0
  0
LINE
  5
126
330
1F
100
AcDbEntity
  8
0
  6
Continuous
 62
     7
370
    15
100
AcDbLine
 10
-11.3
 20
10.0
 30
0.0
 11
-11.3
 21
-10.0
 31
0.0
  0
LINE
  5
127
330
1F
100
AcDbEntity
  8
0
  6
Continuous
 62
     7
370
    15
100
AcDbLine
 10
-27.5
 20
-10.0
 30
0.0
 11
27.5
 21
-10.0
 31
0.0
  0
LINE
  5
128
330
1F
100
AcDbEntity
  8
0
  6
Continuous
 62
     7
370
    15
100
AcDbLine
 10
-34.5
 20
3.0
 30
0.0
 11
-34.5
 21
-3.0
 31
0.0
  0
LINE
  5
129
330
1F
100
AcDbEntity
  8
0
  6
Continuous
 62
     7
370
    15
100
AcDbLine
 10
-27.0
 20
-2.5
 30
0.0
 11
-27.0
 21
2.5
 31
0.0
  0
LINE
  5
12A
330
1F
100
AcDbEntity
  8
0
  6
Continuous
 62
     7
370
    15
100
AcDbLine
 10
-22.0
 20
2.5
 30
0.0
 11
-22.0
 21
-2.5
 31
0.0
  0
LINE
  5
12B
330
1F
100
AcDbEntity
  8
0
  6
Continuous
 62
     7
370
    15
100
AcDbLine
 10
9.5
 20
10.0
 30
0.0
 11
9.5
 21
-10.0
 31
0.0
  0
LINE
  5
12C
330
1F
100
AcDbEntity
  8
0
  6
Continuous
 62
     7
370
    15
100
AcDbLine
 10
-9.5
 20
10.0
 30
0.0
 11
-9.5
 21
-10.0
 31
0.0
  0
LINE
  5
12D
330
1F
100
AcDbEntity
  8
0
  6
Continuous
 62
     7
370
    15
100
AcDbLine
 10
9.2
 20
-10.0
 30
0.0
 11
9.2
 21
10.0
 31
0.0
  0
LINE
  5
12E
330
1F
100
AcDbEntity
  8
0
  6
Continuous
 62
     7
370
    15
100
AcDbLine
 10
-9.2
 20
10.0
 30
0.0
 11
-9.2
 21
-10.0
 31
0.0
  0
LINE
  5
12F
330
1F
100
AcDbEntity
  8
0
  6
Continuous
 62
     7
370
    15
100
AcDbLine
 10
-3.4292856399
 20
10.0
 30
0.0
 11
-2.5
 21
10.0
 31
0.0
  0
LINE
  5
130
330
1F
100
AcDbEntity
  8
0
  6
Continuous
 62
     7
370
    15
100
AcDbLine
 10
2.5
 20
10.0
 30
0.0
 11
3.4292856399
 21
10.0
 31
0.0
  0
LINE
  5
131
330
1F
100
AcDbEntity
  8
0
  6
Continuous
 62
     7
370
    15
100
AcDbLine
 10
-1.383392569
 20
-2.0823604395
 30
0.0
 11
-1.383392569
 21
-2.1421309484
 31
0.0
  0
LINE
  5
132
330
1F
100
AcDbEntity
  8
0
  6
Continuous
 62
     7
370
    15
100
AcDbLine
 10
-1.383392569
 20
-2.8299690811
 30
0.0
 11
-1.383392569
 21
-3.215
 31
0.0
  0
ARC
  5
133
330
1F
100
AcDbEntity
  8
0
  6
Continuous
 62
     7
370
    15
100
AcDbCircle
 10
1.2
 20
0.0
 30
0.0
 40
0.9999999999999997
100
AcDbArc
 50
90.0
 51
270.0
  0
ARC
  5
134
330
1F
100
AcDbEntity
  8
0
  6
Continuous
 62
     7
370
    15
100
AcDbCircle
 10
0.0
 20
0.0
 30
0.0
 40
3.500000000000002
100
AcDbArc
 50
196.601549599
 51
342.3944817236
  0
ARC
  5
135
330
1F
100
AcDbEntity
  8
0
  6
Continuous
 62
     7
370
    15
100
AcDbCircle
 10
0.0
 20
-0.65
 30
0.0
 40
6.000000000000002
100
AcDbArc
 50
183.3441522045
 51
356.6558477955
  0
ARC
  5
136
330
1F
100
AcDbEntity
  8
0
  6
Continuous
 62
     7
370
    15
100
AcDbCircle
 10
0.0
 20
11.35
 30
0.0
 40
6.000000000000032
100
AcDbArc
 50
0.0
 51
65.3756816478
  0
ARC
  5
137
330
1F
100
AcDbEntity
  8
0
  6
Continuous
 62
     7
370
    15
100
AcDbCircle
 10
0.0
 20
11.35
 30
0.0
 40
6.000000000000049
100
AcDbArc
 50
114.6243183522
 51
180.0
  0
ARC
  5
138
330
1F
100
AcDbEntity
  8
0
  6
Continuous
 62
     7
370
    15
100
AcDbCircle
 10
0.0
 20
10.7
 30
0.0
 40
3.500000000000005
100
AcDbArc
 50
315.5846914028
 51
44.4153085972
  0
ARC
  5
139
330
1F
100
AcDbEntity
  8
0
  6
Continuous
 62
     7
370
    15
100
AcDbCircle
 10
0.0
 20
10.7
 30
0.0
 40
3.500000000000014
100
AcDbArc
 50
135.5846914028
 51
224.4153085972
  0
ARC
  5
13A
330
1F
100
AcDbEntity
  8
0
  6
Continuous
 62
     7
370
    15
100
AcDbCircle
 10
0.0
 20
0.0
 30
0.0
 40
3.150000000000013
100
AcDbArc
 50
198.5094049815
 51
341.2121083916
  0
ARC
  5
13B
330
1F
100
AcDbEntity
  8
0
  6
Continuous
 62
     7
370
    15
100
AcDbCircle
 10
0.0
 20
0.0
 30
0.0
 40
3.150000000000001
100
AcDbArc
 50
19.4712206345
 51
161.4905950185
  0
ARC
  5
13C
330
1F
100
AcDbEntity
  8
0
  6
Continuous
 62
     7
370
    15
100
AcDbCircle
 10
0.0
 20
0.0
 30
0.0
 40
2.550000000000007
100
AcDbArc
 50
203.088772437
 51
336.911227563
  0
ARC
  5
13D
330
1F
100
AcDbEntity
  8
0
  6
Continuous
 62
     7
370
    15
100
AcDbCircle
 10
0.0
 20
0.0
 30
0.0
 40
2.549999999999999
100
AcDbArc
 50
23.088772437
 51
156.911227563
  0
ARC
  5
13E
330
1F
100
AcDbEntity
  8
0
  6
Continuous
 62
     7
370
    15
100
AcDbCircle
 10
-7.82
 20
0.0
 30
0.0
 40
0.5353214212198996
100
AcDbArc
 50
0.0
 51
180.0
  0
ARC
  5
13F
330
1F
100
AcDbEntity
  8
0
  6
Continuous
 62
     7
370
    15
100
AcDbCircle
 10
7.82
 20
0.0
 30
0.0
 40
0.5353214212198996
100
AcDbArc
 50
360.0
 51
180.0
  0
ARC
  5
140
330
1F
100
AcDbEntity
  8
0
  6
Continuous
 62
     7
370
    15
100
AcDbCircle
 10
7.82
 20
0.0
 30
0.0
 40
0.8500000000000005
100
AcDbArc
 50
360.0
 51
180.0
  0
ARC
  5
141
330
1F
100
AcDbEntity
  8
0
  6
Continuous
 62
     7
370
    15
100
AcDbCircle
 10
-7.82
 20
0.0
 30
0.0
 40
0.8499999999999996
100
AcDbArc
 50
180.0
 51
360.0
  0
ARC
  5
142
330
1F
100
AcDbEntity
  8
0
  6
Continuous
 62
     7
370
    15
100
AcDbCircle
 10
0.0
 20
0.0
 30
0.0
 40
2.500000000000008
100
AcDbArc
 50
23.5781784782
 51
156.4218215218
  0
ARC
  5
143
330
1F
100
AcDbEntity
  8
0
  6
Continuous
 62
     7
370
    15
100
AcDbCircle
 10
0.0
 20
0.0
 30
0.0
 40
2.500000000000003
100
AcDbArc
 50
203.5781784782
 51
336.4218215218
  0
ARC
  5
144
330
1F
100
AcDbEntity
  8
0
  6
Continuous
 62
     7
370
    15
100
AcDbCircle
 10
0.0
 20
26.5
 30
0.0
 40
2.500000000000004
100
AcDbArc
 50
0.0
 51
180.0
  0
ARC
  5
145
330
1F
100
AcDbEntity
  8
0
  6
Continuous
 62
     7
370
    15
100
AcDbCircle
 10
27.5
 20
3.0
 30
0.0
 40
6.999999999999989
100
AcDbArc
 50
0.0
 51
90.0
  0
ARC
  5
146
330
1F
100
AcDbEntity
  8
0
  6
Continuous
 62
     7
370
    15
100
AcDbCircle
 10
27.5
 20
-3.0
 30
0.0
 40
7.0
100
AcDbArc
 50
270.0
 51
0.0
  0
ARC
  5
147
330
1F
100
AcDbEntity
  8
0
  6
Continuous
 62
     7
370
    15
100
AcDbCircle
 10
27.0
 20
0.0
 30
0.0
 40
2.500000000000001
100
AcDbArc
 50
270.0
 51
90.0
  0
ARC
  5
148
330
1F
100
AcDbEntity
  8
0
  6
Continuous
 62
     7
370
    15
100
AcDbCircle
 10
22.0
 20
0.0
 30
0.0
 40
2.5
100
AcDbArc
 50
90.0
 51
270.0
  0
ARC
  5
149
330
1F
100
AcDbEntity
  8
0
  6
Continuous
 62
     7
370
    15
100
AcDbCircle
 10
-27.5
 20
-3.0
 30
0.0
 40
7.000000000000005
100
AcDbArc
 50
180.0
 51
270.0
  0
ARC
  5
14A
330
1F
100
AcDbEntity
  8
0
  6
Continuous
 62
     7
370
    15
100
AcDbCircle
 10
-27.5
 20
3.0
 30
0.0
 40
6.999999999999986
100
AcDbArc
 50
90.0
 51
180.0
  0
ARC
  5
14B
330
1F
100
AcDbEntity
  8
0
  6
Continuous
 62
     7
370
    15
100
AcDbCircle
 10
-24.5
 20
2.5
 30
0.0
 40
2.500000000000004
100
AcDbArc
 50
0.0
 51
180.0
  0
ARC
  5
14C
330
1F
100
AcDbEntity
  8
0
  6
Continuous
 62
     7
370
    15
100
AcDbCircle
 10
-24.5
 20
-2.5
 30
0.0
 40
2.5
100
AcDbArc
 50
180.0
 51
0.0
  0
ARC
  5
14D
330
1F
100
AcDbEntity
  8
0
  6
Continuous
 62
     7
370
    15
100
AcDbCircle
 10
-1.2
 20
0.0
 30
0.0
 40
1.0
100
AcDbArc
 50
270.0
 51
90.0
  0
ENDSEC
  0
SECTION
  2
OBJECTS
  0
DICTIONARY
  5
C
330
0
100
AcDbDictionary
281
     1
  3
ACAD_GROUP
350
D
  3
ACAD_LAYOUT
350
1A
  3
ACAD_MLINESTYLE
350
17
  3
ACAD_PLOTSETTINGS
350
19
  3
ACAD_PLOTSTYLENAME
350
E
  3
ACAD_SCALELIST
350
47
  0
DICTIONARY
  5
D
102
{ACAD_REACTORS
330
C
102
}
330
C
100
AcDbDictionary
281
     1
  0
DICTIONARY
  5
1A
102
{ACAD_REACTORS
330
C
102
}
330
C
100
AcDbDictionary
281
     1
  3
Layout1
350
1E
  3
Layout2
350
26
  3
Model
350
22
  0
DICTIONARY
  5
17
102
{ACAD_REACTORS
330
C
102
}
330
C
100
AcDbDictionary
281
     1
  3
Standard
350
18
  0
DICTIONARY
  5
19
102
{ACAD_REACTORS
330
C
102
}
330
C
100
AcDbDictionary
281
     1
  0
ACDBDICTIONARYWDFLT
  5
E
102
{ACAD_REACTORS
330
C
102
}
330
C
100
AcDbDictionary
281
     1
  3
Normal
350
F
100
AcDbDictionaryWithDefault
340
F
  0
DICTIONARY
  5
47
102
{ACAD_REACTORS
330
C
102
}
330
C
100
AcDbDictionary
281
     1
  3
A0
350
48
  3
A1
350
49
  3
A2
350
4A
  3
A3
350
4B
  3
A4
350
4C
  3
A5
350
4D
  3
A6
350
4E
  3
A7
350
4F
  3
A8
350
50
  3
A9
350
51
  3
B0
350
52
  3
B1
350
53
  3
B2
350
54
  3
B3
350
55
  3
B4
350
56
  3
B5
350
57
  3
B6
350
58
  3
B7
350
59
  3
B8
350
5A
  3
B9
350
5B
  3
C0
350
5C
  3
C1
350
5D
  3
C2
350
5E
  3
C3
350
5F
  3
C4
350
60
  3
C5
350
61
  3
C6
350
62
  3
C7
350
63
  3
C8
350
64
  3
C9
350
65
  3
D0
350
66
  3
D1
350
67
  3
D2
350
68
  0
LAYOUT
  5
1E
102
{ACAD_REACTORS
330
1A
102
}
330
1A
100
AcDbPlotSettings
  1

  2
none_device
  4

  6

 40
0.0
 41
0.0
 42
0.0
 43
0.0
 44
0.0
 45
0.0
 46
0.0
 47
0.0
 48
0.0
 49
0.0
140
0.0
141
0.0
142
1.0
143
1.0
 70
   688
 72
     1
 73
     0
 74
     5
  7

 75
    16
147
1.0
148
0.0
149
0.0
100
AcDbLayout
  1
Layout1
 70
     1
 71
     1
 10
0.0
 20
0.0
 11
420.0
 21
297.0
 12
0.0
 22
0.0
 32
0.0
 14
1.0000000000E+20
 24
1.0000000000E+20
 34
1.0000000000E+20
 15
-1.0000000000E+20
 25
-1.0000000000E+20
 35
-1.0000000000E+20
146
0.0
 13
0.0
 23
0.0
 33
0.0
 16
1.0
 26
0.0
 36
0.0
 17
0.0
 27
1.0
 37
0.0
 76
     0
330
1B
  0
LAYOUT
  5
26
102
{ACAD_REACTORS
330
1A
102
}
330
1A
100
AcDbPlotSettings
  1

  2
none_device
  4

  6

 40
0.0
 41
0.0
 42
0.0
 43
0.0
 44
0.0
 45
0.0
 46
0.0
 47
0.0
 48
0.0
 49
0.0
140
0.0
141
0.0
142
1.0
143
1.0
 70
   688
 72
     1
 73
     0
 74
     5
  7

 75
    16
147
1.0
148
0.0
149
0.0
100
AcDbLayout
  1
Layout2
 70
     1
 71
     2
 10
0.0
 20
0.0
 11
0.0
 21
0.0
 12
0.0
 22
0.0
 32
0.0
 14
0.0
 24
0.0
 34
0.0
 15
0.0
 25
0.0
 35
0.0
146
0.0
 13
0.0
 23
0.0
 33
0.0
 16
1.0
 26
0.0
 36
0.0
 17
0.0
 27
1.0
 37
0.0
 76
     0
330
23
  0
LAYOUT
  5
22
102
{ACAD_REACTORS
330
1A
102
}
330
1A
100
AcDbPlotSettings
  1

  2
none_device
  4
ANSI_A_(11.00_x_8.50_Inches)
  6

 40
6.35
 41
19.05
 42
6.35000508
 43
19.05000254
 44
279.4
 45
215.9
 46
138.3070934431
 47
89.1008766795
 48
0.0
 49
0.0
140
0.0
141
0.0
142
0.0327947877
143
1.0
 70
  1696
 72
     0
 73
     0
 74
     0
  7

 75
     0
147
0.0179189148
148
-1300.4909072572
149
0.0
100
AcDbLayout
  1
Model
 70
     1
 71
     0
 10
0.0
 20
0.0
 11
420.0
 21
297.0
 12
0.0
 22
0.0
 32
0.0
 14
-136.3077783593
 24
-128.5389807247
 34
0.0
 15
124.4058102103
 25
128.0566735502
 35
0.0
146
0.0
 13
0.0
 23
0.0
 33
0.0
 16
1.0
 26
0.0
 36
0.0
 17
0.0
 27
1.0
 37
0.0
 76
     0
330
1F
331
29
  0
MLINESTYLE
  5
18
102
{ACAD_REACTORS
330
17
102
}
330
17
100
AcDbMlineStyle
  2
Standard
 70
     0
  3

 62
   256
 51
90.0
 52
90.0
 71
     2
 49
0.5
 62
   256
  6
BYLAYER
 49
-0.5
 62
   256
  6
BYLAYER
  0
ACDBPLACEHOLDER
  5
F
102
{ACAD_REACTORS
330
E
102
}
330
E
  0
SCALE
  5
48
102
{ACAD_REACTORS
330
47
102
}
330
47
100
AcDbScale
 70
     0
300
1:1
140
1.0
141
1.0
290
     1
  0
SCALE
  5
49
102
{ACAD_REACTORS
330
47
102
}
330
47
100
AcDbScale
 70
     0
300
1:2
140
1.0
141
2.0
290
     0
  0
SCALE
  5
4A
102
{ACAD_REACTORS
330
47
102
}
330
47
100
AcDbScale
 70
     0
300
1:4
140
1.0
141
4.0
290
     0
  0
SCALE
  5
4B
102
{ACAD_REACTORS
330
47
102
}
330
47
100
AcDbScale
 70
     0
300
1:5
140
1.0
141
5.0
290
     0
  0
SCALE
  5
4C
102
{ACAD_REACTORS
330
47
102
}
330
47
100
AcDbScale
 70
     0
300
1:8
140
1.0
141
8.0
290
     0
  0
SCALE
  5
4D
102
{ACAD_REACTORS
330
47
102
}
330
47
100
AcDbScale
 70
     0
300
1:10
140
1.0
141
10.0
290
     0
  0
SCALE
  5
4E
102
{ACAD_REACTORS
330
47
102
}
330
47
100
AcDbScale
 70
     0
300
1:16
140
1.0
141
16.0
290
     0
  0
SCALE
  5
4F
102
{ACAD_REACTORS
330
47
102
}
330
47
100
AcDbScale
 70
     0
300
1:20
140
1.0
141
20.0
290
     0
  0
SCALE
  5
50
102
{ACAD_REACTORS
330
47
102
}
330
47
100
AcDbScale
 70
     0
300
1:30
140
1.0
141
30.0
290
     0
  0
SCALE
  5
51
102
{ACAD_REACTORS
330
47
102
}
330
47
100
AcDbScale
 70
     0
300
1:40
140
1.0
141
40.0
290
     0
  0
SCALE
  5
52
102
{ACAD_REACTORS
330
47
102
}
330
47
100
AcDbScale
 70
     0
300
1:50
140
1.0
141
50.0
290
     0
  0
SCALE
  5
53
102
{ACAD_REACTORS
330
47
102
}
330
47
100
AcDbScale
 70
     0
300
1:100
140
1.0
141
100.0
290
     0
  0
SCALE
  5
54
102
{ACAD_REACTORS
330
47
102
}
330
47
100
AcDbScale
 70
     0
300
2:1
140
2.0
141
1.0
290
     0
  0
SCALE
  5
55
102
{ACAD_REACTORS
330
47
102
}
330
47
100
AcDbScale
 70
     0
300
4:1
140
4.0
141
1.0
290
     0
  0
SCALE
  5
56
102
{ACAD_REACTORS
330
47
102
}
330
47
100
AcDbScale
 70
     0
300
8:1
140
8.0
141
1.0
290
     0
  0
SCALE
  5
57
102
{ACAD_REACTORS
330
47
102
}
330
47
100
AcDbScale
 70
     0
300
10:1
140
10.0
141
1.0
290
     0
  0
SCALE
  5
58
102
{ACAD_REACTORS
330
47
102
}
330
47
100
AcDbScale
 70
     0
300
100:1
140
100.0
141
1.0
290
     0
  0
SCALE
  5
59
102
{ACAD_REACTORS
330
47
102
}
330
47
100
AcDbScale
 70
     0
300
1/128" = 1'-0"
140
0.0078125
141
12.0
290
     0
  0
SCALE
  5
5A
102
{ACAD_REACTORS
330
47
102
}
330
47
100
AcDbScale
 70
     0
300
1/64" = 1'-0"
140
0.015625
141
12.0
290
     0
  0
SCALE
  5
5B
102
{ACAD_REACTORS
330
47
102
}
330
47
100
AcDbScale
 70
     0
300
1/32" = 1'-0"
140
0.03125
141
12.0
290
     0
  0
SCALE
  5
5C
102
{ACAD_REACTORS
330
47
102
}
330
47
100
AcDbScale
 70
     0
300
1/16" = 1'-0"
140
0.0625
141
12.0
290
     0
  0
SCALE
  5
5D
102
{ACAD_REACTORS
330
47
102
}
330
47
100
AcDbScale
 70
     0
300
3/32" = 1'-0"
140
0.09375
141
12.0
290
     0
  0
SCALE
  5
5E
102
{ACAD_REACTORS
330
47
102
}
330
47
100
AcDbScale
 70
     0
300
1/8" = 1'-0"
140
0.125
141
12.0
290
     0
  0
SCALE
  5
5F
102
{ACAD_REACTORS
330
47
102
}
330
47
100
AcDbScale
 70
     0
300
3/16" = 1'-0"
140
0.1875
141
12.0
290
     0
  0
SCALE
  5
60
102
{ACAD_REACTORS
330
47
102
}
330
47
100
AcDbScale
 70
     0
300
1/4" = 1'-0"
140
0.25
141
12.0
290
     0
  0
SCALE
  5
61
102
{ACAD_REACTORS
330
47
102
}
330
47
100
AcDbScale
 70
     0
300
3/8" = 1'-0"
140
0.375
141
12.0
290
     0
  0
SCALE
  5
62
102
{ACAD_REACTORS
330
47
102
}
330
47
100
AcDbScale
 70
     0
300
1/2" = 1'-0"
140
0.5
141
12.0
290
     0
  0
SCALE
  5
63
102
{ACAD_REACTORS
330
47
102
}
330
47
100
AcDbScale
 70
     0
300
3/4" = 1'-0"
140
0.75
141
12.0
290
     0
  0
SCALE
  5
64
102
{ACAD_REACTORS
330
47
102
}
330
47
100
AcDbScale
 70
     0
300
1" = 1'-0"
140
1.0
141
12.0
290
     0
  0
SCALE
  5
65
102
{ACAD_REACTORS
330
47
102
}
330
47
100
AcDbScale
 70
     0
300
1-1/2" = 1'-0"
140
1.5
141
12.0
290
     0
  0
SCALE
  5
66
102
{ACAD_REACTORS
330
47
102
}
330
47
100
AcDbScale
 70
     0
300
3" = 1'-0"
140
3.0
141
12.0
290
     0
  0
SCALE
  5
67
102
{ACAD_REACTORS
330
47
102
}
330
47
100
AcDbScale
 70
     0
300
6" = 1'-0"
140
6.0
141
12.0
290
     0
  0
SCALE
  5
68
102
{ACAD_REACTORS
330
47
102
}
330
47
100
AcDbScale
 70
     0
300
1'-0" = 1'-0"
140
12.0
141
12.0
290
     0
  0
ENDSEC
  0
EOF
