  0
SECTION
  2
HEADER
  9
$ACADVER
  1
AC1015
  9
$ACADMAINTVER
 70
     6
  9
$DWGCODEPAGE
  3
ANSI_1252
  9
$INSBASE
 10
0.0
 20
0.0
 30
0.0
  9
$EXTMIN
 10
-136.2632481417
 20
-235.2295910384
 30
0.0
  9
$EXTMAX
 10
124.5472191936
 20
750.72
 30
0.0
  9
$LIMMIN
 10
0.0
 20
0.0
  9
$LIMMAX
 10
420.0
 20
297.0
  9
$ORTHOMODE
 70
     0
  9
$REGENMODE
 70
     1
  9
$FILLMODE
 70
     1
  9
$QTEXTMODE
 70
     0
  9
$MIRRTEXT
 70
     1
  9
$LTSCALE
 40
1.0
  9
$ATTMODE
 70
     1
  9
$TEXTSIZE
 40
3.5
  9
$TRACEWID
 40
1.0
  9
$TEXTSTYLE
  7
Standard
  9
$CLAYER
  8
0
  9
$CELTYPE
  6
ByLayer
  9
$CECOLOR
 62
   256
  9
$CELTSCALE
 40
1.0
  9
$DISPSILH
 70
     0
  9
$DIMSCALE
 40
1.0
  9
$DIMASZ
 40
3.302
  9
$DIMEXO
 40
1.0
  9
$DIMDLI
 40
3.75
  9
$DIMRND
 40
0.0
  9
$DIMDLE
 40
0.0
  9
$DIMEXE
 40
1.0
  9
$DIMTP
 40
0.0
  9
$DIMTM
 40
0.0
  9
$DIMTXT
 40
3.5
  9
$DIMCEN
 40
2.5
  9
$DIMTSZ
 40
0.0
  9
$DIMTOL
 70
     0
  9
$DIMLIM
 70
     0
  9
$DIMTIH
 70
     1
  9
$DIMTOH
 70
     1
  9
$DIMSE1
 70
     0
  9
$DIMSE2
 70
     0
  9
$DIMTAD
 70
     1
  9
$DIMZIN
 70
     0
  9
$DIMBLK
  1

  9
$DIMASO
 70
     1
  9
$DIMSHO
 70
     1
  9
$DIMPOST
  1

  9
$DIMAPOST
  1

  9
$DIMALT
 70
     0
  9
$DIMALTD
 70
     3
  9
$DIMALTF
 40
0.0393700787
  9
$DIMLFAC
 40
1.0
  9
$DIMTOFL
 70
     1
  9
$DIMTVP
 40
0.0
  9
$DIMTIX
 70
     0
  9
$DIMSOXD
 70
     0
  9
$DIMSAH
 70
     0
  9
$DIMBLK1
  1

  9
$DIMBLK2
  1

  9
$DIMSTYLE
  2
ISO-25
  9
$DIMCLRD
 70
     0
  9
$DIMCLRE
 70
     0
  9
$DIMCLRT
 70
     0
  9
$DIMTFAC
 40
1.0
  9
$DIMGAP
 40
1.524
  9
$DIMJUST
 70
     0
  9
$DIMSD1
 70
     0
  9
$DIMSD2
 70
     0
  9
$DIMTOLJ
 70
     0
  9
$DIMTZIN
 70
     0
  9
$DIMALTZ
 70
     0
  9
$DIMALTTZ
 70
     0
  9
$DIMUPT
 70
     0
  9
$DIMDEC
 70
     2
  9
$DIMTDEC
 70
     2
  9
$DIMALTU
 70
     2
  9
$DIMALTTD
 70
     3
  9
$DIMTXSTY
  7
Standard
  9
$DIMAUNIT
 70
     0
  9
$DIMADEC
 70
     2
  9
$DIMALTRND
 40
0.0
  9
$DIMAZIN
 70
     0
  9
$DIMDSEP
 70
    44
  9
$DIMATFIT
 70
     3
  9
$DIMFRAC
 70
     0
  9
$DIMLDRBLK
  1

  9
$DIMLUNIT
 70
     2
  9
$DIMLWD
 70
    -2
  9
$DIMLWE
 70
    -2
  9
$DIMTMOVE
 70
     0
  9
$LUNITS
 70
     2
  9
$LUPREC
 70
     2
  9
$SKETCHINC
 40
1.0
  9
$FILLETRAD
 40
10.0
  9
$AUNITS
 70
     0
  9
$AUPREC
 70
     2
  9
$MENU
  1
.
  9
$ELEVATION
 40
0.0
  9
$PELEVATION
 40
0.0
  9
$THICKNESS
 40
0.0
  9
$LIMCHECK
 70
     0
  9
$CHAMFERA
 40
0.0
  9
$CHAMFERB
 40
0.0
  9
$CHAMFERC
 40
0.0
  9
$CHAMFERD
 40
0.0
  9
$SKPOLY
 70
     0
  9
$TDCREATE
 40
2457221.39773963
  9
$TDUCREATE
 40
2457221.356072963
  9
$TDUPDATE
 40
2457221.397784583
  9
$TDUUPDATE
 40
2457221.356117917
  9
$TDINDWG
 40
0.0000000116
  9
$TDUSRTIMER
 40
0.0000000116
  9
$USRTIMER
 70
     1
  9
$ANGBASE
 50
0.0
  9
$ANGDIR
 70
     0
  9
$PDMODE
 70
     0
  9
$PDSIZE
 40
-1.0
  9
$PLINEWID
 40
0.0
  9
$SPLFRAME
 70
     0
  9
$SPLINETYPE
 70
     6
  9
$SPLINESEGS
 70
     8
  9
$HANDSEED
  5
195
  9
$SURFTAB1
 70
     6
  9
$SURFTAB2
 70
     6
  9
$SURFTYPE
 70
     6
  9
$SURFU
 70
     6
  9
$SURFV
 70
     6
  9
$UCSBASE
  2

  9
$UCSNAME
  2

  9
$UCSORG
 10
0.0
 20
0.0
 30
0.0
  9
$UCSXDIR
 10
1.0
 20
0.0
 30
0.0
  9
$UCSYDIR
 10
0.0
 20
1.0
 30
0.0
  9
$UCSORTHOREF
  2

  9
$UCSORTHOVIEW
 70
     0
  9
$UCSORGTOP
 10
0.0
 20
0.0
 30
0.0
  9
$UCSORGBOTTOM
 10
0.0
 20
0.0
 30
0.0
  9
$UCSORGLEFT
 10
0.0
 20
0.0
 30
0.0
  9
$UCSORGRIGHT
 10
0.0
 20
0.0
 30
0.0
  9
$UCSORGFRONT
 10
0.0
 20
0.0
 30
0.0
  9
$UCSORGBACK
 10
0.0
 20
0.0
 30
0.0
  9
$PUCSBASE
  2

  9
$PUCSNAME
  2

  9
$PUCSORG
 10
0.0
 20
0.0
 30
0.0
  9
$PUCSXDIR
 10
1.0
 20
0.0
 30
0.0
  9
$PUCSYDIR
 10
0.0
 20
1.0
 30
0.0
  9
$PUCSORTHOREF
  2

  9
$PUCSORTHOVIEW
 70
     0
  9
$PUCSORGTOP
 10
0.0
 20
0.0
 30
0.0
  9
$PUCSORGBOTTOM
 10
0.0
 20
0.0
 30
0.0
  9
$PUCSORGLEFT
 10
0.0
 20
0.0
 30
0.0
  9
$PUCSORGRIGHT
 10
0.0
 20
0.0
 30
0.0
  9
$PUCSORGFRONT
 10
0.0
 20
0.0
 30
0.0
  9
$PUCSORGBACK
 10
0.0
 20
0.0
 30
0.0
  9
$USERI1
 70
     0
  9
$USERI2
 70
     0
  9
$USERI3
 70
     0
  9
$USERI4
 70
     0
  9
$USERI5
 70
     0
  9
$USERR1
 40
0.0
  9
$USERR2
 40
0.0
  9
$USERR3
 40
0.0
  9
$USERR4
 40
0.0
  9
$USERR5
 40
0.0
  9
$WORLDVIEW
 70
     1
  9
$SHADEDGE
 70
     3
  9
$SHADEDIF
 70
    70
  9
$TILEMODE
 70
     1
  9
$MAXACTVP
 70
    64
  9
$PINSBASE
 10
0.0
 20
0.0
 30
0.0
  9
$PLIMCHECK
 70
     0
  9
$PEXTMIN
 10
1.0000000000E+20
 20
1.0000000000E+20
 30
1.0000000000E+20
  9
$PEXTMAX
 10
-1.0000000000E+20
 20
-1.0000000000E+20
 30
-1.0000000000E+20
  9
$PLIMMIN
 10
0.0
 20
0.0
  9
$PLIMMAX
 10
420.0
 20
297.0
  9
$UNITMODE
 70
     0
  9
$VISRETAIN
 70
     1
  9
$PLINEGEN
 70
     0
  9
$PSLTSCALE
 70
     1
  9
$TREEDEPTH
 70
  3020
  9
$CMLSTYLE
  2
Standard
  9
$CMLJUST
 70
     0
  9
$CMLSCALE
 40
20.0
  9
$PROXYGRAPHICS
 70
     1
  9
$MEASUREMENT
 70
     1
  9
$CELWEIGHT
370
    -1
  9
$ENDCAPS
280
     0
  9
$JOINSTYLE
280
     0
  9
$LWDISPLAY
290
     1
  9
$INSUNITS
 70
     4
  9
$HYPERLINKBASE
  1

  9
$STYLESHEET
  1

  9
$XEDIT
290
     1
  9
$CEPSNTYPE
380
     0
  9
$PSTYLEMODE
290
     1
  9
$FINGERPRINTGUID
  2
{006C5886-1F64-463F-AD51-18F7AB6DA98B}
  9
$VERSIONGUID
  2
{FAEB1C32-E019-11D5-929B-00C0DF256EC4}
  9
$EXTNAMES
290
     1
  9
$PSVPSCALE
 40
0.0
  9
$OLESTARTUP
290
     0
  0
ENDSEC
  0
SECTION
  2
CLASSES
  0
CLASS
  1
ACDBDICTIONARYWDFLT
  2
AcDbDictionaryWithDefault
  3
ObjectDBX Classes
 90
        0
280
     0
281
     0
  0
CLASS
  1
VISUALSTYLE
  2
AcDbVisualStyle
  3
ObjectDBX Classes
 90
     4095
280
     0
281
     0
  0
CLASS
  1
MATERIAL
  2
AcDbMaterial
  3
ObjectDBX Classes
 90
     1153
280
     0
281
     0
  0
CLASS
  1
SCALE
  2
AcDbScale
  3
ObjectDBX Classes
 90
     1153
280
     0
281
     0
  0
CLASS
  1
TABLESTYLE
  2
AcDbTableStyle
  3
ObjectDBX Classes
 90
     4095
280
     0
281
     0
  0
CLASS
  1
MLEADERSTYLE
  2
AcDbMLeaderStyle
  3
ACDB_MLEADERSTYLE_CLASS
 90
     4095
280
     0
281
     0
  0
CLASS
  1
SUN
  2
AcDbSun
  3
SCENEOE
 90
     1153
280
     0
281
     0
  0
CLASS
  1
ACDBPLACEHOLDER
  2
AcDbPlaceHolder
  3
ObjectDBX Classes
 90
        0
280
     0
281
     0
  0
CLASS
  1
LAYOUT
  2
AcDbLayout
  3
ObjectDBX Classes
 90
        0
280
     0
281
     0
  0
ENDSEC
  0
SECTION
  2
TABLES
  0
TABLE
  2
VPORT
  5
8
330
0
100
AcDbSymbolTable
 70
     1
  0
VPORT
  5
29
330
8
100
AcDbSymbolTableRecord
100
AcDbViewportTableRecord
  2
*Active
 70
     0
 10
0.0
 20
0.0
 11
1.0
 21
1.0
 12
-5.8580144741
 22
257.7452044808
 13
0.0
 23
0.0
 14
10.0
 24
10.0
 15
10.0
 25
10.0
 16
0.0
 26
0.0
 36
1.0
 17
0.0
 27
0.0
 37
0.0
 40
1005.6685828592
 41
0.2645271824
 42
50.0
 43
0.0
 44
0.0
 50
0.0
 51
0.0
 71
     0
 72
   100
 73
     1
 74
     3
 75
     0
 76
     0
 77
     0
 78
     0
281
     0
 65
     1
110
0.0
120
0.0
130
0.0
111
1.0
121
0.0
131
0.0
112
0.0
122
1.0
132
0.0
 79
     0
146
0.0
  0
ENDTAB
  0
TABLE
  2
LTYPE
  5
5
330
0
100
AcDbSymbolTable
 70
     6
  0
LTYPE
  5
14
330
5
100
AcDbSymbolTableRecord
100
AcDbLinetypeTableRecord
  2
ByBlock
 70
     0
  3

 72
    65
 73
     0
 40
0.0
  0
LTYPE
  5
15
330
5
100
AcDbSymbolTableRecord
100
AcDbLinetypeTableRecord
  2
ByLayer
 70
     0
  3

 72
    65
 73
     0
 40
0.0
  0
LTYPE
  5
16
330
5
100
AcDbSymbolTableRecord
100
AcDbLinetypeTableRecord
  2
Continuous
 70
     0
  3
Solid line
 72
    65
 73
     0
 40
0.0
  0
LTYPE
  5
6E
330
5
100
AcDbSymbolTableRecord
100
AcDbLinetypeTableRecord
  2
HIDDEN
 70
     0
  3
Hidden __ __ __ __ __ __ __ __ __ __ __ __ __ __
 72
    65
 73
     2
 40
1.905
 49
1.27
 74
     0
 49
-0.635
 74
     0
  0
LTYPE
  5
6F
330
5
100
AcDbSymbolTableRecord
100
AcDbLinetypeTableRecord
  2
PHANTOM
 70
     0
  3
Phantom ______  __  __  ______  __  __  ______
 72
    65
 73
     6
 40
12.7
 49
6.35
 74
     0
 49
-1.27
 74
     0
 49
1.27
 74
     0
 49
-1.27
 74
     0
 49
1.27
 74
     0
 49
-1.27
 74
     0
  0
LTYPE
  5
70
330
5
100
AcDbSymbolTableRecord
100
AcDbLinetypeTableRecord
  2
CENTER
 70
     0
  3
Center ____ _ ____ _ ____ _ ____ _ ____ _ ____
 72
    65
 73
     4
 40
10.16
 49
6.35
 74
     0
 49
-1.27
 74
     0
 49
1.27
 74
     0
 49
-1.27
 74
     0
  0
LTYPE
  5
71
330
5
100
AcDbSymbolTableRecord
100
AcDbLinetypeTableRecord
  2
CENTERX2
 70
     0
  3
Center (2x) ________  __  ________  __  _____
 72
    65
 73
     4
 40
20.32
 49
12.7
 74
     0
 49
-2.54
 74
     0
 49
2.54
 74
     0
 49
-2.54
 74
     0
  0
LTYPE
  5
72
330
5
100
AcDbSymbolTableRecord
100
AcDbLinetypeTableRecord
  2
DOT2
 70
     0
  3
Dot (.5x) ........................................
 72
    65
 73
     2
 40
0.635
 49
0.0
 74
     0
 49
-0.635
 74
     0
  0
ENDTAB
  0
TABLE
  2
LAYER
  5
2
330
0
100
AcDbSymbolTable
 70
     1
  0
LAYER
  5
10
330
2
100
AcDbSymbolTableRecord
100
AcDbLayerTableRecord
  2
0
 70
     0
 62
     7
  6
Continuous
370
    -3
390
F
  0
ENDTAB
  0
TABLE
  2
STYLE
  5
3
330
0
100
AcDbSymbolTable
 70
     1
  0
STYLE
  5
11
330
3
100
AcDbSymbolTableRecord
100
AcDbTextStyleTableRecord
  2
Standard
 70
     0
 40
0.0
 41
1.0
 50
0.0
 71
     0
 42
3.5
  3
txt
  4

  0
ENDTAB
  0
TABLE
  2
VIEW
  5
6
330
0
100
AcDbSymbolTable
 70
     0
  0
ENDTAB
  0
TABLE
  2
UCS
  5
7
330
0
100
AcDbSymbolTable
 70
     0
  0
ENDTAB
  0
TABLE
  2
APPID
  5
9
330
0
100
AcDbSymbolTable
 70
     1
  0
APPID
  5
12
330
9
100
AcDbSymbolTableRecord
100
AcDbRegAppTableRecord
  2
ACAD
 70
     0
  0
ENDTAB
  0
TABLE
  2
DIMSTYLE
  5
A
330
0
100
AcDbSymbolTable
 70
     1
100
AcDbDimStyleTable
  0
DIMSTYLE
105
27
330
A
100
AcDbSymbolTableRecord
100
AcDbDimStyleTableRecord
  2
ISO-25
 70
     0
 41
2.5
 42
0.625
 43
3.75
 44
1.25
 73
     0
 74
     0
 77
     1
 78
     8
140
2.5
141
2.5
143
0.0393700787
147
0.625
171
     3
172
     1
178
     0
271
     2
272
     2
274
     3
278
    44
283
     0
284
     8
340
11
  0
ENDTAB
  0
TABLE
  2
BLOCK_RECORD
  5
1
330
0
100
AcDbSymbolTable
 70
     1
  0
BLOCK_RECORD
  5
1F
330
1
100
AcDbSymbolTableRecord
100
AcDbBlockTableRecord
  2
*Model_Space
340
22
  0
BLOCK_RECORD
  5
1B
330
1
100
AcDbSymbolTableRecord
100
AcDbBlockTableRecord
  2
*Paper_Space
340
1E
  0
BLOCK_RECORD
  5
23
330
1
100
AcDbSymbolTableRecord
100
AcDbBlockTableRecord
  2
*Paper_Space0
340
26
  0
ENDTAB
  0
ENDSEC
  0
SECTION
  2
BLOCKS
  0
BLOCK
  5
20
330
1F
100
AcDbEntity
  8
0
100
AcDbBlockBegin
  2
*Model_Space
 70
     0
 10
0.0
 20
0.0
 30
0.0
  3
*Model_Space
  1

  0
ENDBLK
  5
21
330
1F
100
AcDbEntity
  8
0
100
AcDbBlockEnd
  0
BLOCK
  5
1C
330
1B
100
AcDbEntity
 67
     1
  8
0
100
AcDbBlockBegin
  2
*Paper_Space
 70
     0
 10
0.0
 20
0.0
 30
0.0
  3
*Paper_Space
  1

  0
ENDBLK
  5
1D
330
1B
100
AcDbEntity
 67
     1
  8
0
100
AcDbBlockEnd
  0
BLOCK
  5
24
330
23
100
AcDbEntity
  8
0
100
AcDbBlockBegin
  2
*Paper_Space0
 70
     0
 10
0.0
 20
0.0
 30
0.0
  3
*Paper_Space0
  1

  0
ENDBLK
  5
25
330
23
100
AcDbEntity
  8
0
100
AcDbBlockEnd
  0
ENDSEC
  0
SECTION
  2
ENTITIES
  0
SPLINE
  5
73
330
1F
100
AcDbEntity
  8
0
  6
Continuous
 62
     7
370
    15
100
AcDbSpline
210
0.0
220
0.0
230
1.0
 70
     8
 71
     3
 72
     9
 73
     5
 74
     0
 42
0.000000001
 43
0.00000001
 40
0.0
 40
0.0
 40
0.0
 40
0.0
 40
0.7914883507477909
 40
1.0
 40
1.0
 40
1.0
 40
1.0
 10
4.211484718982694
 20
578.2395994450437
 30
0.0
 10
4.34238434448203
 20
578.3153343727514
 30
0.0
 10
4.507768491166767
 20
578.4110210971818
 30
0.0
 10
4.673172887645779
 20
578.5066754479088
 30
0.0
 10
4.707661631149185
 20
578.5266204943368
 30
0.0
  0
SPLINE
  5
75
330
1F
100
AcDbEntity
  8
0
  6
Continuous
 62
     7
370
    15
100
AcDbSpline
210
0.0
220
0.0
230
1.0
 70
     8
 71
     3
 72
     9
 73
     5
 74
     0
 42
0.000000001
 43
0.00000001
 40
0.0
 40
0.0
 40
0.0
 40
0.0
 40
0.1273048046604996
 40
1.0
 40
1.0
 40
1.0
 40
1.0
 10
4.658920725430979
 20
578.0015127063924
 30
0.0
 10
4.640693456468588
 20
578.012053839936
 30
0.0
 10
4.497515286477284
 20
578.0948561628478
 30
0.0
 10
4.354353447947719
 20
578.1776870637304
 30
0.0
 10
4.229416799307001
 20
578.2499731929562
 30
0.0
  0
SPLINE
  5
7E
330
1F
100
AcDbEntity
  8
0
  6
Continuous
 62
     7
370
    15
100
AcDbSpline
210
0.0
220
0.0
230
1.0
 70
     8
 71
     3
 72
    39
 73
    35
 74
     0
 42
0.000000001
 43
0.00000001
 40
0.0
 40
0.0
 40
0.0
 40
0.0
 40
0.0015528275229377
 40
0.0395723044961011
 40
0.0766481583117838
 40
0.1141553715083296
 40
0.1509646156492835
 40
0.2080731932125726
 40
0.2628221078083129
 40
0.3162374895337409
 40
0.3715194551366197
 40
0.4286706515971243
 40
0.4779570917026425
 40
0.5258997525049085
 40
0.5666621278465203
 40
0.6013957284297005
 40
0.6453092244555119
 40
0.698848611199489
 40
0.7282133775747345
 40
0.7548564619450606
 40
0.7790970258015202
 40
0.8011671114792335
 40
0.8280597378273972
 40
0.8536839498549941
 40
0.874488877428503
 40
0.8965867682783742
 40
0.9114785854589142
 40
0.9185601000157643
 40
0.9273470532032286
 40
0.9389278991357817
 40
0.9540859435617675
 40
0.9738045294701352
 40
0.9859365473049696
 40
1.0
 40
1.0
 40
1.0
 40
1.0
 10
-95.25331937982308
 20
-197.7088681170706
 30
0.0
 10
-95.20934784102678
 20
-197.7486266972356
 30
0.0
 10
-94.08877578990965
 20
-198.7618355806305
 30
0.0
 10
-91.79891036697491
 20
-200.7108389365723
 30
0.0
 10
-88.60106818446056
 20
-203.4073476710291
 30
0.0
 10
-85.65269030446846
 20
-205.8209347573033
 30
0.0
 10
-82.04575543213112
 20
-208.7000683300501
 30
0.0
 10
-77.87078305877755
 20
-211.8884856026248
 30
0.0
 10
-73.0278259227428
 20
-215.3373814571806
 30
0.0
 10
-68.011199122318
 20
-218.5971611898154
 30
0.0
 10
-62.6984200231463
 20
-221.6921216658738
 30
0.0
 10
-57.20330940713934
 20
-224.3628711138928
 30
0.0
 10
-51.68905392922467
 20
-226.5122891501049
 30
0.0
 10
-46.63262402374082
 20
-228.1845255159563
 30
0.0
 10
-42.0490055822866
 20
-229.4999338709895
 30
0.0
 10
-37.58024604622077
 20
-230.5956258473307
 30
0.0
 10
-32.5810022551452
 20
-231.6268515464022
 30
0.0
 10
-27.7726696226918
 20
-232.4125639779608
 30
0.0
 10
-23.61253998195587
 20
-232.9665845797477
 30
0.0
 10
-20.57087071137242
 20
-233.3177197757727
 30
0.0
 10
-17.79906858532755
 20
-233.5981779803798
 30
0.0
 10
-15.02650472328316
 20
-233.8469882388034
 30
0.0
 10
-12.15172809910989
 20
-234.0722802077011
 30
0.0
 10
-9.387696041987098
 20
-234.2630650229696
 30
0.0
 10
-6.778635052563971
 20
-234.4230917204891
 30
0.0
 10
-4.581580884488835
 20
-234.5453273823482
 30
0.0
 10
-3.062785081275684
 20
-234.622931487508
 30
0.0
 10
-1.88597547542901
 20
-234.6801377625285
 30
0.0
 10
-0.8267566000499555
 20
-234.7298732018728
 30
0.0
 10
0.5261883458359331
 20
-234.7875736245367
 30
0.0
 10
2.330802778168953
 20
-234.8581622160572
 30
0.0
 10
4.114131401652337
 20
-234.9275936006837
 30
0.0
 10
5.693417751292226
 20
-234.9894147191059
 30
0.0
 10
6.459989546432361
 20
-235.015629019099
 30
0.0
 10
6.871535739733495
 20
-235.0297025806893
 30
0.0
  0
SPLINE
  5
7F
330
1F
100
AcDbEntity
  8
0
  6
Continuous
 62
     7
370
    15
100
AcDbSpline
210
0.0
220
0.0
230
1.0
 70
     8
 71
     3
 72
    21
 73
    17
 74
     0
 42
0.000000001
 43
0.00000001
 40
0.0
 40
0.0
 40
0.0
 40
0.0
 40
0.0528108683586442
 40
0.1242469374815223
 40
0.1980873493065844
 40
0.2744029892752798
 40
0.3536328818904896
 40
0.4195129100779719
 40
0.4879554529053283
 40
0.5593065871868371
 40
0.6339248001353678
 40
0.7122145715046393
 40
0.7947357021605982
 40
0.8821939394624829
 40
0.9750728143673235
 40
1.0
 40
1.0
 40
1.0
 40
1.0
 10
120.9705462229123
 20
-163.9078783687535
 30
0.0
 10
121.4010989918114
 20
-161.622795939777
 30
0.0
 10
122.4140507690216
 20
-156.2467341078628
 30
0.0
 10
123.6284104846146
 20
-147.4742099571246
 30
0.0
 10
124.490113319972
 20
-137.5231295848144
 30
0.0
 10
124.640520752029
 20
-127.083494733307
 30
0.0
 10
124.0475691640651
 20
-116.9613883891468
 30
0.0
 10
122.8475760223512
 20
-107.2306620339706
 30
0.0
 10
121.1575482866743
 20
-97.93061113597662
 30
0.0
 10
118.8555317733358
 20
-88.3560631223072
 30
0.0
 10
115.9126921814484
 20
-78.50748299751403
 30
0.0
 10
112.2806677349325
 20
-68.38385824116943
 30
0.0
 10
107.865036015821
 20
-57.98828051145932
 30
0.0
 10
102.5035733773152
 20
-47.39156014499535
 30
0.0
 10
97.96208983638853
 20
-39.35316718125897
 30
0.0
 10
95.11505943832287
 20
-34.9386603282092
 30
0.0
 10
94.51264174511891
 20
-34.00457229147658
 30
0.0
  0
SPLINE
  5
80
330
1F
100
AcDbEntity
  8
0
  6
Continuous
 62
     7
370
    15
100
AcDbSpline
210
0.0
220
0.0
230
1.0
 70
     8
 71
     3
 72
    11
 73
     7
 74
     0
 42
0.000000001
 43
0.00000001
 40
0.0
 40
0.0
 40
0.0
 40
0.0
 40
0.2366159426062493
 40
0.4854835116961039
 40
0.7487838625252279
 40
1.0
 40
1.0
 40
1.0
 40
1.0
 10
-70.9994937852905
 20
-7.573387848341162
 30
0.0
 10
-73.25052303758885
 20
-9.298952773966695
 30
0.0
 10
-77.86913653547575
 20
-12.83942984632691
 30
0.0
 10
-84.49880545150567
 20
-18.88131802198873
 30
0.0
 10
-90.96809484490632
 20
-25.31022339452982
 30
0.0
 10
-95.11526751251873
 20
-29.83881428121587
 30
0.0
 10
-97.14015247282961
 20
-32.04992925346295
 30
0.0
  0
SPLINE
  5
81
330
1F
100
AcDbEntity
  8
0
  6
Continuous
 62
     7
370
    15
100
AcDbSpline
210
0.0
220
0.0
230
1.0
 70
     8
 71
     3
 72
    62
 73
    58
 74
     0
 42
0.000000001
 43
0.00000001
 40
0.0
 40
0.0
 40
0.0
 40
0.0
 40
0.0118954396931782
 40
0.0306591776483116
 40
0.051859992372938
 40
0.0745438648517085
 40
0.0941058806264609
 40
0.1184855982636242
 40
0.1474727771062538
 40
0.1751704179060853
 40
0.1976680470937512
 40
0.2176115629355874
 40
0.2472357806455987
 40
0.2647198912122052
 40
0.2831097998689142
 40
0.3088311543694651
 40
0.3285069342525969
 40
0.3464357782743392
 40
0.3697714767428202
 40
0.397138098323413
 40
0.4123248838933647
 40
0.4242232146944748
 40
0.4363440322642832
 40
0.4497290638364875
 40
0.4665698143596184
 40
0.4860703626652388
 40
0.5005470777318239
 40
0.5111386829272705
 40
0.5225750591747214
 40
0.5357501278641426
 40
0.5504407299451038
 40
0.5775447650543787
 40
0.5972634605167023
 40
0.6255694523157919
 40
0.6464118972770587
 40
0.6724889910109717
 40
0.7003067830797317
 40
0.7114704838792673
 40
0.7217783398939669
 40
0.7329996327349931
 40
0.7480715956948591
 40
0.7658527451298235
 40
0.7806336952438646
 40
0.7916281630105011
 40
0.8045865678675769
 40
0.8175111204431512
 40
0.8337275257562922
 40
0.8554820067570322
 40
0.8831856300891039
 40
0.9069178420826386
 40
0.9291162194402064
 40
0.9516734192556764
 40
0.9635507160963107
 40
0.9746005183949122
 40
0.9852421859439101
 40
0.9994611654527289
 40
1.0
 40
1.0
 40
1.0
 40
1.0
 10
-96.53407746003919
 20
-31.35926404036055
 30
0.0
 10
-97.05328755625756
 20
-31.92831712719929
 30
0.0
 10
-98.39149404440319
 20
-33.39498840045319
 30
0.0
 10
-100.6420557759426
 20
-35.90142348517883
 30
0.0
 10
-103.3445446797854
 20
-38.94724599957355
 30
0.0
 10
-106.0583938222612
 20
-42.05641718857234
 30
0.0
 10
-108.8785938583471
 20
-45.34940462191284
 30
0.0
 10
-111.9205011655269
 20
-48.99249176739523
 30
0.0
 10
-115.2238207094159
 20
-53.09918821644871
 30
0.0
 10
-118.3379184103129
 20
-57.1892249873302
 30
0.0
 10
-120.9819124553224
 20
-60.89539860904986
 30
0.0
 10
-123.5603025553931
 20
-64.76164289121283
 30
0.0
 10
-125.7876197701814
 20
-68.4337264142077
 30
0.0
 10
-127.7858503246276
 20
-72.13019434889667
 30
0.0
 10
-129.4872620754699
 20
-75.61191603857952
 30
0.0
 10
-131.0572178856085
 20
-79.31558586154702
 30
0.0
 10
-132.3892907875101
 20
-83.06459755308171
 30
0.0
 10
-133.4734492553189
 20
-86.66587216517712
 30
0.0
 10
-134.4838007343337
 20
-90.80038183307076
 30
0.0
 10
-135.2059220224284
 20
-94.82294214597047
 30
0.0
 10
-135.6474905100191
 20
-98.1815731967145
 30
0.0
 10
-135.8971622832796
 20
-100.594275777145
 30
0.0
 10
-136.0836943466204
 20
-102.9188229024625
 30
0.0
 10
-136.2347751252222
 20
-105.5722110474218
 30
0.0
 10
-136.3325966655172
 20
-108.7203952001008
 30
0.0
 10
-136.3397731811227
 20
-111.9580965425836
 30
0.0
 10
-136.2749784168581
 20
-114.8054562934451
 30
0.0
 10
-136.1804040787323
 20
-117.1438968168978
 30
0.0
 10
-136.0540590945055
 20
-119.4109417237305
 30
0.0
 10
-135.8697850518004
 20
-121.9472305666453
 30
0.0
 10
-135.5435554936718
 20
-125.4992899686271
 30
0.0
 10
-135.0624862594305
 20
-129.472502040419
 30
0.0
 10
-134.3067575636104
 20
-134.3065494360369
 30
0.0
 10
-133.4459522535807
 20
-138.7079531209415
 30
0.0
 10
-132.298401501831
 20
-143.4644541161132
 30
0.0
 10
-130.9465759648515
 20
-148.1316945519514
 30
0.0
 10
-129.5435254023104
 20
-152.1180655716203
 30
0.0
 10
-128.3514097224726
 20
-155.0886431642769
 30
0.0
 10
-127.513944516833
 20
-157.0386291622239
 30
0.0
 10
-126.5230599374387
 20
-159.1999918976374
 30
0.0
 10
-125.2528947173318
 20
-161.7673411018384
 30
0.0
 10
-123.7806967900287
 20
-164.4882095005675
 30
0.0
 10
-122.3493240771895
 20
-166.9248061100685
 30
0.0
 10
-121.0174717672885
 20
-169.0581197541803
 30
0.0
 10
-119.7001547471249
 20
-171.0579228852064
 30
0.0
 10
-118.1420547498631
 20
-173.2978646927635
 30
0.0
 10
-116.1867377784275
 20
-175.9512667899442
 30
0.0
 10
-113.5540872022145
 20
-179.2840051028175
 30
0.0
 10
-110.4821746392308
 20
-182.8672950977349
 30
0.0
 10
-107.269930901465
 20
-186.3450179658859
 30
0.0
 10
-104.2040272964264
 20
-189.4729917367135
 30
0.0
 10
-101.6136901750497
 20
-191.9790409027146
 30
0.0
 10
-99.50513046202771
 20
-193.9461227388979
 30
0.0
 10
-97.93920680769283
 20
-195.3754410586407
 30
0.0
 10
-96.25354106298114
 20
-196.8765351404147
 30
0.0
 10
-95.06587322860648
 20
-197.9217128718011
 30
0.0
 10
-94.37146817384942
 20
-198.5125395734974
 30
0.0
 10
-94.34611418633604
 20
-198.5341117275517
 30
0.0
  0
SPLINE
  5
84
330
1F
100
AcDbEntity
  8
0
  6
Continuous
 62
     7
370
    15
100
AcDbSpline
210
0.0
220
0.0
230
1.0
 70
     8
 71
     3
 72
    40
 73
    36
 74
     0
 42
0.000000001
 43
0.00000001
 40
0.0
 40
0.0
 40
0.0
 40
0.0
 40
0.020914341669425
 40
0.0375127812574561
 40
0.0488738001915696
 40
0.0576216026775991
 40
0.0671145166516418
 40
0.0773699984845288
 40
0.0884025005099624
 40
0.0998668023629934
 40
0.1358530375817052
 40
0.1716040144625162
 40
0.2125399689804259
 40
0.2555433327677606
 40
0.3005019087035484
 40
0.345866766387236
 40
0.3757683069149043
 40
0.4055916423389394
 40
0.4354755656692911
 40
0.465448400719855
 40
0.4956840078807799
 40
0.5273233186746633
 40
0.5528956398459984
 40
0.5806013545581379
 40
0.611006035736212
 40
0.639454650031553
 40
0.6702002936764203
 40
0.6931770057705849
 40
0.7161123791074668
 40
0.7555645021368876
 40
0.7989435817316853
 40
0.8430950636183948
 40
0.888407507910148
 40
0.9501972266819744
 40
1.0
 40
1.0
 40
1.0
 40
1.0
 10
6.964023860333353
 20
-235.0326234068465
 30
0.0
 10
8.049491904185963
 20
-235.0639212058553
 30
0.0
 10
9.996429844409501
 20
-235.1200581623331
 30
0.0
 10
12.37213556652328
 20
-235.1735654385762
 30
0.0
 10
14.11541376584177
 20
-235.2043622528317
 30
0.0
 10
15.59767173139748
 20
-235.2235367155197
 30
0.0
 10
17.02355754148193
 20
-235.2364674399212
 30
0.0
 10
18.57875942348048
 20
-235.2435507532792
 30
0.0
 10
20.24584220177981
 20
-235.2423603601594
 30
0.0
 10
23.22710904146082
 20
-235.2226842024601
 30
0.0
 10
27.42059705969796
 20
-235.1450230841896
 30
0.0
 10
33.04533397517749
 20
-234.9149057409869
 30
0.0
 10
38.98568388305918
 20
-234.5013861141337
 30
0.0
 10
45.22409975676271
 20
-233.8285297202264
 30
0.0
 10
51.41575629027199
 20
-232.85597203073
 30
0.0
 10
57.00099454596754
 20
-231.6358808154191
 30
0.0
 10
62.04878744985857
 20
-230.2680763524537
 30
0.0
 10
66.43094814016554
 20
-228.875297454804
 30
0.0
 10
70.74526696125022
 20
-227.3428652751772
 30
0.0
 10
74.98555847629942
 20
-225.7483997614272
 30
0.0
 10
79.04214901936398
 20
-224.1057346100361
 30
0.0
 10
82.96287567055745
 20
-222.3289618467025
 30
0.0
 10
86.84541973080357
 20
-220.3092402599592
 30
0.0
 10
90.56809157547987
 20
-218.0676081084156
 30
0.0
 10
94.18629338558299
 20
-215.4914088538492
 30
0.0
 10
97.65707643540293
 20
-212.5585381507637
 30
0.0
 10
100.5928348238301
 20
-209.6242050436218
 30
0.0
 10
103.1003053429219
 20
-206.7252500573522
 30
0.0
 10
105.6990217239401
 20
-203.3407553534087
 30
0.0
 10
108.6018651716724
 20
-198.9179188097784
 30
0.0
 10
111.6481974193568
 20
-193.280411144831
 30
0.0
 10
114.4187577841437
 20
-187.0432745342793
 30
0.0
 10
117.0892794507226
 20
-179.685784905428
 30
0.0
 10
119.3775082450432
 20
-171.8791893238607
 30
0.0
 10
120.5325594426406
 20
-166.2749149389282
 30
0.0
 10
121.0480488979557
 20
-163.7737752871668
 30
0.0
  0
SPLINE
  5
86
330
1F
100
AcDbEntity
  8
0
  6
Continuous
 62
     7
370
    15
100
AcDbSpline
210
0.0
220
0.0
230
1.0
 70
     8
 71
     3
 72
    15
 73
    11
 74
     0
 42
0.000000001
 43
0.00000001
 40
0.0
 40
0.0
 40
0.0
 40
0.0
 40
0.0505794484021987
 40
0.2065067512233784
 40
0.396207061358539
 40
0.5494208931572965
 40
0.6589729175298671
 40
0.7813161361912802
 40
0.9050353974706931
 40
0.9999999999999999
 40
0.9999999999999999
 40
0.9999999999999999
 40
0.9999999999999999
 10
95.1025689040398
 20
-34.89565914827442
 30
0.0
 10
94.79363023683092
 20
-34.38204384688886
 30
0.0
 10
93.53228946487802
 20
-32.28504535010151
 30
0.0
 10
90.89481348117123
 20
-28.40798813931117
 30
0.0
 10
87.36489486873089
 20
-23.60163913488761
 30
0.0
 10
83.83390238282871
 20
-19.37437923109925
 30
0.0
 10
80.5833655793243
 20
-15.86997890265257
 30
0.0
 10
77.37082596313067
 20
-12.75832202881272
 30
0.0
 10
74.1056584871707
 20
-9.91644149599258
 30
0.0
 10
71.8718707759693
 20
-8.248378125497613
 30
0.0
 10
70.90183687207487
 20
-7.524012951891034
 30
0.0
  0
SPLINE
  5
89
330
1F
100
AcDbEntity
  8
0
  6
Continuous
 62
     7
370
    15
100
AcDbSpline
210
0.0
220
0.0
230
1.0
 70
     8
 71
     3
 72
     9
 73
     5
 74
     0
 42
0.000000001
 43
0.00000001
 40
0.0
 40
0.0
 40
0.0
 40
0.0
 40
0.4999416451935733
 40
1.0
 40
1.0
 40
1.0
 40
1.0
 10
-4.214200609133176
 20
176.2585898174272
 30
0.0
 10
-4.345103053527024
 20
176.18285811416
 30
0.0
 10
-4.606938501028427
 20
176.0313770283267
 30
0.0
 10
-4.868760489040536
 20
175.8799489711072
 30
0.0
 10
-4.999686761618017
 20
175.8042261059424
 30
0.0
  0
SPLINE
  5
BF
330
1F
100
AcDbEntity
  8
0
  6
Continuous
 62
     7
370
    15
100
AcDbSpline
210
0.0
220
0.0
230
1.0
 70
     8
 71
     3
 72
    13
 73
     9
 74
     0
 42
0.000000001
 43
0.00000001
 40
0.0
 40
0.0
 40
0.0
 40
0.0
 40
0.042977951297956
 40
0.2343823610383646
 40
0.4257867707787731
 40
0.6171911805191824
 40
0.8085955902595914
 40
1.0
 40
1.0
 40
1.0
 40
1.0
 10
2.277644880242008
 20
578.5266204943368
 30
0.0
 10
2.158371669770646
 20
578.5219425687203
 30
0.0
 10
1.50790937841817
 20
578.496431272401
 30
0.0
 10
-0.0201014217235656
 20
578.4500866053793
 30
0.0
 10
-1.960174712294505
 20
578.387586493271
 30
0.0
 10
-3.619717947050187
 20
578.3250863811629
 30
0.0
 10
-4.774168579013446
 20
578.2625862690546
 30
0.0
 10
-4.924722859670663
 20
578.220919527649
 30
0.0
 10
-4.999999999999272
 20
578.2000861569463
 30
0.0
  0
SPLINE
  5
C0
330
1F
100
AcDbEntity
  8
0
  6
Continuous
 62
     7
370
    15
100
AcDbSpline
210
0.0
220
0.0
230
1.0
 70
     8
 71
     3
 72
    11
 73
     7
 74
     0
 42
0.000000001
 43
0.00000001
 40
0.0
 40
0.0
 40
0.0
 40
0.0
 40
0.2223433186961856
 40
0.4816543742395224
 40
0.7409654297828592
 40
1.0
 40
1.0
 40
1.0
 40
1.0
 10
-4.945740761005446
 20
578.3088763454409
 30
0.0
 10
-4.878120583855868
 20
578.3267408493186
 30
0.0
 10
-4.731637414035731
 20
578.3654400847477
 30
0.0
 10
-3.614851042163252
 20
578.4249740517281
 30
0.0
 10
-1.967026297450134
 20
578.4874560317585
 30
0.0
 10
-0.6568022002814361
 20
578.5291032802375
 30
0.0
 10
-0.0020395881723777
 20
578.549915797165
 30
0.0
  0
SPLINE
  5
C3
330
1F
100
AcDbEntity
  8
0
  6
Continuous
 62
     7
370
    15
100
AcDbSpline
210
0.0
220
0.0
230
1.0
 70
     8
 71
     3
 72
    54
 73
    50
 74
     0
 42
0.000000001
 43
0.00000001
 40
0.0
 40
0.0
 40
0.0
 40
0.0
 40
0.0043898064465941
 40
0.0086709779085113
 40
0.0128421927738182
 40
0.0169021163408091
 40
0.031709377896654
 40
0.0458708400738307
 40
0.060503187778959
 40
0.0747818729677861
 40
0.1036538029192752
 40
0.1180829462313313
 40
0.1325087879126251
 40
0.1465689909381774
 40
0.1613572943981058
 40
0.175517811260967
 40
0.1902135582086773
 40
0.2040279658788196
 40
0.2191346977901493
 40
0.2324201575059637
 40
0.2482175077826046
 40
0.2627089192447731
 40
0.2771362620295783
 40
0.3058665278738131
 40
0.3345604164989684
 40
0.3633639349917308
 40
0.3923978949782388
 40
0.4501122229365569
 40
0.5075243967723951
 40
0.5651957670932092
 40
0.5941787096265658
 40
0.6014141574678009
 40
0.6086465235771313
 40
0.6231054120524667
 40
0.6528484700705319
 40
0.6808866939381288
 40
0.7104038898753801
 40
0.7386622544093904
 40
0.7676086310405075
 40
0.7966361532402526
 40
0.8255762178716163
 40
0.8544371954830924
 40
0.8833315993258811
 40
0.9124060908559272
 40
0.9413248601275341
 40
0.955728892380173
 40
0.9701410026670951
 40
0.9991432549413669
 40
0.9999999999999999
 40
0.9999999999999999
 40
0.9999999999999999
 40
0.9999999999999999
 10
-117.4932888159197
 20
-64.31522215200258
 30
0.0
 10
-117.3949703409648
 20
-64.31521778030918
 30
0.0
 10
-117.2007664883111
 20
-64.31520914510908
 30
0.0
 10
-116.9049141347891
 20
-64.31524028491198
 30
0.0
 10
-116.6112241100493
 20
-64.31529070433706
 30
0.0
 10
-116.0599799356405
 20
-64.31534381781351
 30
0.0
 10
-115.2371245347418
 20
-64.3151755611499
 30
0.0
 10
-114.0932963223909
 20
-64.31536608136057
 30
0.0
 10
-112.9143297554558
 20
-64.3152361286255
 30
0.0
 10
-111.2772809288431
 20
-64.31535714991726
 30
0.0
 10
-109.5774826587102
 20
-64.31530701558525
 30
0.0
 10
-107.8290329230532
 20
-64.31531113537942
 30
0.0
 10
-106.4980442007104
 20
-64.31532276474871
 30
0.0
 10
-105.1262822288065
 20
-64.31527355083239
 30
0.0
 10
-103.7333708244664
 20
-64.31524708171877
 30
0.0
 10
-102.2877511845681
 20
-64.3156008328446
 30
0.0
 10
-100.8538124010104
 20
-64.31526598736464
 30
0.0
 10
-99.31390797906998
 20
-64.31523179582294
 30
0.0
 10
-97.74504107157335
 20
-64.31537786120728
 30
0.0
 10
-96.019426316533
 20
-64.31513722194049
 30
0.0
 10
-94.23270275524062
 20
-64.31535829000023
 30
0.0
 10
-92.30729035827987
 20
-64.31530109317757
 30
0.0
 10
-89.71274717575518
 20
-64.3153191626617
 30
0.0
 10
-86.27136262975733
 20
-64.31531034454791
 30
0.0
 10
-81.83057450238704
 20
-64.31531317445982
 30
0.0
 10
-77.08655504337776
 20
-64.31531241929272
 30
0.0
 10
-70.41791322073462
 20
-64.31531265652418
 30
0.0
 10
-61.56900225128874
 20
-64.31531263049861
 30
0.0
 10
-50.38823282616431
 20
-64.31531227377246
 30
0.0
 10
-40.73609604938499
 20
-64.3153134935615
 30
0.0
 10
-34.34112180922522
 20
-64.3153114496644
 30
0.0
 10
-31.36439601648113
 20
-64.31531350072872
 30
0.0
 10
-29.37940998002628
 20
-64.31530747213726
 30
0.0
 10
-25.84424790087307
 20
-64.31537348978273
 30
0.0
 10
-20.86182903467043
 20
-64.3148354592587
 30
0.0
 10
-14.81519043596837
 20
-64.31556307240078
 30
0.0
 10
-8.845382056964775
 20
-64.31478197695817
 30
0.0
 10
-2.785712185293701
 20
-64.31545590363791
 30
0.0
 10
3.265650752193022
 20
-64.3152736567098
 30
0.0
 10
9.38795212977316
 20
-64.31532298192893
 30
0.0
 10
15.51880209346708
 20
-64.31530980214629
 30
0.0
 10
21.63855441084681
 20
-64.31531331052514
 30
0.0
 10
27.73940509441593
 20
-64.31531240983458
 30
0.0
 10
33.77457530789342
 20
-64.31531249935895
 30
0.0
 10
38.69886733346757
 20
-64.31531295350796
 30
0.0
 10
42.52615638045603
 20
-64.31531191410173
 30
0.0
 10
46.2807601520963
 20
-64.31531618679182
 30
0.0
 10
49.05510971498863
 20
-64.31529602274117
 30
0.0
 10
50.86287131984435
 20
-64.31531355649922
 30
0.0
 10
50.91474147492284
 20
-64.31531405959583
 30
0.0
  0
SPLINE
  5
C4
330
1F
100
AcDbEntity
  8
0
  6
Continuous
 62
     7
370
    15
100
AcDbSpline
210
0.0
220
0.0
230
1.0
 70
     8
 71
     3
 72
    57
 73
    53
 74
     0
 42
0.000000001
 43
0.00000001
 40
0.0
 40
0.0
 40
0.0
 40
0.0
 40
0.0052231836706568
 40
0.0105239549265119
 40
0.0159012150773294
 40
0.0213537797432865
 40
0.0268803791752951
 40
0.0324796598541914
 40
0.0491916767894665
 40
0.0672392765990125
 40
0.0846071960850483
 40
0.1019203059477178
 40
0.1192052232823666
 40
0.1364942538198446
 40
0.1552183915049586
 40
0.171259912746309
 40
0.205938108712768
 40
0.2231664573454512
 40
0.2310540508197058
 40
0.2404255048955037
 40
0.2578664170652177
 40
0.2752045524907173
 40
0.3097908107864131
 40
0.3270229447455454
 40
0.3442559574907209
 40
0.3615084590298427
 40
0.3787904550659387
 40
0.3961082720877395
 40
0.4134358432343251
 40
0.4306985827467462
 40
0.44791278547236
 40
0.4822782760844613
 40
0.5168144348594087
 40
0.5514612884268448
 40
0.5858536139733784
 40
0.6205036616899201
 40
0.6550666977369086
 40
0.6895324189980961
 40
0.7242299483796363
 40
0.7414920160488561
 40
0.7586912145710843
 40
0.7930256086187893
 40
0.827428697743875
 40
0.8620184754095658
 40
0.8965454550725492
 40
0.9137761084918928
 40
0.9309805706990474
 40
0.9482266765555465
 40
0.9654295589718804
 40
0.9769745852951515
 40
0.9884955132774862
 40
1.0
 40
1.0
 40
1.0
 40
1.0
 10
50.91517367768599
 20
-64.31531406762004
 30
0.0
 10
50.91391813988128
 20
-64.58878060007106
 30
0.0
 10
50.9113884139328
 20
-65.13977586328411
 30
0.0
 10
50.91052720908887
 20
-65.97812538355818
 30
0.0
 10
50.91162468291487
 20
-66.83288334492975
 30
0.0
 10
50.91479499405173
 20
-67.70442471625377
 30
0.0
 10
50.91985300312975
 20
-68.59257013296805
 30
0.0
 10
50.93116286711291
 20
-70.09197581192333
 30
0.0
 10
50.95487295231137
 20
-72.28914468384772
 30
0.0
 10
50.99055688250461
 20
-75.17153935786375
 30
0.0
 10
51.02331493538375
 20
-78.13088838982307
 30
0.0
 10
51.04158013709914
 20
-81.08697202158326
 30
0.0
 10
51.03394880149997
 20
-84.07490871186074
 30
0.0
 10
50.98533941815327
 20
-87.17721495281688
 30
0.0
 10
50.87974326524435
 20
-90.2355673462092
 30
0.0
 10
50.64374892121155
 20
-94.33981092024618
 30
0.0
 10
50.23852630867768
 20
-98.380418347579
 30
0.0
 10
49.66756724669746
 20
-101.9002904438993
 30
0.0
 10
49.26778568885631
 20
-103.9111320178968
 30
0.0
 10
48.82979643094998
 20
-105.9215946798979
 30
0.0
 10
48.21992335857261
 20
-108.4563293900021
 30
0.0
 10
47.14768926193475
 20
-112.374486195371
 30
0.0
 10
45.91719304635641
 20
-116.1736372422188
 30
0.0
 10
44.58274101337481
 20
-119.8503811290391
 30
0.0
 10
43.55031529643238
 20
-122.5540261247998
 30
0.0
 10
42.5062057520646
 20
-125.2178435060639
 30
0.0
 10
41.47390155688046
 20
-127.8541469178033
 30
0.0
 10
40.47962956087931
 20
-130.4736149226464
 30
0.0
 10
39.55111383938495
 20
-133.0818086693508
 30
0.0
 10
38.71926639005
 20
-135.6844617349417
 30
0.0
 10
37.7318282559283
 20
-139.1316442801759
 30
0.0
 10
36.77081758243697
 20
-143.4348446326078
 30
0.0
 10
36.18919957199734
 20
-148.5802701197489
 30
0.0
 10
36.28966853512254
 20
-153.648763232562
 30
0.0
 10
37.13349064396171
 20
-158.5661568701575
 30
0.0
 10
38.72832466719351
 20
-163.2362286264132
 30
0.0
 10
41.03676579538346
 20
-167.5875062920941
 30
0.0
 10
43.9784960225825
 20
-171.5654511655677
 30
0.0
 10
46.87776304034025
 20
-174.5446855139506
 30
0.0
 10
49.41236320332601
 20
-176.7247421203814
 30
0.0
 10
52.06152006832711
 20
-178.7611117396118
 30
0.0
 10
55.54844242571735
 20
-181.070963617206
 30
0.0
 10
59.95188324932504
 20
-183.4860245661213
 30
0.0
 10
64.51938419758719
 20
-185.5539938189534
 30
0.0
 10
68.42078413690824
 20
-186.9925360600879
 30
0.0
 10
71.5723516259791
 20
-187.9724707208821
 30
0.0
 10
73.94873987896725
 20
-188.6227353562303
 30
0.0
 10
76.33430418470074
 20
-189.1888278714812
 30
0.0
 10
78.46484750170495
 20
-189.6183339408988
 30
0.0
 10
80.33217645462607
 20
-189.9388803763701
 30
0.0
 10
81.93571519975237
 20
-190.1789381906848
 30
0.0
 10
83.00289685225668
 20
-190.3067924018909
 30
0.0
 10
83.53610666884951
 20
-190.3706738604485
 30
0.0
  0
SPLINE
  5
C6
330
1F
100
AcDbEntity
  8
0
  6
Continuous
 62
     7
370
    15
100
AcDbSpline
210
0.0
220
0.0
230
1.0
 70
     8
 71
     3
 72
    10
 73
     6
 74
     0
 42
0.000000001
 43
0.00000001
 40
0.0
 40
0.0
 40
0.0
 40
0.0
 40
0.0841188760777312
 40
0.9563212690233913
 40
0.9999999999999999
 40
0.9999999999999999
 40
0.9999999999999999
 40
0.9999999999999999
 10
122.2811873354468
 20
-156.9606896395531
 30
0.0
 10
122.253637603043
 20
-157.1701920956453
 30
0.0
 10
121.9404332869358
 20
-159.5519601840409
 30
0.0
 10
121.5259500080545
 20
-161.8853336749996
 30
0.0
 10
121.0356210074438
 20
-163.8236453710706
 30
0.0
 10
121.0122370245793
 20
-163.9160842181111
 30
0.0
  0
SPLINE
  5
C7
330
1F
100
AcDbEntity
  8
0
  6
Continuous
 62
     7
370
    15
100
AcDbSpline
210
0.0
220
0.0
230
1.0
 70
     8
 71
     3
 72
    38
 73
    34
 74
     0
 42
0.000000001
 43
0.00000001
 40
0.0
 40
0.0
 40
0.0
 40
0.0
 40
0.0077979422711974
 40
0.0156330470378693
 40
0.023510140775815
 40
0.0314351145969526
 40
0.0471400894435479
 40
0.0628398550713645
 40
0.0942783004125668
 40
0.1256875478928707
 40
0.1883174694224356
 40
0.2506904097941944
 40
0.3131879695930835
 40
0.3759097532780037
 40
0.4007750230305001
 40
0.4258954623518895
 40
0.4445502412327895
 40
0.4537155534791563
 40
0.463172380689293
 40
0.4817742430565167
 40
0.5003651919815242
 40
0.5623721408121308
 40
0.6246983556119504
 40
0.6873874306430584
 40
0.7498031985318516
 40
0.8120658222775737
 40
0.8432008244302996
 40
0.8744150857433837
 40
0.9066243628077489
 40
0.9371178249236767
 40
0.959176902909121
 40
0.9801251846407465
 40
1.0
 40
1.0
 40
1.0
 40
1.0
 10
68.1147623533365
 20
-16.66249104614431
 30
0.0
 10
68.00653427792031
 20
-16.68260031460811
 30
0.0
 10
67.78956234674186
 20
-16.72291468586901
 30
0.0
 10
67.4670781122296
 20
-16.79043080738673
 30
0.0
 10
67.14245421201474
 20
-16.86406423326936
 30
0.0
 10
66.71088445334786
 20
-16.96999021286289
 30
0.0
 10
66.17374765438551
 20
-17.11645647588339
 30
0.0
 10
65.32003131272272
 20
-17.38127694780744
 30
0.0
 10
64.26354856645624
 20
-17.76927452294191
 30
0.0
 10
62.60693125711266
 20
-18.51118005845431
 30
0.0
 10
60.61351386451617
 20
-19.66130653894282
 30
0.0
 10
58.3950997639512
 20
-21.39435762305908
 30
0.0
 10
56.40565222452863
 20
-23.47377864000683
 30
0.0
 10
55.04352596151926
 20
-25.40404325716239
 30
0.0
 10
54.15961099319139
 20
-26.9846638884913
 30
0.0
 10
53.67210635021176
 20
-27.99157308995509
 30
0.0
 10
53.3273494898266
 20
-28.79717170019724
 30
0.0
 10
53.10100533715584
 20
-29.37726318947043
 30
0.0
 10
52.88766749601001
 20
-29.96417655980593
 30
0.0
 10
52.63163211810577
 20
-30.71636945734435
 30
0.0
 10
52.1486904090937
 20
-32.35740782449692
 30
0.0
 10
51.61811830447739
 20
-34.85191646706348
 30
0.0
 10
51.21085998066983
 20
-38.35669248060392
 30
0.0
 10
51.02570368741879
 20
-42.10058580932585
 30
0.0
 10
50.98120546301126
 20
-46.07251307730365
 30
0.0
 10
50.99429406103425
 20
-49.56887208348332
 30
0.0
 10
51.00125723450085
 20
-52.48073907053585
 30
0.0
 10
50.99975044779183
 20
-54.74903463306207
 30
0.0
 10
50.98670973042305
 20
-57.05961023948408
 30
0.0
 10
50.96575802588018
 20
-59.19448761396179
 30
0.0
 10
50.94389334576601
 20
-61.07996209802041
 30
0.0
 10
50.92505301066421
 20
-62.71415968215699
 30
0.0
 10
50.91733236659726
 20
-63.79103411322396
 30
0.0
 10
50.91357355390983
 20
-64.31531281836267
 30
0.0
  0
SPLINE
  5
C8
330
1F
100
AcDbEntity
  8
0
  6
Continuous
 62
     7
370
    15
100
AcDbSpline
210
0.0
220
0.0
230
1.0
 70
     8
 71
     3
 72
     9
 73
     5
 74
     0
 42
0.000000001
 43
0.00000001
 40
0.0
 40
0.0
 40
0.0
 40
0.0
 40
0.1212878778973737
 40
1.0
 40
1.0
 40
1.0
 40
1.0
 10
95.12409030130803
 20
-34.88248367321861
 30
0.0
 10
95.10050046518212
 20
-34.84186858484467
 30
0.0
 10
94.90600587483337
 20
-34.50700339404372
 30
0.0
 10
94.70957080070383
 20
-34.23122675187346
 30
0.0
 10
94.53696091986006
 20
-33.98889847340564
 30
0.0
  0
SPLINE
  5
C9
330
1F
100
AcDbEntity
  8
0
  6
Continuous
 62
     7
370
    15
100
AcDbSpline
210
0.0
220
0.0
230
1.0
 70
     8
 71
     3
 72
    10
 73
     6
 74
     0
 42
0.000000001
 43
0.00000001
 40
0.0
 40
0.0
 40
0.0
 40
0.0
 40
0.5
 40
0.5
 40
1.0
 40
1.0
 40
1.0
 40
1.0
 10
68.11473984069761
 20
-16.66246280870687
 30
0.0
 10
66.73457113272957
 20
-14.93695748622037
 30
0.0
 10
65.30885200902902
 20
-13.32921995525993
 30
0.0
 10
62.38216504958717
 20
-10.31995245369072
 30
0.0
 10
60.88129636961824
 20
-8.918992782125656
 30
0.0
 10
59.34870338855888
 20
-7.573387848341162
 30
0.0
  0
SPLINE
  5
CD
330
1F
100
AcDbEntity
  8
0
  6
Continuous
 62
     7
370
    15
100
AcDbSpline
210
0.0
220
0.0
230
1.0
 70
     8
 71
     3
 72
     9
 73
     5
 74
     0
 42
0.000000001
 43
0.00000001
 40
0.0
 40
0.0
 40
0.0
 40
0.0
 40
0.8508926874114199
 40
1.0
 40
1.0
 40
1.0
 40
1.0
 10
-4.144442874941094
 20
176.2584615911504
 30
0.0
 10
-4.164214252791157
 20
176.270243167261
 30
0.0
 10
-4.187450294353825
 20
176.2840893035422
 30
0.0
 10
-4.015200270666601
 20
176.2979354398285
 30
0.0
 10
-3.98951653254128
 20
176.2999999999999
 30
0.0
  0
SPLINE
  5
CE
330
1F
100
AcDbEntity
  8
0
  6
Continuous
 62
     7
370
    15
100
AcDbSpline
210
0.0
220
0.0
230
1.0
 70
     8
 71
     3
 72
    10
 73
     6
 74
     0
 42
0.000000001
 43
0.00000001
 40
0.0
 40
0.0
 40
0.0
 40
0.0
 40
0.344822751390608
 40
0.6896455027812161
 40
1.0
 40
1.0
 40
1.0
 40
1.0
 10
4.045086286141181
 20
176.199930375736
 30
0.0
 10
3.698478457559898
 20
176.18326288365
 30
0.0
 10
3.005262800397326
 20
176.149927899478
 30
0.0
 10
1.61533952044125
 20
176.1015914947054
 30
0.0
 10
0.6240279252407912
 20
176.0699225820188
 30
0.0
 10
0.1544481094450049
 20
176.0549211614182
 30
0.0
  0
SPLINE
  5
D1
330
1F
100
AcDbEntity
  8
0
  6
Continuous
 62
     7
370
    15
100
AcDbSpline
210
0.0
220
0.0
230
1.0
 70
    24
 71
     3
 72
    22
 73
    18
 74
     0
 42
0.000000001
 43
0.00000001
 40
0.0
 40
0.0
 40
0.0
 40
0.0
 40
0.125
 40
0.125
 40
0.25
 40
0.25
 40
0.375
 40
0.375
 40
0.5
 40
0.5
 40
0.625
 40
0.625
 40
0.75
 40
0.75
 40
0.875
 40
0.875
 40
1.0
 40
1.0
 40
1.0
 40
1.0
 10
6.499999999999981
 20
176.2999999999999
 30
0.0
 10
6.49999999999998
 20
176.2999999999999
 30
0.0
 10
6.330822398344035
 20
176.2999999999999
 30
0.0
 10
5.679611524302654
 20
176.2999999999998
 30
0.0
 10
5.197834475588147
 20
176.2999999999999
 30
0.0
 10
3.994553679836924
 20
176.2999999999999
 30
0.0
 10
3.273523372410828
 20
176.2999999999999
 30
0.0
 10
1.701361248335304
 20
176.2999999999999
 30
0.0
 10
0.8508480103472157
 20
176.2999999999999
 30
0.0
 10
-0.8508480103472547
 20
176.2999999999999
 30
0.0
 10
-1.701361248335344
 20
176.2999999999999
 30
0.0
 10
-3.27352337241087
 20
176.2999999999999
 30
0.0
 10
-3.994553679836966
 20
176.2999999999999
 30
0.0
 10
-5.19783447558819
 20
176.2999999999999
 30
0.0
 10
-5.679611524302695
 20
176.2999999999999
 30
0.0
 10
-6.330822398344068
 20
176.2999999999999
 30
0.0
 10
-6.500000000000022
 20
176.2999999999999
 30
0.0
 10
-6.500000000000019
 20
176.2999999999999
 30
0.0
  0
SPLINE
  5
D2
330
1F
100
AcDbEntity
  8
0
  6
Continuous
 62
     7
370
    15
100
AcDbSpline
210
0.0
220
0.0
230
1.0
 70
     8
 71
     3
 72
    14
 73
    10
 74
     0
 42
0.000000001
 43
0.00000001
 40
0.0
 40
0.0
 40
0.0
 40
0.0
 40
0.2499999999999999
 40
0.2499999999999999
 40
0.4999999999999999
 40
0.4999999999999999
 40
0.7499999999999999
 40
0.7499999999999999
 40
1.0
 40
1.0
 40
1.0
 40
1.0
 10
2.111842804255181
 20
186.9861811361838
 30
0.0
 10
2.073317530219679
 20
187.1850894383257
 30
0.0
 10
2.008775507024841
 20
187.374203449673
 30
0.0
 10
1.831185682488458
 20
187.7341709397588
 30
0.0
 10
1.717632996224561
 20
187.9031017531562
 30
0.0
 10
1.453995108915444
 20
188.203592306389
 30
0.0
 10
1.300799127507616
 20
188.338936662482
 30
0.0
 10
0.9706434476217966
 20
188.5644340274651
 30
0.0
 10
0.7913920248717177
 20
188.6564863187001
 30
0.0
 10
0.6014642834085643
 20
188.726326411385
 30
0.0
  0
SPLINE
  5
D3
330
1F
100
AcDbEntity
  8
0
  6
Continuous
 62
     7
370
    15
100
AcDbSpline
210
0.0
220
0.0
230
1.0
 70
     8
 71
     3
 72
    20
 73
    16
 74
     0
 42
0.000000001
 43
0.00000001
 40
0.0
 40
0.0
 40
0.0
 40
0.0
 40
0.0443729370477646
 40
0.0884475651684298
 40
0.1322217269615276
 40
0.1756962979169497
 40
0.2188761144127776
 40
0.2617669469938092
 40
0.3901566674493088
 40
0.5158201475769904
 40
0.6409583670301808
 40
0.763329804127042
 40
0.843465288280485
 40
0.9223454993240316
 40
1.0
 40
1.0
 40
1.0
 40
1.0
 10
2.999917006420676
 20
186.3000076050694
 30
0.0
 10
2.992260390917397
 20
186.3540308284869
 30
0.0
 10
2.976998633554639
 20
186.4617140897656
 30
0.0
 10
2.943015085495732
 20
186.6207668450974
 30
0.0
 10
2.901256558947376
 20
186.7767339602107
 30
0.0
 10
2.851148482823812
 20
186.9290710764664
 30
0.0
 10
2.793089340752787
 20
187.0773779361247
 30
0.0
 10
2.68355703143373
 20
187.3171295288503
 30
0.0
 10
2.495267522683054
 20
187.6317412370778
 30
0.0
 10
2.191758130464719
 20
187.9876133084093
 30
0.0
 10
1.837998622359789
 20
188.2820178255887
 30
0.0
 10
1.488055739439468
 20
188.4841795624886
 30
0.0
 10
1.166983867950035
 20
188.6120584826164
 30
0.0
 10
0.8865419399572225
 20
188.6902757845985
 30
0.0
 10
0.6960338011862619
 20
188.714483882547
 30
0.0
 10
0.6015255976800958
 20
188.7264931534484
 30
0.0
  0
SPLINE
  5
D4
330
1F
100
AcDbEntity
  8
0
  6
Continuous
 62
     7
370
    15
100
AcDbSpline
210
0.0
220
0.0
230
1.0
 70
     8
 71
     3
 72
     9
 73
     5
 74
     0
 42
0.000000001
 43
0.00000001
 40
0.0
 40
0.0
 40
0.0
 40
0.0
 40
0.5969364413932673
 40
1.0
 40
1.0
 40
1.0
 40
1.0
 10
-2.999999999999998
 20
186.3
 30
0.0
 10
-2.965859708268349
 20
185.8999274434969
 30
0.0
 10
-2.908667201052731
 20
185.2297178051485
 30
0.0
 10
-2.498038840517025
 20
184.7059062246001
 30
0.0
 10
-2.332529512254654
 20
184.4947768649048
 30
0.0
  0
SPLINE
  5
D5
330
1F
100
AcDbEntity
  8
0
  6
Continuous
 62
     7
370
    15
100
AcDbSpline
210
0.0
220
0.0
230
1.0
 70
     8
 71
     3
 72
    10
 73
     6
 74
     0
 42
0.000000001
 43
0.00000001
 40
0.0
 40
0.0
 40
0.0
 40
0.0
 40
0.0644312844845875
 40
0.5322156422422935
 40
1.0
 40
1.0
 40
1.0
 40
1.0
 10
1.987269067673023
 20
184.0891104785628
 30
0.0
 10
2.032633152729951
 20
184.1180963609272
 30
0.0
 10
2.407349811825613
 20
184.3575257021534
 30
0.0
 10
2.85028962599774
 20
185.1427291575571
 30
0.0
 10
2.950096541992565
 20
185.9142482274457
 30
0.0
 10
2.999999999989976
 20
186.3000077623899
 30
0.0
  0
SPLINE
  5
D6
330
1F
100
AcDbEntity
  8
0
  6
Continuous
 62
     7
370
    15
100
AcDbSpline
210
0.0
220
0.0
230
1.0
 70
     8
 71
     3
 72
    10
 73
     6
 74
     0
 42
0.000000001
 43
0.00000001
 40
0.0
 40
0.0
 40
0.0
 40
0.0
 40
0.202956701277069
 40
0.7989889670173146
 40
1.0
 40
1.0
 40
1.0
 40
1.0
 10
-2.500000000000017
 20
187.8879229133962
 30
0.0
 10
-2.570257537938396
 20
187.7969904887534
 30
0.0
 10
-2.846843614226322
 20
187.4390126364497
 30
0.0
 10
-2.977076636742489
 20
186.8607598949123
 30
0.0
 10
-2.995383168234602
 20
186.4129303580321
 30
0.0
 10
-2.999999999981956
 20
186.299989595651
 30
0.0
  0
SPLINE
  5
D8
330
1F
100
AcDbEntity
  8
0
  6
Continuous
 62
     7
370
    15
100
AcDbSpline
210
0.0
220
0.0
230
1.0
 70
     8
 71
     3
 72
    42
 73
    38
 74
     0
 42
0.000000001
 43
0.00000001
 40
0.0
 40
0.0
 40
0.0
 40
0.0
 40
0.0624999999999996
 40
0.0624999999999996
 40
0.1249999999999992
 40
0.1249999999999992
 40
0.1874999999999989
 40
0.1874999999999989
 40
0.2499999999999986
 40
0.2499999999999986
 40
0.3124999999999981
 40
0.3124999999999981
 40
0.3749999999999978
 40
0.3749999999999978
 40
0.4062499999999976
 40
0.4062499999999976
 40
0.4374999999999973
 40
0.4374999999999973
 40
0.499999999999997
 40
0.499999999999997
 40
0.5624999999999967
 40
0.5624999999999967
 40
0.6249999999999963
 40
0.6249999999999963
 40
0.687499999999996
 40
0.687499999999996
 40
0.7499999999999956
 40
0.7499999999999956
 40
0.7812499999999962
 40
0.7812499999999962
 40
0.8124999999999967
 40
0.8124999999999967
 40
0.8749999999999978
 40
0.8749999999999978
 40
0.9374999999999989
 40
0.9374999999999989
 40
1.0
 40
1.0
 40
1.0
 40
1.0
 10
0.6015431108194252
 20
188.7265502026181
 30
0.0
 10
0.3903585764886272
 20
188.7789029631754
 30
0.0
 10
0.1815737023582089
 20
188.8014620859932
 30
0.0
 10
-0.2198199703903319
 20
188.7983916341653
 30
0.0
 10
-0.4306140530406589
 20
188.7723156076882
 30
0.0
 10
-0.853101346352813
 20
188.6600828416701
 30
0.0
 10
-1.064588445762328
 20
188.5737247886606
 30
0.0
 10
-1.462531917216924
 20
188.3406306291297
 30
0.0
 10
-1.648651992512781
 20
188.193904102308
 30
0.0
 10
-1.971922961758261
 20
187.8544921916967
 30
0.0
 10
-2.108843165972582
 20
187.6620734214763
 30
0.0
 10
-2.321241708019222
 20
187.2561905861875
 30
0.0
 10
-2.396757292115289
 20
187.0430543780726
 30
0.0
 10
-2.465669170900097
 20
186.7267544624173
 30
0.0
 10
-2.48135434568392
 20
186.6218592209373
 30
0.0
 10
-2.499467581739351
 20
186.4156484101962
 30
0.0
 10
-2.502005801407872
 20
186.3159510965127
 30
0.0
 10
-2.491609496949788
 20
186.0118472874609
 30
0.0
 10
-2.459340668214484
 20
185.799857881483
 30
0.0
 10
-2.334030450686541
 20
185.3776115155119
 30
0.0
 10
-2.240802092165109
 20
185.1675820692149
 30
0.0
 10
-1.994832154685234
 20
184.7754643130287
 30
0.0
 10
-1.842130768440479
 20
184.5937136353033
 30
0.0
 10
-1.493138804286751
 20
184.2812391331518
 30
0.0
 10
-1.297134236791862
 20
184.1507203946164
 30
0.0
 10
-0.8870376045822785
 20
183.9515698140178
 30
0.0
 10
-0.6732643080935679
 20
183.8828726223516
 30
0.0
 10
-0.357838952112605
 20
183.8234300572297
 30
0.0
 10
-0.253532979615243
 20
183.8107791492642
 30
0.0
 10
-0.0489750860451742
 20
183.7983803533637
 30
0.0
 10
0.0500567662417442
 20
183.7984010648933
 30
0.0
 10
0.3569364939801333
 20
183.8171371388737
 30
0.0
 10
0.5698716385520719
 20
183.8557325944943
 30
0.0
 10
0.9913007156071219
 20
183.9942420497198
 30
0.0
 10
1.199546777617556
 20
184.0943261950034
 30
0.0
 10
1.585224437557995
 20
184.3529579130615
 30
0.0
 10
1.762320305087399
 20
184.5114343542971
 30
0.0
 10
1.912951108115953
 20
184.6904602962468
 30
0.0
  0
SPLINE
  5
D9
330
1F
100
AcDbEntity
  8
0
  6
Continuous
 62
     7
370
    15
100
AcDbSpline
210
0.0
220
0.0
230
1.0
 70
     8
 71
     3
 72
    25
 73
    21
 74
     0
 42
0.000000001
 43
0.00000001
 40
0.0
 40
0.0
 40
0.0
 40
0.0
 40
0.0121228815517821
 40
0.0242594474814762
 40
0.1184771760596738
 40
0.2135316107022187
 40
0.309447329276185
 40
0.4061899869904006
 40
0.5037893874824996
 40
0.5480373413109845
 40
0.5924635903684423
 40
0.6370625339199402
 40
0.6818255982306484
 40
0.726760351845854
 40
0.7718746103766764
 40
0.8171596976295477
 40
0.8626085711883721
 40
0.9082318487067508
 40
0.954032593803746
 40
1.0
 40
1.0
 40
1.0
 40
1.0
 10
-2.746348653494898
 20
186.3000020171102
 30
0.0
 10
-2.747164980325268
 20
186.329147659034
 30
0.0
 10
-2.748798555460395
 20
186.3874718426485
 30
0.0
 10
-2.745294519038475
 20
186.6723817944956
 30
0.0
 10
-2.671894411047079
 20
187.1568247101885
 30
0.0
 10
-2.403932356108134
 20
187.7954602287508
 30
0.0
 10
-1.984213647761772
 20
188.3545472160925
 30
0.0
 10
-1.436012434244776
 20
188.7977357817449
 30
0.0
 10
-0.9095921903153094
 20
189.0417120956229
 30
0.0
 10
-0.4753426714211029
 20
189.1547121746261
 30
0.0
 10
-0.1574590233127298
 20
189.2007824645873
 30
0.0
 10
0.1647514492737105
 20
189.2117736567702
 30
0.0
 10
0.4874670399175277
 20
189.1870349677853
 30
0.0
 10
0.8065856775843752
 20
189.1260266916696
 30
0.0
 10
1.118234480655182
 20
189.0298807533943
 30
0.0
 10
1.418560526242392
 20
188.8996003678382
 30
0.0
 10
1.703797986167249
 20
188.7362700720075
 30
0.0
 10
1.969380844132351
 20
188.5408758924188
 30
0.0
 10
2.214889593095489
 20
188.3182023614194
 30
0.0
 10
2.356238643719772
 20
188.1484018797069
 30
0.0
 10
2.427041521776434
 20
188.0633474506353
 30
0.0
  0
SPLINE
  5
DA
330
1F
100
AcDbEntity
  8
0
  6
Continuous
 62
     7
370
    15
100
AcDbSpline
210
0.0
220
0.0
230
1.0
 70
     8
 71
     3
 72
    37
 73
    33
 74
     0
 42
0.000000001
 43
0.00000001
 40
0.0
 40
0.0
 40
0.0
 40
0.0
 40
0.0246298935893785
 40
0.0493248520290086
 40
0.0740846344336408
 40
0.0989074667323126
 40
0.1237912145421733
 40
0.1487345804052872
 40
0.1737383762099733
 40
0.1988057332738248
 40
0.2239380655711217
 40
0.2491344931725604
 40
0.2743930044228043
 40
0.2997116563613393
 40
0.325089799813954
 40
0.3505293898084767
 40
0.3760334683602901
 40
0.4016025630782274
 40
0.4272352846425015
 40
0.4529295308111308
 40
0.4786837144076227
 40
0.5044980278415624
 40
0.553058028231165
 40
0.6018459825317289
 40
0.6508496433532599
 40
0.7000653583248966
 40
0.7495077826322194
 40
0.7991724490387553
 40
0.8490474630503853
 40
0.8991411398128812
 40
0.9494624204298909
 40
0.9999999999999999
 40
0.9999999999999999
 40
0.9999999999999999
 40
0.9999999999999999
 10
1.912950394692725
 20
184.6904608122989
 30
0.0
 10
1.879955586639198
 20
184.649463309963
 30
0.0
 10
1.813878808066853
 20
184.567360002089
 30
0.0
 10
1.70498073742357
 20
184.4523292550996
 30
0.0
 10
1.589328432199395
 20
184.3436059036449
 30
0.0
 10
1.466635278859109
 20
184.2422075070168
 30
0.0
 10
1.337545000357379
 20
184.1484395178537
 30
0.0
 10
1.202460509697331
 20
184.0627965759098
 30
0.0
 10
1.061841323580515
 20
183.9857594902806
 30
0.0
 10
0.9162377561988018
 20
183.9176611789917
 30
0.0
 10
0.7662544961850654
 20
183.858712974989
 30
0.0
 10
0.6124832418939125
 20
183.8091531727175
 30
0.0
 10
0.4555251664974842
 20
183.7692151930625
 30
0.0
 10
0.2959862509963251
 20
183.7391374861763
 30
0.0
 10
0.1344774177987002
 20
183.7191582811967
 30
0.0
 10
-0.0283751464258868
 20
183.7095276354775
 30
0.0
 10
-0.1919168283526784
 20
183.7102248902516
 30
0.0
 10
-0.3555034556184701
 20
183.7212171825229
 30
0.0
 10
-0.5184858487615454
 20
183.7424743181956
 30
0.0
 10
-0.6802062993225043
 20
183.7739659800969
 30
0.0
 10
-0.8400109082777077
 20
183.8156603334156
 30
0.0
 10
-1.043239112733192
 20
183.8827250678249
 30
0.0
 10
-1.285072925898157
 20
183.9880156721889
 30
0.0
 10
-1.555663654476656
 20
184.1459742962382
 30
0.0
 10
-1.807053273037784
 20
184.3353987248282
 30
0.0
 10
-2.03507628781768
 20
184.5544267937934
 30
0.0
 10
-2.236416169161168
 20
184.8000281100887
 30
0.0
 10
-2.408358532878919
 20
185.068672652978
 30
0.0
 10
-2.548287410893805
 20
185.3569744699436
 30
0.0
 10
-2.652449897908121
 20
185.6612822160678
 30
0.0
 10
-2.723210157301796
 20
185.9770386857413
 30
0.0
 10
-2.738624802165457
 20
186.1921937682276
 30
0.0
 10
-2.746348653494898
 20
186.3000020171102
 30
0.0
  0
SPLINE
  5
DF
330
1F
100
AcDbEntity
  8
0
  6
Continuous
 62
     7
370
    15
100
AcDbSpline
210
0.0
220
0.0
230
1.0
 70
     8
 71
     3
 72
    14
 73
    10
 74
     0
 42
0.000000001
 43
0.00000001
 40
0.0
 40
0.0
 40
0.0
 40
0.0
 40
0.25
 40
0.25
 40
0.5
 40
0.5
 40
0.75
 40
0.75
 40
1.0
 40
1.0
 40
1.0
 40
1.0
 10
1.912948218565273
 20
184.6904622688396
 30
0.0
 10
2.025663339081635
 20
184.8588629872616
 30
0.0
 10
2.115501480571765
 20
185.0375046726247
 30
0.0
 10
2.25082034214057
 20
185.4146448122768
 30
0.0
 10
2.295512682178681
 20
185.6142041799755
 30
0.0
 10
2.331727024571582
 20
186.0117410486458
 30
0.0
 10
2.324326702012075
 20
186.215282817992
 30
0.0
 10
2.256955785258008
 20
186.6114166357655
 30
0.0
 10
2.197761298485728
 20
186.8024629268126
 30
0.0
 10
2.111745503359925
 20
186.9861274331444
 30
0.0
  0
SPLINE
  5
EA
330
1F
100
AcDbEntity
  8
0
  6
Continuous
 62
     7
370
    15
100
AcDbSpline
210
0.0
220
0.0
230
1.0
 70
     8
 71
     3
 72
    42
 73
    38
 74
     0
 42
0.000000001
 43
0.00000001
 40
0.0
 40
0.0
 40
0.0
 40
0.0
 40
0.0624999999999992
 40
0.0624999999999992
 40
0.1249999999999984
 40
0.1249999999999984
 40
0.1874999999999976
 40
0.1874999999999976
 40
0.2499999999999967
 40
0.2499999999999967
 40
0.3124999999999959
 40
0.3124999999999959
 40
0.3749999999999951
 40
0.3749999999999951
 40
0.4374999999999943
 40
0.4374999999999943
 40
0.4687499999999971
 40
0.4687499999999971
 40
0.4999999999999999
 40
0.4999999999999999
 40
0.5312500000000027
 40
0.5312500000000027
 40
0.5625000000000056
 40
0.5625000000000056
 40
0.6250000000000048
 40
0.6250000000000048
 40
0.687500000000004
 40
0.687500000000004
 40
0.7500000000000031
 40
0.7500000000000031
 40
0.8125000000000023
 40
0.8125000000000023
 40
0.8750000000000016
 40
0.8750000000000016
 40
0.9375000000000007
 40
0.9375000000000007
 40
1.0
 40
1.0
 40
1.0
 40
1.0
 10
0.0000000090115545
 20
182.8000515249414
 30
0.0
 10
-0.2615865886403477
 20
182.8001626107041
 30
0.0
 10
-0.518768327449507
 20
182.8207819578775
 30
0.0
 10
-1.024700882326234
 20
182.9020601356274
 30
0.0
 10
-1.275897443022007
 20
182.9635243082079
 30
0.0
 10
-1.756187577763251
 20
183.1236319451469
 30
0.0
 10
-1.984904314897696
 20
183.2214422732559
 30
0.0
 10
-2.420597210066494
 20
183.4534990215547
 30
0.0
 10
-2.628259780484724
 20
183.5887121155473
 30
0.0
 10
-3.008183513693669
 20
183.8876244226388
 30
0.0
 10
-3.18223730430358
 20
184.0525363702508
 30
0.0
 10
-3.498145351371337
 20
184.4185536348508
 30
0.0
 10
-3.639203141275609
 20
184.6195549361966
 30
0.0
 10
-3.873731948820228
 20
185.0499277750008
 30
0.0
 10
-3.969866201779015
 20
185.2850633473042
 30
0.0
 10
-4.067941409912529
 20
185.6536604921351
 30
0.0
 10
-4.093134359644316
 20
185.7790679913426
 30
0.0
 10
-4.127366469264121
 20
186.035564572862
 30
0.0
 10
-4.13622651369502
 20
186.1674041745721
 30
0.0
 10
-4.136476229216801
 20
186.42691166776
 30
0.0
 10
-4.128117048677767
 20
186.5557392041645
 30
0.0
 10
-4.094762828852437
 20
186.8116001167074
 30
0.0
 10
-4.06946376486176
 20
186.939583582162
 30
0.0
 10
-3.971654457663684
 20
187.3102414775908
 30
0.0
 10
-3.876446025225694
 20
187.5443372012919
 30
0.0
 10
-3.641085881858715
 20
187.9777193721512
 30
0.0
 10
-3.502630324071504
 20
188.1754378414807
 30
0.0
 10
-3.187930092956341
 20
188.5416653240592
 30
0.0
 10
-3.01068477759002
 20
188.7101549921721
 30
0.0
 10
-2.630246187004162
 20
189.0099249028198
 30
0.0
 10
-2.425986789354493
 20
189.1433820513528
 30
0.0
 10
-1.986789002000154
 20
189.3778112023574
 30
0.0
 10
-1.757239188316592
 20
189.475825480983
 30
0.0
 10
-1.28114986021067
 20
189.6349166121515
 30
0.0
 10
-1.033552890250754
 20
189.6962156589006
 30
0.0
 10
-0.5208096050299469
 20
189.7791816988986
 30
0.0
 10
-0.2617534038185549
 20
189.79982813645
 30
0.0
 10
-0.0000000066862913
 20
189.7999615631351
 30
0.0
  0
SPLINE
  5
EB
330
1F
100
AcDbEntity
  8
0
  6
Continuous
 62
     7
370
    15
100
AcDbSpline
210
0.0
220
0.0
230
1.0
 70
     8
 71
     3
 72
    42
 73
    38
 74
     0
 42
0.000000001
 43
0.00000001
 40
0.0
 40
0.0
 40
0.0
 40
0.0
 40
0.0625
 40
0.0625
 40
0.1250000000000001
 40
0.1250000000000001
 40
0.1875000000000002
 40
0.1875000000000002
 40
0.2500000000000003
 40
0.2500000000000003
 40
0.3125000000000003
 40
0.3125000000000003
 40
0.3750000000000004
 40
0.3750000000000004
 40
0.4375000000000004
 40
0.4375000000000004
 40
0.4687500000000004
 40
0.4687500000000004
 40
0.5000000000000004
 40
0.5000000000000004
 40
0.5312500000000004
 40
0.5312500000000004
 40
0.5625000000000004
 40
0.5625000000000004
 40
0.6250000000000004
 40
0.6250000000000004
 40
0.6875000000000003
 40
0.6875000000000003
 40
0.7500000000000002
 40
0.7500000000000002
 40
0.8125000000000002
 40
0.8125000000000002
 40
0.8750000000000001
 40
0.8750000000000001
 40
0.9375000000000001
 40
0.9375000000000001
 40
1.0
 40
1.0
 40
1.0
 40
1.0
 10
-0.0000000150944665
 20
189.7999484014547
 30
0.0
 10
0.2615868517087567
 20
189.7998371551658
 30
0.0
 10
0.5187689018939312
 20
189.7792180335751
 30
0.0
 10
1.024701981317465
 20
189.6979397310774
 30
0.0
 10
1.275898750641727
 20
189.6364752419798
 30
0.0
 10
1.756189400445579
 20
189.4763672888858
 30
0.0
 10
1.98490640255776
 20
189.3785568821471
 30
0.0
 10
2.420599543599689
 20
189.1464993624073
 30
0.0
 10
2.628262644313796
 20
189.011286715342
 30
0.0
 10
3.00818603146666
 20
188.7123734158954
 30
0.0
 10
3.182239341989765
 20
188.547460567047
 30
0.0
 10
3.498147913984985
 20
188.181443754776
 30
0.0
 10
3.639205329299597
 20
187.9804417250872
 30
0.0
 10
3.873733777147059
 20
187.5500681539028
 30
0.0
 10
3.969868176926683
 20
187.3149324243044
 30
0.0
 10
4.067942413234588
 20
186.9463348165462
 30
0.0
 10
4.09313505879642
 20
186.8209271819186
 30
0.0
 10
4.127366900954612
 20
186.5644304808978
 30
0.0
 10
4.136226645597135
 20
186.4325908510476
 30
0.0
 10
4.136475967006556
 20
186.173083317224
 30
0.0
 10
4.128116597557493
 20
186.0442557660582
 30
0.0
 10
4.094761689803449
 20
185.788394869361
 30
0.0
 10
4.069462736972967
 20
185.660411349403
 30
0.0
 10
3.971653513756758
 20
185.2897536663333
 30
0.0
 10
3.876444604344716
 20
185.055658285743
 30
0.0
 10
3.64108329720963
 20
184.6222774151646
 30
0.0
 10
3.502628214452515
 20
184.4245585202852
 30
0.0
 10
3.187926823148269
 20
184.0583323270111
 30
0.0
 10
3.010682083118249
 20
183.8898422037322
 30
0.0
 10
2.630242875093619
 20
183.5900739912361
 30
0.0
 10
2.425984122485767
 20
183.4566160369467
 30
0.0
 10
1.986787047704927
 20
183.222186171625
 30
0.0
 10
1.75723688901266
 20
183.1241740715157
 30
0.0
 10
1.281148220826972
 20
182.9650829767471
 30
0.0
 10
1.033551521777823
 20
182.9037844052264
 30
0.0
 10
0.5208089005942088
 20
182.8208183987498
 30
0.0
 10
0.2617531620121615
 20
182.8001703956019
 30
0.0
 10
0.0000000007425718
 20
182.8000381076213
 30
0.0
  0
SPLINE
  5
ED
330
1F
100
AcDbEntity
  8
0
  6
Continuous
 62
     7
370
    15
100
AcDbSpline
210
0.0
220
0.0
230
1.0
 70
     8
 71
     3
 72
    12
 73
     8
 74
     0
 42
0.000000001
 43
0.00000001
 40
0.0
 40
0.0
 40
0.0
 40
0.0
 40
0.5000000000000001
 40
0.5000000000000001
 40
0.75
 40
0.75
 40
1.0
 40
1.0
 40
1.0
 40
1.0
 10
0.0000242628934262
 20
189.0450110908593
 30
0.0
 10
0.4730282490764829
 20
189.0274955154331
 30
0.0
 10
0.9313573935447322
 20
188.957416970342
 30
0.0
 10
1.597953054469289
 20
188.7649596880414
 30
0.0
 10
1.8170851302452
 20
188.6852384989427
 30
0.0
 10
2.236014219742443
 20
188.4965792595707
 30
0.0
 10
2.437376980958712
 20
188.3874621890314
 30
0.0
 10
2.629337311388445
 20
188.2598416764623
 30
0.0
  0
LWPOLYLINE
  5
EE
330
1F
100
AcDbEntity
  8
0
  6
Continuous
 62
     7
370
    15
100
AcDbPolyline
 90
        3
 70
   128
 43
0.0
 10
-0.000000005
 20
189.7999742007
 10
0.0000164224
 20
189.4225118264
 10
0.0000270827
 20
189.045049451
  0
LWPOLYLINE
  5
EF
330
1F
100
AcDbEntity
  8
0
  6
Continuous
 62
     7
370
    15
100
AcDbPolyline
 90
        3
 70
   128
 43
0.0
 10
-0.0000495843
 20
183.2379581206
 10
-0.0000273907
 20
183.0189885881
 10
-0.0000000016
 20
182.8000190538
  0
SPLINE
  5
F0
330
1F
100
AcDbEntity
  8
0
  6
Continuous
 62
     7
370
    15
100
AcDbSpline
210
0.0
220
0.0
230
1.0
 70
     8
 71
     3
 72
    13
 73
     9
 74
     0
 42
0.000000001
 43
0.00000001
 40
0.0
 40
0.0
 40
0.0
 40
0.0
 40
0.1642793029579606
 40
0.3278421709920496
 40
0.4919562869849388
 40
0.6578665170966534
 40
0.8268014753179597
 40
1.0
 40
1.0
 40
1.0
 40
1.0
 10
-0.0000490491106541
 20
183.2379670129464
 30
0.0
 10
0.0791158170281728
 20
183.2362646365833
 30
0.0
 10
0.2371003051160597
 20
183.232867308054
 30
0.0
 10
0.474303187331643
 20
183.2387827762277
 30
0.0
 10
0.7118477957832169
 20
183.2524692169391
 30
0.0
 10
0.9510719878009986
 20
183.2753485635923
 30
0.0
 10
1.19343192473578
 20
183.3072232183245
 30
0.0
 10
1.354928949775074
 20
183.3369909343698
 30
0.0
 10
1.436683726419505
 20
183.3520602706372
 30
0.0
  0
SPLINE
  5
F1
330
1F
100
AcDbEntity
  8
0
  6
Continuous
 62
     7
370
    15
100
AcDbSpline
210
0.0
220
0.0
230
1.0
 70
     8
 71
     3
 72
     9
 73
     5
 74
     0
 42
0.000000001
 43
0.00000001
 40
0.0
 40
0.0
 40
0.0
 40
0.0
 40
0.7766710499073096
 40
1.0
 40
1.0
 40
1.0
 40
1.0
 10
1.436678469209081
 20
183.3520588377366
 30
0.0
 10
1.221753600081075
 20
183.4461458962849
 30
0.0
 10
0.9450278625199081
 20
183.567287348074
 30
0.0
 10
0.6383172681917251
 20
183.6571320979302
 30
0.0
 10
0.569819913178107
 20
183.6771970315869
 30
0.0
  0
SPLINE
  5
F2
330
1F
100
AcDbEntity
  8
0
  6
Continuous
 62
     7
370
    15
100
AcDbSpline
210
0.0
220
0.0
230
1.0
 70
     8
 71
     3
 72
    10
 73
     6
 74
     0
 42
0.000000001
 43
0.00000001
 40
0.0
 40
0.0
 40
0.0
 40
0.0
 40
0.4999999999999999
 40
0.4999999999999999
 40
1.0
 40
1.0
 40
1.0
 40
1.0
 10
2.833864869224734
 20
184.6497296386027
 30
0.0
 10
2.517978184045897
 20
184.4174721575655
 30
0.0
 10
2.164832995897739
 20
184.2421603701146
 30
0.0
 10
1.419757415549469
 20
183.9880429148964
 30
0.0
 10
1.032691126396329
 20
183.9124557232201
 30
0.0
 10
0.6357077651004128
 20
183.8822063046048
 30
0.0
  0
LWPOLYLINE
  5
F3
330
1F
100
AcDbEntity
  8
0
  6
Continuous
 62
     7
370
    15
100
AcDbPolyline
 90
        3
 70
   128
 43
0.0
 10
2.8338857857
 20
184.6497069333
 10
2.4678884037
 20
184.799300792
 10
2.1029703235
 20
184.9481902569
  0
SPLINE
  5
F4
330
1F
100
AcDbEntity
  8
0
  6
Continuous
 62
     7
370
    15
100
AcDbSpline
210
0.0
220
0.0
230
1.0
 70
     8
 71
     3
 72
    10
 73
     6
 74
     0
 42
0.000000001
 43
0.00000001
 40
0.0
 40
0.0
 40
0.0
 40
0.0
 40
0.5000000000000001
 40
0.5000000000000001
 40
1.0
 40
1.0
 40
1.0
 40
1.0
 10
-2.279272674457291
 20
188.6577820951176
 30
0.0
 10
-1.921301556540466
 20
188.8050824916419
 30
0.0
 10
-1.544273837925936
 20
188.9094735549385
 30
0.0
 10
-0.7792353553992895
 20
189.0362807515631
 30
0.0
 10
-0.391974891710758
 20
189.0592150784026
 30
0.0
 10
0.0000243894831041
 20
189.0450184759875
 30
0.0
  0
SPLINE
  5
F5
330
1F
100
AcDbEntity
  8
0
  6
Continuous
 62
     7
370
    15
100
AcDbSpline
210
0.0
220
0.0
230
1.0
 70
     8
 71
     3
 72
     9
 73
     5
 74
     0
 42
0.000000001
 43
0.00000001
 40
0.0
 40
0.0
 40
0.0
 40
0.0
 40
0.4446600525368462
 40
0.9999999999999999
 40
0.9999999999999999
 40
0.9999999999999999
 40
0.9999999999999999
 10
-3.238247118962705
 20
186.8178112618235
 30
0.0
 10
-3.141458558862919
 20
187.0036012080723
 30
0.0
 10
-2.923789893671175
 20
187.4214258927698
 30
0.0
 10
-2.5395764020847
 20
187.6888561245184
 30
0.0
 10
-2.326207301852432
 20
187.8373708153678
 30
0.0
  0
SPLINE
  5
F6
330
1F
100
AcDbEntity
  8
0
  6
Continuous
 62
     7
370
    15
100
AcDbSpline
210
0.0
220
0.0
230
1.0
 70
     8
 71
     3
 72
     9
 73
     5
 74
     0
 42
0.000000001
 43
0.00000001
 40
0.0
 40
0.0
 40
0.0
 40
0.0
 40
0.6771011042361235
 40
1.0
 40
1.0
 40
1.0
 40
1.0
 10
-3.185929762666682
 20
185.52260826656
 30
0.0
 10
-3.061447422881113
 20
185.589822314013
 30
0.0
 10
-2.877601407852083
 20
185.6890896863929
 30
0.0
 10
-2.716513672710419
 20
185.8279200448064
 30
0.0
 10
-2.664498620912072
 20
185.8727482142367
 30
0.0
  0
SPLINE
  5
F8
330
1F
100
AcDbEntity
  8
0
  6
Continuous
 62
     7
370
    15
100
AcDbSpline
210
0.0
220
0.0
230
1.0
 70
     8
 71
     3
 72
    10
 73
     6
 74
     0
 42
0.000000001
 43
0.00000001
 40
0.0
 40
0.0
 40
0.0
 40
0.0
 40
0.3007484051800723
 40
0.744082305406486
 40
1.0
 40
1.0
 40
1.0
 40
1.0
 10
-1.747137018082578
 20
184.3218855985672
 30
0.0
 10
-1.929925782672308
 20
184.3873025855519
 30
0.0
 10
-2.382163876094264
 20
184.549150900123
 30
0.0
 10
-2.870572099865936
 20
184.9934873198579
 30
0.0
 10
-3.101449845991932
 20
185.3808743293138
 30
0.0
 10
-3.185948331171258
 20
185.5226533271879
 30
0.0
  0
SPLINE
  5
F9
330
1F
100
AcDbEntity
  8
0
  6
Continuous
 62
     7
370
    15
100
AcDbSpline
210
0.0
220
0.0
230
1.0
 70
     8
 71
     3
 72
    16
 73
    12
 74
     0
 42
0.000000001
 43
0.00000001
 40
0.0
 40
0.0
 40
0.0
 40
0.0
 40
0.1004875633703675
 40
0.2022554543544598
 40
0.3063358649679531
 40
0.4134123478583062
 40
0.523870848306811
 40
0.6378689791367834
 40
0.7553711486871131
 40
0.8761854202599612
 40
1.0
 40
1.0
 40
1.0
 40
1.0
 10
-0.5061310429805357
 20
183.8517971696901
 30
0.0
 10
-0.5523811824529983
 20
183.8480122383657
 30
0.0
 10
-0.6454707415906054
 20
183.8403941513204
 30
0.0
 10
-0.784262770852989
 20
183.8209535597258
 30
0.0
 10
-0.9239220687962202
 20
183.7963661316695
 30
0.0
 10
-1.065106086414611
 20
183.7666172412748
 30
0.0
 10
-1.208365172170755
 20
183.7324816679761
 30
0.0
 10
-1.353974946326702
 20
183.6944208054528
 30
0.0
 10
-1.501967379786679
 20
183.6528602407569
 30
0.0
 10
-1.65234996995771
 20
183.6083091351427
 30
0.0
 10
-1.752532007992425
 20
183.5768267550987
 30
0.0
 10
-1.803237380111038
 20
183.560892503544
 30
0.0
  0
SPLINE
  5
FA
330
1F
100
AcDbEntity
  8
0
  6
Continuous
 62
     7
370
    15
100
AcDbSpline
210
0.0
220
0.0
230
1.0
 70
     8
 71
     3
 72
     8
 73
     4
 74
     0
 42
0.000000001
 43
0.00000001
 40
0.0
 40
0.0
 40
0.0
 40
0.0
 40
1.0
 40
1.0
 40
1.0
 40
1.0
 10
-0.0000489481390671
 20
183.2379740268071
 30
0.0
 10
-0.6230249040624645
 20
183.2586313665128
 30
0.0
 10
-1.223703973424117
 20
183.3631530868146
 30
0.0
 10
-1.803220375717528
 20
183.5609076588299
 30
0.0
  0
SPLINE
  5
FB
330
1F
100
AcDbEntity
  8
0
  6
Continuous
 62
     7
370
    15
100
AcDbSpline
210
0.0
220
0.0
230
1.0
 70
     8
 71
     3
 72
    13
 73
     9
 74
     0
 42
0.000000001
 43
0.00000001
 40
0.0
 40
0.0
 40
0.0
 40
0.0
 40
0.0803734119424344
 40
0.2858867185508962
 40
0.4892131855731482
 40
0.6904649557870038
 40
0.8896924486832566
 40
1.0
 40
1.0
 40
1.0
 40
1.0
 10
-5.855490646595499
 20
564.879116345999
 30
0.0
 10
-5.858954501879168
 20
564.983222232599
 30
0.0
 10
-5.871275370144568
 20
565.353524918308
 30
0.0
 10
-5.892627713394851
 20
566.1699256961341
 30
0.0
 10
-5.919487481283657
 20
567.1534580091404
 30
0.0
 10
-5.946373563681719
 20
567.9924916128397
 30
0.0
 10
-5.969290207035838
 20
568.5392652246487
 30
0.0
 10
-5.983385111421286
 20
568.6415631272649
 30
0.0
 10
-5.988408046361512
 20
568.6780185508214
 30
0.0
  0
SPLINE
  5
FC
330
1F
100
AcDbEntity
  8
0
  6
Continuous
 62
     7
370
    15
100
AcDbSpline
210
0.0
220
0.0
230
1.0
 70
     8
 71
     3
 72
    15
 73
    11
 74
     0
 42
0.000000001
 43
0.00000001
 40
0.0
 40
0.0
 40
0.0
 40
0.0
 40
0.0890291624065149
 40
0.2192041167992601
 40
0.3493008373736197
 40
0.479478374795145
 40
0.6095752641686367
 40
0.7397553862766612
 40
0.8698367213706355
 40
1.0
 40
1.0
 40
1.0
 40
1.0
 10
-5.772069457795922
 20
565.1696353766868
 30
0.0
 10
-5.778842460316457
 20
565.3040139603085
 30
0.0
 10
-5.795518681853997
 20
565.6348756458875
 30
0.0
 10
-5.822057899258765
 20
566.2313810204209
 30
0.0
 10
-5.851775253589638
 20
566.8923179248301
 30
0.0
 10
-5.881432210185572
 20
567.5140839228944
 30
0.0
 10
-5.911150980149181
 20
568.0502638420561
 30
0.0
 10
-5.940805398511176
 20
568.4595504038784
 30
0.0
 10
-5.970523611862385
 20
568.7293960368487
 30
0.0
 10
-5.990304337975854
 20
568.7633095169446
 30
0.0
 10
-6.000197815223133
 20
568.7802715961816
 30
0.0
  0
SPLINE
  5
FD
330
1F
100
AcDbEntity
  8
0
  6
Continuous
 62
     7
370
    15
100
AcDbSpline
210
0.0
220
0.0
230
1.0
 70
    24
 71
     3
 72
    13
 73
     9
 74
     0
 42
0.000000001
 43
0.00000001
 40
0.0
 40
0.0
 40
0.0
 40
0.0
 40
0.176583489995786
 40
0.3709167387105312
 40
0.56524998742526
 40
0.7595832361399683
 40
0.9539164848546783
 40
1.0
 40
1.0
 40
1.0
 40
1.0
 10
-6.000000000000016
 20
564.4050905775065
 30
0.0
 10
-6.000000000000019
 20
564.5848146000285
 30
0.0
 10
-6.00000000000002
 20
564.9623280827631
 30
0.0
 10
-6.000000000000027
 20
565.7430403071389
 30
0.0
 10
-6.000000000000016
 20
566.59725960682
 30
0.0
 10
-6.000000000000023
 20
567.4047498166349
 30
0.0
 10
-6.000000000000019
 20
567.9637363163672
 30
0.0
 10
-6.000000000000018
 20
568.1548793083357
 30
0.0
 10
-6.000000000000019
 20
568.1915179387867
 30
0.0
  0
SPLINE
  5
104
330
1F
100
AcDbEntity
  8
0
  6
Continuous
 62
     7
370
    15
100
AcDbSpline
210
0.0
220
0.0
230
1.0
 70
    24
 71
     3
 72
    12
 73
     8
 74
     0
 42
0.000000001
 43
0.00000001
 40
0.0
 40
0.0
 40
0.0
 40
0.0
 40
0.2146971677721894
 40
0.42939433554437
 40
0.6440915033165364
 40
0.8587886710887171
 40
1.0
 40
1.0
 40
1.0
 40
1.0
 10
-0.0000000000000173
 20
578.3
 30
0.0
 10
-0.6743160677388218
 20
578.3
 30
0.0
 10
-2.022948203216404
 20
578.3000000000001
 30
0.0
 10
-3.824408461783805
 20
578.2999999999995
 30
0.0
 10
-5.168359198666631
 20
578.2999999999998
 30
0.0
 10
-5.930256920182602
 20
578.3
 30
0.0
 10
-5.925322427508349
 20
578.3000000000001
 30
0.0
 10
-5.92336460330767
 20
578.3000000000001
 30
0.0
  0
SPLINE
  5
107
330
1F
100
AcDbEntity
  8
0
  6
Continuous
 62
     7
370
    15
100
AcDbSpline
210
0.0
220
0.0
230
1.0
 70
     8
 71
     3
 72
    36
 73
    32
 74
     0
 42
0.000000001
 43
0.00000001
 40
0.0
 40
0.0
 40
0.0
 40
0.0
 40
0.0625000000000081
 40
0.0625000000000081
 40
0.1250000000000162
 40
0.1250000000000162
 40
0.1875000000000242
 40
0.1875000000000242
 40
0.2500000000000323
 40
0.2500000000000323
 40
0.375000000000027
 40
0.375000000000027
 40
0.4375000000000243
 40
0.4375000000000243
 40
0.5000000000000216
 40
0.5000000000000216
 40
0.562500000000019
 40
0.562500000000019
 40
0.6250000000000162
 40
0.6250000000000162
 40
0.6875000000000135
 40
0.6875000000000135
 40
0.7500000000000109
 40
0.7500000000000109
 40
0.8125000000000082
 40
0.8125000000000082
 40
0.8750000000000054
 40
0.8750000000000054
 40
0.9375000000000028
 40
0.9375000000000028
 40
1.0
 40
1.0
 40
1.0
 40
1.0
 10
-6.500000000000023
 20
569.2999229691086
 30
0.0
 10
-6.500000001372591
 20
569.2997583287613
 30
0.0
 10
-6.489825108319423
 20
569.2813532075743
 30
0.0
 10
-6.450690250119076
 20
569.2081543499065
 30
0.0
 10
-6.421291201541578
 20
569.1525974437532
 30
0.0
 10
-6.348044410671181
 20
569.0093222436127
 30
0.0
 10
-6.304187714331134
 20
568.9215400264283
 30
0.0
 10
-6.205691065143643
 20
568.7129944810766
 30
0.0
 10
-6.151370185079812
 20
568.5927921691538
 30
0.0
 10
-5.985649042756388
 20
568.1943170286199
 30
0.0
 10
-5.867326797835664
 20
567.8679115842591
 30
0.0
 10
-5.733697131158531
 20
567.3215894444119
 30
0.0
 10
-5.695746984166142
 20
567.1264239037566
 30
0.0
 10
-5.643438338376095
 20
566.7212500292471
 30
0.0
 10
-5.629407362662146
 20
566.5151776968925
 30
0.0
 10
-5.628935160426757
 20
566.0956226037822
 30
0.0
 10
-5.642783762150385
 20
565.8867453508524
 30
0.0
 10
-5.69409039785221
 20
565.4835930504347
 30
0.0
 10
-5.732046434021036
 20
565.2860061394368
 30
0.0
 10
-5.821729472692033
 20
564.9176796750189
 30
0.0
 10
-5.87404428950375
 20
564.7432556351669
 30
0.0
 10
-5.983729194402756
 20
564.4209117013793
 30
0.0
 10
-6.040439692400583
 20
564.2739443954309
 30
0.0
 10
-6.151765553705573
 20
564.0062619508025
 30
0.0
 10
-6.206322793707636
 20
563.8856425178931
 30
0.0
 10
-6.304225087937524
 20
563.6784030695684
 30
0.0
 10
-6.348175903771044
 20
563.5904082127698
 30
0.0
 10
-6.421903464371632
 20
563.4462167682568
 30
0.0
 10
-6.45089589869655
 20
563.391460738995
 30
0.0
 10
-6.489791570646763
 20
563.3187235525309
 30
0.0
 10
-6.50000000054748
 20
563.3002408079974
 30
0.0
 10
-6.50000000000002
 20
563.300054560745
 30
0.0
  0
SPLINE
  5
10A
330
1F
100
AcDbEntity
  8
0
  6
Continuous
 62
     7
370
    15
100
AcDbSpline
210
0.0
220
0.0
230
1.0
 70
    24
 71
     3
 72
    13
 73
     9
 74
     0
 42
0.000000001
 43
0.00000001
 40
0.0
 40
0.0
 40
0.0
 40
0.0
 40
0.0735185214563776
 40
0.2883111751180081
 40
0.5031038287796468
 40
0.7178964824412561
 40
0.9326891361028925
 40
1.0
 40
1.0
 40
1.0
 40
1.0
 10
5.923364603307755
 20
578.3
 30
0.0
 10
5.944150864733043
 20
578.2999999999998
 30
0.0
 10
6.02566653369805
 20
578.2999999999997
 30
0.0
 10
5.468013808843449
 20
578.3000000000004
 30
0.0
 10
4.308072657437875
 20
578.2999999999998
 30
0.0
 10
2.617994555426958
 20
578.2999999999998
 30
0.0
 10
1.092492906231207
 20
578.3000000000002
 30
0.0
 10
0.2104568249694976
 20
578.3000000000001
 30
0.0
 10
-0.0000000000000165
 20
578.3000000000001
 30
0.0
  0
SPLINE
  5
10C
330
1F
100
AcDbEntity
  8
0
  6
Continuous
 62
     7
370
    15
100
AcDbSpline
210
0.0
220
0.0
230
1.0
 70
     8
 71
     3
 72
    12
 73
     8
 74
     0
 42
0.000000001
 43
0.00000001
 40
0.0
 40
0.0
 40
0.0
 40
0.0
 40
0.0519269039779799
 40
0.3376895680937999
 40
0.6195237583965805
 40
0.9139221888310278
 40
1.0
 40
1.0
 40
1.0
 40
1.0
 10
38.63953949526536
 20
10.22530354102613
 30
0.0
 10
38.63735649406091
 20
10.22823229428033
 30
0.0
 10
38.62316006258887
 20
10.24727847931539
 30
0.0
 10
38.2368803115317
 20
10.37778287255445
 30
0.0
 10
37.47864721250954
 20
10.61199136944207
 30
0.0
 10
36.69168740654461
 20
10.84014824051993
 30
0.0
 10
36.20263313458897
 20
10.9773378306087
 30
0.0
 10
36.09199095337058
 20
11.00837519467707
 30
0.0
  0
SPLINE
  5
10D
330
1F
100
AcDbEntity
  8
0
  6
Continuous
 62
     7
370
    15
100
AcDbSpline
210
0.0
220
0.0
230
1.0
 70
     8
 71
     3
 72
    14
 73
    10
 74
     0
 42
0.000000001
 43
0.00000001
 40
0.0
 40
0.0
 40
0.0
 40
0.0
 40
0.2499999999999999
 40
0.2499999999999999
 40
0.4999999999999998
 40
0.4999999999999998
 40
0.7499999999999999
 40
0.7499999999999999
 40
1.0
 40
1.0
 40
1.0
 40
1.0
 10
-2.500000000000017
 20
690.2900000001313
 30
0.0
 10
-2.500000001172457
 20
690.2900052759632
 30
0.0
 10
-2.434931693714754
 20
690.2900105517951
 30
0.0
 10
-2.184465973983128
 20
690.2900211034588
 30
0.0
 10
-1.999167109275429
 20
690.2900263792908
 30
0.0
 10
-1.53636680299074
 20
690.2900369309544
 30
0.0
 10
-1.259047453573426
 20
690.2900422067866
 30
0.0
 10
-0.6543697123895502
 20
690.2900527584503
 30
0.0
 10
-0.3272492354953523
 20
690.2900580342823
 30
0.0
 10
-0.0000000000000173
 20
690.2900633101141
 30
0.0
  0
SPLINE
  5
10E
330
1F
100
AcDbEntity
  8
0
  6
Continuous
 62
     7
370
    15
100
AcDbSpline
210
0.0
220
0.0
230
1.0
 70
     8
 71
     3
 72
    14
 73
    10
 74
     0
 42
0.000000001
 43
0.00000001
 40
0.0
 40
0.0
 40
0.0
 40
0.0
 40
0.2500000000000001
 40
0.2500000000000001
 40
0.5
 40
0.5
 40
0.75
 40
0.75
 40
1.0
 40
1.0
 40
1.0
 40
1.0
 10
-0.0000000000000173
 20
690.2900633101141
 30
0.0
 10
0.3272492354953168
 20
690.2900580342824
 30
0.0
 10
0.6543697123895156
 20
690.2900527584504
 30
0.0
 10
1.25904745357339
 20
690.2900422067864
 30
0.0
 10
1.536366802990704
 20
690.2900369309546
 30
0.0
 10
1.999167109275394
 20
690.2900263792911
 30
0.0
 10
2.184465973983094
 20
690.2900211034589
 30
0.0
 10
2.434931693714717
 20
690.2900105517954
 30
0.0
 10
2.500000001172422
 20
690.2900052759634
 30
0.0
 10
2.499999999999981
 20
690.2900000001313
 30
0.0
  0
SPLINE
  5
111
330
1F
100
AcDbEntity
  8
0
  6
Continuous
 62
     7
370
    15
100
AcDbSpline
210
0.0
220
0.0
230
1.0
 70
     8
 71
     3
 72
    18
 73
    14
 74
     0
 42
0.000000001
 43
0.00000001
 40
0.0
 40
0.0
 40
0.0
 40
0.0
 40
0.101972507515772
 40
0.2038805975450305
 40
0.3076051520767539
 40
0.415350265900098
 40
0.500135855038501
 40
0.6131146769263136
 40
0.7261705200687619
 40
0.836889028049686
 40
0.9432562990354431
 40
0.9999198800867238
 40
0.9999999999999999
 40
0.9999999999999999
 40
0.9999999999999999
 40
0.9999999999999999
 10
39.00000000000001
 20
10.11026271442969
 30
0.0
 10
38.95827611927466
 20
10.12256253711455
 30
0.0
 10
38.87485471539416
 20
10.14715441251091
 30
0.0
 10
38.22756926846068
 20
10.33776801074862
 30
0.0
 10
37.2679274624044
 20
10.6197783084413
 30
0.0
 10
36.13544062281789
 20
10.95166410231929
 30
0.0
 10
34.88553683684295
 20
11.31689479660872
 30
0.0
 10
33.60636991011027
 20
11.68953869244754
 30
0.0
 10
32.38183374606047
 20
12.0450929714436
 30
0.0
 10
31.45928501092424
 20
12.31223440251408
 30
0.0
 10
31.0976868037221
 20
12.4167675768051
 30
0.0
 10
30.96077529010673
 20
12.45634398441642
 30
0.0
 10
31.00011090736707
 20
12.44497196217434
 30
0.0
 10
31.00016644773877
 20
12.44495590531833
 30
0.0
  0
LWPOLYLINE
  5
114
330
1F
100
AcDbEntity
  8
0
  6
Continuous
 62
     7
370
    15
100
AcDbPolyline
 90
        3
 70
   128
 43
0.0
 10
3.0331501776
 20
16.2459166666
 10
2.2749604302
 20
16.2620272634
 10
1.6348718036
 20
16.2720444685
  0
LWPOLYLINE
  5
115
330
1F
100
AcDbEntity
  8
0
  6
Continuous
 62
     7
370
    15
100
AcDbPolyline
 90
        3
 70
   128
 43
0.0
 10
-2.169361194
 20
16.2639058392
 10
-2.2749604302
 20
16.2620272634
 10
-3.0331501776
 20
16.2459166666
  0
SPLINE
  5
119
330
1F
100
AcDbEntity
  8
0
  6
Continuous
 62
     7
370
    15
100
AcDbSpline
210
0.0
220
0.0
230
1.0
 70
     8
 71
     3
 72
     9
 73
     5
 74
     0
 42
0.000000001
 43
0.00000001
 40
0.0
 40
0.0
 40
0.0
 40
0.0
 40
0.3333367209435743
 40
1.0
 40
1.0
 40
1.0
 40
1.0
 10
2.928717623336356
 20
16.2240302610745
 30
0.0
 10
3.09311780265048
 20
16.23229482265731
 30
0.0
 10
3.586313328330213
 20
16.25708825543429
 30
0.0
 10
3.834494459867171
 20
16.28188225515159
 30
0.0
 10
3.999947706817534
 20
16.29841150430406
 30
0.0
  0
SPLINE
  5
120
330
1F
100
AcDbEntity
  8
0
  6
Continuous
 62
     8
370
    15
100
AcDbSpline
210
0.0
220
0.0
230
1.0
 70
     8
 71
     3
 72
    36
 73
    32
 74
     0
 42
0.000000001
 43
0.00000001
 40
0.0
 40
0.0
 40
0.0
 40
0.0
 40
0.0179773583095771
 40
0.0487099551502662
 40
0.0801963288267897
 40
0.1115147566802776
 40
0.1305581595893909
 40
0.1493183541115664
 40
0.1680065870738956
 40
0.1866859316578938
 40
0.2053840905936465
 40
0.2366284096040821
 40
0.2678978666043796
 40
0.299322252467005
 40
0.330339637876198
 40
0.361491146493706
 40
0.3927621445061522
 40
0.4395698806145953
 40
0.4866736301795243
 40
0.5334037666390945
 40
0.5799567530434395
 40
0.6304812389133382
 40
0.6740975168052894
 40
0.7210784882582384
 40
0.7679458858704299
 40
0.8150041979453745
 40
0.8623177121621732
 40
0.9092253753569192
 40
0.9560211810411067
 40
0.9869477813961848
 40
1.0
 40
1.0
 40
1.0
 40
1.0
 10
-117.4933474619484
 20
-64.31522215654067
 30
0.0
 10
-117.7901372501236
 20
-65.12993264257744
 30
0.0
 10
-118.5942941803086
 20
-67.33740442747037
 30
0.0
 10
-119.6780654253144
 20
-71.09966279557706
 30
0.0
 10
-120.640779382759
 20
-75.61383634412616
 30
0.0
 10
-121.2005808621511
 20
-79.66453514718359
 30
0.0
 10
-121.493163435885
 20
-83.13657464546293
 30
0.0
 10
-121.6271855635327
 20
-86.00194217834401
 30
0.0
 10
-121.6612226366299
 20
-88.87141803082932
 30
0.0
 10
-121.6083481153198
 20
-91.75755776525885
 30
0.0
 10
-121.417153669321
 20
-95.30548746719364
 30
0.0
 10
-121.1724246082277
 20
-99.55169211359666
 30
0.0
 10
-120.9368234308998
 20
-104.5241882788261
 30
0.0
 10
-120.7334851640116
 20
-109.5238894558845
 30
0.0
 10
-120.564736765457
 20
-114.5366420347001
 30
0.0
 10
-120.4240545418276
 20
-119.5404613045575
 30
0.0
 10
-120.2905132917097
 20
-125.3651609831645
 30
0.0
 10
-120.1526995029825
 20
-131.9775919776577
 30
0.0
 10
-120.0709238301757
 20
-139.2487418422131
 30
0.0
 10
-119.7315100635498
 20
-146.3308260411639
 30
0.0
 10
-118.7750467807274
 20
-153.3841802183281
 30
0.0
 10
-117.1128472910783
 20
-160.0049285092088
 30
0.0
 10
-114.8288522242334
 20
-166.2931744331673
 30
0.0
 10
-112.1811483583591
 20
-172.0557480762205
 30
0.0
 10
-109.2239641791258
 20
-177.5570996086196
 30
0.0
 10
-106.2182086786373
 20
-182.6483049990982
 30
0.0
 10
-103.3141256268578
 20
-187.2789582533111
 30
0.0
 10
-100.5639487065614
 20
-191.4055048538723
 30
0.0
 10
-98.17991588482471
 20
-194.552503810295
 30
0.0
 10
-96.42047975893254
 20
-196.6008712709341
 30
0.0
 10
-95.50360394974241
 20
-197.4365931048162
 30
0.0
 10
-95.23148969616763
 20
-197.6846221407483
 30
0.0
  0
SPLINE
  5
121
330
1F
100
AcDbEntity
  8
0
  6
Continuous
 62
     8
370
    15
100
AcDbSpline
210
0.0
220
0.0
230
1.0
 70
     8
 71
     3
 72
    19
 73
    15
 74
     0
 42
0.000000001
 43
0.00000001
 40
0.0
 40
0.0
 40
0.0
 40
0.0
 40
0.0611994715126259
 40
0.1411615502770549
 40
0.2195503889203597
 40
0.2962280505527508
 40
0.3713213582242639
 40
0.4597881466635034
 40
0.5462487215488303
 40
0.6307304739463017
 40
0.7134219078753704
 40
0.7944342548777625
 40
0.8987621347577681
 40
1.0
 40
1.0
 40
1.0
 40
1.0
 10
6.97646395623384
 20
-234.972979300168
 30
0.0
 10
8.791807485157419
 20
-235.0181812541841
 30
0.0
 10
12.97904473565237
 20
-235.1224432314
 30
0.0
 10
19.54241082620017
 20
-234.5229454997149
 30
0.0
 10
26.54562767209898
 20
-233.2735571400631
 30
0.0
 10
33.321093130358
 20
-231.2953465358295
 30
0.0
 10
40.22710541585148
 20
-228.4491813754322
 30
0.0
 10
47.0479180922753
 20
-224.4352581535039
 30
0.0
 10
53.88998171992033
 20
-219.9726275186527
 30
0.0
 10
60.29772609544674
 20
-215.252871498006
 30
0.0
 10
66.23778947701815
 20
-210.2853370866573
 30
0.0
 10
72.23276669084836
 20
-204.5430838701858
 30
0.0
 10
78.1514168598586
 20
-198.0143331101849
 30
0.0
 10
81.75928761064146
 20
-192.892898893359
 30
0.0
 10
83.53610666510966
 20
-190.3706738661219
 30
0.0
  0
SPLINE
  5
122
330
1F
100
AcDbEntity
  8
0
  6
Continuous
 62
     8
370
    15
100
AcDbSpline
210
0.0
220
0.0
230
1.0
 70
     8
 71
     3
 72
    18
 73
    14
 74
     0
 42
0.000000001
 43
0.00000001
 40
0.0
 40
0.0
 40
0.0
 40
0.0
 40
0.0961109063462686
 40
0.1970373610723765
 40
0.2976757398646322
 40
0.3980596623468493
 40
0.4979285565255867
 40
0.5986843344040347
 40
0.698659947730382
 40
0.7743998041823922
 40
0.8492449059744158
 40
0.9243841662261895
 40
1.0
 40
1.0
 40
1.0
 40
1.0
 10
121.0122370245793
 20
-163.9160842181111
 30
0.0
 10
120.5852163981704
 20
-165.7356575974961
 30
0.0
 10
119.7097796704387
 20
-169.465972403392
 30
0.0
 10
117.9717418706962
 20
-174.4155937061484
 30
0.0
 10
115.7889585828452
 20
-178.8790911894221
 30
0.0
 10
113.0524243602334
 20
-182.6726605413816
 30
0.0
 10
109.7191938905094
 20
-185.7825939912339
 30
0.0
 10
105.698677659212
 20
-188.1587098751556
 30
0.0
 10
101.3450602622814
 20
-189.6553289984568
 30
0.0
 10
96.96640788802932
 20
-190.478370181788
 30
0.0
 10
92.72964659955072
 20
-190.8203320888606
 30
0.0
 10
88.2662173211942
 20
-190.8131957525825
 30
0.0
 10
85.11614262839414
 20
-190.5184931719028
 30
0.0
 10
83.53612620582845
 20
-190.3706760682923
 30
0.0
  0
SPLINE
  5
123
330
1F
100
AcDbEntity
  8
0
  6
Continuous
 62
     8
370
    15
100
AcDbSpline
210
0.0
220
0.0
230
1.0
 70
     8
 71
     3
 72
    15
 73
    11
 74
     0
 42
0.000000001
 43
0.00000001
 40
0.0
 40
0.0
 40
0.0
 40
0.0
 40
0.1158669543034584
 40
0.2536687464021517
 40
0.3901343626038227
 40
0.527058404841396
 40
0.6642068297499109
 40
0.801890716478821
 40
0.8998891703118831
 40
1.0
 40
1.0
 40
1.0
 40
1.0
 10
94.53696091986006
 20
-33.98889847340564
 30
0.0
 10
93.59630848754512
 20
-32.54021177470373
 30
0.0
 10
91.5369281858887
 20
-29.36858668972281
 30
0.0
 10
88.34673106803206
 20
-25.36637282529275
 30
0.0
 10
84.92906737220856
 20
-21.85814431118538
 30
0.0
 10
81.3962178750162
 20
-19.18908914527623
 30
0.0
 10
77.67934225976757
 20
-17.34788830200423
 30
0.0
 10
74.19094689636955
 20
-16.47890856634787
 30
0.0
 10
70.99470172184441
 20
-16.26989848942018
 30
0.0
 10
69.08142130345347
 20
-16.53062574710312
 30
0.0
 10
68.11458074602615
 20
-16.66237940157617
 30
0.0
  0
SPLINE
  5
124
330
1F
100
AcDbEntity
  8
0
  6
Continuous
 62
     8
370
    15
100
AcDbSpline
210
0.0
220
0.0
230
1.0
 70
    24
 71
     3
 72
    33
 73
    29
 74
     0
 42
0.000000001
 43
0.00000001
 40
0.0
 40
0.0
 40
0.0
 40
0.0
 40
0.0396191956267667
 40
0.079238391253532
 40
0.1188575868802987
 40
0.1584767825070654
 40
0.1980959781338315
 40
0.2377151737605975
 40
0.2773343693873642
 40
0.3169535650141302
 40
0.3565727606408963
 40
0.396191956267663
 40
0.4358111518944289
 40
0.475430347521195
 40
0.5150495431479617
 40
0.5546687387747278
 40
0.5942879344014944
 40
0.6339071300282604
 40
0.6735263256550265
 40
0.7131455212817933
 40
0.7527647169085593
 40
0.7923839125353257
 40
0.832003108162092
 40
0.8716223037888581
 40
0.9112414994156248
 40
0.9508606950423908
 40
0.9904798906691569
 40
1.0
 40
1.0
 40
1.0
 40
1.0
 10
59.34870338855884
 20
-7.573387848341162
 30
0.0
 10
57.9713712919031
 20
-7.573387848341162
 30
0.0
 10
55.21670709859168
 20
-7.573387848341162
 30
0.0
 10
50.35272133617352
 20
-7.573387848341162
 30
0.0
 10
45.01433979656912
 20
-7.573387848341162
 30
0.0
 10
39.20089957187694
 20
-7.573387848341162
 30
0.0
 10
32.98713522788259
 20
-7.573387848341162
 30
0.0
 10
26.43300909084229
 20
-7.573387848341162
 30
0.0
 10
19.60704888391752
 20
-7.573387848341106
 30
0.0
 10
12.57922374184175
 20
-7.573387848341162
 30
0.0
 10
5.421943934435128
 20
-7.573387848341162
 30
0.0
 10
-1.791145250131227
 20
-7.573387848341162
 30
0.0
 10
-8.985798017847973
 20
-7.573387848341162
 30
0.0
 10
-16.08796530933173
 20
-7.573387848341106
 30
0.0
 10
-23.02454814185769
 20
-7.573387848341162
 30
0.0
 10
-29.72415211971536
 20
-7.573387848341162
 30
0.0
 10
-36.11782248603811
 20
-7.573387848341162
 30
0.0
 10
-42.13975077454293
 20
-7.573387848341162
 30
0.0
 10
-47.72796415345188
 20
-7.573387848341162
 30
0.0
 10
-52.82491828088972
 20
-7.573387848341162
 30
0.0
 10
-57.3782575470842
 20
-7.573387848341162
 30
0.0
 10
-61.34072705528331
 20
-7.573387848341106
 30
0.0
 10
-64.67299856341722
 20
-7.573387848341162
 30
0.0
 10
-67.33534385962935
 20
-7.573387848341162
 30
0.0
 10
-69.32062972102283
 20
-7.573387848341162
 30
0.0
 10
-70.53277850577959
 20
-7.573387848341162
 30
0.0
 10
-71.06211711624012
 20
-7.573387848341106
 30
0.0
 10
-70.95413733533884
 20
-7.573387848341162
 30
0.0
 10
-70.93321763937267
 20
-7.573387848341162
 30
0.0
  0
SPLINE
  5
125
330
1F
100
AcDbEntity
  8
0
  6
Continuous
 62
     8
370
    15
100
AcDbSpline
210
0.0
220
0.0
230
1.0
 70
     8
 71
     3
 72
    15
 73
    11
 74
     0
 42
0.000000001
 43
0.00000001
 40
0.0
 40
0.0
 40
0.0
 40
0.0
 40
0.0075063416138404
 40
0.2060850243638055
 40
0.4043355217562415
 40
0.5220028996182796
 40
0.6396765002431245
 40
0.7600627739694324
 40
0.8791517827725686
 40
1.0
 40
1.0
 40
1.0
 40
1.0
 10
-97.14261253545689
 20
-32.04764747823635
 30
0.0
 10
-97.19135651809994
 20
-32.09813623264706
 30
0.0
 10
-98.52961227134969
 20
-33.48429432644296
 30
0.0
 10
-101.2969717598216
 20
-37.04746580107404
 30
0.0
 10
-104.9404430173825
 20
-41.94322874617462
 30
0.0
 10
-108.0826159500166
 20
-46.57086420662077
 30
0.0
 10
-110.6500841814972
 20
-50.60021129527753
 30
0.0
 10
-113.1426009810492
 20
-54.8937228669007
 30
0.0
 10
-115.512564901384
 20
-59.4499943557526
 30
0.0
 10
-116.8295739895468
 20
-62.6856320322638
 30
0.0
 10
-117.4929066578861
 20
-64.31531264193485
 30
0.0
  0
SPLINE
  5
126
330
1F
100
AcDbEntity
  8
0
  6
Continuous
 62
     8
370
    15
100
AcDbSpline
210
0.0
220
0.0
230
1.0
 70
    24
 71
     3
 72
    12
 73
     8
 74
     0
 42
0.000000001
 43
0.00000001
 40
0.0
 40
0.0
 40
0.0
 40
0.0
 40
0.2176773919102567
 40
0.4353547838205132
 40
0.6530321757307704
 40
0.8707095676410271
 40
0.9999999999999999
 40
0.9999999999999999
 40
0.9999999999999999
 40
0.9999999999999999
 10
59.34870338855887
 20
-7.573387848341162
 30
0.0
 10
60.89945011146975
 20
-7.573387848341162
 30
0.0
 10
64.0009435572915
 20
-7.573387848341162
 30
0.0
 10
67.38933670958383
 20
-7.573387848341162
 30
0.0
 10
69.71921307188732
 20
-7.573387848341162
 30
0.0
 10
70.91748965478153
 20
-7.573387848341162
 30
0.0
 10
70.87786879014443
 20
-7.573387848341162
 30
0.0
 10
70.86310488882259
 20
-7.573387848341162
 30
0.0
  0
LINE
  5
130
330
1F
100
AcDbEntity
  8
0
  6
Continuous
 62
     7
370
    15
100
AcDbLine
 10
-4.6155346014
 20
578.5266204943
 30
0.0
 11
-4.9971321249
 21
578.3059386261
 31
0.0
  0
LINE
  5
131
330
1F
100
AcDbEntity
  8
0
  6
Continuous
 62
     7
370
    15
100
AcDbLine
 10
2.7811577753
 20
740.4780590238
 30
0.0
 11
7.622814983
 21
742.7112734109
 31
0.0
  0
LINE
  5
132
330
1F
100
AcDbEntity
  8
0
  6
Continuous
 62
     7
370
    15
100
AcDbLine
 10
6.7851305335
 20
744.5273914586
 30
0.0
 11
1.9434733258
 21
742.2941770715
 31
0.0
  0
LINE
  5
133
330
1F
100
AcDbEntity
  8
0
  6
Continuous
 62
     7
370
    15
100
AcDbLine
 10
8.82
 20
744.581875
 30
0.0
 11
8.82
 21
746.72
 31
0.0
  0
LINE
  5
134
330
1F
100
AcDbEntity
  8
0
  6
Continuous
 62
     7
370
    15
100
AcDbLine
 10
6.82
 20
746.72
 30
0.0
 11
6.82
 21
744.581875
 31
0.0
  0
LINE
  5
135
330
1F
100
AcDbEntity
  8
0
  6
Continuous
 62
     7
370
    15
100
AcDbLine
 10
121.7343010556
 20
-160.1019061366
 30
0.0
 11
122.2322862723
 21
-156.9524615213
 31
0.0
  0
LINE
  5
136
330
1F
100
AcDbEntity
  8
0
  6
Continuous
 62
     7
370
    15
100
AcDbLine
 10
-3.1
 20
196.3
 30
0.0
 11
-3.1
 21
191.3
 31
0.0
  0
LINE
  5
137
330
1F
100
AcDbEntity
  8
0
  6
Continuous
 62
     7
370
    15
100
AcDbLine
 10
3.1
 20
191.3
 30
0.0
 11
3.1
 21
196.3
 31
0.0
  0
LINE
  5
138
330
1F
100
AcDbEntity
  8
0
  6
Continuous
 62
     7
370
    15
100
AcDbLine
 10
-4.3960843119
 20
176.3464480514
 30
0.0
 11
-4.2292025082
 21
176.2499111191
 31
0.0
  0
LINE
  5
139
330
1F
100
AcDbEntity
  8
0
  6
Continuous
 62
     7
370
    15
100
AcDbLine
 10
-6.5
 20
191.3
 30
0.0
 11
-6.5
 21
16.3
 31
0.0
  0
LINE
  5
13A
330
1F
100
AcDbEntity
  8
0
  6
Continuous
 62
     7
370
    15
100
AcDbLine
 10
6.5
 20
16.3
 30
0.0
 11
6.5
 21
191.3
 31
0.0
  0
LINE
  5
13B
330
1F
100
AcDbEntity
  8
0
  6
Continuous
 62
     7
370
    15
100
AcDbLine
 10
-3.15
 20
561.3
 30
0.0
 11
-3.15
 21
556.3
 31
0.0
  0
LINE
  5
13C
330
1F
100
AcDbEntity
  8
0
  6
Continuous
 62
     7
370
    15
100
AcDbLine
 10
3.15
 20
556.3
 30
0.0
 11
3.15
 21
561.3
 31
0.0
  0
LINE
  5
13D
330
1F
100
AcDbEntity
  8
0
  6
Continuous
 62
     7
370
    15
100
AcDbLine
 10
55.0
 20
638.3
 30
0.0
 11
-55.0
 21
638.3
 31
0.0
  0
LINE
  5
13E
330
1F
100
AcDbEntity
  8
0
  6
Continuous
 62
     7
370
    15
100
AcDbLine
 10
-3.15
 20
739.8
 30
0.0
 11
-3.15
 21
726.8
 31
0.0
  0
LINE
  5
13F
330
1F
100
AcDbEntity
  8
0
  6
Continuous
 62
     7
370
    15
100
AcDbLine
 10
3.15
 20
726.8
 30
0.0
 11
3.15
 21
739.8
 31
0.0
  0
LINE
  5
140
330
1F
100
AcDbEntity
  8
0
  6
Continuous
 62
     7
370
    15
100
AcDbLine
 10
-6.0
 20
578.3
 30
0.0
 11
-6.5
 21
577.8
 31
0.0
  0
LINE
  5
141
330
1F
100
AcDbEntity
  8
0
  6
Continuous
 62
     7
370
    15
100
AcDbLine
 10
-6.5
 20
563.3000545635
 30
0.0
 11
-6.5
 21
561.8
 31
0.0
  0
LINE
  5
142
330
1F
100
AcDbEntity
  8
0
  6
Continuous
 62
     7
370
    15
100
AcDbLine
 10
-6.5
 20
577.8
 30
0.0
 11
-6.5
 21
569.2999229633
 31
0.0
  0
LINE
  5
143
330
1F
100
AcDbEntity
  8
0
  6
Continuous
 62
     7
370
    15
100
AcDbLine
 10
6.5
 20
561.8
 30
0.0
 11
6.5
 21
577.8
 31
0.0
  0
LINE
  5
144
330
1F
100
AcDbEntity
  8
0
  6
Continuous
 62
     7
370
    15
100
AcDbLine
 10
6.5
 20
577.8
 30
0.0
 11
6.0
 21
578.3
 31
0.0
  0
LINE
  5
145
330
1F
100
AcDbEntity
  8
0
  6
Continuous
 62
     7
370
    15
100
AcDbLine
 10
-6.5
 20
561.8
 30
0.0
 11
-6.0
 21
561.3
 31
0.0
  0
LINE
  5
146
330
1F
100
AcDbEntity
  8
0
  6
Continuous
 62
     7
370
    15
100
AcDbLine
 10
6.0
 20
561.3
 30
0.0
 11
6.5
 21
561.8
 31
0.0
  0
LINE
  5
147
330
1F
100
AcDbEntity
  8
0
  6
Continuous
 62
     7
370
    15
100
AcDbLine
 10
2.5
 20
690.2900000001
 30
0.0
 11
2.5
 21
726.8
 31
0.0
  0
LINE
  5
148
330
1F
100
AcDbEntity
  8
0
  6
Continuous
 62
     7
370
    15
100
AcDbLine
 10
-2.5
 20
726.8
 30
0.0
 11
-2.5
 21
638.9
 31
0.0
  0
LINE
  5
149
330
1F
100
AcDbEntity
  8
0
  6
Continuous
 62
     7
370
    15
100
AcDbLine
 10
2.5
 20
638.9
 30
0.0
 11
2.5
 21
690.2848738973
 31
0.0
  0
LINE
  5
14A
330
1F
100
AcDbEntity
  8
0
  6
Continuous
 62
     7
370
    15
100
AcDbLine
 10
2.5
 20
196.3
 30
0.0
 11
2.5
 21
556.3
 31
0.0
  0
LINE
  5
14B
330
1F
100
AcDbEntity
  8
0
  6
Continuous
 62
     7
370
    15
100
AcDbLine
 10
-2.5
 20
556.3
 30
0.0
 11
-2.5
 21
196.3
 31
0.0
  0
LINE
  5
14C
330
1F
100
AcDbEntity
  8
0
  6
Continuous
 62
     7
370
    15
100
AcDbLine
 10
-8.3553214212
 20
750.72
 30
0.0
 11
-8.3553214212
 21
746.72
 31
0.0
  0
LINE
  5
14D
330
1F
100
AcDbEntity
  8
0
  6
Continuous
 62
     7
370
    15
100
AcDbLine
 10
-7.2846785788
 20
746.72
 30
0.0
 11
-7.2846785788
 21
750.72
 31
0.0
  0
LINE
  5
14E
330
1F
100
AcDbEntity
  8
0
  6
Continuous
 62
     7
370
    15
100
AcDbLine
 10
7.2846785788
 20
750.72
 30
0.0
 11
7.2846785788
 21
746.72
 31
0.0
  0
LINE
  5
14F
330
1F
100
AcDbEntity
  8
0
  6
Continuous
 62
     7
370
    15
100
AcDbLine
 10
8.3553214212
 20
746.72
 30
0.0
 11
8.3553214212
 21
750.72
 31
0.0
  0
LINE
  5
150
330
1F
100
AcDbEntity
  8
0
  6
Continuous
 62
     7
370
    15
100
AcDbLine
 10
-60.25
 20
0.8714020181
 30
0.0
 11
-59.768
 21
-0.0047691981
 31
0.0
  0
LINE
  5
151
330
1F
100
AcDbEntity
  8
0
  6
Continuous
 62
     7
370
    15
100
AcDbLine
 10
59.768
 20
-0.0047691981
 30
0.0
 11
60.25
 21
0.8714020181
 31
0.0
  0
LINE
  5
152
330
1F
100
AcDbEntity
  8
0
  6
Continuous
 62
     7
370
    15
100
AcDbLine
 10
-8.82
 20
746.72
 30
0.0
 11
-8.82
 21
744.581875
 31
0.0
  0
LINE
  5
153
330
1F
100
AcDbEntity
  8
0
  6
Continuous
 62
     7
370
    15
100
AcDbLine
 10
-6.82
 20
744.581875
 30
0.0
 11
-6.82
 21
746.72
 31
0.0
  0
LINE
  5
154
330
1F
100
AcDbEntity
  8
0
  6
Continuous
 62
     7
370
    15
100
AcDbLine
 10
-7.622814983
 20
742.7112734109
 30
0.0
 11
-2.7811577753
 21
740.4780590238
 31
0.0
  0
LINE
  5
155
330
1F
100
AcDbEntity
  8
0
  6
Continuous
 62
     7
370
    15
100
AcDbLine
 10
-1.9434733258
 20
742.2941770715
 30
0.0
 11
-6.7851305335
 21
744.5273914586
 31
0.0
  0
LINE
  5
156
330
1F
100
AcDbEntity
  8
0
  6
Continuous
 62
     7
370
    15
100
AcDbLine
 10
6.82
 20
746.72
 30
0.0
 11
8.82
 21
746.72
 31
0.0
  0
LINE
  5
157
330
1F
100
AcDbEntity
  8
0
  6
Continuous
 62
     7
370
    15
100
AcDbLine
 10
-95.2314896962
 20
-197.6846221407
 30
0.0
 11
-94.3357091038
 21
-198.5220836007
 31
0.0
  0
LINE
  5
158
330
1F
100
AcDbEntity
  8
0
  6
Continuous
 62
     7
370
    15
100
AcDbLine
 10
6.8262364997
 20
-234.9717790654
 30
0.0
 11
6.9764639562
 21
-234.9729793002
 31
0.0
  0
LINE
  5
159
330
1F
100
AcDbEntity
  8
0
  6
Continuous
 62
     7
370
    15
100
AcDbLine
 10
-96.5053469715
 20
-31.3855194084
 30
0.0
 11
-97.1426125355
 21
-32.0476474782
 31
0.0
  0
LINE
  5
15A
330
1F
100
AcDbEntity
  8
0
  6
Continuous
 62
     7
370
    15
100
AcDbLine
 10
3.1
 20
196.3
 30
0.0
 11
-3.1
 21
196.3
 31
0.0
  0
LINE
  5
15B
330
1F
100
AcDbEntity
  8
0
  6
Continuous
 62
     7
370
    15
100
AcDbLine
 10
4.9565676968
 20
176.1929199178
 30
0.0
 11
5.0
 21
176.2000525841
 31
0.0
  0
LINE
  5
15C
330
1F
100
AcDbEntity
  8
0
  6
Continuous
 62
     7
370
    15
100
AcDbLine
 10
6.5
 20
18.8
 30
0.0
 11
-6.5
 21
18.8
 31
0.0
  0
LINE
  5
15D
330
1F
100
AcDbEntity
  8
0
  6
Continuous
 62
     7
370
    15
100
AcDbLine
 10
1.6
 20
187.3
 30
0.0
 11
1.6
 21
185.3
 31
0.0
  0
LINE
  5
15E
330
1F
100
AcDbEntity
  8
0
  6
Continuous
 62
     7
370
    15
100
AcDbLine
 10
-1.6
 20
187.3
 30
0.0
 11
1.6
 21
187.3
 31
0.0
  0
LINE
  5
15F
330
1F
100
AcDbEntity
  8
0
  6
Continuous
 62
     7
370
    15
100
AcDbLine
 10
-1.6
 20
185.3
 30
0.0
 11
-1.6
 21
187.3
 31
0.0
  0
LINE
  5
160
330
1F
100
AcDbEntity
  8
0
  6
Continuous
 62
     7
370
    15
100
AcDbLine
 10
1.6
 20
185.3
 30
0.0
 11
-1.6
 21
185.3
 31
0.0
  0
LINE
  5
161
330
1F
100
AcDbEntity
  8
0
  6
Continuous
 62
     7
370
    15
100
AcDbLine
 10
3.15
 20
556.3
 30
0.0
 11
-3.15
 21
556.3
 31
0.0
  0
LINE
  5
162
330
1F
100
AcDbEntity
  8
0
  6
Continuous
 62
     7
370
    15
100
AcDbLine
 10
6.5
 20
16.3
 30
0.0
 11
-6.5
 21
16.3
 31
0.0
  0
LINE
  5
163
330
1F
100
AcDbEntity
  8
0
  6
Continuous
 62
     7
370
    15
100
AcDbLine
 10
-6.0
 20
638.9
 30
0.0
 11
-6.0
 21
638.3
 31
0.0
  0
LINE
  5
164
330
1F
100
AcDbEntity
  8
0
  6
Continuous
 62
     7
370
    15
100
AcDbLine
 10
-6.0
 20
638.9
 30
0.0
 11
6.0
 21
638.9
 31
0.0
  0
LINE
  5
165
330
1F
100
AcDbEntity
  8
0
  6
Continuous
 62
     7
370
    15
100
AcDbLine
 10
6.0
 20
638.3
 30
0.0
 11
6.0
 21
638.9
 31
0.0
  0
LINE
  5
166
330
1F
100
AcDbEntity
  8
0
  6
Continuous
 62
     7
370
    15
100
AcDbLine
 10
-6.5
 20
176.3
 30
0.0
 11
6.5
 21
176.3
 31
0.0
  0
LINE
  5
167
330
1F
100
AcDbEntity
  8
0
  6
Continuous
 62
     7
370
    15
100
AcDbLine
 10
6.5
 20
191.3
 30
0.0
 11
-6.5
 21
191.3
 31
0.0
  0
LINE
  5
168
330
1F
100
AcDbEntity
  8
0
  6
Continuous
 62
     7
370
    15
100
AcDbLine
 10
2.4260479601
 20
188.1863591531
 30
0.0
 11
2.6293503391
 21
188.2598499951
 31
0.0
  0
LINE
  5
169
330
1F
100
AcDbEntity
  8
0
  6
Continuous
 62
     7
370
    15
100
AcDbLine
 10
-2.9738579208
 20
186.663265979
 30
0.0
 11
-3.2382003791
 21
186.8179468336
 31
0.0
  0
LINE
  5
16A
330
1F
100
AcDbEntity
  8
0
  6
Continuous
 62
     7
370
    15
100
AcDbLine
 10
-5.1
 20
578.5266204943
 30
0.0
 11
5.1
 21
578.5266204943
 31
0.0
  0
LINE
  5
16B
330
1F
100
AcDbEntity
  8
0
  6
Continuous
 62
     7
370
    15
100
AcDbLine
 10
3.15
 20
726.8
 30
0.0
 11
-3.15
 21
726.8
 31
0.0
  0
LINE
  5
16C
330
1F
100
AcDbEntity
  8
0
  6
Continuous
 62
     7
370
    15
100
AcDbLine
 10
3.15
 20
739.8
 30
0.0
 11
-3.15
 21
739.8
 31
0.0
  0
LINE
  5
16D
330
1F
100
AcDbEntity
  8
0
  6
Continuous
 62
     7
370
    15
100
AcDbLine
 10
0.0
 20
578.3
 30
0.0
 11
0.0
 21
577.8
 31
0.0
  0
LINE
  5
16E
330
1F
100
AcDbEntity
  8
0
  6
Continuous
 62
     7
370
    15
100
AcDbLine
 10
6.5
 20
577.8
 30
0.0
 11
-6.4999999146
 21
577.8
 31
0.0
  0
LINE
  5
16F
330
1F
100
AcDbEntity
  8
0
  6
Continuous
 62
     7
370
    15
100
AcDbLine
 10
6.5
 20
561.8
 30
0.0
 11
-6.5
 21
561.8
 31
0.0
  0
LINE
  5
170
330
1F
100
AcDbEntity
  8
0
  6
Continuous
 62
     7
370
    15
100
AcDbLine
 10
6.0
 20
561.3
 30
0.0
 11
-6.0
 21
561.3
 31
0.0
  0
LINE
  5
171
330
1F
100
AcDbEntity
  8
0
  6
Continuous
 62
     7
370
    15
100
AcDbLine
 10
-7.2846785788
 20
750.72
 30
0.0
 11
-8.3553214212
 21
750.72
 31
0.0
  0
LINE
  5
172
330
1F
100
AcDbEntity
  8
0
  6
Continuous
 62
     7
370
    15
100
AcDbLine
 10
8.3553214212
 20
750.72
 30
0.0
 11
7.2846785788
 21
750.72
 31
0.0
  0
LINE
  5
173
330
1F
100
AcDbEntity
  8
0
  6
Continuous
 62
     7
370
    15
100
AcDbLine
 10
-60.25
 20
0.8714020181
 30
0.0
 11
60.25
 21
0.8714020181
 31
0.0
  0
LINE
  5
174
330
1F
100
AcDbEntity
  8
0
  6
Continuous
 62
     7
370
    15
100
AcDbLine
 10
-3.0331501776
 20
16.2459166666
 30
0.0
 11
-5.1
 21
16.2459166666
 31
0.0
  0
LINE
  5
175
330
1F
100
AcDbEntity
  8
0
  6
Continuous
 62
     7
370
    15
100
AcDbLine
 10
5.1
 20
16.2459166666
 30
0.0
 11
3.0331501776
 21
16.2459166666
 31
0.0
  0
LINE
  5
176
330
1F
100
AcDbEntity
  8
0
  6
Continuous
 62
     7
370
    15
100
AcDbLine
 10
-59.768
 20
-0.0047691981
 30
0.0
 11
59.768
 21
-0.0047691981
 31
0.0
  0
LINE
  5
177
330
1F
100
AcDbEntity
  8
0
  6
Continuous
 62
     7
370
    15
100
AcDbLine
 10
-8.82
 20
746.72
 30
0.0
 11
-6.82
 21
746.72
 31
0.0
  0
LINE
  5
178
330
1F
100
AcDbEntity
  8
0
  6
Continuous
 62
     8
370
    15
100
AcDbLine
 10
2.7811577753
 20
740.4780590238
 30
0.0
 11
1.9434733258
 21
742.2941770715
 31
0.0
  0
LINE
  5
179
330
1F
100
AcDbEntity
  8
0
  6
Continuous
 62
     8
370
    15
100
AcDbLine
 10
6.7851305335
 20
744.5273914586
 30
0.0
 11
7.622814983
 21
742.7112734109
 31
0.0
  0
LINE
  5
17A
330
1F
100
AcDbEntity
  8
0
  6
Continuous
 62
     8
370
    15
100
AcDbLine
 10
6.82
 20
744.581875
 30
0.0
 11
8.82
 21
744.581875
 31
0.0
  0
LINE
  5
17B
330
1F
100
AcDbEntity
  8
0
  6
Continuous
 62
     8
370
    15
100
AcDbLine
 10
57.5
 20
635.8
 30
0.0
 11
-57.5
 21
635.8
 31
0.0
  0
LINE
  5
17C
330
1F
100
AcDbEntity
  8
0
  6
Continuous
 62
     8
370
    15
100
AcDbLine
 10
-2.5
 20
640.9
 30
0.0
 11
2.5
 21
640.9
 31
0.0
  0
LINE
  5
17D
330
1F
100
AcDbEntity
  8
0
  6
Continuous
 62
     8
370
    15
100
AcDbLine
 10
-8.82
 20
744.581875
 30
0.0
 11
-6.82
 21
744.581875
 31
0.0
  0
LINE
  5
17E
330
1F
100
AcDbEntity
  8
0
  6
Continuous
 62
     8
370
    15
100
AcDbLine
 10
-1.9434733258
 20
742.2941770715
 30
0.0
 11
-2.7811577753
 21
740.4780590238
 31
0.0
  0
LINE
  5
17F
330
1F
100
AcDbEntity
  8
0
  6
Continuous
 62
     8
370
    15
100
AcDbLine
 10
-7.622814983
 20
742.7112734109
 30
0.0
 11
-6.7851305335
 21
744.5273914586
 31
0.0
  0
ARC
  5
180
330
1F
100
AcDbEntity
  8
0
  6
Continuous
 62
     7
370
    15
100
AcDbCircle
 10
3.2
 20
739.57
 30
0.0
 40
0.999999999999839
100
AcDbArc
 50
114.7615138576
 51
166.7029282528
  0
ARC
  5
181
330
1F
100
AcDbEntity
  8
0
  6
Continuous
 62
     7
370
    15
100
AcDbCircle
 10
3.2
 20
739.57
 30
0.0
 40
2.999999999999941
100
AcDbArc
 50
114.7615138576
 51
175.6030089527
  0
ARC
  5
182
330
1F
100
AcDbEntity
  8
0
  6
Continuous
 62
     7
370
    15
100
AcDbCircle
 10
6.76
 20
744.581875
 30
0.0
 40
0.0600000000007767
100
AcDbArc
 50
294.7615138577
 51
359.9999999999
  0
ARC
  5
183
330
1F
100
AcDbEntity
  8
0
  6
Continuous
 62
     7
370
    15
100
AcDbCircle
 10
6.76
 20
744.581875
 30
0.0
 40
2.05999999999999
100
AcDbArc
 50
294.7615138575
 51
0.0
  0
ARC
  5
184
330
1F
100
AcDbEntity
  8
0
  6
Continuous
 62
     7
370
    15
100
AcDbCircle
 10
0.0
 20
-104.315312576
 30
0.0
 40
120.0000000000692
100
AcDbArc
 50
119.6278739043
 51
126.2504353015
  0
ARC
  5
185
330
1F
100
AcDbEntity
  8
0
  6
Continuous
 62
     7
370
    15
100
AcDbCircle
 10
-0.0000000019
 20
-104.3153125789
 30
0.0
 40
120.0000000034675
100
AcDbArc
 50
53.7770596423
 51
60.3721260956
  0
ARC
  5
186
330
1F
100
AcDbEntity
  8
0
  6
Continuous
 62
     7
370
    15
100
AcDbCircle
 10
0.0
 20
635.8
 30
0.0
 40
57.4999999999998
100
AcDbArc
 50
275.0885733614
 51
360.0
  0
ARC
  5
187
330
1F
100
AcDbEntity
  8
0
  6
Continuous
 62
     7
370
    15
100
AcDbCircle
 10
0.0
 20
635.8
 30
0.0
 40
57.49999999999496
100
AcDbArc
 50
180.0
 51
264.9114266386
  0
ARC
  5
188
330
1F
100
AcDbEntity
  8
0
  6
Continuous
 62
     7
370
    15
100
AcDbCircle
 10
55.0
 20
635.8
 30
0.0
 40
2.499999999999922
100
AcDbArc
 50
360.0
 51
90.0
  0
ARC
  5
189
330
1F
100
AcDbEntity
  8
0
  6
Continuous
 62
     7
370
    15
100
AcDbCircle
 10
-55.0
 20
635.8
 30
0.0
 40
2.499999999999943
100
AcDbArc
 50
90.0
 51
180.0
  0
ARC
  5
18A
330
1F
100
AcDbEntity
  8
0
  6
Continuous
 62
     7
370
    15
100
AcDbCircle
 10
0.0
 20
646.15
 30
0.0
 40
2.499999999999972
100
AcDbArc
 50
0.0
 51
180.0
  0
ARC
  5
18B
330
1F
100
AcDbEntity
  8
0
  6
Continuous
 62
     7
370
    15
100
AcDbCircle
 10
0.0
 20
-108.65
 30
0.0
 40
124.9999999999999
100
AcDbArc
 50
92.338316853
 51
118.8161068328
  0
ARC
  5
18C
330
1F
100
AcDbEntity
  8
0
  6
Continuous
 62
     7
370
    15
100
AcDbCircle
 10
0.0
 20
-108.6499999999
 30
0.0
 40
124.9999999999464
100
AcDbArc
 50
75.6406506014
 51
87.661683147
  0
ARC
  5
18D
330
1F
100
AcDbEntity
  8
0
  6
Continuous
 62
     7
370
    15
100
AcDbCircle
 10
0.0
 20
-108.6500000001
 30
0.0
 40
125.0000000000818
100
AcDbArc
 50
61.1838931672
 51
71.8207967343
  0
ARC
  5
18E
330
1F
100
AcDbEntity
  8
0
  6
Continuous
 62
     7
370
    15
100
AcDbCircle
 10
-3.2
 20
739.57
 30
0.0
 40
1.000000000000676
100
AcDbArc
 50
13.2970717472
 51
65.2384861424
  0
ARC
  5
18F
330
1F
100
AcDbEntity
  8
0
  6
Continuous
 62
     7
370
    15
100
AcDbCircle
 10
-3.2
 20
739.57
 30
0.0
 40
3.000000000000287
100
AcDbArc
 50
4.3969910473
 51
65.2384861424
  0
ARC
  5
190
330
1F
100
AcDbEntity
  8
0
  6
Continuous
 62
     7
370
    15
100
AcDbCircle
 10
-6.76
 20
744.581875
 30
0.0
 40
0.0600000000007486
100
AcDbArc
 50
180.0000000003
 51
245.2384861421
  0
ARC
  5
191
330
1F
100
AcDbEntity
  8
0
  6
Continuous
 62
     7
370
    15
100
AcDbCircle
 10
-6.76
 20
744.581875
 30
0.0
 40
2.059999999999965
100
AcDbArc
 50
180.0
 51
245.2384861423
  0
ARC
  5
192
330
1F
100
AcDbEntity
  8
0
  6
Continuous
 62
     7
370
    15
100
AcDbCircle
 10
0.0
 20
186.3
 30
0.0
 40
3.000000000001715
100
AcDbArc
 50
0.0
 51
35.9999999997
  0
ARC
  5
193
330
1F
100
AcDbEntity
  8
0
  6
Continuous
 62
     8
370
    15
100
AcDbCircle
 10
0.2482984521
 20
656.3326300925
 30
0.0
 40
2.274301928505022
100
AcDbArc
 50
263.732200862
 51
351.9158987051
  0
ARC
  5
194
330
1F
100
AcDbEntity
  8
0
  6
Continuous
 62
     8
370
    15
100
AcDbCircle
 10
-0.2482984521
 20
656.3326300925
 30
0.0
 40
2.274301928504841
100
AcDbArc
 50
188.0841012949
 51
276.267799138
  0
ENDSEC
  0
SECTION
  2
OBJECTS
  0
DICTIONARY
  5
C
330
0
100
AcDbDictionary
281
     1
  3
ACAD_GROUP
350
D
  3
ACAD_LAYOUT
350
1A
  3
ACAD_MLINESTYLE
350
17
  3
ACAD_PLOTSETTINGS
350
19
  3
ACAD_PLOTSTYLENAME
350
E
  3
ACAD_SCALELIST
350
47
  0
DICTIONARY
  5
D
102
{ACAD_REACTORS
330
C
102
}
330
C
100
AcDbDictionary
281
     1
  0
DICTIONARY
  5
1A
102
{ACAD_REACTORS
330
C
102
}
330
C
100
AcDbDictionary
281
     1
  3
Layout1
350
1E
  3
Layout2
350
26
  3
Model
350
22
  0
DICTIONARY
  5
17
102
{ACAD_REACTORS
330
C
102
}
330
C
100
AcDbDictionary
281
     1
  3
Standard
350
18
  0
DICTIONARY
  5
19
102
{ACAD_REACTORS
330
C
102
}
330
C
100
AcDbDictionary
281
     1
  0
ACDBDICTIONARYWDFLT
  5
E
102
{ACAD_REACTORS
330
C
102
}
330
C
100
AcDbDictionary
281
     1
  3
Normal
350
F
100
AcDbDictionaryWithDefault
340
F
  0
DICTIONARY
  5
47
102
{ACAD_REACTORS
330
C
102
}
330
C
100
AcDbDictionary
281
     1
  3
A0
350
48
  3
A1
350
49
  3
A2
350
4A
  3
A3
350
4B
  3
A4
350
4C
  3
A5
350
4D
  3
A6
350
4E
  3
A7
350
4F
  3
A8
350
50
  3
A9
350
51
  3
B0
350
52
  3
B1
350
53
  3
B2
350
54
  3
B3
350
55
  3
B4
350
56
  3
B5
350
57
  3
B6
350
58
  3
B7
350
59
  3
B8
350
5A
  3
B9
350
5B
  3
C0
350
5C
  3
C1
350
5D
  3
C2
350
5E
  3
C3
350
5F
  3
C4
350
60
  3
C5
350
61
  3
C6
350
62
  3
C7
350
63
  3
C8
350
64
  3
C9
350
65
  3
D0
350
66
  3
D1
350
67
  3
D2
350
68
  0
LAYOUT
  5
1E
102
{ACAD_REACTORS
330
1A
102
}
330
1A
100
AcDbPlotSettings
  1

  2
none_device
  4

  6

 40
0.0
 41
0.0
 42
0.0
 43
0.0
 44
0.0
 45
0.0
 46
0.0
 47
0.0
 48
0.0
 49
0.0
140
0.0
141
0.0
142
1.0
143
1.0
 70
   688
 72
     1
 73
     0
 74
     5
  7

 75
    16
147
1.0
148
0.0
149
0.0
100
AcDbLayout
  1
Layout1
 70
     1
 71
     1
 10
0.0
 20
0.0
 11
420.0
 21
297.0
 12
0.0
 22
0.0
 32
0.0
 14
1.0000000000E+20
 24
1.0000000000E+20
 34
1.0000000000E+20
 15
-1.0000000000E+20
 25
-1.0000000000E+20
 35
-1.0000000000E+20
146
0.0
 13
0.0
 23
0.0
 33
0.0
 16
1.0
 26
0.0
 36
0.0
 17
0.0
 27
1.0
 37
0.0
 76
     0
330
1B
  0
LAYOUT
  5
26
102
{ACAD_REACTORS
330
1A
102
}
330
1A
100
AcDbPlotSettings
  1

  2
none_device
  4

  6

 40
0.0
 41
0.0
 42
0.0
 43
0.0
 44
0.0
 45
0.0
 46
0.0
 47
0.0
 48
0.0
 49
0.0
140
0.0
141
0.0
142
1.0
143
1.0
 70
   688
 72
     1
 73
     0
 74
     5
  7

 75
    16
147
1.0
148
0.0
149
0.0
100
AcDbLayout
  1
Layout2
 70
     1
 71
     2
 10
0.0
 20
0.0
 11
0.0
 21
0.0
 12
0.0
 22
0.0
 32
0.0
 14
0.0
 24
0.0
 34
0.0
 15
0.0
 25
0.0
 35
0.0
146
0.0
 13
0.0
 23
0.0
 33
0.0
 16
1.0
 26
0.0
 36
0.0
 17
0.0
 27
1.0
 37
0.0
 76
     0
330
23
  0
LAYOUT
  5
22
102
{ACAD_REACTORS
330
1A
102
}
330
1A
100
AcDbPlotSettings
  1

  2
none_device
  4
ANSI_A_(11.00_x_8.50_Inches)
  6

 40
6.35
 41
19.05
 42
6.35000508
 43
19.05000254
 44
279.4
 45
215.9
 46
134.619938523
 47
33.0242032008
 48
0.0
 49
0.0
140
0.0
141
0.0
142
0.0085349191
143
1.0
 70
  1696
 72
     0
 73
     0
 74
     0
  7

 75
     0
147
0.0179189148
148
-1300.4909072572
149
0.0
100
AcDbLayout
  1
Model
 70
     1
 71
     0
 10
0.0
 20
0.0
 11
420.0
 21
297.0
 12
0.0
 22
0.0
 32
0.0
 14
-136.2632481417
 24
-235.2295910384
 34
0.0
 15
124.5472191936
 25
750.72
 35
0.0
146
0.0
 13
0.0
 23
0.0
 33
0.0
 16
1.0
 26
0.0
 36
0.0
 17
0.0
 27
1.0
 37
0.0
 76
     0
330
1F
331
29
  0
MLINESTYLE
  5
18
102
{ACAD_REACTORS
330
17
102
}
330
17
100
AcDbMlineStyle
  2
Standard
 70
     0
  3

 62
   256
 51
90.0
 52
90.0
 71
     2
 49
0.5
 62
   256
  6
BYLAYER
 49
-0.5
 62
   256
  6
BYLAYER
  0
ACDBPLACEHOLDER
  5
F
102
{ACAD_REACTORS
330
E
102
}
330
E
  0
SCALE
  5
48
102
{ACAD_REACTORS
330
47
102
}
330
47
100
AcDbScale
 70
     0
300
1:1
140
1.0
141
1.0
290
     1
  0
SCALE
  5
49
102
{ACAD_REACTORS
330
47
102
}
330
47
100
AcDbScale
 70
     0
300
1:2
140
1.0
141
2.0
290
     0
  0
SCALE
  5
4A
102
{ACAD_REACTORS
330
47
102
}
330
47
100
AcDbScale
 70
     0
300
1:4
140
1.0
141
4.0
290
     0
  0
SCALE
  5
4B
102
{ACAD_REACTORS
330
47
102
}
330
47
100
AcDbScale
 70
     0
300
1:5
140
1.0
141
5.0
290
     0
  0
SCALE
  5
4C
102
{ACAD_REACTORS
330
47
102
}
330
47
100
AcDbScale
 70
     0
300
1:8
140
1.0
141
8.0
290
     0
  0
SCALE
  5
4D
102
{ACAD_REACTORS
330
47
102
}
330
47
100
AcDbScale
 70
     0
300
1:10
140
1.0
141
10.0
290
     0
  0
SCALE
  5
4E
102
{ACAD_REACTORS
330
47
102
}
330
47
100
AcDbScale
 70
     0
300
1:16
140
1.0
141
16.0
290
     0
  0
SCALE
  5
4F
102
{ACAD_REACTORS
330
47
102
}
330
47
100
AcDbScale
 70
     0
300
1:20
140
1.0
141
20.0
290
     0
  0
SCALE
  5
50
102
{ACAD_REACTORS
330
47
102
}
330
47
100
AcDbScale
 70
     0
300
1:30
140
1.0
141
30.0
290
     0
  0
SCALE
  5
51
102
{ACAD_REACTORS
330
47
102
}
330
47
100
AcDbScale
 70
     0
300
1:40
140
1.0
141
40.0
290
     0
  0
SCALE
  5
52
102
{ACAD_REACTORS
330
47
102
}
330
47
100
AcDbScale
 70
     0
300
1:50
140
1.0
141
50.0
290
     0
  0
SCALE
  5
53
102
{ACAD_REACTORS
330
47
102
}
330
47
100
AcDbScale
 70
     0
300
1:100
140
1.0
141
100.0
290
     0
  0
SCALE
  5
54
102
{ACAD_REACTORS
330
47
102
}
330
47
100
AcDbScale
 70
     0
300
2:1
140
2.0
141
1.0
290
     0
  0
SCALE
  5
55
102
{ACAD_REACTORS
330
47
102
}
330
47
100
AcDbScale
 70
     0
300
4:1
140
4.0
141
1.0
290
     0
  0
SCALE
  5
56
102
{ACAD_REACTORS
330
47
102
}
330
47
100
AcDbScale
 70
     0
300
8:1
140
8.0
141
1.0
290
     0
  0
SCALE
  5
57
102
{ACAD_REACTORS
330
47
102
}
330
47
100
AcDbScale
 70
     0
300
10:1
140
10.0
141
1.0
290
     0
  0
SCALE
  5
58
102
{ACAD_REACTORS
330
47
102
}
330
47
100
AcDbScale
 70
     0
300
100:1
140
100.0
141
1.0
290
     0
  0
SCALE
  5
59
102
{ACAD_REACTORS
330
47
102
}
330
47
100
AcDbScale
 70
     0
300
1/128" = 1'-0"
140
0.0078125
141
12.0
290
     0
  0
SCALE
  5
5A
102
{ACAD_REACTORS
330
47
102
}
330
47
100
AcDbScale
 70
     0
300
1/64" = 1'-0"
140
0.015625
141
12.0
290
     0
  0
SCALE
  5
5B
102
{ACAD_REACTORS
330
47
102
}
330
47
100
AcDbScale
 70
     0
300
1/32" = 1'-0"
140
0.03125
141
12.0
290
     0
  0
SCALE
  5
5C
102
{ACAD_REACTORS
330
47
102
}
330
47
100
AcDbScale
 70
     0
300
1/16" = 1'-0"
140
0.0625
141
12.0
290
     0
  0
SCALE
  5
5D
102
{ACAD_REACTORS
330
47
102
}
330
47
100
AcDbScale
 70
     0
300
3/32" = 1'-0"
140
0.09375
141
12.0
290
     0
  0
SCALE
  5
5E
102
{ACAD_REACTORS
330
47
102
}
330
47
100
AcDbScale
 70
     0
300
1/8" = 1'-0"
140
0.125
141
12.0
290
     0
  0
SCALE
  5
5F
102
{ACAD_REACTORS
330
47
102
}
330
47
100
AcDbScale
 70
     0
300
3/16" = 1'-0"
140
0.1875
141
12.0
290
     0
  0
SCALE
  5
60
102
{ACAD_REACTORS
330
47
102
}
330
47
100
AcDbScale
 70
     0
300
1/4" = 1'-0"
140
0.25
141
12.0
290
     0
  0
SCALE
  5
61
102
{ACAD_REACTORS
330
47
102
}
330
47
100
AcDbScale
 70
     0
300
3/8" = 1'-0"
140
0.375
141
12.0
290
     0
  0
SCALE
  5
62
102
{ACAD_REACTORS
330
47
102
}
330
47
100
AcDbScale
 70
     0
300
1/2" = 1'-0"
140
0.5
141
12.0
290
     0
  0
SCALE
  5
63
102
{ACAD_REACTORS
330
47
102
}
330
47
100
AcDbScale
 70
     0
300
3/4" = 1'-0"
140
0.75
141
12.0
290
     0
  0
SCALE
  5
64
102
{ACAD_REACTORS
330
47
102
}
330
47
100
AcDbScale
 70
     0
300
1" = 1'-0"
140
1.0
141
12.0
290
     0
  0
SCALE
  5
65
102
{ACAD_REACTORS
330
47
102
}
330
47
100
AcDbScale
 70
     0
300
1-1/2" = 1'-0"
140
1.5
141
12.0
290
     0
  0
SCALE
  5
66
102
{ACAD_REACTORS
330
47
102
}
330
47
100
AcDbScale
 70
     0
300
3" = 1'-0"
140
3.0
141
12.0
290
     0
  0
SCALE
  5
67
102
{ACAD_REACTORS
330
47
102
}
330
47
100
AcDbScale
 70
     0
300
6" = 1'-0"
140
6.0
141
12.0
290
     0
  0
SCALE
  5
68
102
{ACAD_REACTORS
330
47
102
}
330
47
100
AcDbScale
 70
     0
300
1'-0" = 1'-0"
140
12.0
141
12.0
290
     0
  0
ENDSEC
  0
EOF
