  0
SECTION
  2
HEADER
  9
$ACADVER
  1
AC1015
  9
$ACADMAINTVER
 70
     6
  9
$DWGCODEPAGE
  3
ANSI_1252
  9
$INSBASE
 10
0.0
 20
0.0
 30
0.0
  9
$EXTMIN
 10
-53.7201258761
 20
-340.171359034
 30
0.0
  9
$EXTMAX
 10
397.2672971755
 20
2808.0595756025
 30
0.0
  9
$LIMMIN
 10
0.0
 20
0.0
  9
$LIMMAX
 10
420.0
 20
297.0
  9
$ORTHOMODE
 70
     0
  9
$REGENMODE
 70
     1
  9
$FILLMODE
 70
     1
  9
$QTEXTMODE
 70
     0
  9
$MIRRTEXT
 70
     1
  9
$LTSCALE
 40
1.0
  9
$ATTMODE
 70
     1
  9
$TEXTSIZE
 40
3.5
  9
$TRACEWID
 40
1.0
  9
$TEXTSTYLE
  7
Standard
  9
$CLAYER
  8
0
  9
$CELTYPE
  6
ByLayer
  9
$CECOLOR
 62
   256
  9
$CELTSCALE
 40
1.0
  9
$DISPSILH
 70
     0
  9
$DIMSCALE
 40
1.0
  9
$DIMASZ
 40
3.302
  9
$DIMEXO
 40
1.0
  9
$DIMDLI
 40
3.75
  9
$DIMRND
 40
0.0
  9
$DIMDLE
 40
0.0
  9
$DIMEXE
 40
1.0
  9
$DIMTP
 40
0.0
  9
$DIMTM
 40
0.0
  9
$DIMTXT
 40
3.5
  9
$DIMCEN
 40
2.5
  9
$DIMTSZ
 40
0.0
  9
$DIMTOL
 70
     0
  9
$DIMLIM
 70
     0
  9
$DIMTIH
 70
     1
  9
$DIMTOH
 70
     1
  9
$DIMSE1
 70
     0
  9
$DIMSE2
 70
     0
  9
$DIMTAD
 70
     1
  9
$DIMZIN
 70
     0
  9
$DIMBLK
  1

  9
$DIMASO
 70
     1
  9
$DIMSHO
 70
     1
  9
$DIMPOST
  1

  9
$DIMAPOST
  1

  9
$DIMALT
 70
     0
  9
$DIMALTD
 70
     3
  9
$DIMALTF
 40
0.0393700787
  9
$DIMLFAC
 40
1.0
  9
$DIMTOFL
 70
     1
  9
$DIMTVP
 40
0.0
  9
$DIMTIX
 70
     0
  9
$DIMSOXD
 70
     0
  9
$DIMSAH
 70
     0
  9
$DIMBLK1
  1

  9
$DIMBLK2
  1

  9
$DIMSTYLE
  2
ISO-25
  9
$DIMCLRD
 70
     0
  9
$DIMCLRE
 70
     0
  9
$DIMCLRT
 70
     0
  9
$DIMTFAC
 40
1.0
  9
$DIMGAP
 40
1.524
  9
$DIMJUST
 70
     0
  9
$DIMSD1
 70
     0
  9
$DIMSD2
 70
     0
  9
$DIMTOLJ
 70
     0
  9
$DIMTZIN
 70
     0
  9
$DIMALTZ
 70
     0
  9
$DIMALTTZ
 70
     0
  9
$DIMUPT
 70
     0
  9
$DIMDEC
 70
     2
  9
$DIMTDEC
 70
     2
  9
$DIMALTU
 70
     2
  9
$DIMALTTD
 70
     3
  9
$DIMTXSTY
  7
Standard
  9
$DIMAUNIT
 70
     0
  9
$DIMADEC
 70
     2
  9
$DIMALTRND
 40
0.0
  9
$DIMAZIN
 70
     0
  9
$DIMDSEP
 70
    44
  9
$DIMATFIT
 70
     3
  9
$DIMFRAC
 70
     0
  9
$DIMLDRBLK
  1

  9
$DIMLUNIT
 70
     2
  9
$DIMLWD
 70
    -2
  9
$DIMLWE
 70
    -2
  9
$DIMTMOVE
 70
     0
  9
$LUNITS
 70
     2
  9
$LUPREC
 70
     2
  9
$SKETCHINC
 40
1.0
  9
$FILLETRAD
 40
10.0
  9
$AUNITS
 70
     0
  9
$AUPREC
 70
     2
  9
$MENU
  1
.
  9
$ELEVATION
 40
0.0
  9
$PELEVATION
 40
0.0
  9
$THICKNESS
 40
0.0
  9
$LIMCHECK
 70
     0
  9
$CHAMFERA
 40
0.0
  9
$CHAMFERB
 40
0.0
  9
$CHAMFERC
 40
0.0
  9
$CHAMFERD
 40
0.0
  9
$SKPOLY
 70
     0
  9
$TDCREATE
 40
2457221.40660912
  9
$TDUCREATE
 40
2457221.364942454
  9
$TDUPDATE
 40
2457221.406633681
  9
$TDUUPDATE
 40
2457221.364967014
  9
$TDINDWG
 40
0.0000000116
  9
$TDUSRTIMER
 40
0.0000000116
  9
$USRTIMER
 70
     1
  9
$ANGBASE
 50
0.0
  9
$ANGDIR
 70
     0
  9
$PDMODE
 70
     0
  9
$PDSIZE
 40
-1.0
  9
$PLINEWID
 40
0.0
  9
$SPLFRAME
 70
     0
  9
$SPLINETYPE
 70
     6
  9
$SPLINESEGS
 70
     8
  9
$HANDSEED
  5
1FE
  9
$SURFTAB1
 70
     6
  9
$SURFTAB2
 70
     6
  9
$SURFTYPE
 70
     6
  9
$SURFU
 70
     6
  9
$SURFV
 70
     6
  9
$UCSBASE
  2

  9
$UCSNAME
  2

  9
$UCSORG
 10
0.0
 20
0.0
 30
0.0
  9
$UCSXDIR
 10
1.0
 20
0.0
 30
0.0
  9
$UCSYDIR
 10
0.0
 20
1.0
 30
0.0
  9
$UCSORTHOREF
  2

  9
$UCSORTHOVIEW
 70
     0
  9
$UCSORGTOP
 10
0.0
 20
0.0
 30
0.0
  9
$UCSORGBOTTOM
 10
0.0
 20
0.0
 30
0.0
  9
$UCSORGLEFT
 10
0.0
 20
0.0
 30
0.0
  9
$UCSORGRIGHT
 10
0.0
 20
0.0
 30
0.0
  9
$UCSORGFRONT
 10
0.0
 20
0.0
 30
0.0
  9
$UCSORGBACK
 10
0.0
 20
0.0
 30
0.0
  9
$PUCSBASE
  2

  9
$PUCSNAME
  2

  9
$PUCSORG
 10
0.0
 20
0.0
 30
0.0
  9
$PUCSXDIR
 10
1.0
 20
0.0
 30
0.0
  9
$PUCSYDIR
 10
0.0
 20
1.0
 30
0.0
  9
$PUCSORTHOREF
  2

  9
$PUCSORTHOVIEW
 70
     0
  9
$PUCSORGTOP
 10
0.0
 20
0.0
 30
0.0
  9
$PUCSORGBOTTOM
 10
0.0
 20
0.0
 30
0.0
  9
$PUCSORGLEFT
 10
0.0
 20
0.0
 30
0.0
  9
$PUCSORGRIGHT
 10
0.0
 20
0.0
 30
0.0
  9
$PUCSORGFRONT
 10
0.0
 20
0.0
 30
0.0
  9
$PUCSORGBACK
 10
0.0
 20
0.0
 30
0.0
  9
$USERI1
 70
     0
  9
$USERI2
 70
     0
  9
$USERI3
 70
     0
  9
$USERI4
 70
     0
  9
$USERI5
 70
     0
  9
$USERR1
 40
0.0
  9
$USERR2
 40
0.0
  9
$USERR3
 40
0.0
  9
$USERR4
 40
0.0
  9
$USERR5
 40
0.0
  9
$WORLDVIEW
 70
     1
  9
$SHADEDGE
 70
     3
  9
$SHADEDIF
 70
    70
  9
$TILEMODE
 70
     1
  9
$MAXACTVP
 70
    64
  9
$PINSBASE
 10
0.0
 20
0.0
 30
0.0
  9
$PLIMCHECK
 70
     0
  9
$PEXTMIN
 10
1.0000000000E+20
 20
1.0000000000E+20
 30
1.0000000000E+20
  9
$PEXTMAX
 10
-1.0000000000E+20
 20
-1.0000000000E+20
 30
-1.0000000000E+20
  9
$PLIMMIN
 10
0.0
 20
0.0
  9
$PLIMMAX
 10
420.0
 20
297.0
  9
$UNITMODE
 70
     0
  9
$VISRETAIN
 70
     1
  9
$PLINEGEN
 70
     0
  9
$PSLTSCALE
 70
     1
  9
$TREEDEPTH
 70
  3020
  9
$CMLSTYLE
  2
Standard
  9
$CMLJUST
 70
     0
  9
$CMLSCALE
 40
20.0
  9
$PROXYGRAPHICS
 70
     1
  9
$MEASUREMENT
 70
     1
  9
$CELWEIGHT
370
    -1
  9
$ENDCAPS
280
     0
  9
$JOINSTYLE
280
     0
  9
$LWDISPLAY
290
     1
  9
$INSUNITS
 70
     4
  9
$HYPERLINKBASE
  1

  9
$STYLESHEET
  1

  9
$XEDIT
290
     1
  9
$CEPSNTYPE
380
     0
  9
$PSTYLEMODE
290
     1
  9
$FINGERPRINTGUID
  2
{B6DDD618-9831-4ADC-B04B-4EB2C64CACBF}
  9
$VERSIONGUID
  2
{FAEB1C32-E019-11D5-929B-00C0DF256EC4}
  9
$EXTNAMES
290
     1
  9
$PSVPSCALE
 40
0.0
  9
$OLESTARTUP
290
     0
  0
ENDSEC
  0
SECTION
  2
CLASSES
  0
CLASS
  1
ACDBDICTIONARYWDFLT
  2
AcDbDictionaryWithDefault
  3
ObjectDBX Classes
 90
        0
280
     0
281
     0
  0
CLASS
  1
VISUALSTYLE
  2
AcDbVisualStyle
  3
ObjectDBX Classes
 90
     4095
280
     0
281
     0
  0
CLASS
  1
MATERIAL
  2
AcDbMaterial
  3
ObjectDBX Classes
 90
     1153
280
     0
281
     0
  0
CLASS
  1
SCALE
  2
AcDbScale
  3
ObjectDBX Classes
 90
     1153
280
     0
281
     0
  0
CLASS
  1
TABLESTYLE
  2
AcDbTableStyle
  3
ObjectDBX Classes
 90
     4095
280
     0
281
     0
  0
CLASS
  1
MLEADERSTYLE
  2
AcDbMLeaderStyle
  3
ACDB_MLEADERSTYLE_CLASS
 90
     4095
280
     0
281
     0
  0
CLASS
  1
SUN
  2
AcDbSun
  3
SCENEOE
 90
     1153
280
     0
281
     0
  0
CLASS
  1
ACDBPLACEHOLDER
  2
AcDbPlaceHolder
  3
ObjectDBX Classes
 90
        0
280
     0
281
     0
  0
CLASS
  1
LAYOUT
  2
AcDbLayout
  3
ObjectDBX Classes
 90
        0
280
     0
281
     0
  0
ENDSEC
  0
SECTION
  2
TABLES
  0
TABLE
  2
VPORT
  5
8
330
0
100
AcDbSymbolTable
 70
     1
  0
VPORT
  5
29
330
8
100
AcDbSymbolTableRecord
100
AcDbViewportTableRecord
  2
*Active
 70
     0
 10
0.0
 20
0.0
 11
1.0
 21
1.0
 12
171.7735856497
 22
1233.9441082843
 13
0.0
 23
0.0
 14
10.0
 24
10.0
 15
10.0
 25
10.0
 16
0.0
 26
0.0
 36
1.0
 17
0.0
 27
0.0
 37
0.0
 40
3211.1955533293
 41
0.1432510614
 42
50.0
 43
0.0
 44
0.0
 50
0.0
 51
0.0
 71
     0
 72
   100
 73
     1
 74
     3
 75
     0
 76
     0
 77
     0
 78
     0
281
     0
 65
     1
110
0.0
120
0.0
130
0.0
111
1.0
121
0.0
131
0.0
112
0.0
122
1.0
132
0.0
 79
     0
146
0.0
  0
ENDTAB
  0
TABLE
  2
LTYPE
  5
5
330
0
100
AcDbSymbolTable
 70
     6
  0
LTYPE
  5
14
330
5
100
AcDbSymbolTableRecord
100
AcDbLinetypeTableRecord
  2
ByBlock
 70
     0
  3

 72
    65
 73
     0
 40
0.0
  0
LTYPE
  5
15
330
5
100
AcDbSymbolTableRecord
100
AcDbLinetypeTableRecord
  2
ByLayer
 70
     0
  3

 72
    65
 73
     0
 40
0.0
  0
LTYPE
  5
16
330
5
100
AcDbSymbolTableRecord
100
AcDbLinetypeTableRecord
  2
Continuous
 70
     0
  3
Solid line
 72
    65
 73
     0
 40
0.0
  0
LTYPE
  5
6E
330
5
100
AcDbSymbolTableRecord
100
AcDbLinetypeTableRecord
  2
HIDDEN
 70
     0
  3
Hidden __ __ __ __ __ __ __ __ __ __ __ __ __ __
 72
    65
 73
     2
 40
1.905
 49
1.27
 74
     0
 49
-0.635
 74
     0
  0
LTYPE
  5
6F
330
5
100
AcDbSymbolTableRecord
100
AcDbLinetypeTableRecord
  2
PHANTOM
 70
     0
  3
Phantom ______  __  __  ______  __  __  ______
 72
    65
 73
     6
 40
12.7
 49
6.35
 74
     0
 49
-1.27
 74
     0
 49
1.27
 74
     0
 49
-1.27
 74
     0
 49
1.27
 74
     0
 49
-1.27
 74
     0
  0
LTYPE
  5
70
330
5
100
AcDbSymbolTableRecord
100
AcDbLinetypeTableRecord
  2
CENTER
 70
     0
  3
Center ____ _ ____ _ ____ _ ____ _ ____ _ ____
 72
    65
 73
     4
 40
10.16
 49
6.35
 74
     0
 49
-1.27
 74
     0
 49
1.27
 74
     0
 49
-1.27
 74
     0
  0
LTYPE
  5
71
330
5
100
AcDbSymbolTableRecord
100
AcDbLinetypeTableRecord
  2
CENTERX2
 70
     0
  3
Center (2x) ________  __  ________  __  _____
 72
    65
 73
     4
 40
20.32
 49
12.7
 74
     0
 49
-2.54
 74
     0
 49
2.54
 74
     0
 49
-2.54
 74
     0
  0
LTYPE
  5
72
330
5
100
AcDbSymbolTableRecord
100
AcDbLinetypeTableRecord
  2
DOT2
 70
     0
  3
Dot (.5x) ........................................
 72
    65
 73
     2
 40
0.635
 49
0.0
 74
     0
 49
-0.635
 74
     0
  0
ENDTAB
  0
TABLE
  2
LAYER
  5
2
330
0
100
AcDbSymbolTable
 70
     1
  0
LAYER
  5
10
330
2
100
AcDbSymbolTableRecord
100
AcDbLayerTableRecord
  2
0
 70
     0
 62
     7
  6
Continuous
370
    -3
390
F
  0
ENDTAB
  0
TABLE
  2
STYLE
  5
3
330
0
100
AcDbSymbolTable
 70
     1
  0
STYLE
  5
11
330
3
100
AcDbSymbolTableRecord
100
AcDbTextStyleTableRecord
  2
Standard
 70
     0
 40
0.0
 41
1.0
 50
0.0
 71
     0
 42
3.5
  3
txt
  4

  0
ENDTAB
  0
TABLE
  2
VIEW
  5
6
330
0
100
AcDbSymbolTable
 70
     0
  0
ENDTAB
  0
TABLE
  2
UCS
  5
7
330
0
100
AcDbSymbolTable
 70
     0
  0
ENDTAB
  0
TABLE
  2
APPID
  5
9
330
0
100
AcDbSymbolTable
 70
     1
  0
APPID
  5
12
330
9
100
AcDbSymbolTableRecord
100
AcDbRegAppTableRecord
  2
ACAD
 70
     0
  0
ENDTAB
  0
TABLE
  2
DIMSTYLE
  5
A
330
0
100
AcDbSymbolTable
 70
     1
100
AcDbDimStyleTable
  0
DIMSTYLE
105
27
330
A
100
AcDbSymbolTableRecord
100
AcDbDimStyleTableRecord
  2
ISO-25
 70
     0
 41
2.5
 42
0.625
 43
3.75
 44
1.25
 73
     0
 74
     0
 77
     1
 78
     8
140
2.5
141
2.5
143
0.0393700787
147
0.625
171
     3
172
     1
178
     0
271
     2
272
     2
274
     3
278
    44
283
     0
284
     8
340
11
  0
ENDTAB
  0
TABLE
  2
BLOCK_RECORD
  5
1
330
0
100
AcDbSymbolTable
 70
     1
  0
BLOCK_RECORD
  5
1F
330
1
100
AcDbSymbolTableRecord
100
AcDbBlockTableRecord
  2
*Model_Space
340
22
  0
BLOCK_RECORD
  5
1B
330
1
100
AcDbSymbolTableRecord
100
AcDbBlockTableRecord
  2
*Paper_Space
340
1E
  0
BLOCK_RECORD
  5
23
330
1
100
AcDbSymbolTableRecord
100
AcDbBlockTableRecord
  2
*Paper_Space0
340
26
  0
ENDTAB
  0
ENDSEC
  0
SECTION
  2
BLOCKS
  0
BLOCK
  5
20
330
1F
100
AcDbEntity
  8
0
100
AcDbBlockBegin
  2
*Model_Space
 70
     0
 10
0.0
 20
0.0
 30
0.0
  3
*Model_Space
  1

  0
ENDBLK
  5
21
330
1F
100
AcDbEntity
  8
0
100
AcDbBlockEnd
  0
BLOCK
  5
1C
330
1B
100
AcDbEntity
 67
     1
  8
0
100
AcDbBlockBegin
  2
*Paper_Space
 70
     0
 10
0.0
 20
0.0
 30
0.0
  3
*Paper_Space
  1

  0
ENDBLK
  5
1D
330
1B
100
AcDbEntity
 67
     1
  8
0
100
AcDbBlockEnd
  0
BLOCK
  5
24
330
23
100
AcDbEntity
  8
0
100
AcDbBlockBegin
  2
*Paper_Space0
 70
     0
 10
0.0
 20
0.0
 30
0.0
  3
*Paper_Space0
  1

  0
ENDBLK
  5
25
330
23
100
AcDbEntity
  8
0
100
AcDbBlockEnd
  0
ENDSEC
  0
SECTION
  2
ENTITIES
  0
SPLINE
  5
7C
330
1F
100
AcDbEntity
  8
0
  6
Continuous
 62
     7
370
    15
100
AcDbSpline
210
0.0
220
0.0
230
1.0
 70
     8
 71
     3
 72
     9
 73
     5
 74
     0
 42
0.000000001
 43
0.00000001
 40
0.0
 40
0.0
 40
0.0
 40
0.0
 40
0.0079640460257821
 40
1.0
 40
1.0
 40
1.0
 40
1.0
 10
143.0590041479616
 20
2722.165057944318
 30
0.0
 10
143.0579509089167
 20
2722.164433735616
 30
0.0
 10
142.9257016675885
 20
2722.086055396229
 30
0.0
 10
142.7953467249258
 20
2722.012489996714
 30
0.0
 10
142.6660299350262
 20
2721.939510475428
 30
0.0
  0
SPLINE
  5
7E
330
1F
100
AcDbEntity
  8
0
  6
Continuous
 62
     7
370
    15
100
AcDbSpline
210
0.0
220
0.0
230
1.0
 70
     8
 71
     3
 72
    86
 73
    82
 74
     0
 42
0.000000001
 43
0.00000001
 40
0.0
 40
0.0
 40
0.0
 40
0.0
 40
0.0291812464455503
 40
0.0566844156968452
 40
0.0825711750075666
 40
0.1068778876374641
 40
0.1296266104868735
 40
0.1504666749159308
 40
0.1698222680234776
 40
0.1876804241683114
 40
0.2040412303344425
 40
0.2230853219213177
 40
0.2400985840149876
 40
0.2554325958331503
 40
0.2690840205614373
 40
0.2810523832627675
 40
0.2918029326640318
 40
0.3028281484570612
 40
0.3140884718903708
 40
0.3269216105412541
 40
0.3417397136008821
 40
0.3585625001634891
 40
0.3783549028445553
 40
0.4003354173729158
 40
0.4224492893436242
 40
0.4463805968897133
 40
0.4690255273341483
 40
0.4903783219565657
 40
0.510431408119514
 40
0.5291849983191085
 40
0.5466899420602964
 40
0.5577510124396136
 40
0.5682486365360445
 40
0.5783831789508511
 40
0.5882966480828986
 40
0.5985774075132229
 40
0.6065965523291195
 40
0.6157215703983365
 40
0.6259487993574007
 40
0.6372516652035968
 40
0.6479371174161073
 40
0.6569787957254087
 40
0.6642142415628469
 40
0.6699053923902775
 40
0.6747202211827816
 40
0.6806705034309326
 40
0.6879233274075055
 40
0.6964897333973101
 40
0.7061828106648559
 40
0.7190238020489294
 40
0.7304935997216007
 40
0.7406304088697441
 40
0.749497146429087
 40
0.7575775789177177
 40
0.768156149855184
 40
0.7806424457240412
 40
0.7946215709621562
 40
0.8072664880961137
 40
0.8186768766128355
 40
0.8258849341157105
 40
0.8334020175700383
 40
0.841587904474059
 40
0.850438799514292
 40
0.859946562225603
 40
0.8687522189801756
 40
0.8758357356645426
 40
0.8825707575857228
 40
0.8898692163929197
 40
0.8990297727876431
 40
0.908148910694536
 40
0.9157355272876845
 40
0.9227447411266191
 40
0.9281433562409929
 40
0.9336197993418731
 40
0.9392751143327455
 40
0.9451106936132317
 40
0.9522198593614247
 40
0.9612455628375618
 40
0.972250598064363
 40
0.9851857314234527
 40
1.0
 40
1.0
 40
1.0
 40
1.0
 10
-3.709158029365195
 20
13.86172867622903
 30
0.0
 10
-5.760842922175047
 20
9.24558668032982
 30
0.0
 10
-9.746229891850033
 20
0.2787554553698168
 30
0.0
 10
-15.06559318631823
 20
-12.99339712694692
 30
0.0
 10
-19.84474729327989
 20
-25.57410180612574
 30
0.0
 10
-24.15001994780877
 20
-37.45868465040792
 30
0.0
 10
-28.04782525043842
 20
-48.56374284231557
 30
0.0
 10
-31.59728057277367
 20
-58.88023374970363
 30
0.0
 10
-34.83860726282514
 20
-68.39829232240358
 30
0.0
 10
-37.7490692361048
 20
-77.1892194609769
 30
0.0
 10
-40.52793788683734
 20
-85.93466675788153
 30
0.0
 10
-43.09758410031755
 20
-94.50522143765983
 30
0.0
 10
-45.41899184717415
 20
-102.8821521303476
 30
0.0
 10
-47.3271922339214
 20
-110.4310387273251
 30
0.0
 10
-48.86339390145233
 20
-117.1811678746033
 30
0.0
 10
-50.08392304757539
 20
-123.2022666664636
 30
0.0
 10
-51.0863899683236
 20
-128.8131455962636
 30
0.0
 10
-51.94067803686109
 20
-134.3695584794708
 30
0.0
 10
-52.6929666395235
 20
-140.3261354748728
 30
0.0
 10
-53.31976456855711
 20
-146.9807350095742
 30
0.0
 10
-53.75388764094571
 20
-154.6292054929646
 30
0.0
 10
-53.88560530242445
 20
-163.5054927333966
 30
0.0
 10
-53.5504953545779
 20
-173.6287826558556
 30
0.0
 10
-52.5863000046648
 20
-184.642254526945
 30
0.0
 10
-50.89191838596211
 20
-196.3007773247099
 30
0.0
 10
-48.47916961021714
 20
-207.9600693936874
 30
0.0
 10
-45.39354709972368
 20
-219.328252346725
 30
0.0
 10
-41.86225327961643
 20
-229.8608287958943
 30
0.0
 10
-37.99866109362798
 20
-239.5511510354988
 30
0.0
 10
-33.9036108684318
 20
-248.4093928788818
 30
0.0
 10
-30.08439881068767
 20
-255.662094055011
 30
0.0
 10
-26.68462127291821
 20
-261.5062530864178
 30
0.0
 10
-23.77521386265158
 20
-266.1515578489548
 30
0.0
 10
-20.82871884294138
 20
-270.5368051501922
 30
0.0
 10
-17.76341234105205
 20
-274.7972774981961
 30
0.0
 10
-14.77989311884234
 20
-278.6663072418247
 30
0.0
 10
-11.76204477188575
 20
-282.3382326712973
 30
0.0
 10
-8.641551435877748
 20
-285.9123864610915
 30
0.0
 10
-5.009898904559885
 20
-289.7927685900237
 30
0.0
 10
-1.034524958451355
 20
-293.7166965520268
 30
0.0
 10
2.948904800317009
 20
-297.3328079689772
 30
0.0
 10
6.52795366684103
 20
-300.3384329640144
 30
0.0
 10
9.51993181976682
 20
-302.6890316594462
 30
0.0
 10
11.98167419728205
 20
-304.5228898385473
 30
0.0
 10
14.2857419890717
 20
-306.1666856009488
 30
0.0
 10
16.78425503122238
 20
-307.8726677713033
 30
0.0
 10
19.80639063633735
 20
-309.8301214565544
 30
0.0
 10
23.37270887702597
 20
-311.9996859025192
 30
0.0
 10
27.78276388103959
 20
-314.496544389349
 30
0.0
 10
32.66860138761835
 20
-317.0268514715509
 30
0.0
 10
37.64363262751008
 20
-319.3684565163282
 30
0.0
 10
42.0092848558043
 20
-321.257649031826
 30
0.0
 10
45.80507525404875
 20
-322.7851627422904
 30
0.0
 10
49.41985926146067
 20
-324.1535833443621
 30
0.0
 10
53.28890670931067
 20
-325.530436749782
 30
0.0
 10
57.80578172151441
 20
-327.028739982318
 30
0.0
 10
62.66646654677917
 20
-328.5181844714729
 30
0.0
 10
67.22812045803649
 20
-329.814490933181
 30
0.0
 10
70.88880304272746
 20
-330.7930433294823
 30
0.0
 10
74.12184388301591
 20
-331.6145205760348
 30
0.0
 10
76.99650281154753
 20
-332.3145840760751
 30
0.0
 10
80.13323776182762
 20
-333.0440641240593
 30
0.0
 10
83.59732729727814
 20
-333.8085908983925
 30
0.0
 10
87.22310929343244
 20
-334.562796243171
 30
0.0
 10
90.70720318108928
 20
-335.2422827773129
 30
0.0
 10
93.86505383696019
 20
-335.8212894347912
 30
0.0
 10
96.86174458473113
 20
-336.339473794204
 30
0.0
 10
100.1972993840551
 20
-336.8797640573526
 30
0.0
 10
103.9241488517509
 20
-337.4341163274586
 30
0.0
 10
107.7992389129234
 20
-337.953222129042
 30
0.0
 10
111.3789754526285
 20
-338.3848482849376
 30
0.0
 10
114.4227947115176
 20
-338.7170639966972
 30
0.0
 10
117.1702647783631
 20
-338.9904003646857
 30
0.0
 10
119.7289859412555
 20
-339.2234840049917
 30
0.0
 10
122.3772597905696
 20
-339.4417332820847
 30
0.0
 10
125.3165604289903
 20
-339.6566026545316
 30
0.0
 10
128.7875999800274
 20
-339.8724624165071
 30
0.0
 10
133.1169732876748
 20
-340.0813404298306
 30
0.0
 10
138.4869922858904
 20
-340.2356565677918
 30
0.0
 10
144.9403406746841
 20
-340.2838065416918
 30
0.0
 10
149.6721718849145
 20
-340.1528236403632
 30
0.0
 10
152.1983026667538
 20
-340.0828972367702
 30
0.0
  0
SPLINE
  5
7F
330
1F
100
AcDbEntity
  8
0
  6
Continuous
 62
     7
370
    15
100
AcDbSpline
210
0.0
220
0.0
230
1.0
 70
     8
 71
     3
 72
   120
 73
   116
 74
     0
 42
0.000000001
 43
0.00000001
 40
0.0
 40
0.0
 40
0.0
 40
0.0
 40
0.0141360324015224
 40
0.0271840271913069
 40
0.0391284507594615
 40
0.049990049361424
 40
0.0597915923473938
 40
0.0685361918477225
 40
0.0754251554269831
 40
0.0806876095629339
 40
0.0848706042291233
 40
0.089668164668709
 40
0.0952145085783356
 40
0.1064412810414145
 40
0.1191806149134745
 40
0.1256189824216719
 40
0.1305538432139386
 40
0.1339778418057416
 40
0.137107125562388
 40
0.1416756518273766
 40
0.1470475229660826
 40
0.1532591945259855
 40
0.1595399747385616
 40
0.1767110712273428
 40
0.1935727927356661
 40
0.2112469514494295
 40
0.2310225954496091
 40
0.24149965295407
 40
0.2501926330429876
 40
0.2578776768800925
 40
0.2654227678945023
 40
0.272243712076814
 40
0.2812703102340317
 40
0.291083016089231
 40
0.3005538484925314
 40
0.3079128579714299
 40
0.3137838043673782
 40
0.3194645709309809
 40
0.3250984520943939
 40
0.3308393221549806
 40
0.3367801434179035
 40
0.3451231334875164
 40
0.3549927901829138
 40
0.3654187318111735
 40
0.3753897279103933
 40
0.3836679958126399
 40
0.3910273301975385
 40
0.397942344200104
 40
0.4050677014065408
 40
0.4112190899496078
 40
0.4190510087075301
 40
0.4284161015743511
 40
0.4369513877539341
 40
0.4446118901273684
 40
0.4506260961676758
 40
0.4558371564133915
 40
0.4616022459274677
 40
0.4679453982654477
 40
0.4748671642663113
 40
0.4864640865129144
 40
0.4987256541404775
 40
0.5099836198981949
 40
0.5200210938559819
 40
0.528844663267716
 40
0.5366876838031946
 40
0.5435493800977609
 40
0.5499085722683017
 40
0.5584781205660015
 40
0.5686633646167258
 40
0.5804849051510419
 40
0.5939622675476358
 40
0.6080633279641312
 40
0.6216941668798357
 40
0.6349117816290175
 40
0.6477792773234051
 40
0.6596895819963983
 40
0.6701283719121296
 40
0.6811113805605545
 40
0.6898340759109816
 40
0.6976524143151297
 40
0.7075413710698589
 40
0.7196097240659365
 40
0.7338247048313937
 40
0.7414048188549871
 40
0.7485712924363727
 40
0.7553991127577331
 40
0.7619997198582147
 40
0.7684913101769799
 40
0.7749902691933909
 40
0.781545274172458
 40
0.7878309070829858
 40
0.7940183481442945
 40
0.8003758460025483
 40
0.8071432931660224
 40
0.8145138418110461
 40
0.822624395617022
 40
0.8309029907517327
 40
0.8390008873128794
 40
0.8470013991447237
 40
0.8576538918526656
 40
0.8684562373353566
 40
0.8791894968937527
 40
0.8898450506843092
 40
0.8989652153955845
 40
0.9065486593641355
 40
0.9114290436137461
 40
0.9156147742366114
 40
0.92152838847084
 40
0.9284166349603111
 40
0.9370121181518085
 40
0.9473213350388273
 40
0.9593520979991597
 40
0.9731139662454393
 40
0.9886185212250841
 40
1.0
 40
1.0
 40
1.0
 40
1.0
 10
152.2135437555602
 20
-340.0823309275813
 30
0.0
 10
154.7066192047927
 20
-339.9711800518357
 30
0.0
 10
159.5008803437681
 20
-339.7574334825877
 30
0.0
 10
166.5958444059151
 20
-339.2010041153588
 30
0.0
 10
173.158068306624
 20
-338.5454299410173
 30
0.0
 10
179.1590891903145
 20
-337.8180251528209
 30
0.0
 10
184.5754972054468
 20
-337.0610159506458
 30
0.0
 10
189.2545448281213
 20
-336.3302175765208
 30
0.0
 10
193.0903864743715
 20
-335.6716105345343
 30
0.0
 10
196.0824608359685
 20
-335.1169457705478
 30
0.0
 10
198.6832674840007
 20
-334.6049359158214
 30
0.0
 10
201.32939061612
 20
-334.053305244248
 30
0.0
 10
205.2495848854897
 20
-333.1806016222567
 30
0.0
 10
210.5839976524813
 20
-331.8624959123815
 30
0.0
 10
216.0423237834119
 20
-330.318124023062
 30
0.0
 10
220.3157909539022
 20
-328.9858979139879
 30
0.0
 10
222.9366699881383
 20
-328.1233053849726
 30
0.0
 10
224.8185019625225
 20
-327.4768723064687
 30
0.0
 10
226.7543471767648
 20
-326.7920002206919
 30
0.0
 10
229.0346231272343
 20
-325.9689219842883
 30
0.0
 10
231.8006163429076
 20
-324.9242387964024
 30
0.0
 10
234.9067356095184
 20
-323.6959142438109
 30
0.0
 10
240.0049174874159
 20
-321.5863160946073
 30
0.0
 10
246.8567823046932
 20
-318.5194717664868
 30
0.0
 10
255.4703151386836
 20
-314.2648118398816
 30
0.0
 10
264.3269312234795
 20
-309.4909016508465
 30
0.0
 10
271.9515125878108
 20
-305.0014197381197
 30
0.0
 10
277.9973734079136
 20
-301.1819404637568
 30
0.0
 10
282.0991885181749
 20
-298.4726584192332
 30
0.0
 10
285.6908002177296
 20
-296.012513245409
 30
0.0
 10
288.9362140854963
 20
-293.7161112550237
 30
0.0
 10
292.3110058530215
 20
-291.2572235876412
 30
0.0
 10
295.9399897926574
 20
-288.5296784436973
 30
0.0
 10
299.8314743886209
 20
-285.5006856502016
 30
0.0
 10
303.3760530820259
 20
-282.6480675676908
 30
0.0
 10
306.3197413492374
 20
-280.2138435079351
 30
0.0
 10
308.7185560808147
 20
-278.1897313098997
 30
0.0
 10
310.8530960241451
 20
-276.357748742887
 30
0.0
 10
312.9268853133257
 20
-274.5486871315048
 30
0.0
 10
314.9962563708261
 20
-272.7142335949826
 30
0.0
 10
317.345032855983
 20
-270.5979579064564
 30
0.0
 10
320.1268453786665
 20
-268.0417021217787
 30
0.0
 10
323.3419114687833
 20
-265.0133080460168
 30
0.0
 10
326.6521293686794
 20
-261.8091137570859
 30
0.0
 10
329.7052388126289
 20
-258.7735435082334
 30
0.0
 10
332.3862226643491
 20
-256.046555719494
 30
0.0
 10
334.7084418374553
 20
-253.6394716401291
 30
0.0
 10
336.8765258437944
 20
-251.354422006024
 30
0.0
 10
338.8857818618163
 20
-249.2029145017292
 30
0.0
 10
340.9498860401637
 20
-246.9605804097721
 30
0.0
 10
343.1893845308242
 20
-244.4916584564341
 30
0.0
 10
345.5957599088957
 20
-241.7925987262877
 30
0.0
 10
347.9304215163916
 20
-239.1292199959678
 30
0.0
 10
349.9183918092925
 20
-236.8279373431465
 30
0.0
 10
351.5896218823152
 20
-234.8701824708546
 30
0.0
 10
353.0802637597886
 20
-233.1070576314083
 30
0.0
 10
354.5587748466522
 20
-231.3420830909498
 30
0.0
 10
356.1477904335031
 20
-229.4263963273022
 30
0.0
 10
358.1604339785397
 20
-226.9744140326939
 30
0.0
 10
360.6332304322238
 20
-223.9173763643685
 30
0.0
 10
363.4227027173627
 20
-220.3948105329285
 30
0.0
 10
366.0542584999943
 20
-216.9901726273673
 30
0.0
 10
368.460951270751
 20
-213.7916076515645
 30
0.0
 10
370.5834115071863
 20
-210.8881935628404
 30
0.0
 10
372.4519931621713
 20
-208.2551334709339
 30
0.0
 10
374.1368669271515
 20
-205.8079065928282
 30
0.0
 10
375.930515548325
 20
-203.1187632340401
 30
0.0
 10
378.0474710354263
 20
-199.8084670536366
 30
0.0
 10
380.5731263649126
 20
-195.6048237310262
 30
0.0
 10
383.3716755140668
 20
-190.5301876644507
 30
0.0
 10
386.2336676715464
 20
-184.7002605032915
 30
0.0
 10
388.9092145179939
 20
-178.3351548416543
 30
0.0
 10
391.2491786739691
 20
-171.6711417007666
 30
0.0
 10
393.1883973561694
 20
-164.9232637052314
 30
0.0
 10
394.7204750779122
 20
-158.2106703146744
 30
0.0
 10
395.8293443426662
 20
-151.8618192020786
 30
0.0
 10
396.6116305957721
 20
-145.7803405135332
 30
0.0
 10
397.0900056201567
 20
-140.2157230929959
 30
0.0
 10
397.3325563850106
 20
-135.08541532559
 30
0.0
 10
397.4045827439953
 20
-130.1752201540727
 30
0.0
 10
397.3022077534676
 20
-124.6276993693534
 30
0.0
 10
396.9022556465749
 20
-117.89989261093
 30
0.0
 10
396.2235423176368
 20
-111.6280621963954
 30
0.0
 10
395.4236555320198
 20
-106.2866664231514
 30
0.0
 10
394.7163652599998
 20
-102.3562337492299
 30
0.0
 10
393.9540103460354
 20
-98.71252050659862
 30
0.0
 10
393.154669725593
 20
-95.35478284260846
 30
0.0
 10
392.3361424865747
 20
-92.2896497997896
 30
0.0
 10
391.5033323506491
 20
-89.48946962315941
 30
0.0
 10
390.7145180543141
 20
-87.13252973531715
 30
0.0
 10
389.7642960090092
 20
-84.34198224269407
 30
0.0
 10
388.6939898975914
 20
-81.25862037043086
 30
0.0
 10
387.5033158398473
 20
-77.90374327574212
 30
0.0
 10
386.1844463497022
 20
-74.3040763961198
 30
0.0
 10
384.710075778753
 20
-70.45974896040441
 30
0.0
 10
383.1239068114602
 20
-66.54134513301035
 30
0.0
 10
381.3550179014354
 20
-62.50911491376154
 30
0.0
 10
379.4324793029856
 20
-58.44273012926982
 30
0.0
 10
377.1943694465034
 20
-53.99147157924844
 30
0.0
 10
374.604759065992
 20
-49.14617818768363
 30
0.0
 10
371.6961224320698
 20
-44.01031145003631
 30
0.0
 10
368.7654852032383
 20
-39.08123064448921
 30
0.0
 10
365.8749925678051
 20
-34.4274530130797
 30
0.0
 10
363.2088015177609
 20
-30.29446468628949
 30
0.0
 10
361.053688134355
 20
-27.05253756846404
 30
0.0
 10
359.3613822704378
 20
-24.56096288586252
 30
0.0
 10
357.8168575185657
 20
-22.32202140022466
 30
0.0
 10
356.0199572770931
 20
-19.76283005490842
 30
0.0
 10
353.7179867663205
 20
-16.5577535065784
 30
0.0
 10
350.8867024604562
 20
-12.72180671327039
 30
0.0
 10
347.4139394853284
 20
-8.17128643018572
 30
0.0
 10
343.2591778387268
 20
-2.932591543473917
 30
0.0
 10
338.3683433778049
 20
2.953471464197666
 30
0.0
 10
333.4333768219066
 20
8.650207771792928
 30
0.0
 10
330.0368326844019
 20
12.3015473394541
 30
0.0
 10
328.5989971389296
 20
13.84724367267776
 30
0.0
  0
SPLINE
  5
80
330
1F
100
AcDbEntity
  8
0
  6
Continuous
 62
     7
370
    15
100
AcDbSpline
210
0.0
220
0.0
230
1.0
 70
     8
 71
     3
 72
     9
 73
     5
 74
     0
 42
0.000000001
 43
0.00000001
 40
0.0
 40
0.0
 40
0.0
 40
0.0
 40
0.620768532405656
 40
1.0
 40
1.0
 40
1.0
 40
1.0
 10
259.9063377776642
 20
68.81231855842506
 30
0.0
 10
255.4717551232687
 20
71.29731990370547
 30
0.0
 10
248.3280575566245
 20
75.3004244677371
 30
0.0
 10
240.7934878009908
 20
78.497758507595
 30
0.0
 10
237.9361418548699
 20
79.71028818791947
 30
0.0
  0
SPLINE
  5
81
330
1F
100
AcDbEntity
  8
0
  6
Continuous
 62
     7
370
    15
100
AcDbSpline
210
0.0
220
0.0
230
1.0
 70
     8
 71
     3
 72
    18
 73
    14
 74
     0
 42
0.000000001
 43
0.00000001
 40
0.0
 40
0.0
 40
0.0
 40
0.0
 40
0.0434562962540338
 40
0.117192381777698
 40
0.1909847623784923
 40
0.264776107682025
 40
0.3491098929860145
 40
0.4334150419389577
 40
0.5140701952138935
 40
0.588557350273714
 40
0.681477388887607
 40
0.822981854542267
 40
0.9999999999999999
 40
0.9999999999999999
 40
0.9999999999999999
 40
0.9999999999999999
 10
57.29469813541521
 20
79.8712000269346
 30
0.0
 10
56.96777209902423
 20
79.72911176991593
 30
0.0
 10
56.08612216167489
 20
79.34592998274037
 30
0.0
 10
54.65577344273053
 20
78.70677562304506
 30
0.0
 10
53.00326812218986
 20
77.95499940850004
 30
0.0
 10
51.27827843440111
 20
77.15275344841643
 30
0.0
 10
49.48228920901826
 20
76.29883810967786
 30
0.0
 10
47.64359543839868
 20
75.4038130315009
 30
0.0
 10
45.88532274219392
 20
74.52831595094179
 30
0.0
 10
44.07143540609873
 20
73.6061191840005
 30
0.0
 10
41.82352696337613
 20
72.4365141012393
 30
0.0
 10
38.84713793164302
 20
70.84502324805575
 30
0.0
 10
36.57278194692859
 20
69.55902340707532
 30
0.0
 10
35.30881428975402
 20
68.844332207872
 30
0.0
  0
SPLINE
  5
82
330
1F
100
AcDbEntity
  8
0
  6
Continuous
 62
     7
370
    15
100
AcDbSpline
210
0.0
220
0.0
230
1.0
 70
     8
 71
     3
 72
    20
 73
    16
 74
     0
 42
0.000000001
 43
0.00000001
 40
0.0
 40
0.0
 40
0.0
 40
0.0
 40
0.0923037847908104
 40
0.1675717040670028
 40
0.2265359911699265
 40
0.2602365897015098
 40
0.2867247150561267
 40
0.3192075015065626
 40
0.3604259619208777
 40
0.4292281057620334
 40
0.513960417384548
 40
0.6142573227282935
 40
0.7294684545112287
 40
0.8595889185999723
 40
1.0
 40
1.0
 40
1.0
 40
1.0
 10
35.21510330720462
 20
68.79412921860673
 30
0.0
 10
33.39008081624137
 20
67.72676080166762
 30
0.0
 10
30.07686750148505
 20
65.78902070900305
 30
0.0
 10
25.90832983420449
 20
62.67902427589234
 30
0.0
 10
23.0590563958043
 20
60.08929233021831
 30
0.0
 10
21.16750874835915
 20
58.12173128997644
 30
0.0
 10
19.75998544488719
 20
56.53227048988807
 30
0.0
 10
18.30528334866882
 20
54.75858048877647
 30
0.0
 10
16.34856939396509
 20
52.15173631266601
 30
0.0
 10
13.87737190170568
 20
48.44863973092761
 30
0.0
 10
10.93701965383392
 20
43.44814092915428
 30
0.0
 10
7.708431131801586
 20
37.38637266355171
 30
0.0
 10
4.154916418713434
 20
30.31341403984156
 30
0.0
 10
0.2549491703757456
 20
22.38479247442005
 30
0.0
 10
-2.354982438778186
 20
16.76636579495305
 30
0.0
 10
-3.709587200153908
 20
13.85029416121664
 30
0.0
  0
SPLINE
  5
83
330
1F
100
AcDbEntity
  8
0
  6
Continuous
 62
     7
370
    15
100
AcDbSpline
210
0.0
220
0.0
230
1.0
 70
     8
 71
     3
 72
    13
 73
     9
 74
     0
 42
0.000000001
 43
0.00000001
 40
0.0
 40
0.0
 40
0.0
 40
0.0
 40
0.1613199471802083
 40
0.3290749376100429
 40
0.4969608295491674
 40
0.6645676994958435
 40
0.8322904692251097
 40
1.0
 40
1.0
 40
1.0
 40
1.0
 10
328.6152122108467
 20
13.85967072526717
 30
0.0
 10
325.3476003525565
 20
17.29847495690251
 30
0.0
 10
318.6820317902291
 20
24.31325711967114
 30
0.0
 10
308.007773950572
 20
34.30552100153328
 30
0.0
 10
296.7131047415115
 20
43.87731231093505
 30
0.0
 10
284.9105996986441
 20
52.81220862293657
 30
0.0
 10
272.727605698761
 20
61.21234067111647
 30
0.0
 10
264.2549022677316
 20
66.26693286822261
 30
0.0
 10
260.0187177539652
 20
68.79412921860673
 30
0.0
  0
SPLINE
  5
84
330
1F
100
AcDbEntity
  8
0
  6
Continuous
 62
     7
370
    15
100
AcDbSpline
210
0.0
220
0.0
230
1.0
 70
     8
 71
     3
 72
     9
 73
     5
 74
     0
 42
0.000000001
 43
0.00000001
 40
0.0
 40
0.0
 40
0.0
 40
0.0
 40
0.0951278838802987
 40
1.0
 40
1.0
 40
1.0
 40
1.0
 10
142.986710931766
 20
103.0595756025325
 30
0.0
 10
142.9732691024369
 20
103.0517992539968
 30
0.0
 10
142.8319663762463
 20
102.9700529960267
 30
0.0
 10
142.6906708828232
 20
102.8883286418323
 30
0.0
 10
142.5628165306912
 20
102.8143785525137
 30
0.0
  0
SPLINE
  5
85
330
1F
100
AcDbEntity
  8
0
  6
Continuous
 62
     7
370
    15
100
AcDbSpline
210
0.0
220
0.0
230
1.0
 70
     8
 71
     3
 72
     9
 73
     5
 74
     0
 42
0.000000001
 43
0.00000001
 40
0.0
 40
0.0
 40
0.0
 40
0.0
 40
0.6617119058634019
 40
0.9999999999999999
 40
0.9999999999999999
 40
0.9999999999999999
 40
0.9999999999999999
 10
151.9875262789485
 20
102.7246355824178
 30
0.0
 10
152.1152693355355
 20
102.79851777686
 30
0.0
 10
152.3083186904816
 20
102.9101708902278
 30
0.0
 10
152.5013925402201
 20
103.0218095672506
 30
0.0
 10
152.5667071248758
 20
103.0595756025325
 30
0.0
  0
SPLINE
  5
A0
330
1F
100
AcDbEntity
  8
0
  6
Continuous
 62
     7
370
    15
100
AcDbSpline
210
0.0
220
0.0
230
1.0
 70
     8
 71
     3
 72
    10
 73
     6
 74
     0
 42
0.000000001
 43
0.00000001
 40
0.0
 40
0.0
 40
0.0
 40
0.0
 40
0.4801688144368327
 40
0.7396633144092323
 40
1.0
 40
1.0
 40
1.0
 40
1.0
 10
154.0371082453353
 20
270.567402647852
 30
0.0
 10
154.0478240182933
 20
270.5940055760552
 30
0.0
 10
154.064330846526
 20
270.6349853512012
 30
0.0
 10
154.1181607572505
 20
270.665840658134
 30
0.0
 10
154.1489972888301
 20
270.6683708487869
 30
0.0
 10
154.1644405339633
 20
270.6696379937116
 30
0.0
  0
SPLINE
  5
B9
330
1F
100
AcDbEntity
  8
0
  6
Continuous
 62
     7
370
    15
100
AcDbSpline
210
0.0
220
0.0
230
1.0
 70
     8
 71
     3
 72
    12
 73
     8
 74
     0
 42
0.000000001
 43
0.00000001
 40
0.0
 40
0.0
 40
0.0
 40
0.0
 40
0.203816177220213
 40
0.4072496828369765
 40
0.6204076522481433
 40
0.8411015182869631
 40
1.0
 40
1.0
 40
1.0
 40
1.0
 10
153.6590041479616
 20
273.0595756025327
 30
0.0
 10
153.6699205594276
 20
273.3287436248093
 30
0.0
 10
153.6917328864367
 20
273.8665742975122
 30
0.0
 10
153.8423870733794
 20
274.5920447811194
 30
0.0
 10
154.0110448142455
 20
275.1629692567483
 30
0.0
 10
154.1419322588836
 20
275.5156960397154
 30
0.0
 10
154.1470708790254
 20
275.5285069059825
 30
0.0
 10
154.1492219206455
 20
275.5338695725678
 30
0.0
  0
SPLINE
  5
BA
330
1F
100
AcDbEntity
  8
0
  6
Continuous
 62
     7
370
    15
100
AcDbSpline
210
0.0
220
0.0
230
1.0
 70
     8
 71
     3
 72
    12
 73
     8
 74
     0
 42
0.000000001
 43
0.00000001
 40
0.0
 40
0.0
 40
0.0
 40
0.0
 40
0.1393711384951656
 40
0.3386822204247034
 40
0.5466302613744224
 40
0.766215819098549
 40
1.0
 40
1.0
 40
1.0
 40
1.0
 10
154.1481374480636
 20
270.5880519357227
 30
0.0
 10
154.1478521789081
 20
270.5886551389134
 30
0.0
 10
154.1471589536675
 20
270.5901209674788
 30
0.0
 10
154.036819270938
 20
270.884343530305
 30
0.0
 10
153.8752871815878
 20
271.4036009630181
 30
0.0
 10
153.7017019218542
 20
272.1511609495911
 30
0.0
 10
153.6735308265006
 20
272.7505138777548
 30
0.0
 10
153.6590041479616
 20
273.0595756025327
 30
0.0
  0
SPLINE
  5
BD
330
1F
100
AcDbEntity
  8
0
  6
Continuous
 62
     7
370
    15
100
AcDbSpline
210
0.0
220
0.0
230
1.0
 70
     8
 71
     3
 72
    14
 73
    10
 74
     0
 42
0.000000001
 43
0.00000001
 40
0.0
 40
0.0
 40
0.0
 40
0.0
 40
0.25
 40
0.25
 40
0.5
 40
0.5
 40
0.75
 40
0.75
 40
1.0
 40
1.0
 40
1.0
 40
1.0
 10
145.0250907097482
 20
2722.093866094413
 30
0.0
 10
144.6791413484203
 20
2722.081911072277
 30
0.0
 10
144.3488124151295
 20
2722.06878260912
 30
0.0
 10
143.7579755456322
 20
2722.041182285284
 30
0.0
 10
143.4978985828141
 20
2722.026721864609
 30
0.0
 10
143.0777715164249
 20
2721.997881195752
 30
0.0
 10
142.9179383930964
 20
2721.983516768291
 30
0.0
 10
142.7086192939526
 20
2721.956270338704
 30
0.0
 10
142.6590041479616
 20
2721.943398624811
 30
0.0
 10
142.6590041479615
 20
2721.931744386181
 30
0.0
  0
SPLINE
  5
BE
330
1F
100
AcDbEntity
  8
0
  6
Continuous
 62
     7
370
    15
100
AcDbSpline
210
0.0
220
0.0
230
1.0
 70
     8
 71
     3
 72
     9
 73
     5
 74
     0
 42
0.000000001
 43
0.00000001
 40
0.0
 40
0.0
 40
0.0
 40
0.0
 40
0.4052835217335253
 40
0.9999999999999999
 40
0.9999999999999999
 40
0.9999999999999999
 40
0.9999999999999999
 10
145.0250907097484
 20
2721.949528527117
 30
0.0
 10
144.7125018560997
 20
2721.938064097395
 30
0.0
 10
143.941217466565
 20
2721.909776666236
 30
0.0
 10
143.4884502370097
 20
2721.878297049397
 30
0.0
 10
143.2191821047741
 20
2721.859575602532
 30
0.0
  0
SPLINE
  5
BF
330
1F
100
AcDbEntity
  8
0
  6
Continuous
 62
     7
370
    15
100
AcDbSpline
210
0.0
220
0.0
230
1.0
 70
     8
 71
     3
 72
     9
 73
     5
 74
     0
 42
0.000000001
 43
0.00000001
 40
0.0
 40
0.0
 40
0.0
 40
0.0
 40
0.6206241495013805
 40
1.0
 40
1.0
 40
1.0
 40
1.0
 10
145.0250907097484
 20
2721.949528527116
 30
0.0
 10
145.0997956974419
 20
2721.92803511704
 30
0.0
 10
145.2201664367269
 20
2721.893403190305
 30
0.0
 10
145.3429604839768
 20
2721.868879353847
 30
0.0
 10
145.3895455800884
 20
2721.859575602532
 30
0.0
  0
SPLINE
  5
C7
330
1F
100
AcDbEntity
  8
0
  6
Continuous
 62
     7
370
    15
100
AcDbSpline
210
0.0
220
0.0
230
1.0
 70
     8
 71
     3
 72
    13
 73
     9
 74
     0
 42
0.000000001
 43
0.00000001
 40
0.0
 40
0.0
 40
0.0
 40
0.0
 40
0.1248561765345503
 40
0.2497058014289411
 40
0.3748689305002891
 40
0.5006631881134761
 40
0.7426612034183128
 40
1.0
 40
1.0
 40
1.0
 40
1.0
 10
176.8891288949207
 20
-318.4520990242521
 30
0.0
 10
176.841622893109
 20
-318.4662859998437
 30
0.0
 10
176.7466133822915
 20
-318.4946592065867
 30
0.0
 10
176.6052662869584
 20
-318.5386222467417
 30
0.0
 10
176.4649602737102
 20
-318.5835888784192
 30
0.0
 10
176.2834035658184
 20
-318.6437832162146
 30
0.0
 10
176.057802446277
 20
-318.7220300656246
 30
0.0
 10
175.8853756542321
 20
-318.7858800568828
 30
0.0
 10
175.7965135833673
 20
-318.8187858621849
 30
0.0
  0
SPLINE
  5
C8
330
1F
100
AcDbEntity
  8
0
  6
Continuous
 62
     7
370
    15
100
AcDbSpline
210
0.0
220
0.0
230
1.0
 70
     8
 71
     3
 72
    18
 73
    14
 74
     0
 42
0.000000001
 43
0.00000001
 40
0.0
 40
0.0
 40
0.0
 40
0.0
 40
0.073937549394345
 40
0.1478403024400201
 40
0.2217382452361522
 40
0.295672075802272
 40
0.3919806821801009
 40
0.568517326246058
 40
0.674559296209971
 40
0.7277128984823396
 40
0.7811346548645511
 40
0.8907322204377806
 40
1.0
 40
1.0
 40
1.0
 40
1.0
 10
174.3901317341038
 20
-319.5750300482796
 30
0.0
 10
174.4071065966193
 20
-319.558290642113
 30
0.0
 10
174.4410483329727
 20
-319.5248197076475
 30
0.0
 10
174.5010224570969
 20
-319.4738448521428
 30
0.0
 10
174.5679283386782
 20
-319.4219423492277
 30
0.0
 10
174.6491738238952
 20
-319.3635351757762
 30
0.0
 10
174.7820795601811
 20
-319.2776995521602
 30
0.0
 10
174.9567646018028
 20
-319.1801137873658
 30
0.0
 10
175.1389974645933
 20
-319.0918124679236
 30
0.0
 10
175.2623232664172
 20
-319.0354961915673
 30
0.0
 10
175.3943892808554
 20
-318.9780283878627
 30
0.0
 10
175.5699156602235
 20
-318.9054490649534
 30
0.0
 10
175.7210643336108
 20
-318.847671423335
 30
0.0
 10
175.7965247949943
 20
-318.8188261321627
 30
0.0
  0
SPLINE
  5
C9
330
1F
100
AcDbEntity
  8
0
  6
Continuous
 62
     7
370
    15
100
AcDbSpline
210
0.0
220
0.0
230
1.0
 70
     8
 71
     3
 72
    15
 73
    11
 74
     0
 42
0.000000001
 43
0.00000001
 40
0.0
 40
0.0
 40
0.0
 40
0.0
 40
0.1241526674727002
 40
0.2491034656483807
 40
0.3747677338840832
 40
0.5011371838297578
 40
0.5741597690743709
 40
0.7469491171174996
 40
0.8813511555234365
 40
1.0
 40
1.0
 40
1.0
 40
1.0
 10
174.3129729639648
 20
-319.8600133344453
 30
0.0
 10
174.3051049833101
 20
-319.8511424323036
 30
0.0
 10
174.2893184417186
 20
-319.8333436003333
 30
0.0
 10
174.2770052545324
 20
-319.8029685321267
 30
0.0
 10
174.2734040674808
 20
-319.7699266451495
 30
0.0
 10
174.2795964584851
 20
-319.7389894665486
 30
0.0
 10
174.2930562554826
 20
-319.7020666851749
 30
0.0
 10
174.3159158273135
 20
-319.6623522601505
 30
0.0
 10
174.3513819192882
 20
-319.6161960477197
 30
0.0
 10
174.3777625543247
 20
-319.5881704890864
 30
0.0
 10
174.3901317341039
 20
-319.5750300482796
 30
0.0
  0
SPLINE
  5
CA
330
1F
100
AcDbEntity
  8
0
  6
Continuous
 62
     7
370
    15
100
AcDbSpline
210
0.0
220
0.0
230
1.0
 70
     8
 71
     3
 72
    13
 73
     9
 74
     0
 42
0.000000001
 43
0.00000001
 40
0.0
 40
0.0
 40
0.0
 40
0.0
 40
0.1024404538890656
 40
0.2520557181205304
 40
0.4995789048488794
 40
0.7471952919079574
 40
0.8973913548948685
 40
1.0
 40
1.0
 40
1.0
 40
1.0
 10
174.7110687117407
 20
-319.9918793917989
 30
0.0
 10
174.6918815712361
 20
-319.9894563581977
 30
0.0
 10
174.6446714282219
 20
-319.9834944608111
 30
0.0
 10
174.5586861073989
 20
-319.9684473850701
 30
0.0
 10
174.4610145331901
 20
-319.943912611579
 30
0.0
 10
174.384627081875
 20
-319.9121684052855
 30
0.0
 10
174.3382501916229
 20
-319.8831997886567
 30
0.0
 10
174.3202705572001
 20
-319.8667073166215
 30
0.0
 10
174.3129729639648
 20
-319.8600133344453
 30
0.0
  0
SPLINE
  5
CB
330
1F
100
AcDbEntity
  8
0
  6
Continuous
 62
     7
370
    15
100
AcDbSpline
210
0.0
220
0.0
230
1.0
 70
     8
 71
     3
 72
    13
 73
     9
 74
     0
 42
0.000000001
 43
0.00000001
 40
0.0
 40
0.0
 40
0.0
 40
0.0
 40
0.0991346098525628
 40
0.2534501958898547
 40
0.5006097554460904
 40
0.7476139567066906
 40
0.8974528432917681
 40
1.0
 40
1.0
 40
1.0
 40
1.0
 10
175.4196004577312
 20
-319.9868525926502
 30
0.0
 10
175.3913488267511
 20
-319.9894320761263
 30
0.0
 10
175.3191199511163
 20
-319.9960268525954
 30
0.0
 10
175.1837459196981
 20
-320.0048587955879
 30
0.0
 10
175.0211909151238
 20
-320.0097036907956
 30
0.0
 10
174.8782184377662
 20
-320.0062698124418
 30
0.0
 10
174.7773671830514
 20
-319.9992457140299
 30
0.0
 10
174.7302236392791
 20
-319.994007666641
 30
0.0
 10
174.7110687117407
 20
-319.9918793917989
 30
0.0
  0
SPLINE
  5
CC
330
1F
100
AcDbEntity
  8
0
  6
Continuous
 62
     7
370
    15
100
AcDbSpline
210
0.0
220
0.0
230
1.0
 70
     8
 71
     3
 72
    13
 73
     9
 74
     0
 42
0.000000001
 43
0.00000001
 40
0.0
 40
0.0
 40
0.0
 40
0.0
 40
0.1189243739711059
 40
0.2375677583682753
 40
0.3690533799573168
 40
0.5004622629095771
 40
0.6341605445176135
 40
1.0
 40
1.0
 40
1.0
 40
1.0
 10
176.379365065816
 20
-319.838765245193
 30
0.0
 10
176.3383534103496
 20
-319.8469661155818
 30
0.0
 10
176.2564270000536
 20
-319.8633484796831
 30
0.0
 10
176.1326808179183
 20
-319.8855712093356
 30
0.0
 10
176.0072030060373
 20
-319.9066640088521
 30
0.0
 10
175.8784389492989
 20
-319.9273519559846
 30
0.0
 10
175.6771671317274
 20
-319.9576735275067
 30
0.0
 10
175.52848714041
 20
-319.9745171008033
 30
0.0
 10
175.4196004577312
 20
-319.9868525926502
 30
0.0
  0
SPLINE
  5
CD
330
1F
100
AcDbEntity
  8
0
  6
Continuous
 62
     7
370
    15
100
AcDbSpline
210
0.0
220
0.0
230
1.0
 70
     8
 71
     3
 72
    13
 73
     9
 74
     0
 42
0.000000001
 43
0.00000001
 40
0.0
 40
0.0
 40
0.0
 40
0.0
 40
0.1638268271783758
 40
0.3287410634951108
 40
0.4947780876156487
 40
0.6619746274659494
 40
0.8303687749549348
 40
1.0
 40
1.0
 40
1.0
 40
1.0
 10
-3.519277351735794
 20
13.85422734378072
 30
0.0
 10
-3.538538451424544
 20
13.85421763969141
 30
0.0
 10
-3.577188497359135
 20
13.85419816710165
 30
0.0
 10
-3.623296330794057
 20
13.85418240367087
 30
0.0
 10
-3.660761046903632
 20
13.85417414948065
 30
0.0
 10
-3.688247536994732
 20
13.85417216098261
 30
0.0
 10
-3.706678954083942
 20
13.85417374118769
 30
0.0
 10
-3.710409769305867
 20
13.85417427824853
 30
0.0
 10
-3.712282003782735
 20
13.85417454776161
 30
0.0
  0
SPLINE
  5
CE
330
1F
100
AcDbEntity
  8
0
  6
Continuous
 62
     7
370
    15
100
AcDbSpline
210
0.0
220
0.0
230
1.0
 70
     8
 71
     3
 72
    10
 73
     6
 74
     0
 42
0.000000001
 43
0.00000001
 40
0.0
 40
0.0
 40
0.0
 40
0.0
 40
0.3302956290156553
 40
0.6636066846984201
 40
1.0
 40
1.0
 40
1.0
 40
1.0
 10
-3.294062100185235
 20
13.85417303278902
 30
0.0
 10
-3.322592033353666
 20
13.85417279025281
 30
0.0
 10
-3.379912363086712
 20
13.85417230296637
 30
0.0
 10
-3.455123192111609
 20
13.85418507380365
 30
0.0
 10
-3.497827118084995
 20
13.85421321062252
 30
0.0
 10
-3.519277351735794
 20
13.85422734378072
 30
0.0
  0
SPLINE
  5
CF
330
1F
100
AcDbEntity
  8
0
  6
Continuous
 62
     7
370
    15
100
AcDbSpline
210
0.0
220
0.0
230
1.0
 70
     8
 71
     3
 72
    12
 73
     8
 74
     0
 42
0.000000001
 43
0.00000001
 40
0.0
 40
0.0
 40
0.0
 40
0.0
 40
0.1953501673400036
 40
0.3930001090938384
 40
0.5929738687731905
 40
0.7952976208466678
 40
1.0
 40
1.0
 40
1.0
 40
1.0
 10
-2.796158091381951
 20
13.85417410985013
 30
0.0
 10
-2.834047962480907
 20
13.85417408137446
 30
0.0
 10
-2.910273766012134
 20
13.85417402408806
 30
0.0
 10
-3.015992726720401
 20
13.8541766652438
 30
0.0
 10
-3.115811516525846
 20
13.85418015243745
 30
0.0
 10
-3.209533073858323
 20
13.85417879542206
 30
0.0
 10
-3.26577619801946
 20
13.85417496113583
 30
0.0
 10
-3.294062100185235
 20
13.85417303278902
 30
0.0
  0
SPLINE
  5
D0
330
1F
100
AcDbEntity
  8
0
  6
Continuous
 62
     7
370
    15
100
AcDbSpline
210
0.0
220
0.0
230
1.0
 70
     8
 71
     3
 72
    12
 73
     8
 74
     0
 42
0.000000001
 43
0.00000001
 40
0.0
 40
0.0
 40
0.0
 40
0.0
 40
0.1954058369781352
 40
0.3930899671131607
 40
0.5930700696339039
 40
0.7953660300652706
 40
1.0
 40
1.0
 40
1.0
 40
1.0
 10
-2.108967666435229
 20
13.85411944237624
 30
0.0
 10
-2.15918451017158
 20
13.85413131382074
 30
0.0
 10
-2.26020369034613
 20
13.8541551951219
 30
0.0
 10
-2.403379098511321
 20
13.85416762623803
 30
0.0
 10
-2.541082236963393
 20
13.85417315337611
 30
0.0
 10
-2.673088410565905
 20
13.85417438544656
 30
0.0
 10
-2.754978032598887
 20
13.8541742020668
 30
0.0
 10
-2.796158091381923
 20
13.85417410985013
 30
0.0
  0
SPLINE
  5
D1
330
1F
100
AcDbEntity
  8
0
  6
Continuous
 62
     7
370
    15
100
AcDbSpline
210
0.0
220
0.0
230
1.0
 70
     8
 71
     3
 72
    12
 73
     8
 74
     0
 42
0.000000001
 43
0.00000001
 40
0.0
 40
0.0
 40
0.0
 40
0.0
 40
0.1972193901955551
 40
0.3958110187289863
 40
0.5957921705811592
 40
0.797181688466787
 40
1.0
 40
1.0
 40
1.0
 40
1.0
 10
-1.236192377847695
 20
13.85417444886494
 30
0.0
 10
-1.298945440378368
 20
13.85417415296653
 30
0.0
 10
-1.424888196737195
 20
13.85417355911045
 30
0.0
 10
-1.605354399602188
 20
13.85416933940697
 30
0.0
 10
-1.780090634412951
 20
13.85416136007533
 30
0.0
 10
-1.948957075552982
 20
13.85414806686502
 30
0.0
 10
-2.055505260649432
 20
13.85412900633098
 30
0.0
 10
-2.108967666435229
 20
13.85411944237624
 30
0.0
  0
SPLINE
  5
D2
330
1F
100
AcDbEntity
  8
0
  6
Continuous
 62
     7
370
    15
100
AcDbSpline
210
0.0
220
0.0
230
1.0
 70
     8
 71
     3
 72
    11
 73
     7
 74
     0
 42
0.000000001
 43
0.00000001
 40
0.0
 40
0.0
 40
0.0
 40
0.0
 40
0.2473115567337208
 40
0.4963965583088947
 40
0.7472823999337312
 40
1.0
 40
1.0
 40
1.0
 40
1.0
 10
-0.1809995369592421
 20
13.85417431052494
 30
0.0
 10
-0.2743060438351597
 20
13.85417396146482
 30
0.0
 10
-0.4615881486132456
 20
13.85417326084148
 30
0.0
 10
-0.7294501427980993
 20
13.85417148864598
 30
0.0
 10
-0.9896010267723687
 20
13.85417312307724
 30
0.0
 10
-1.153796184961059
 20
13.85417400586553
 30
0.0
 10
-1.236192377847695
 20
13.85417444886494
 30
0.0
  0
SPLINE
  5
D3
330
1F
100
AcDbEntity
  8
0
  6
Continuous
 62
     7
370
    15
100
AcDbSpline
210
0.0
220
0.0
230
1.0
 70
     8
 71
     3
 72
    10
 73
     6
 74
     0
 42
0.000000001
 43
0.00000001
 40
0.0
 40
0.0
 40
0.0
 40
0.0
 40
0.3305358412315577
 40
0.6638650561319668
 40
1.0
 40
1.0
 40
1.0
 40
1.0
 10
0.6248702451453481
 20
13.8542694399808
 30
0.0
 10
0.5326687272644015
 20
13.85425660674056
 30
0.0
 10
0.3474864922141385
 20
13.8542308318057
 30
0.0
 10
0.0787118716264745
 20
13.85418527670357
 30
0.0
 10
-0.0941875265686454
 20
13.85417797611677
 30
0.0
 10
-0.1809995369592421
 20
13.85417431052494
 30
0.0
  0
SPLINE
  5
D4
330
1F
100
AcDbEntity
  8
0
  6
Continuous
 62
     7
370
    15
100
AcDbSpline
210
0.0
220
0.0
230
1.0
 70
     8
 71
     3
 72
     8
 73
     4
 74
     0
 42
0.000000001
 43
0.00000001
 40
0.0
 40
0.0
 40
0.0
 40
0.0
 40
1.0
 40
1.0
 40
1.0
 40
1.0
 10
1.048501546602049
 20
13.85417358792651
 30
0.0
 10
0.9034291432521713
 20
13.85346251020914
 30
0.0
 10
0.7622338797037553
 20
13.85350269568275
 30
0.0
 10
0.6248702451453481
 20
13.8542694399808
 30
0.0
  0
SPLINE
  5
D5
330
1F
100
AcDbEntity
  8
0
  6
Continuous
 62
     7
370
    15
100
AcDbSpline
210
0.0
220
0.0
230
1.0
 70
     8
 71
     3
 72
    11
 73
     7
 74
     0
 42
0.000000001
 43
0.00000001
 40
0.0
 40
0.0
 40
0.0
 40
0.0
 40
0.2535281668858985
 40
0.504797034789171
 40
0.7536659730297951
 40
1.0
 40
1.0
 40
1.0
 40
1.0
 10
2.444855993901929
 20
13.85417041080661
 30
0.0
 10
2.321203605927885
 20
13.85417225710661
 30
0.0
 10
2.075000749809014
 20
13.85417593325355
 30
0.0
 10
1.719951580286511
 20
13.85417428664315
 30
0.0
 10
1.376698319046549
 20
13.85417261815158
 30
0.0
 10
1.157526495387251
 20
13.85417326577332
 30
0.0
 10
1.048501546602049
 20
13.85417358792651
 30
0.0
  0
SPLINE
  5
D6
330
1F
100
AcDbEntity
  8
0
  6
Continuous
 62
     7
370
    15
100
AcDbSpline
210
0.0
220
0.0
230
1.0
 70
     8
 71
     3
 72
    13
 73
     9
 74
     0
 42
0.000000001
 43
0.00000001
 40
0.0
 40
0.0
 40
0.0
 40
0.0
 40
0.1706108994949899
 40
0.339750523335304
 40
0.5073357838336723
 40
0.6732879879427504
 40
0.8375327662421138
 40
1.0
 40
1.0
 40
1.0
 40
1.0
 10
4.551511255788398
 20
13.85442166188988
 30
0.0
 10
4.425058697455297
 20
13.85436960574915
 30
0.0
 10
4.173244053737202
 20
13.85426594237793
 30
0.0
 10
3.806572328239499
 20
13.85418574777675
 30
0.0
 10
3.449996101892727
 20
13.85414753218295
 30
0.0
 10
3.104385170513924
 20
13.85414339663926
 30
0.0
 10
2.768914825153457
 20
13.85415829509706
 30
0.0
 10
2.552483090387803
 20
13.85416638691184
 30
0.0
 10
2.444855993901901
 20
13.85417041080661
 30
0.0
  0
SPLINE
  5
D7
330
1F
100
AcDbEntity
  8
0
  6
Continuous
 62
     7
370
    15
100
AcDbSpline
210
0.0
220
0.0
230
1.0
 70
     8
 71
     3
 72
    10
 73
     6
 74
     0
 42
0.000000001
 43
0.00000001
 40
0.0
 40
0.0
 40
0.0
 40
0.0
 40
0.3301835181080028
 40
0.6635659863267951
 40
1.0
 40
1.0
 40
1.0
 40
1.0
 10
5.697092482619043
 20
13.85417639064479
 30
0.0
 10
5.568222054346955
 20
13.85417658356469
 30
0.0
 10
5.309232649500978
 20
13.85417697127322
 30
0.0
 10
4.927271751821505
 20
13.8542117808198
 30
0.0
 10
4.677144597006522
 20
13.85435148937209
 30
0.0
 10
4.551511255788398
 20
13.85442166188988
 30
0.0
  0
SPLINE
  5
D8
330
1F
100
AcDbEntity
  8
0
  6
Continuous
 62
     7
370
    15
100
AcDbSpline
210
0.0
220
0.0
230
1.0
 70
     8
 71
     3
 72
    11
 73
     7
 74
     0
 42
0.000000001
 43
0.00000001
 40
0.0
 40
0.0
 40
0.0
 40
0.0
 40
0.2518871978719009
 40
0.5026379288332377
 40
0.7520676548540741
 40
1.0
 40
1.0
 40
1.0
 40
1.0
 10
7.545369742056995
 20
13.85417466966476
 30
0.0
 10
7.384964342249834
 20
13.85417425786106
 30
0.0
 10
7.064877261151986
 20
13.85417343611128
 30
0.0
 10
6.597792848457323
 20
13.85417103778264
 30
0.0
 10
6.140883130077851
 20
13.85417220571616
 30
0.0
 10
5.844725489884378
 20
13.8541749984713
 30
0.0
 10
5.697092482619043
 20
13.85417639064479
 30
0.0
  0
SPLINE
  5
D9
330
1F
100
AcDbEntity
  8
0
  6
Continuous
 62
     7
370
    15
100
AcDbSpline
210
0.0
220
0.0
230
1.0
 70
     8
 71
     3
 72
    11
 73
     7
 74
     0
 42
0.000000001
 43
0.00000001
 40
0.0
 40
0.0
 40
0.0
 40
0.0
 40
0.2524267897114925
 40
0.5033850000041691
 40
0.7526475624924547
 40
1.0
 40
1.0
 40
1.0
 40
1.0
 10
9.512719044192487
 20
13.8542590071995
 30
0.0
 10
9.341781911948038
 20
13.85423879138004
 30
0.0
 10
9.00090213284882
 20
13.85419847735347
 30
0.0
 10
8.503596027723741
 20
13.85417552322066
 30
0.0
 10
8.017561288684917
 20
13.85417177543702
 30
0.0
 10
7.702362809416025
 20
13.85417370739916
 30
0.0
 10
7.545369742056995
 20
13.85417466966476
 30
0.0
  0
SPLINE
  5
DA
330
1F
100
AcDbEntity
  8
0
  6
Continuous
 62
     7
370
    15
100
AcDbSpline
210
0.0
220
0.0
230
1.0
 70
     8
 71
     3
 72
     8
 73
     4
 74
     0
 42
0.000000001
 43
0.00000001
 40
0.0
 40
0.0
 40
0.0
 40
0.0
 40
1.0
 40
1.0
 40
1.0
 40
1.0
 10
9.51291230278689
 20
13.85414129980678
 30
0.0
 10
9.524620656199023
 20
13.8541155193761
 30
0.0
 10
9.536336760514324
 20
13.85408975164393
 30
0.0
 10
9.548060652713685
 20
13.85406399631361
 30
0.0
  0
SPLINE
  5
DB
330
1F
100
AcDbEntity
  8
0
  6
Continuous
 62
     7
370
    15
100
AcDbSpline
210
0.0
220
0.0
230
1.0
 70
     8
 71
     3
 72
    12
 73
     8
 74
     0
 42
0.000000001
 43
0.00000001
 40
0.0
 40
0.0
 40
0.0
 40
0.0
 40
0.1958919359912598
 40
0.3936725289664669
 40
0.5935047192539484
 40
0.7955563076958881
 40
1.0
 40
1.0
 40
1.0
 40
1.0
 10
11.71265269748223
 20
13.85417450688942
 30
0.0
 10
11.5657784181275
 20
13.85417439635872
 30
0.0
 10
11.27061379738331
 20
13.85417417423129
 30
0.0
 10
10.83549024549182
 20
13.85417354757879
 30
0.0
 10
10.40294803707534
 20
13.85417354946128
 30
0.0
 10
9.972629697619473
 20
13.85417417907764
 30
0.0
 10
9.690017232098585
 20
13.85417440116821
 30
0.0
 10
9.547879454173541
 20
13.85417451286708
 30
0.0
  0
SPLINE
  5
DC
330
1F
100
AcDbEntity
  8
0
  6
Continuous
 62
     7
370
    15
100
AcDbSpline
210
0.0
220
0.0
230
1.0
 70
     8
 71
     3
 72
    12
 73
     8
 74
     0
 42
0.000000001
 43
0.00000001
 40
0.0
 40
0.0
 40
0.0
 40
0.0
 40
0.1975653296248457
 40
0.3961882356205579
 40
0.596026079403196
 40
0.7972410167202976
 40
1.0
 40
1.0
 40
1.0
 40
1.0
 10
14.07142272343331
 20
13.85417450953352
 30
0.0
 10
13.90947452811842
 20
13.85417440308845
 30
0.0
 10
13.58471122128929
 20
13.85417418962831
 30
0.0
 10
13.10772974630553
 20
13.85417358168395
 30
0.0
 10
12.6363376901677
 20
13.85417358233987
 30
0.0
 10
12.17016588728345
 20
13.85417419234014
 30
0.0
 10
11.8655451953317
 20
13.85417440177283
 30
0.0
 10
11.71265269748223
 20
13.85417450688942
 30
0.0
  0
SPLINE
  5
DD
330
1F
100
AcDbEntity
  8
0
  6
Continuous
 62
     7
370
    15
100
AcDbSpline
210
0.0
220
0.0
230
1.0
 70
     8
 71
     3
 72
    12
 73
     8
 74
     0
 42
0.000000001
 43
0.00000001
 40
0.0
 40
0.0
 40
0.0
 40
0.0
 40
0.1993032095608313
 40
0.3988093023959392
 40
0.5986615052804979
 40
0.7990076204756167
 40
1.0
 40
1.0
 40
1.0
 40
1.0
 10
16.65226991319524
 20
13.85417451065196
 30
0.0
 10
16.47365304807757
 20
13.85417441455616
 30
0.0
 10
16.11623749249927
 20
13.85417422226665
 30
0.0
 10
15.5920552594491
 20
13.85417366973285
 30
0.0
 10
15.07617743149789
 20
13.85417366813724
 30
0.0
 10
14.56822804522034
 20
13.85417422106583
 30
0.0
 10
14.23720217797597
 20
13.85417441327452
 30
0.0
 10
14.07142272343331
 20
13.85417450953352
 30
0.0
  0
SPLINE
  5
DE
330
1F
100
AcDbEntity
  8
0
  6
Continuous
 62
     7
370
    15
100
AcDbSpline
210
0.0
220
0.0
230
1.0
 70
     8
 71
     3
 72
    12
 73
     8
 74
     0
 42
0.000000001
 43
0.00000001
 40
0.0
 40
0.0
 40
0.0
 40
0.0
 40
0.2008806936224901
 40
0.4011963701377674
 40
0.6010696183827196
 40
0.8006271957034039
 40
1.0
 40
1.0
 40
1.0
 40
1.0
 10
19.46502197731606
 20
13.8541745097982
 30
0.0
 10
19.26956965137172
 20
13.85417442860559
 30
0.0
 10
18.87921474822107
 20
13.85417426644886
 30
0.0
 10
18.30647297049368
 20
13.85417379667619
 30
0.0
 10
17.74414060710575
 20
13.85417379395282
 30
0.0
 10
17.19185072398322
 20
13.85417426342439
 30
0.0
 10
16.83207463749586
 20
13.85417442826808
 30
0.0
 10
16.65226991319524
 20
13.85417451065196
 30
0.0
  0
SPLINE
  5
DF
330
1F
100
AcDbEntity
  8
0
  6
Continuous
 62
     7
370
    15
100
AcDbSpline
210
0.0
220
0.0
230
1.0
 70
     8
 71
     3
 72
    12
 73
     8
 74
     0
 42
0.000000001
 43
0.00000001
 40
0.0
 40
0.0
 40
0.0
 40
0.0
 40
0.2032404510823397
 40
0.4047702148379583
 40
0.6046604890619067
 40
0.8030302528633106
 40
1.0
 40
1.0
 40
1.0
 40
1.0
 10
22.50318754198202
 20
13.85417450871196
 30
0.0
 10
22.29073195946171
 20
13.85416828529284
 30
0.0
 10
21.86760904607363
 20
13.85415589083738
 30
0.0
 10
21.24670324336503
 20
13.85414413511654
 30
0.0
 10
20.6393080788177
 20
13.85415413743307
 30
0.0
 10
20.04500394936062
 20
13.85416940675444
 30
0.0
 10
19.65789234160645
 20
13.85417281280432
 30
0.0
 10
19.46502197731606
 20
13.8541745097982
 30
0.0
  0
SPLINE
  5
E0
330
1F
100
AcDbEntity
  8
0
  6
Continuous
 62
     7
370
    15
100
AcDbSpline
210
0.0
220
0.0
230
1.0
 70
     8
 71
     3
 72
     8
 73
     4
 74
     0
 42
0.000000001
 43
0.00000001
 40
0.0
 40
0.0
 40
0.0
 40
0.0
 40
1.0
 40
1.0
 40
1.0
 40
1.0
 10
23.54191930798358
 20
13.8543350665199
 30
0.0
 10
23.18924079292703
 20
13.85378980946173
 30
0.0
 10
22.84292089427117
 20
13.85371833059246
 30
0.0
 10
22.50318754198202
 20
13.85417450871196
 30
0.0
  0
SPLINE
  5
E1
330
1F
100
AcDbEntity
  8
0
  6
Continuous
 62
     7
370
    15
100
AcDbSpline
210
0.0
220
0.0
230
1.0
 70
     8
 71
     3
 72
    11
 73
     7
 74
     0
 42
0.000000001
 43
0.00000001
 40
0.0
 40
0.0
 40
0.0
 40
0.0
 40
0.26257713395537
 40
0.5167398268634502
 40
0.7625301929938316
 40
1.0
 40
1.0
 40
1.0
 40
1.0
 10
25.76304160635781
 20
13.85417450874815
 30
0.0
 10
25.56527724714541
 20
13.85417718554893
 30
0.0
 10
25.17608600570032
 20
13.85418245337067
 30
0.0
 10
24.60934635343143
 20
13.85422308968942
 30
0.0
 10
24.06605048801155
 20
13.85427966172803
 30
0.0
 10
23.71461273492067
 20
13.85431681146509
 30
0.0
 10
23.54191930798358
 20
13.8543350665199
 30
0.0
  0
SPLINE
  5
E2
330
1F
100
AcDbEntity
  8
0
  6
Continuous
 62
     7
370
    15
100
AcDbSpline
210
0.0
220
0.0
230
1.0
 70
     8
 71
     3
 72
    12
 73
     8
 74
     0
 42
0.000000001
 43
0.00000001
 40
0.0
 40
0.0
 40
0.0
 40
0.0
 40
0.2167434306926477
 40
0.4250904697266378
 40
0.6250585718360951
 40
0.8166799509761993
 40
1.0
 40
1.0
 40
1.0
 40
1.0
 10
29.22882020045561
 20
13.85417453935212
 30
0.0
 10
28.97244338818073
 20
13.85417210887652
 30
0.0
 10
28.46962150698845
 20
13.85416734207912
 30
0.0
 10
27.74080616916316
 20
13.85415386579014
 30
0.0
 10
27.04859333523296
 20
13.85415406626445
 30
0.0
 10
26.39207146099776
 20
13.85416752507251
 30
0.0
 10
25.96960034003748
 20
13.85417221547192
 30
0.0
 10
25.76304160635781
 20
13.85417450874815
 30
0.0
  0
SPLINE
  5
E3
330
1F
100
AcDbEntity
  8
0
  6
Continuous
 62
     7
370
    15
100
AcDbSpline
210
0.0
220
0.0
230
1.0
 70
     8
 71
     3
 72
    13
 73
     9
 74
     0
 42
0.000000001
 43
0.00000001
 40
0.0
 40
0.0
 40
0.0
 40
0.0
 40
0.1958838405931766
 40
0.3800378065343278
 40
0.5524836356399246
 40
0.7132582970678001
 40
0.8624109388344158
 40
0.9999999999999999
 40
0.9999999999999999
 40
0.9999999999999999
 40
0.9999999999999999
 10
32.8920088265095
 20
13.85417477665229
 30
0.0
 10
32.64741047675246
 20
13.85417094638086
 30
0.0
 10
32.17286076380987
 20
13.85416351520163
 30
0.0
 10
31.49131741543523
 20
13.85413768138055
 30
0.0
 10
30.85836415389401
 20
13.85412969850464
 30
0.0
 10
30.27343302316815
 20
13.85413980243433
 30
0.0
 10
29.73478499447771
 20
13.85416452931443
 30
0.0
 10
29.39287905944585
 20
13.85417129360178
 30
0.0
 10
29.22882020045561
 20
13.85417453935212
 30
0.0
  0
SPLINE
  5
E4
330
1F
100
AcDbEntity
  8
0
  6
Continuous
 62
     7
370
    15
100
AcDbSpline
210
0.0
220
0.0
230
1.0
 70
     8
 71
     3
 72
    14
 73
    10
 74
     0
 42
0.000000001
 43
0.00000001
 40
0.0
 40
0.0
 40
0.0
 40
0.0
 40
0.0860499206863533
 40
0.1791999518415679
 40
0.2794430003358173
 40
0.386759059409011
 40
0.5011123742602736
 40
0.6316874914435935
 40
1.0
 40
1.0
 40
1.0
 40
1.0
 10
40.81549214056282
 20
13.85417440474823
 30
0.0
 10
40.57748472391004
 20
13.85418049043241
 30
0.0
 10
40.08183153490166
 20
13.85419316393977
 30
0.0
 10
39.3174485902501
 20
13.85423993531898
 30
0.0
 10
38.50212654392904
 20
13.85425098278548
 30
0.0
 10
37.63821167788225
 20
13.85424600032126
 30
0.0
 10
36.7032590743146
 20
13.85410595402914
 30
0.0
 10
35.09330525487348
 20
13.8545685671434
 30
0.0
 10
33.8269314326563
 20
13.85434202520064
 30
0.0
 10
32.8920088265095
 20
13.85417477665229
 30
0.0
  0
SPLINE
  5
E5
330
1F
100
AcDbEntity
  8
0
  6
Continuous
 62
     7
370
    15
100
AcDbSpline
210
0.0
220
0.0
230
1.0
 70
     8
 71
     3
 72
    11
 73
     7
 74
     0
 42
0.000000001
 43
0.00000001
 40
0.0
 40
0.0
 40
0.0
 40
0.0
 40
0.2467231607369902
 40
0.4956269679407317
 40
0.7467306461313902
 40
1.0
 40
1.0
 40
1.0
 40
1.0
 10
43.60392417977632
 20
13.85423465206714
 30
0.0
 10
43.37137905855978
 20
13.85423222563098
 30
0.0
 10
42.90423348133194
 20
13.85422735131314
 30
0.0
 10
42.20767014258089
 20
13.85421613367344
 30
0.0
 10
41.50990966088619
 20
13.85418566491459
 30
0.0
 10
41.04762629772451
 20
13.85417816886592
 30
0.0
 10
40.81549214056282
 20
13.85417440474823
 30
0.0
  0
SPLINE
  5
E6
330
1F
100
AcDbEntity
  8
0
  6
Continuous
 62
     7
370
    15
100
AcDbSpline
210
0.0
220
0.0
230
1.0
 70
     8
 71
     3
 72
     8
 73
     4
 74
     0
 42
0.000000001
 43
0.00000001
 40
0.0
 40
0.0
 40
0.0
 40
0.0
 40
1.0
 40
1.0
 40
1.0
 40
1.0
 10
45.08964324001747
 20
13.85417449080495
 30
0.0
 10
44.59120528306429
 20
13.85450703355318
 30
0.0
 10
44.09598972283954
 20
13.85452743094806
 30
0.0
 10
43.60392417977632
 20
13.85423465206714
 30
0.0
  0
SPLINE
  5
E7
330
1F
100
AcDbEntity
  8
0
  6
Continuous
 62
     7
370
    15
100
AcDbSpline
210
0.0
220
0.0
230
1.0
 70
     8
 71
     3
 72
    13
 73
     9
 74
     0
 42
0.000000001
 43
0.00000001
 40
0.0
 40
0.0
 40
0.0
 40
0.0
 40
0.1663077307406701
 40
0.3327397954180376
 40
0.4993106899526955
 40
0.666034823360511
 40
0.8329265163475389
 40
1.0
 40
1.0
 40
1.0
 40
1.0
 10
49.57333092477184
 20
13.85417431866309
 30
0.0
 10
49.31942496608136
 20
13.85417441870884
 30
0.0
 10
48.81142322512898
 20
13.85417461887561
 30
0.0
 10
48.0566137500254
 20
13.8541748148806
 30
0.0
 10
47.30664277738649
 20
13.85417483703022
 30
0.0
 10
46.56214248540059
 20
13.85417471231731
 30
0.0
 10
45.82237887714955
 20
13.85417450055026
 30
0.0
 10
45.33397707130432
 20
13.85417449405457
 30
0.0
 10
45.08964324001747
 20
13.85417449080495
 30
0.0
  0
SPLINE
  5
E8
330
1F
100
AcDbEntity
  8
0
  6
Continuous
 62
     7
370
    15
100
AcDbSpline
210
0.0
220
0.0
230
1.0
 70
     8
 71
     3
 72
    13
 73
     9
 74
     0
 42
0.000000001
 43
0.00000001
 40
0.0
 40
0.0
 40
0.0
 40
0.0
 40
0.1667126941890547
 40
0.3333870434956638
 40
0.500038087624828
 40
0.6666807478778006
 40
0.8333298254784838
 40
1.0
 40
1.0
 40
1.0
 40
1.0
 10
54.26613396655347
 20
13.8541736937654
 30
0.0
 10
54.00004861491048
 20
13.85417401379208
 30
0.0
 10
53.46793911279207
 20
13.85417465377192
 30
0.0
 10
52.67725510282491
 20
13.85417497788977
 30
0.0
 10
51.89209663894589
 20
13.85417491762864
 30
0.0
 10
51.11308295355699
 20
13.85417460362359
 30
0.0
 10
50.33947895083477
 20
13.85417422286284
 30
0.0
 10
49.82872437593018
 20
13.85417428672819
 30
0.0
 10
49.57333092477184
 20
13.85417431866309
 30
0.0
  0
SPLINE
  5
E9
330
1F
100
AcDbEntity
  8
0
  6
Continuous
 62
     7
370
    15
100
AcDbSpline
210
0.0
220
0.0
230
1.0
 70
     8
 71
     3
 72
     8
 73
     4
 74
     0
 42
0.000000001
 43
0.00000001
 40
0.0
 40
0.0
 40
0.0
 40
0.0
 40
1.0
 40
1.0
 40
1.0
 40
1.0
 10
55.77948622197063
 20
13.85394810635265
 30
0.0
 10
55.27190999771434
 20
13.85428499193853
 30
0.0
 10
54.76747600691689
 20
13.85436082492131
 30
0.0
 10
54.26613396655347
 20
13.8541736937654
 30
0.0
  0
SPLINE
  5
EA
330
1F
100
AcDbEntity
  8
0
  6
Continuous
 62
     7
370
    15
100
AcDbSpline
210
0.0
220
0.0
230
1.0
 70
     8
 71
     3
 72
    17
 73
    13
 74
     0
 42
0.000000001
 43
0.00000001
 40
0.0
 40
0.0
 40
0.0
 40
0.0
 40
0.0997229704992388
 40
0.1994822899836409
 40
0.2992873406629733
 40
0.3991475482935833
 40
0.4990723805211574
 40
0.5990713452138678
 40
0.699153988789011
 40
0.7993298945359953
 40
0.8996086809386471
 40
1.0
 40
1.0
 40
1.0
 40
1.0
 10
64.25990650418574
 20
13.85417461966454
 30
0.0
 10
63.96920152507673
 20
13.85417520907528
 30
0.0
 10
63.38768560500338
 20
13.85417638811171
 30
0.0
 10
62.52215004452631
 20
13.85418189514498
 30
0.0
 10
61.66135871624298
 20
13.8541862687005
 30
0.0
 10
60.80578304356244
 20
13.85418700462493
 30
0.0
 10
59.95526466779519
 20
13.85418104152936
 30
0.0
 10
59.10982542547208
 20
13.85416548729301
 30
0.0
 10
58.26939263338063
 20
13.85413764935794
 30
0.0
 10
57.43408760323282
 20
13.85409419436123
 30
0.0
 10
56.60334524988814
 20
13.85403449294831
 30
0.0
 10
56.0542085470365
 20
13.853976912648
 30
0.0
 10
55.77948622197063
 20
13.85394810635265
 30
0.0
  0
SPLINE
  5
EB
330
1F
100
AcDbEntity
  8
0
  6
Continuous
 62
     7
370
    15
100
AcDbSpline
210
0.0
220
0.0
230
1.0
 70
     8
 71
     3
 72
    13
 73
     9
 74
     0
 42
0.000000001
 43
0.00000001
 40
0.0
 40
0.0
 40
0.0
 40
0.0
 40
0.1672753019437916
 40
0.3342879407311346
 40
0.5010510429644258
 40
0.6675803185095124
 40
0.8338914319842359
 40
1.0
 40
1.0
 40
1.0
 40
1.0
 10
69.54202096671787
 20
13.85417447085802
 30
0.0
 10
69.2428957318038
 20
13.8541731249493
 30
0.0
 10
68.64511496179064
 20
13.85417043524551
 30
0.0
 10
67.75548430026335
 20
13.85416754175539
 30
0.0
 10
66.87187163675496
 20
13.85416860652389
 30
0.0
 10
65.99481739372054
 20
13.85417095090369
 30
0.0
 10
65.1236775018059
 20
13.85417370556397
 30
0.0
 10
64.54771319046749
 20
13.85417431508817
 30
0.0
 10
64.25990650418574
 20
13.85417461966454
 30
0.0
  0
SPLINE
  5
EC
330
1F
100
AcDbEntity
  8
0
  6
Continuous
 62
     7
370
    15
100
AcDbSpline
210
0.0
220
0.0
230
1.0
 70
     8
 71
     3
 72
    13
 73
     9
 74
     0
 42
0.000000001
 43
0.00000001
 40
0.0
 40
0.0
 40
0.0
 40
0.0
 40
0.1617494886372718
 40
0.3254772591055698
 40
0.4911749241594935
 40
0.6588338695713475
 40
0.8284452524670939
 40
1.0
 40
1.0
 40
1.0
 40
1.0
 10
75.00118732680575
 20
13.85417449175619
 30
0.0
 10
74.70274709314059
 20
13.85417480524298
 30
0.0
 10
74.10221654384168
 20
13.85417543605061
 30
0.0
 10
73.20150837518041
 20
13.8541777867689
 30
0.0
 10
72.29418544009035
 20
13.85417866761851
 30
0.0
 10
71.38104588942132
 20
13.85417785150156
 30
0.0
 10
70.46180509605102
 20
13.85417548684975
 30
0.0
 10
69.84977776164276
 20
13.85417481080564
 30
0.0
 10
69.54202096671787
 20
13.85417447085802
 30
0.0
  0
SPLINE
  5
ED
330
1F
100
AcDbEntity
  8
0
  6
Continuous
 62
     7
370
    15
100
AcDbSpline
210
0.0
220
0.0
230
1.0
 70
     8
 71
     3
 72
    13
 73
     9
 74
     0
 42
0.000000001
 43
0.00000001
 40
0.0
 40
0.0
 40
0.0
 40
0.0
 40
0.1627067511567174
 40
0.3270066489001538
 40
0.4928929409836219
 40
0.6603586983403714
 40
0.8293968136326333
 40
1.0
 40
1.0
 40
1.0
 40
1.0
 10
80.62347463641599
 20
13.85417450191739
 30
0.0
 10
80.31478510528048
 20
13.85417475449824
 30
0.0
 10
79.69438350295266
 20
13.85417526213284
 30
0.0
 10
78.76435690689658
 20
13.85417712350878
 30
0.0
 10
77.8292154023039
 20
13.85417781316023
 30
0.0
 10
76.8896600501782
 20
13.85417715853476
 30
0.0
 10
75.94540233878413
 20
13.85417528502031
 30
0.0
 10
75.31689105989712
 20
13.85417475698869
 30
0.0
 10
75.00118732680575
 20
13.85417449175619
 30
0.0
  0
SPLINE
  5
EE
330
1F
100
AcDbEntity
  8
0
  6
Continuous
 62
     7
370
    15
100
AcDbSpline
210
0.0
220
0.0
230
1.0
 70
     8
 71
     3
 72
    13
 73
     9
 74
     0
 42
0.000000001
 43
0.00000001
 40
0.0
 40
0.0
 40
0.0
 40
0.0
 40
0.1633379549693716
 40
0.3280149946674125
 40
0.4940255301328942
 40
0.6613638248195062
 40
0.830023993283899
 40
0.9999999999999999
 40
0.9999999999999999
 40
0.9999999999999999
 40
0.9999999999999999
 10
86.39430890881142
 20
13.85417449214144
 30
0.0
 10
86.07668953447062
 20
13.85417470591022
 30
0.0
 10
85.43884686403798
 20
13.85417513520015
 30
0.0
 10
84.48282347964478
 20
13.85417666592081
 30
0.0
 10
83.52256860702224
 20
13.85417722645332
 30
0.0
 10
82.55870378600565
 20
13.8541766814162
 30
0.0
 10
81.59095242941478
 20
13.85417514073728
 30
0.0
 10
80.94680155954872
 20
13.8541747154084
 30
0.0
 10
80.62347463641599
 20
13.85417450191739
 30
0.0
  0
SPLINE
  5
EF
330
1F
100
AcDbEntity
  8
0
  6
Continuous
 62
     7
370
    15
100
AcDbSpline
210
0.0
220
0.0
230
1.0
 70
     8
 71
     3
 72
    13
 73
     9
 74
     0
 42
0.000000001
 43
0.00000001
 40
0.0
 40
0.0
 40
0.0
 40
0.0
 40
0.1637776073696536
 40
0.3287172189520245
 40
0.4948141469205512
 40
0.6620635738595393
 40
0.8304605515765306
 40
1.0
 40
1.0
 40
1.0
 40
1.0
 10
92.29940290801463
 20
13.85417443681813
 30
0.0
 10
91.97395004843858
 20
13.85417463832006
 30
0.0
 10
91.3207352370978
 20
13.85417504275366
 30
0.0
 10
90.34162614175393
 20
13.85417634441044
 30
0.0
 10
89.35880322038741
 20
13.85417680726686
 30
0.0
 10
88.37281872096794
 20
13.854176328848
 30
0.0
 10
87.38341716816633
 20
13.85417501589803
 30
0.0
 10
86.72475391541636
 20
13.85417466712013
 30
0.0
 10
86.39430890881142
 20
13.85417449214144
 30
0.0
  0
SPLINE
  5
F0
330
1F
100
AcDbEntity
  8
0
  6
Continuous
 62
     7
370
    15
100
AcDbSpline
210
0.0
220
0.0
230
1.0
 70
     8
 71
     3
 72
    13
 73
     9
 74
     0
 42
0.000000001
 43
0.00000001
 40
0.0
 40
0.0
 40
0.0
 40
0.0
 40
0.1640979039560162
 40
0.3292286764349142
 40
0.4953883840711853
 40
0.6625729749687637
 40
0.8307782776388419
 40
1.0
 40
1.0
 40
1.0
 40
1.0
 10
98.32457242658899
 20
13.85417426493563
 30
0.0
 10
97.99226557652355
 20
13.85417449819637
 30
0.0
 10
97.32556026353784
 20
13.85417496618624
 30
0.0
 10
96.32606426842925
 20
13.85417610908912
 30
0.0
 10
95.32314115321118
 20
13.85417647405718
 30
0.0
 10
94.31727996988414
 20
13.85417600612526
 30
0.0
 10
93.30825230017942
 20
13.85417483627571
 30
0.0
 10
92.6363606773248
 20
13.85417457023785
 30
0.0
 10
92.29940290801463
 20
13.85417443681813
 30
0.0
  0
SPLINE
  5
F1
330
1F
100
AcDbEntity
  8
0
  6
Continuous
 62
     7
370
    15
100
AcDbSpline
210
0.0
220
0.0
230
1.0
 70
     8
 71
     3
 72
     8
 73
     4
 74
     0
 42
0.000000001
 43
0.00000001
 40
0.0
 40
0.0
 40
0.0
 40
0.0
 40
1.0
 40
1.0
 40
1.0
 40
1.0
 10
100.1553384694082
 20
13.8541923156148
 30
0.0
 10
99.5433000666716
 20
13.85469554211793
 30
0.0
 10
98.93302388848134
 20
13.85468426727154
 30
0.0
 10
98.32457242658907
 20
13.85417426493563
 30
0.0
  0
SPLINE
  5
F2
330
1F
100
AcDbEntity
  8
0
  6
Continuous
 62
     7
370
    15
100
AcDbSpline
210
0.0
220
0.0
230
1.0
 70
     8
 71
     3
 72
    11
 73
     7
 74
     0
 42
0.000000001
 43
0.00000001
 40
0.0
 40
0.0
 40
0.0
 40
0.0
 40
0.2503901597221321
 40
0.5005266743676772
 40
0.7503995525143475
 40
1.0
 40
1.0
 40
1.0
 40
1.0
 10
104.4556926167261
 20
13.85417423357471
 30
0.0
 10
104.0951333322247
 20
13.85417621340679
 30
0.0
 10
103.3743800095539
 20
13.85418017106543
 30
0.0
 10
102.2974052093473
 20
13.85419741342631
 30
0.0
 10
101.2240522738952
 20
13.85420632417889
 30
0.0
 10
100.5114468440529
 20
13.85419698343782
 30
0.0
 10
100.1553384694082
 20
13.8541923156148
 30
0.0
  0
SPLINE
  5
F3
330
1F
100
AcDbEntity
  8
0
  6
Continuous
 62
     7
370
    15
100
AcDbSpline
210
0.0
220
0.0
230
1.0
 70
     8
 71
     3
 72
    18
 73
    14
 74
     0
 42
0.000000001
 43
0.00000001
 40
0.0
 40
0.0
 40
0.0
 40
0.0
 40
0.0933467239972983
 40
0.1862190542985897
 40
0.2786121857358174
 40
0.3705215309107682
 40
0.4619427173729095
 40
0.5528715847554326
 40
0.6433041818730991
 40
0.7332367637851612
 40
0.8226657888264494
 40
0.9115879156094343
 40
1.0
 40
1.0
 40
1.0
 40
1.0
 10
116.7256768299712
 20
13.85426352534691
 30
0.0
 10
116.3400851009379
 20
13.85425412636665
 30
0.0
 10
115.570861243355
 20
13.85423537617236
 30
0.0
 10
114.4224620398203
 20
13.85421817991572
 30
0.0
 10
113.2818940576879
 20
13.85420605166265
 30
0.0
 10
112.1494428150304
 20
13.85419804213472
 30
0.0
 10
111.0251740238999
 20
13.85419238787922
 30
0.0
 10
109.9092053960209
 20
13.8541880431331
 30
0.0
 10
108.8016416980525
 20
13.85418427225549
 30
0.0
 10
107.7025652981122
 20
13.85418072423161
 30
0.0
 10
106.6121379188992
 20
13.854177503555
 30
0.0
 10
105.5302066913022
 20
13.85417478168116
 30
0.0
 10
104.8131765426585
 20
13.85417441592618
 30
0.0
 10
104.455692616726
 20
13.85417423357471
 30
0.0
  0
SPLINE
  5
F4
330
1F
100
AcDbEntity
  8
0
  6
Continuous
 62
     7
370
    15
100
AcDbSpline
210
0.0
220
0.0
230
1.0
 70
     8
 71
     3
 72
    18
 73
    14
 74
     0
 42
0.000000001
 43
0.00000001
 40
0.0
 40
0.0
 40
0.0
 40
0.0
 40
0.0939945000109371
 40
0.1873919568670137
 40
0.2801850770204784
 40
0.372366881318962
 40
0.4639306998286446
 40
0.5548701665404069
 40
0.6451792139717086
 40
0.7348520676759543
 40
0.8238832406704443
 40
0.912267527793432
 40
1.0
 40
1.0
 40
1.0
 40
1.0
 10
129.7277949322327
 20
13.85417504754805
 30
0.0
 10
129.3180423941023
 20
13.85417571502567
 30
0.0
 10
128.5011400227664
 20
13.85417704574077
 30
0.0
 10
127.2811623746694
 20
13.85418261972204
 30
0.0
 10
126.0702271012564
 20
13.85418838965125
 30
0.0
 10
124.8685841247661
 20
13.85419369622864
 30
0.0
 10
123.676354750406
 20
13.85419801273646
 30
0.0
 10
122.4936851667829
 20
13.85420160198136
 30
0.0
 10
121.3207108756131
 20
13.85420536254589
 30
0.0
 10
120.1575478303753
 20
13.85421070912374
 30
0.0
 10
119.0043630847181
 20
13.85422011306026
 30
0.0
 10
117.8611046303466
 20
13.85423499774041
 30
0.0
 10
117.1032177739377
 20
13.85425403963625
 30
0.0
 10
116.7256768299712
 20
13.85426352534691
 30
0.0
  0
SPLINE
  5
F5
330
1F
100
AcDbEntity
  8
0
  6
Continuous
 62
     7
370
    15
100
AcDbSpline
210
0.0
220
0.0
230
1.0
 70
     8
 71
     3
 72
    11
 73
     7
 74
     0
 42
0.000000001
 43
0.00000001
 40
0.0
 40
0.0
 40
0.0
 40
0.0
 40
0.2531690654716573
 40
0.5042359370854688
 40
0.7531846625354458
 40
1.0
 40
1.0
 40
1.0
 40
1.0
 10
133.7026207073667
 20
13.85416137099704
 30
0.0
 10
133.3668464166943
 20
13.85416554524332
 30
0.0
 10
132.6980859431704
 20
13.85417385907473
 30
0.0
 10
131.6998724657566
 20
13.85417657924171
 30
0.0
 10
130.7105998605982
 20
13.854175632531
 30
0.0
 10
130.0544553943093
 20
13.85417524198229
 30
0.0
 10
129.7277949322328
 20
13.85417504754827
 30
0.0
  0
SPLINE
  5
F6
330
1F
100
AcDbEntity
  8
0
  6
Continuous
 62
     7
370
    15
100
AcDbSpline
210
0.0
220
0.0
230
1.0
 70
     8
 71
     3
 72
     8
 73
     4
 74
     0
 42
0.000000001
 43
0.00000001
 40
0.0
 40
0.0
 40
0.0
 40
0.0
 40
1.0
 40
1.0
 40
1.0
 40
1.0
 10
136.1602838212139
 20
13.85417480375217
 30
0.0
 10
135.3414648451182
 20
13.85463842058376
 30
0.0
 10
134.5221727771201
 20
13.8546436621978
 30
0.0
 10
133.7026207073667
 20
13.85416137099704
 30
0.0
  0
SPLINE
  5
F7
330
1F
100
AcDbEntity
  8
0
  6
Continuous
 62
     7
370
    15
100
AcDbSpline
210
0.0
220
0.0
230
1.0
 70
     8
 71
     3
 72
    13
 73
     9
 74
     0
 42
0.000000001
 43
0.00000001
 40
0.0
 40
0.0
 40
0.0
 40
0.0
 40
0.1746155548733223
 40
0.3460750649441127
 40
0.5143600624045964
 40
0.6794532457208978
 40
0.8413384170580058
 40
1.0
 40
1.0
 40
1.0
 40
1.0
 10
142.6122048001544
 20
13.85417458860938
 30
0.0
 10
142.2364249635989
 20
13.85417562772684
 30
0.0
 10
141.4916572283595
 20
13.85417768718078
 30
0.0
 10
140.384980918008
 20
13.85418551016659
 30
0.0
 10
139.299037446853
 20
13.85418902443991
 30
0.0
 10
138.2340044141473
 20
13.85418737403721
 30
0.0
 10
137.1899793705967
 20
13.85417950887868
 30
0.0
 10
136.501206783366
 20
13.85417636157737
 30
0.0
 10
136.1602838212139
 20
13.85417480375217
 30
0.0
  0
SPLINE
  5
F8
330
1F
100
AcDbEntity
  8
0
  6
Continuous
 62
     7
370
    15
100
AcDbSpline
210
0.0
220
0.0
230
1.0
 70
     8
 71
     3
 72
    13
 73
     9
 74
     0
 42
0.000000001
 43
0.00000001
 40
0.0
 40
0.0
 40
0.0
 40
0.0
 40
0.1804772819738821
 40
0.3554722951943119
 40
0.524951718238978
 40
0.6888847466498675
 40
0.8472429270221618
 40
1.0
 40
1.0
 40
1.0
 40
1.0
 10
149.0715757235349
 20
13.85417452751914
 30
0.0
 10
148.6830403030689
 20
13.85417605485917
 30
0.0
 10
147.917771809623
 20
13.8541790631439
 30
0.0
 10
146.7874662164838
 20
13.85418986200349
 30
0.0
 10
145.6927303546255
 20
13.85419345805916
 30
0.0
 10
144.6338066105041
 20
13.85418937774996
 30
0.0
 10
143.6109193120109
 20
13.85417881690221
 30
0.0
 10
142.9410899198582
 20
13.85417598102179
 30
0.0
 10
142.6122048001544
 20
13.85417458860938
 30
0.0
  0
SPLINE
  5
F9
330
1F
100
AcDbEntity
  8
0
  6
Continuous
 62
     7
370
    15
100
AcDbSpline
210
0.0
220
0.0
230
1.0
 70
     8
 71
     3
 72
     8
 73
     4
 74
     0
 42
0.000000001
 43
0.00000001
 40
0.0
 40
0.0
 40
0.0
 40
0.0
 40
1.0
 40
1.0
 40
1.0
 40
1.0
 10
150.8334496241677
 20
13.85421898381045
 30
0.0
 10
150.2469784841867
 20
13.85427770171566
 30
0.0
 10
149.65966448234
 20
13.85427045137533
 30
0.0
 10
149.0715757235349
 20
13.85417452751914
 30
0.0
  0
SPLINE
  5
FA
330
1F
100
AcDbEntity
  8
0
  6
Continuous
 62
     7
370
    15
100
AcDbSpline
210
0.0
220
0.0
230
1.0
 70
     8
 71
     3
 72
     8
 73
     4
 74
     0
 42
0.000000001
 43
0.00000001
 40
0.0
 40
0.0
 40
0.0
 40
0.0
 40
1.0
 40
1.0
 40
1.0
 40
1.0
 10
155.527835459208
 20
13.85417451411852
 30
0.0
 10
153.9699759272794
 20
13.85437433396253
 30
0.0
 10
152.4047437509988
 20
13.85453460535779
 30
0.0
 10
150.8334496241677
 20
13.85421898381045
 30
0.0
  0
SPLINE
  5
FB
330
1F
100
AcDbEntity
  8
0
  6
Continuous
 62
     7
370
    15
100
AcDbSpline
210
0.0
220
0.0
230
1.0
 70
     8
 71
     3
 72
     8
 73
     4
 74
     0
 42
0.000000001
 43
0.00000001
 40
0.0
 40
0.0
 40
0.0
 40
0.0
 40
1.0
 40
1.0
 40
1.0
 40
1.0
 10
161.9713780528789
 20
13.85417451145354
 30
0.0
 10
159.8400847380694
 20
13.85347247738822
 30
0.0
 10
157.6910673742783
 20
13.85386146595957
 30
0.0
 10
155.527835459208
 20
13.85417451411852
 30
0.0
  0
SPLINE
  5
FC
330
1F
100
AcDbEntity
  8
0
  6
Continuous
 62
     7
370
    15
100
AcDbSpline
210
0.0
220
0.0
230
1.0
 70
     8
 71
     3
 72
    11
 73
     7
 74
     0
 42
0.000000001
 43
0.00000001
 40
0.0
 40
0.0
 40
0.0
 40
0.0
 40
0.2289442131933062
 40
0.4718580281484111
 40
0.7288431902147887
 40
1.0
 40
1.0
 40
1.0
 40
1.0
 10
167.9079412597979
 20
13.85424603460716
 30
0.0
 10
167.4557485969491
 20
13.85422838280337
 30
0.0
 10
166.5237716089356
 20
13.8541920021269
 30
0.0
 10
165.0822315090317
 20
13.85416257802441
 30
0.0
 10
163.5558082368285
 20
13.85416594121791
 30
0.0
 10
162.5088854829883
 20
13.85417160405789
 30
0.0
 10
161.9713780528789
 20
13.85417451145354
 30
0.0
  0
SPLINE
  5
FD
330
1F
100
AcDbEntity
  8
0
  6
Continuous
 62
     7
370
    15
100
AcDbSpline
210
0.0
220
0.0
230
1.0
 70
     8
 71
     3
 72
     8
 73
     4
 74
     0
 42
0.000000001
 43
0.00000001
 40
0.0
 40
0.0
 40
0.0
 40
0.0
 40
1.0
 40
1.0
 40
1.0
 40
1.0
 10
167.9079277693838
 20
13.85415560380676
 30
0.0
 10
168.0697623024128
 20
13.85413127417734
 30
0.0
 10
168.231565203542
 20
13.85410703299761
 30
0.0
 10
168.3933358307323
 20
13.8540828767868
 30
0.0
  0
SPLINE
  5
FE
330
1F
100
AcDbEntity
  8
0
  6
Continuous
 62
     7
370
    15
100
AcDbSpline
210
0.0
220
0.0
230
1.0
 70
     8
 71
     3
 72
    12
 73
     8
 74
     0
 42
0.000000001
 43
0.00000001
 40
0.0
 40
0.0
 40
0.0
 40
0.0
 40
0.191381099097962
 40
0.3870186574104117
 40
0.5869848982606414
 40
0.791305712980781
 40
1.0
 40
1.0
 40
1.0
 40
1.0
 10
174.7837097017495
 20
13.85417451102144
 30
0.0
 10
174.3771591748737
 20
13.85416774550485
 30
0.0
 10
173.5550161324177
 20
13.85415406400181
 30
0.0
 10
172.3061114560106
 20
13.85411466518871
 30
0.0
 10
171.0282207989601
 20
13.85412841594547
 30
0.0
 10
169.721044447585
 20
13.85416172204978
 30
0.0
 10
168.8390295256416
 20
13.85417021818824
 30
0.0
 10
168.393352177525
 20
13.85417451124082
 30
0.0
  0
SPLINE
  5
FF
330
1F
100
AcDbEntity
  8
0
  6
Continuous
 62
     7
370
    15
100
AcDbSpline
210
0.0
220
0.0
230
1.0
 70
     8
 71
     3
 72
    12
 73
     8
 74
     0
 42
0.000000001
 43
0.00000001
 40
0.0
 40
0.0
 40
0.0
 40
0.0
 40
0.2023602293634426
 40
0.4034812094433487
 40
0.6034235047990796
 40
0.8022448177182484
 40
1.0
 40
1.0
 40
1.0
 40
1.0
 10
181.1198365674553
 20
13.8539672934328
 30
0.0
 10
180.6939153509398
 20
13.85400422625649
 30
0.0
 10
179.8446812494175
 20
13.8540778657279
 30
0.0
 10
178.571963168289
 20
13.85413349346143
 30
0.0
 10
177.3048580340176
 20
13.85416358088554
 30
0.0
 10
176.043075010933
 20
13.85417397496025
 30
0.0
 10
175.202745108598
 20
13.85417433265479
 30
0.0
 10
174.7837097017495
 20
13.85417451102144
 30
0.0
  0
SPLINE
  5
100
330
1F
100
AcDbEntity
  8
0
  6
Continuous
 62
     7
370
    15
100
AcDbSpline
210
0.0
220
0.0
230
1.0
 70
     8
 71
     3
 72
    10
 73
     6
 74
     0
 42
0.000000001
 43
0.00000001
 40
0.0
 40
0.0
 40
0.0
 40
0.0
 40
0.3168961870806551
 40
0.6501840049918045
 40
1.0
 40
1.0
 40
1.0
 40
1.0
 10
184.7481501345726
 20
13.85324019044143
 30
0.0
 10
184.3656561340996
 20
13.8534785523754
 30
0.0
 10
183.5808834190854
 20
13.85396760564639
 30
0.0
 10
182.3715312548565
 20
13.85412405650222
 30
0.0
 10
181.5437444247344
 20
13.8540203839328
 30
0.0
 10
181.1198365674553
 20
13.8539672934328
 30
0.0
  0
SPLINE
  5
101
330
1F
100
AcDbEntity
  8
0
  6
Continuous
 62
     7
370
    15
100
AcDbSpline
210
0.0
220
0.0
230
1.0
 70
     8
 71
     3
 72
     9
 73
     5
 74
     0
 42
0.000000001
 43
0.00000001
 40
0.0
 40
0.0
 40
0.0
 40
0.0
 40
0.5477043643294832
 40
1.0
 40
1.0
 40
1.0
 40
1.0
 10
187.3895477727375
 20
13.85417451083382
 30
0.0
 10
186.9079907595188
 20
13.85417992860694
 30
0.0
 10
186.0287627588286
 20
13.85418982039033
 30
0.0
 10
185.1469776781589
 20
13.85353593840821
 30
0.0
 10
184.7481501345727
 20
13.85324019044143
 30
0.0
  0
SPLINE
  5
102
330
1F
100
AcDbEntity
  8
0
  6
Continuous
 62
     7
370
    15
100
AcDbSpline
210
0.0
220
0.0
230
1.0
 70
     8
 71
     3
 72
    12
 73
     8
 74
     0
 42
0.000000001
 43
0.00000001
 40
0.0
 40
0.0
 40
0.0
 40
0.0
 40
0.210013121966854
 40
0.4149344443811662
 40
0.6148536410818944
 40
0.8098514046387751
 40
1.0
 40
1.0
 40
1.0
 40
1.0
 10
193.5846967800675
 20
13.85417451089488
 30
0.0
 10
193.1530622799605
 20
13.85417379025244
 30
0.0
 10
192.3002583227585
 20
13.8541723664396
 30
0.0
 10
191.0328956544587
 20
13.85416831819763
 30
0.0
 10
189.7939461966696
 20
13.85416836856135
 30
0.0
 10
188.5831118311383
 20
13.85417241456488
 30
0.0
 10
187.7840489368627
 20
13.85417381796739
 30
0.0
 10
187.3895477727375
 20
13.85417451083382
 30
0.0
  0
SPLINE
  5
103
330
1F
100
AcDbEntity
  8
0
  6
Continuous
 62
     7
370
    15
100
AcDbSpline
210
0.0
220
0.0
230
1.0
 70
     8
 71
     3
 72
    12
 73
     8
 74
     0
 42
0.000000001
 43
0.00000001
 40
0.0
 40
0.0
 40
0.0
 40
0.0
 40
0.2164322181823512
 40
0.4245204012367587
 40
0.6244001542510281
 40
0.8161915165529215
 40
0.9999999999999999
 40
0.9999999999999999
 40
0.9999999999999999
 40
0.9999999999999999
 10
199.7001552374928
 20
13.85417451063975
 30
0.0
 10
199.2612160775293
 20
13.85417336683159
 30
0.0
 10
198.4002600245391
 20
13.854171123312
 30
0.0
 10
197.1298909358697
 20
13.8541647642727
 30
0.0
 10
195.9069135005159
 20
13.85416487993685
 30
0.0
 10
194.7309141361496
 20
13.85417123143329
 30
0.0
 10
193.9613169748811
 20
13.85417343334061
 30
0.0
 10
193.5846967800675
 20
13.85417451089488
 30
0.0
  0
SPLINE
  5
104
330
1F
100
AcDbEntity
  8
0
  6
Continuous
 62
     7
370
    15
100
AcDbSpline
210
0.0
220
0.0
230
1.0
 70
     8
 71
     3
 72
     8
 73
     4
 74
     0
 42
0.000000001
 43
0.00000001
 40
0.0
 40
0.0
 40
0.0
 40
0.0
 40
1.0
 40
1.0
 40
1.0
 40
1.0
 10
205.7342201526797
 20
13.85417451078697
 30
0.0
 10
203.7141282536207
 20
13.85384607939777
 30
0.0
 10
201.7047119286813
 20
13.8536478115614
 30
0.0
 10
199.7001552374928
 20
13.85417451063975
 30
0.0
  0
SPLINE
  5
105
330
1F
100
AcDbEntity
  8
0
  6
Continuous
 62
     7
370
    15
100
AcDbSpline
210
0.0
220
0.0
230
1.0
 70
     8
 71
     3
 72
     8
 73
     4
 74
     0
 42
0.000000001
 43
0.00000001
 40
0.0
 40
0.0
 40
0.0
 40
0.0
 40
1.0
 40
1.0
 40
1.0
 40
1.0
 10
211.6999900668265
 20
13.85417451075655
 30
0.0
 10
209.7064777035587
 20
13.85369341358622
 30
0.0
 10
207.7154355303451
 20
13.8538516384572
 30
0.0
 10
205.7342201526797
 20
13.85417451078697
 30
0.0
  0
SPLINE
  5
106
330
1F
100
AcDbEntity
  8
0
  6
Continuous
 62
     7
370
    15
100
AcDbSpline
210
0.0
220
0.0
230
1.0
 70
     8
 71
     3
 72
     8
 73
     4
 74
     0
 42
0.000000001
 43
0.00000001
 40
0.0
 40
0.0
 40
0.0
 40
0.0
 40
1.0
 40
1.0
 40
1.0
 40
1.0
 10
217.0976181602151
 20
13.85460562718177
 30
0.0
 10
215.2999253186768
 20
13.85370592456492
 30
0.0
 10
213.4989392848182
 20
13.8536776085123
 30
0.0
 10
211.6999900668265
 20
13.85417451075655
 30
0.0
  0
SPLINE
  5
107
330
1F
100
AcDbEntity
  8
0
  6
Continuous
 62
     7
370
    15
100
AcDbSpline
210
0.0
220
0.0
230
1.0
 70
     8
 71
     3
 72
     8
 73
     4
 74
     0
 42
0.000000001
 43
0.00000001
 40
0.0
 40
0.0
 40
0.0
 40
0.0
 40
1.0
 40
1.0
 40
1.0
 40
1.0
 10
217.0974430777267
 20
13.85417303780678
 30
0.0
 10
217.2652687411186
 20
13.85404362715348
 30
0.0
 10
217.4329981782273
 20
13.85391428573457
 30
0.0
 10
217.6006311742028
 20
13.85378501025847
 30
0.0
  0
SPLINE
  5
108
330
1F
100
AcDbEntity
  8
0
  6
Continuous
 62
     7
370
    15
100
AcDbSpline
210
0.0
220
0.0
230
1.0
 70
     8
 71
     3
 72
    11
 73
     7
 74
     0
 42
0.000000001
 43
0.00000001
 40
0.0
 40
0.0
 40
0.0
 40
0.0
 40
0.2394893939907856
 40
0.4860646464549692
 40
0.7396118877929346
 40
1.0
 40
1.0
 40
1.0
 40
1.0
 10
223.433252869658
 20
13.85417451087889
 30
0.0
 10
222.970372017788
 20
13.85417377968845
 30
0.0
 10
222.0309148925024
 20
13.85417229567398
 30
0.0
 10
220.5952742027886
 20
13.85416938548945
 30
0.0
 10
219.1147926974968
 20
13.85417226617558
 30
0.0
 10
218.1099160787786
 20
13.85417375619569
 30
0.0
 10
217.6007899329624
 20
13.85417451112247
 30
0.0
  0
SPLINE
  5
109
330
1F
100
AcDbEntity
  8
0
  6
Continuous
 62
     7
370
    15
100
AcDbSpline
210
0.0
220
0.0
230
1.0
 70
     8
 71
     3
 72
    11
 73
     7
 74
     0
 42
0.000000001
 43
0.00000001
 40
0.0
 40
0.0
 40
0.0
 40
0.0
 40
0.2418591822908706
 40
0.4892020995220374
 40
0.7419469582984763
 40
1.0
 40
1.0
 40
1.0
 40
1.0
 10
229.192829566289
 20
13.85417451108184
 30
0.0
 10
228.7314158779844
 20
13.85417396627608
 30
0.0
 10
227.7981267511098
 20
13.85417286431223
 30
0.0
 10
226.3760430397993
 20
13.85417070892592
 30
0.0
 10
224.9183975540712
 20
13.85417284987089
 30
0.0
 10
223.9317189339556
 20
13.85417395338706
 30
0.0
 10
223.433252869658
 20
13.85417451087889
 30
0.0
  0
SPLINE
  5
10A
330
1F
100
AcDbEntity
  8
0
  6
Continuous
 62
     7
370
    15
100
AcDbSpline
210
0.0
220
0.0
230
1.0
 70
     8
 71
     3
 72
     8
 73
     4
 74
     0
 42
0.000000001
 43
0.00000001
 40
0.0
 40
0.0
 40
0.0
 40
0.0
 40
1.0
 40
1.0
 40
1.0
 40
1.0
 10
232.4648997874802
 20
13.85420518317404
 30
0.0
 10
231.3808210306491
 20
13.85349057840068
 30
0.0
 10
230.2897196629774
 20
13.85350734497437
 30
0.0
 10
229.192829566289
 20
13.85417451108184
 30
0.0
  0
SPLINE
  5
10B
330
1F
100
AcDbEntity
  8
0
  6
Continuous
 62
     7
370
    15
100
AcDbSpline
210
0.0
220
0.0
230
1.0
 70
     8
 71
     3
 72
     8
 73
     4
 74
     0
 42
0.000000001
 43
0.00000001
 40
0.0
 40
0.0
 40
0.0
 40
0.0
 40
1.0
 40
1.0
 40
1.0
 40
1.0
 10
234.8733817190363
 20
13.85417451105742
 30
0.0
 10
234.0747652653507
 20
13.85375650677423
 30
0.0
 10
233.2717703371203
 20
13.85377774297414
 30
0.0
 10
232.4648997874802
 20
13.85420518317404
 30
0.0
  0
SPLINE
  5
10C
330
1F
100
AcDbEntity
  8
0
  6
Continuous
 62
     7
370
    15
100
AcDbSpline
210
0.0
220
0.0
230
1.0
 70
     8
 71
     3
 72
    10
 73
     6
 74
     0
 42
0.000000001
 43
0.00000001
 40
0.0
 40
0.0
 40
0.0
 40
0.0
 40
0.3313406396153583
 40
0.6646935886526141
 40
1.0
 40
1.0
 40
1.0
 40
1.0
 10
238.1607935953909
 20
13.85415268814993
 30
0.0
 10
237.7991999209895
 20
13.85415297933634
 30
0.0
 10
237.0738165289886
 20
13.8541535634773
 30
0.0
 10
235.9779818194823
 20
13.85416951105767
 30
0.0
 10
235.2422981762334
 20
13.85417284114787
 30
0.0
 10
234.8733817190363
 20
13.85417451105742
 30
0.0
  0
SPLINE
  5
10D
330
1F
100
AcDbEntity
  8
0
  6
Continuous
 62
     7
370
    15
100
AcDbSpline
210
0.0
220
0.0
230
1.0
 70
     8
 71
     3
 72
    26
 73
    22
 74
     0
 42
0.000000001
 43
0.00000001
 40
115.2243468806335
 40
115.2243468806335
 40
115.2243468806335
 40
115.2243468806335
 40
159.9581868816335
 40
204.6920268826336
 40
249.4258668836336
 40
294.1597068846336
 40
316.5266268846335
 40
338.8935468856336
 40
361.2604668856335
 40
383.6273868866335
 40
405.9943068866336
 40
428.3612268876335
 40
450.7281468876336
 40
473.0950668886336
 40
495.4619868886335
 40
517.8289068886336
 40
540.1958268896335
 40
562.5627468896336
 40
584.9296668906336
 40
607.2965868906335
 40
626.273760013
 40
626.273760013
 40
626.273760013
 40
626.273760013
 10
178.4940610024869
 20
-318.0720373631931
 30
0.0
 10
184.8596501401041
 20
-313.450968713193
 30
0.0
 10
197.4409398050187
 20
-303.8182900921931
 30
0.0
 10
216.4209663812869
 20
-289.7999771331932
 30
0.0
 10
236.0661532857949
 20
-277.814698080193
 30
0.0
 10
251.5615172474284
 20
-264.3529701441931
 30
0.0
 10
262.5914110314428
 20
-248.398276374193
 30
0.0
 10
269.9153230328544
 20
-234.021980767193
 30
0.0
 10
276.0266543381598
 20
-217.4177903161931
 30
0.0
 10
280.6646181471104
 20
-198.7680854541931
 30
0.0
 10
283.5692033343133
 20
-178.255246613193
 30
0.0
 10
284.8024645696265
 20
-156.5333966471931
 30
0.0
 10
284.414957340556
 20
-134.2566584091931
 30
0.0
 10
282.4414879872982
 20
-112.0791547541931
 30
0.0
 10
278.8975607410417
 20
-90.6550085331932
 30
0.0
 10
274.0058194706446
 20
-70.12239142119303
 30
0.0
 10
267.9873683969009
 20
-50.61947509119302
 30
0.0
 10
261.0647390742443
 20
-32.28443121719305
 30
0.0
 10
253.4665545965362
 20
-15.2554314721931
 30
0.0
 10
245.7642913889905
 20
-0.0091854017767456
 30
0.0
 10
240.5692317504785
 20
9.521778097226319
 30
0.0
 10
238.1607935953909
 20
13.85415268815016
 30
0.0
  0
SPLINE
  5
10E
330
1F
100
AcDbEntity
  8
0
  6
Continuous
 62
     7
370
    15
100
AcDbSpline
210
0.0
220
0.0
230
1.0
 70
     8
 71
     3
 72
     9
 73
     5
 74
     0
 42
0.000000001
 43
0.00000001
 40
0.0
 40
0.0
 40
0.0
 40
0.0
 40
0.5389833801141231
 40
1.0
 40
1.0
 40
1.0
 40
1.0
 10
178.4940576916729
 20
-318.0720261737382
 30
0.0
 10
178.4064888234886
 20
-318.0869467070284
 30
0.0
 10
178.2440183811428
 20
-318.1146294405613
 30
0.0
 10
178.0714606089281
 20
-318.1503285812593
 30
0.0
 10
177.9919086080467
 20
-318.1667864784368
 30
0.0
  0
SPLINE
  5
10F
330
1F
100
AcDbEntity
  8
0
  6
Continuous
 62
     7
370
    15
100
AcDbSpline
210
0.0
220
0.0
230
1.0
 70
     8
 71
     3
 72
    13
 73
     9
 74
     0
 42
0.000000001
 43
0.00000001
 40
0.0
 40
0.0
 40
0.0
 40
0.0
 40
0.1122102777518738
 40
0.23278488269736
 40
0.3620933320386669
 40
0.5004229801256799
 40
0.7636429935340348
 40
1.0
 40
1.0
 40
1.0
 40
1.0
 10
177.9919086080466
 20
-318.1667864784368
 30
0.0
 10
177.9517296361603
 20
-318.1756384093903
 30
0.0
 10
177.8683766898452
 20
-318.1940021078851
 30
0.0
 10
177.7364159135813
 20
-318.2252483659642
 30
0.0
 10
177.5939519038563
 20
-318.2603460727655
 30
0.0
 10
177.398122950244
 20
-318.3105358240925
 30
0.0
 10
177.1615229149898
 20
-318.3733318564394
 30
0.0
 10
176.9766125997888
 20
-318.4268016860048
 30
0.0
 10
176.8891288949207
 20
-318.4520990242521
 30
0.0
  0
SPLINE
  5
110
330
1F
100
AcDbEntity
  8
0
  6
Continuous
 62
     7
370
    15
100
AcDbSpline
210
0.0
220
0.0
230
1.0
 70
     8
 71
     3
 72
     8
 73
     4
 74
     0
 42
0.000000001
 43
0.00000001
 40
0.0
 40
0.0
 40
0.0
 40
0.0
 40
1.0
 40
1.0
 40
1.0
 40
1.0
 10
247.1860834242057
 20
13.853841693511
 30
0.0
 10
246.7757406778144
 20
13.85380752511578
 30
0.0
 10
246.3639783451655
 20
13.85391837400651
 30
0.0
 10
245.9507863222943
 20
13.8541744920524
 30
0.0
  0
SPLINE
  5
111
330
1F
100
AcDbEntity
  8
0
  6
Continuous
 62
     7
370
    15
100
AcDbSpline
210
0.0
220
0.0
230
1.0
 70
     8
 71
     3
 72
    11
 73
     7
 74
     0
 42
0.000000001
 43
0.00000001
 40
0.0
 40
0.0
 40
0.0
 40
0.0
 40
0.2547938681872192
 40
0.506387063743912
 40
0.7547870559773057
 40
1.0
 40
1.0
 40
1.0
 40
1.0
 10
251.3212902267509
 20
13.85417452963345
 30
0.0
 10
250.9726134768463
 20
13.85417407093525
 30
0.0
 10
250.2796399887629
 20
13.85417315930115
 30
0.0
 10
249.240952005586
 20
13.85413536831792
 30
0.0
 10
248.2117625367282
 20
13.85404726331041
 30
0.0
 10
247.5265016492811
 20
13.85390992119095
 30
0.0
 10
247.1860834242057
 20
13.853841693511
 30
0.0
  0
SPLINE
  5
112
330
1F
100
AcDbEntity
  8
0
  6
Continuous
 62
     7
370
    15
100
AcDbSpline
210
0.0
220
0.0
230
1.0
 70
     8
 71
     3
 72
    12
 73
     8
 74
     0
 42
0.000000001
 43
0.00000001
 40
0.0
 40
0.0
 40
0.0
 40
0.0
 40
0.1997423995536107
 40
0.399596936511028
 40
0.5995801847250287
 40
0.7997088980935455
 40
1.0
 40
1.0
 40
1.0
 40
1.0
 10
256.5691707832031
 20
13.85417537976164
 30
0.0
 10
256.223430690319
 20
13.85417494401087
 30
0.0
 10
255.5317564025649
 20
13.85417407226441
 30
0.0
 10
254.4875611758624
 20
13.85417386135557
 30
0.0
 10
253.4379906436223
 20
13.85417404194422
 30
0.0
 10
252.3829794977347
 20
13.854174440735
 30
0.0
 10
251.6752823182637
 20
13.85417449999249
 30
0.0
 10
251.3212902267509
 20
13.85417452963345
 30
0.0
  0
SPLINE
  5
113
330
1F
100
AcDbEntity
  8
0
  6
Continuous
 62
     7
370
    15
100
AcDbSpline
210
0.0
220
0.0
230
1.0
 70
     8
 71
     3
 72
    21
 73
    17
 74
     0
 42
0.000000001
 43
0.00000001
 40
0.0
 40
0.0
 40
0.0
 40
0.0
 40
0.0626717217461619
 40
0.1235655438421801
 40
0.1826786752957836
 40
0.2400086581822687
 40
0.2955533552109377
 40
0.3493109357256656
 40
0.4012798603754886
 40
0.4514591716202552
 40
0.4998503988451563
 40
0.5998235038768885
 40
0.6998011706782203
 40
0.7998068817116036
 40
0.899864855558568
 40
1.0
 40
1.0
 40
1.0
 40
1.0
 10
274.0856809475429
 20
13.85421157979105
 30
0.0
 10
273.7376777157144
 20
13.85420204325438
 30
0.0
 10
273.0515435645913
 20
13.85418324071774
 30
0.0
 10
272.0282288112333
 20
13.85410416099853
 30
0.0
 10
271.0287730958996
 20
13.85403135588059
 30
0.0
 10
270.0532226726569
 20
13.85398028037343
 30
0.0
 10
269.1023915547178
 20
13.85396417667617
 30
0.0
 10
268.1768609204307
 20
13.85398623707257
 30
0.0
 10
267.2772368697985
 20
13.85403858396872
 30
0.0
 10
266.4040622920322
 20
13.85411785094237
 30
0.0
 10
265.2468087263033
 20
13.85416719490928
 30
0.0
 10
263.7886863713044
 20
13.85415364631348
 30
0.0
 10
262.0105248293929
 20
13.85416898026159
 30
0.0
 10
260.2147520500276
 20
13.85417322611504
 30
0.0
 10
258.4026342519418
 20
13.8541770839582
 30
0.0
 10
257.1804823114671
 20
13.85417594797311
 30
0.0
 10
256.5691707832032
 20
13.85417537976164
 30
0.0
  0
SPLINE
  5
114
330
1F
100
AcDbEntity
  8
0
  6
Continuous
 62
     7
370
    15
100
AcDbSpline
210
0.0
220
0.0
230
1.0
 70
     8
 71
     3
 72
    15
 73
    11
 74
     0
 42
0.000000001
 43
0.00000001
 40
0.0
 40
0.0
 40
0.0
 40
0.0
 40
0.0803068950495262
 40
0.1704595014723027
 40
0.2704701214468878
 40
0.3803505878007039
 40
0.5001116066796679
 40
0.7292097958744187
 40
0.8958784312478064
 40
1.0
 40
1.0
 40
1.0
 40
1.0
 10
285.1328401283375
 20
13.85417451805404
 30
0.0
 10
284.8498069697847
 20
13.85418373720992
 30
0.0
 10
284.249040484201
 20
13.85420330580023
 30
0.0
 10
283.2858210812871
 20
13.85426115763133
 30
0.0
 10
282.2082730721646
 20
13.85426705396187
 30
0.0
 10
281.0126361280811
 20
13.85420773002544
 30
0.0
 10
279.3315333976501
 20
13.85418283990747
 30
0.0
 10
277.4127389151792
 20
13.85397489132179
 30
0.0
 10
275.5223576326476
 20
13.85401690787558
 30
0.0
 10
274.484678901367
 20
13.85415751495045
 30
0.0
 10
274.0856809475429
 20
13.85421157979105
 30
0.0
  0
SPLINE
  5
115
330
1F
100
AcDbEntity
  8
0
  6
Continuous
 62
     7
370
    15
100
AcDbSpline
210
0.0
220
0.0
230
1.0
 70
     8
 71
     3
 72
    12
 73
     8
 74
     0
 42
0.000000001
 43
0.00000001
 40
0.0
 40
0.0
 40
0.0
 40
0.0
 40
0.1863245100180876
 40
0.3794797120092292
 40
0.5794729479180699
 40
0.786311005198396
 40
1.0
 40
1.0
 40
1.0
 40
1.0
 10
289.3411836491082
 20
13.85417488750895
 30
0.0
 10
289.084777424378
 20
13.85417657999999
 30
0.0
 10
288.562565073955
 20
13.85418002702887
 30
0.0
 10
287.7567557767978
 20
13.85419036459568
 30
0.0
 10
286.9157414489131
 20
13.85419058192672
 30
0.0
 10
286.0388934989631
 20
13.85418026402818
 30
0.0
 10
285.4381203793766
 20
13.8541764540685
 30
0.0
 10
285.1328401283375
 20
13.85417451805404
 30
0.0
  0
SPLINE
  5
116
330
1F
100
AcDbEntity
  8
0
  6
Continuous
 62
     7
370
    15
100
AcDbSpline
210
0.0
220
0.0
230
1.0
 70
     8
 71
     3
 72
    12
 73
     8
 74
     0
 42
0.000000001
 43
0.00000001
 40
0.0
 40
0.0
 40
0.0
 40
0.0
 40
0.2005774625272134
 40
0.4008627684013173
 40
0.600862467636068
 40
0.8005765774433183
 40
0.9999999999999999
 40
0.9999999999999999
 40
0.9999999999999999
 40
0.9999999999999999
 10
293.3670134690264
 20
13.85378453391195
 30
0.0
 10
293.1034054025712
 20
13.85385903272973
 30
0.0
 10
292.5765732352841
 20
13.85400792185187
 30
0.0
 10
291.7772544322581
 20
13.85415731638751
 30
0.0
 10
290.9719944873433
 20
13.85421179026469
 30
0.0
 10
290.1608483191274
 20
13.85418955544448
 30
0.0
 10
289.6142725175022
 20
13.85417977444625
 30
0.0
 10
289.3411836491082
 20
13.85417488750895
 30
0.0
  0
SPLINE
  5
117
330
1F
100
AcDbEntity
  8
0
  6
Continuous
 62
     7
370
    15
100
AcDbSpline
210
0.0
220
0.0
230
1.0
 70
     8
 71
     3
 72
    12
 73
     8
 74
     0
 42
0.000000001
 43
0.00000001
 40
0.0
 40
0.0
 40
0.0
 40
0.0
 40
0.2124052130703304
 40
0.4186101003002732
 40
0.6186127876613556
 40
0.8124105722074799
 40
1.0
 40
1.0
 40
1.0
 40
1.0
 10
296.674009514056
 20
13.85346454287428
 30
0.0
 10
296.4442860333717
 20
13.85359856934221
 30
0.0
 10
295.9915449358227
 20
13.85386270990807
 30
0.0
 10
295.3146739701721
 20
13.85403873388147
 30
0.0
 10
294.6527198097062
 20
13.85407345429979
 30
0.0
 10
294.0061694615092
 20
13.85398632241586
 30
0.0
 10
293.5777407615781
 20
13.85385106281189
 30
0.0
 10
293.3670134690263
 20
13.85378453391195
 30
0.0
  0
SPLINE
  5
118
330
1F
100
AcDbEntity
  8
0
  6
Continuous
 62
     7
370
    15
100
AcDbSpline
210
0.0
220
0.0
230
1.0
 70
     8
 71
     3
 72
    21
 73
    17
 74
     0
 42
0.000000001
 43
0.00000001
 40
0.0
 40
0.0
 40
0.0
 40
0.0
 40
0.0366416413480637
 40
0.0752827465937747
 40
0.1159215505720179
 40
0.1585563428338901
 40
0.203185484903778
 40
0.2498074288837809
 40
0.4016309692954148
 40
0.4997203928336345
 40
0.5949656192268815
 40
0.6854479581839352
 40
0.7711840588995121
 40
0.8521848409440925
 40
0.928456202845558
 40
1.0
 40
1.0
 40
1.0
 40
1.0
 10
313.7064954993715
 20
13.85356263099058
 30
0.0
 10
313.5353838375045
 20
13.85359769812289
 30
0.0
 10
313.1838232794714
 20
13.85366974593372
 30
0.0
 10
312.6308069511706
 20
13.85375501470931
 30
0.0
 10
312.0396719726205
 20
13.85383237717819
 30
0.0
 10
311.4080655346012
 20
13.85390035311507
 30
0.0
 10
310.7346825172971
 20
13.85396536218431
 30
0.0
 10
309.4889085935981
 20
13.85403995350454
 30
0.0
 10
307.9074471253001
 20
13.85433461509922
 30
0.0
 10
305.9787675632487
 20
13.8540810434058
 30
0.0
 10
304.3369172104882
 20
13.85423805720354
 30
0.0
 10
302.716040815926
 20
13.85437627778763
 30
0.0
 10
301.1357745968356
 20
13.8543603376311
 30
0.0
 10
299.6028390432795
 20
13.85414908484561
 30
0.0
 10
298.127252160208
 20
13.8537817375759
 30
0.0
 10
297.1479837656146
 20
13.85356799574344
 30
0.0
 10
296.6740095140559
 20
13.85346454287428
 30
0.0
  0
SPLINE
  5
119
330
1F
100
AcDbEntity
  8
0
  6
Continuous
 62
     7
370
    15
100
AcDbSpline
210
0.0
220
0.0
230
1.0
 70
     8
 71
     3
 72
    17
 73
    13
 74
     0
 42
0.000000001
 43
0.00000001
 40
0.0
 40
0.0
 40
0.0
 40
0.0
 40
0.1088720072591859
 40
0.2157614930905122
 40
0.3206729737955916
 40
0.4236107209304634
 40
0.5245787729119514
 40
0.6235809461775818
 40
0.7206208459071576
 40
0.8157018763142864
 40
0.9088272505174867
 40
1.0
 40
1.0
 40
1.0
 40
1.0
 10
318.0982000082587
 20
13.85417421577451
 30
0.0
 10
317.951725634499
 20
13.85417504074393
 30
0.0
 10
317.6614441344377
 20
13.8541766756608
 30
0.0
 10
317.2188166301138
 20
13.85418487623058
 30
0.0
 10
316.776537666332
 20
13.85418811686012
 30
0.0
 10
316.3342892025675
 20
13.85418052445209
 30
0.0
 10
315.8927504924645
 20
13.85415551963698
 30
0.0
 10
315.4523126914765
 20
13.85410707284995
 30
0.0
 10
315.0134814392504
 20
13.85402994867069
 30
0.0
 10
314.5765270075541
 20
13.85391748646359
 30
0.0
 10
314.1424627782769
 20
13.85376989533538
 30
0.0
 10
313.850787834329
 20
13.8536312293871
 30
0.0
 10
313.7064954993715
 20
13.85356263099058
 30
0.0
  0
SPLINE
  5
11A
330
1F
100
AcDbEntity
  8
0
  6
Continuous
 62
     7
370
    15
100
AcDbSpline
210
0.0
220
0.0
230
1.0
 70
     8
 71
     3
 72
     8
 73
     4
 74
     0
 42
0.000000001
 43
0.00000001
 40
0.0
 40
0.0
 40
0.0
 40
0.0
 40
1.0
 40
1.0
 40
1.0
 40
1.0
 10
320.1852771922618
 20
13.85417447876702
 30
0.0
 10
319.5276483346619
 20
13.85378781308688
 30
0.0
 10
318.8317579991872
 20
13.85381251611806
 30
0.0
 10
318.0982000082587
 20
13.85417421577451
 30
0.0
  0
SPLINE
  5
11B
330
1F
100
AcDbEntity
  8
0
  6
Continuous
 62
     7
370
    15
100
AcDbSpline
210
0.0
220
0.0
230
1.0
 70
     8
 71
     3
 72
     8
 73
     4
 74
     0
 42
0.000000001
 43
0.00000001
 40
0.0
 40
0.0
 40
0.0
 40
0.0
 40
1.0
 40
1.0
 40
1.0
 40
1.0
 10
322.0396571651539
 20
13.85406118621657
 30
0.0
 10
321.4599165403404
 20
13.85364183269044
 30
0.0
 10
320.8416042101909
 20
13.85370400893482
 30
0.0
 10
320.1852771922618
 20
13.85417447876702
 30
0.0
  0
SPLINE
  5
11C
330
1F
100
AcDbEntity
  8
0
  6
Continuous
 62
     7
370
    15
100
AcDbSpline
210
0.0
220
0.0
230
1.0
 70
     8
 71
     3
 72
     8
 73
     4
 74
     0
 42
0.000000001
 43
0.00000001
 40
0.0
 40
0.0
 40
0.0
 40
0.0
 40
1.0
 40
1.0
 40
1.0
 40
1.0
 10
323.6601194935008
 20
13.85417423749158
 30
0.0
 10
323.1580654195293
 20
13.85402490370602
 30
0.0
 10
322.6181241083567
 20
13.85372177311184
 30
0.0
 10
322.0396571651539
 20
13.85406118621657
 30
0.0
  0
SPLINE
  5
11D
330
1F
100
AcDbEntity
  8
0
  6
Continuous
 62
     7
370
    15
100
AcDbSpline
210
0.0
220
0.0
230
1.0
 70
     8
 71
     3
 72
     8
 73
     4
 74
     0
 42
0.000000001
 43
0.00000001
 40
0.0
 40
0.0
 40
0.0
 40
0.0
 40
1.0
 40
1.0
 40
1.0
 40
1.0
 10
324.3863299562908
 20
13.85391971005068
 30
0.0
 10
324.1536587142339
 20
13.85414906662641
 30
0.0
 10
323.911628967837
 20
13.85419003690314
 30
0.0
 10
323.6601194935008
 20
13.85417423749158
 30
0.0
  0
SPLINE
  5
11E
330
1F
100
AcDbEntity
  8
0
  6
Continuous
 62
     7
370
    15
100
AcDbSpline
210
0.0
220
0.0
230
1.0
 70
     8
 71
     3
 72
    17
 73
    13
 74
     0
 42
0.000000001
 43
0.00000001
 40
0.0
 40
0.0
 40
0.0
 40
0.0
 40
0.0775131763336702
 40
0.1573782464598864
 40
0.2395916568974216
 40
0.3241489942109312
 40
0.4110449378402095
 40
0.5002732919636622
 40
0.6092199084918093
 40
0.7288411269785591
 40
0.8591125455399874
 40
1.0
 40
1.0
 40
1.0
 40
1.0
 10
327.1466260831203
 20
13.85417493390051
 30
0.0
 10
327.0927488824728
 20
13.85417758909524
 30
0.0
 10
326.983359746804
 20
13.85418298004826
 30
0.0
 10
326.8056140077142
 20
13.85420230215639
 30
0.0
 10
326.6139107789612
 20
13.85421067294379
 30
0.0
 10
326.4066228376032
 20
13.85420334535614
 30
0.0
 10
326.1831492436252
 20
13.8541834995809
 30
0.0
 10
325.9269119689473
 20
13.85414874265711
 30
0.0
 10
325.6264432027396
 20
13.85416871258349
 30
0.0
 10
325.2673602003343
 20
13.85416994118116
 30
0.0
 10
324.8550611646738
 20
13.85407355238177
 30
0.0
 10
324.5465991842164
 20
13.853972312035
 30
0.0
 10
324.3863299562908
 20
13.85391971005068
 30
0.0
  0
SPLINE
  5
11F
330
1F
100
AcDbEntity
  8
0
  6
Continuous
 62
     7
370
    15
100
AcDbSpline
210
0.0
220
0.0
230
1.0
 70
     8
 71
     3
 72
    12
 73
     8
 74
     0
 42
0.000000001
 43
0.00000001
 40
0.0
 40
0.0
 40
0.0
 40
0.0
 40
0.1925646398887057
 40
0.3888548331997873
 40
0.5888633525928642
 40
0.7925816869467105
 40
1.0
 40
1.0
 40
1.0
 40
1.0
 10
327.8560013723942
 20
13.85417469860517
 30
0.0
 10
327.8169337624624
 20
13.85417561559499
 30
0.0
 10
327.7380427004673
 20
13.85417746731554
 30
0.0
 10
327.6076483728166
 20
13.85418229929458
 30
0.0
 10
327.4662601403426
 20
13.85418217259526
 30
0.0
 10
327.3134438626787
 20
13.85417711368375
 30
0.0
 10
327.2025646247781
 20
13.85417566484115
 30
0.0
 10
327.1466260831203
 20
13.85417493390051
 30
0.0
  0
SPLINE
  5
120
330
1F
100
AcDbEntity
  8
0
  6
Continuous
 62
     7
370
    15
100
AcDbSpline
210
0.0
220
0.0
230
1.0
 70
     8
 71
     3
 72
    12
 73
     8
 74
     0
 42
0.000000001
 43
0.00000001
 40
0.0
 40
0.0
 40
0.0
 40
0.0
 40
0.1948882580599605
 40
0.3923383340100864
 40
0.5923464327916761
 40
0.7949036021424524
 40
1.0
 40
1.0
 40
1.0
 40
1.0
 10
328.3380782265796
 20
13.85417456792037
 30
0.0
 10
328.3133514181715
 20
13.85417953187584
 30
0.0
 10
328.2635727659693
 20
13.85418952503836
 30
0.0
 10
328.1772184945861
 20
13.85420320383823
 30
0.0
 10
328.0811326502988
 20
13.85419530362841
 30
0.0
 10
327.9750157285862
 20
13.85418016796169
 30
0.0
 10
327.8958372224798
 20
13.85417652927901
 30
0.0
 10
327.8560013723942
 20
13.85417469860517
 30
0.0
  0
SPLINE
  5
121
330
1F
100
AcDbEntity
  8
0
  6
Continuous
 62
     7
370
    15
100
AcDbSpline
210
0.0
220
0.0
230
1.0
 70
     8
 71
     3
 72
    11
 73
     7
 74
     0
 42
0.000000001
 43
0.00000001
 40
0.0
 40
0.0
 40
0.0
 40
0.0
 40
0.2512508627783722
 40
0.5016699077360985
 40
0.7512539548588498
 40
1.0
 40
1.0
 40
1.0
 40
1.0
 10
328.5624672900006
 20
13.85421482355942
 30
0.0
 10
328.5491243350756
 20
13.85420832843343
 30
0.0
 10
328.5224825998311
 20
13.85419535968468
 30
0.0
 10
328.4703366649487
 20
13.85418347829659
 30
0.0
 10
328.4102273021027
 20
13.85417588262094
 30
0.0
 10
328.3621009416663
 20
13.85417500566222
 30
0.0
 10
328.3380782265796
 20
13.85417456792037
 30
0.0
  0
SPLINE
  5
122
330
1F
100
AcDbEntity
  8
0
  6
Continuous
 62
     7
370
    15
100
AcDbSpline
210
0.0
220
0.0
230
1.0
 70
     8
 71
     3
 72
     8
 73
     4
 74
     0
 42
0.000000001
 43
0.00000001
 40
0.0
 40
0.0
 40
0.0
 40
0.0
 40
1.0
 40
1.0
 40
1.0
 40
1.0
 10
328.5624290804752
 20
13.85417923280685
 30
0.0
 10
328.5734787874503
 20
13.85415870187789
 30
0.0
 10
328.5832765971969
 20
13.85413815531655
 30
0.0
 10
328.5918259545497
 20
13.85411759339572
 30
0.0
  0
SPLINE
  5
123
330
1F
100
AcDbEntity
  8
0
  6
Continuous
 62
     7
370
    15
100
AcDbSpline
210
0.0
220
0.0
230
1.0
 70
     8
 71
     3
 72
    13
 73
     9
 74
     0
 42
0.000000001
 43
0.00000001
 40
0.0
 40
0.0
 40
0.0
 40
0.0
 40
0.1125697794417025
 40
0.2332647029302425
 40
0.362455662562792
 40
0.5004325326657777
 40
0.7630315639410765
 40
1.0
 40
1.0
 40
1.0
 40
1.0
 10
176.3793758768023
 20
-319.8388033958755
 30
0.0
 10
176.4194963251609
 20
-319.8303978628796
 30
0.0
 10
176.5026330650054
 20
-319.8129800961667
 30
0.0
 10
176.6340667938528
 20
-319.7831014358017
 30
0.0
 10
176.7756637485987
 20
-319.7494028631369
 30
0.0
 10
176.970025656513
 20
-319.7009743300603
 30
0.0
 10
177.2051223818074
 20
-319.6398733990962
 30
0.0
 10
177.3887654637004
 20
-319.5870829455043
 30
0.0
 10
177.4758760478653
 20
-319.5620419409464
 30
0.0
  0
SPLINE
  5
124
330
1F
100
AcDbEntity
  8
0
  6
Continuous
 62
     7
370
    15
100
AcDbSpline
210
0.0
220
0.0
230
1.0
 70
     8
 71
     3
 72
    13
 73
     9
 74
     0
 42
0.000000001
 43
0.00000001
 40
0.0
 40
0.0
 40
0.0
 40
0.0
 40
0.1246549939082426
 40
0.2494455164752009
 40
0.3746844404650483
 40
0.5006813530038926
 40
0.742501871914547
 40
1.0
 40
1.0
 40
1.0
 40
1.0
 10
177.4758760478653
 20
-319.5620419409464
 30
0.0
 10
177.5231866657093
 20
-319.5479266992747
 30
0.0
 10
177.6178593389241
 20
-319.5196808694163
 30
0.0
 10
177.7587159855932
 20
-319.4755982105451
 30
0.0
 10
177.8986440681625
 20
-319.4302368757545
 30
0.0
 10
178.0795957750965
 20
-319.3692035527134
 30
0.0
 10
178.3044133828263
 20
-319.2893371928025
 30
0.0
 10
178.4762099104702
 20
-319.2233960926514
 30
0.0
 10
178.5648052083747
 20
-319.1893903330929
 30
0.0
  0
SPLINE
  5
125
330
1F
100
AcDbEntity
  8
0
  6
Continuous
 62
     7
370
    15
100
AcDbSpline
210
0.0
220
0.0
230
1.0
 70
     8
 71
     3
 72
    13
 73
     9
 74
     0
 42
0.000000001
 43
0.00000001
 40
0.0
 40
0.0
 40
0.0
 40
0.0
 40
0.1310252866183192
 40
0.2576859921743554
 40
0.380336352258667
 40
0.4993670680480323
 40
0.7475147073819645
 40
1.0
 40
1.0
 40
1.0
 40
1.0
 10
178.5648052083747
 20
-319.1893903330929
 30
0.0
 10
178.6104926634958
 20
-319.1713957919968
 30
0.0
 10
178.7003456797085
 20
-319.1360061256523
 30
0.0
 10
178.8282759199391
 20
-319.0830433651752
 30
0.0
 10
178.9481186238472
 20
-319.0313503047761
 30
0.0
 10
179.1005359890084
 20
-318.9622201201536
 30
0.0
 10
179.2800380786324
 20
-318.8742243556615
 30
0.0
 10
179.4014608215943
 20
-318.8043908679292
 30
0.0
 10
179.4626982169604
 20
-318.7691715935681
 30
0.0
  0
SPLINE
  5
126
330
1F
100
AcDbEntity
  8
0
  6
Continuous
 62
     7
370
    15
100
AcDbSpline
210
0.0
220
0.0
230
1.0
 70
     8
 71
     3
 72
    14
 73
    10
 74
     0
 42
0.000000001
 43
0.00000001
 40
0.0
 40
0.0
 40
0.0
 40
0.0
 40
0.1375251616625746
 40
0.2762364829598205
 40
0.4165036578343451
 40
0.5586888067188548
 40
0.7031317308560808
 40
0.8501410134643922
 40
0.9999999999999999
 40
0.9999999999999999
 40
0.9999999999999999
 40
0.9999999999999999
 10
179.4626982169604
 20
-318.7691715935681
 30
0.0
 10
179.4940288645505
 20
-318.7500897227908
 30
0.0
 10
179.5569603877317
 20
-318.711761399391
 30
0.0
 10
179.6427181767187
 20
-318.6549147860236
 30
0.0
 10
179.7224665196632
 20
-318.5983682944342
 30
0.0
 10
179.7956264952459
 20
-318.5422048086879
 30
0.0
 10
179.8622989484146
 20
-318.4864756666483
 30
0.0
 10
179.9231943679373
 20
-318.431066055525
 30
0.0
 10
179.9580828576119
 20
-318.3950732505345
 30
0.0
 10
179.9756945535991
 20
-318.3769040966064
 30
0.0
  0
SPLINE
  5
127
330
1F
100
AcDbEntity
  8
0
  6
Continuous
 62
     7
370
    15
100
AcDbSpline
210
0.0
220
0.0
230
1.0
 70
     8
 71
     3
 72
    13
 73
     9
 74
     0
 42
0.000000001
 43
0.00000001
 40
0.0
 40
0.0
 40
0.0
 40
0.0
 40
0.1316577988222037
 40
0.2585194122949088
 40
0.3809372517280358
 40
0.4992988999085412
 40
0.7478193364826776
 40
1.0
 40
1.0
 40
1.0
 40
1.0
 10
179.9756945535991
 20
-318.3769040966064
 30
0.0
 10
179.9895758984693
 20
-318.3615999922664
 30
0.0
 10
180.0168329022307
 20
-318.3315492995225
 30
0.0
 10
180.0480732607828
 20
-318.289305079686
 30
0.0
 10
180.071146644724
 20
-318.2502440305784
 30
0.0
 10
180.0905535403403
 20
-318.2012067047078
 30
0.0
 10
180.0938851684269
 20
-318.1446798928085
 30
0.0
 10
180.0651578172467
 20
-318.1097820538748
 30
0.0
 10
180.0506891402647
 20
-318.0922055792552
 30
0.0
  0
SPLINE
  5
128
330
1F
100
AcDbEntity
  8
0
  6
Continuous
 62
     7
370
    15
100
AcDbSpline
210
0.0
220
0.0
230
1.0
 70
     8
 71
     3
 72
    13
 73
     9
 74
     0
 42
0.000000001
 43
0.00000001
 40
0.0
 40
0.0
 40
0.0
 40
0.0
 40
0.1254303093014903
 40
0.2504618330006126
 40
0.3753683072997731
 40
0.5004238076747591
 40
0.7444344854818155
 40
1.0
 40
1.0
 40
1.0
 40
1.0
 10
180.0506891402647
 20
-318.0922055792552
 30
0.0
 10
180.0416138892729
 20
-318.0846923838634
 30
0.0
 10
180.0234922405979
 20
-318.0696898800823
 30
0.0
 10
179.9884843569226
 20
-318.0503943966249
 30
0.0
 10
179.9478268540473
 20
-318.0334283770474
 30
0.0
 10
179.8859489984286
 20
-318.0143780411236
 30
0.0
 10
179.7939852172618
 20
-317.9956018459784
 30
0.0
 10
179.7036080798723
 20
-317.9868047734826
 30
0.0
 10
179.6573743322029
 20
-317.9823045022663
 30
0.0
  0
SPLINE
  5
129
330
1F
100
AcDbEntity
  8
0
  6
Continuous
 62
     7
370
    15
100
AcDbSpline
210
0.0
220
0.0
230
1.0
 70
     8
 71
     3
 72
    12
 73
     8
 74
     0
 42
0.000000001
 43
0.00000001
 40
0.0
 40
0.0
 40
0.0
 40
0.0
 40
0.1726887812887819
 40
0.3389783910048743
 40
0.4994467128021224
 40
0.7496545843873881
 40
1.0
 40
1.0
 40
1.0
 40
1.0
 10
179.6573743322029
 20
-317.9823045022663
 30
0.0
 10
179.6249871683565
 20
-317.9800376203632
 30
0.0
 10
179.5614129824255
 20
-317.9755878583439
 30
0.0
 10
179.4570170651967
 20
-317.9731948607882
 30
0.0
 10
179.3267064412413
 20
-317.9747901875421
 30
0.0
 10
179.1627128692429
 20
-317.9834536863584
 30
0.0
 10
179.0226504585426
 20
-317.998145107452
 30
0.0
 10
178.9526000097386
 20
-318.0054928364824
 30
0.0
  0
SPLINE
  5
12A
330
1F
100
AcDbEntity
  8
0
  6
Continuous
 62
     7
370
    15
100
AcDbSpline
210
0.0
220
0.0
230
1.0
 70
     8
 71
     3
 72
    11
 73
     7
 74
     0
 42
0.000000001
 43
0.00000001
 40
0.0
 40
0.0
 40
0.0
 40
0.0
 40
0.2275907992869433
 40
0.4697925243256049
 40
0.7271172230313898
 40
1.0
 40
1.0
 40
1.0
 40
1.0
 10
178.9526000097386
 20
-318.0054928364824
 30
0.0
 10
178.9196571002346
 20
-318.0094511628398
 30
0.0
 10
178.8516564048505
 20
-318.0176219330875
 30
0.0
 10
178.7415481950896
 20
-318.0330173339469
 30
0.0
 10
178.6218904014446
 20
-318.0510268600653
 30
0.0
 10
178.5374940859202
 20
-318.0648907975951
 30
0.0
 10
178.4940576916729
 20
-318.0720261737382
 30
0.0
  0
SPLINE
  5
12B
330
1F
100
AcDbEntity
  8
0
  6
Continuous
 62
     7
370
    15
100
AcDbSpline
210
0.0
220
0.0
230
1.0
 70
     8
 71
     3
 72
     8
 73
     4
 74
     0
 42
0.000000001
 43
0.00000001
 40
0.0
 40
0.0
 40
0.0
 40
0.0
 40
1.0
 40
1.0
 40
1.0
 40
1.0
 10
240.4651681751053
 20
13.85417450716431
 30
0.0
 10
239.7018663841108
 20
13.85369770286249
 30
0.0
 10
238.9337638067232
 20
13.85368990168234
 30
0.0
 10
238.1607935953909
 20
13.85415268814993
 30
0.0
  0
SPLINE
  5
12C
330
1F
100
AcDbEntity
  8
0
  6
Continuous
 62
     7
370
    15
100
AcDbSpline
210
0.0
220
0.0
230
1.0
 70
     8
 71
     3
 72
    12
 73
     8
 74
     0
 42
0.000000001
 43
0.00000001
 40
0.0
 40
0.0
 40
0.0
 40
0.0
 40
0.1993029335707124
 40
0.3989367580477987
 40
0.5989190683646921
 40
0.7992675562314402
 40
1.0
 40
1.0
 40
1.0
 40
1.0
 10
245.9507863222943
 20
13.8541744920524
 30
0.0
 10
245.5895652621952
 20
13.85417449272208
 30
0.0
 10
244.8665234279744
 20
13.85417449406234
 30
0.0
 10
243.7754389157686
 20
13.85417445360537
 30
0.0
 10
242.6783303959942
 20
13.854174445038
 30
0.0
 10
241.575116688844
 20
13.8541744757712
 30
0.0
 10
240.8353870614345
 20
13.85417449669313
 30
0.0
 10
240.4651681751053
 20
13.85417450716431
 30
0.0
  0
SPLINE
  5
12D
330
1F
100
AcDbEntity
  8
0
  6
Continuous
 62
     7
370
    15
100
AcDbSpline
210
0.0
220
0.0
230
1.0
 70
     8
 71
     3
 72
    32
 73
    28
 74
     0
 42
0.000000001
 43
0.00000001
 40
0.0
 40
0.0
 40
0.0
 40
0.0
 40
0.0625
 40
0.0625
 40
0.125
 40
0.125
 40
0.2500000000000007
 40
0.2500000000000007
 40
0.3125000000000009
 40
0.3125000000000009
 40
0.3750000000000012
 40
0.3750000000000012
 40
0.4375000000000014
 40
0.4375000000000014
 40
0.5000000000000013
 40
0.5000000000000013
 40
0.6250000000000008
 40
0.6250000000000008
 40
0.7500000000000004
 40
0.7500000000000004
 40
0.8125000000000003
 40
0.8125000000000003
 40
0.8750000000000002
 40
0.8750000000000002
 40
0.9375000000000001
 40
0.9375000000000001
 40
1.0
 40
1.0
 40
1.0
 40
1.0
 10
133.7026187198125
 20
13.854183135807
 30
0.0
 10
133.7946108452363
 20
15.25918053530684
 30
0.0
 10
133.8883572084208
 20
16.65354127648899
 30
0.0
 10
134.0702739249783
 20
19.41949398058651
 30
0.0
 10
134.1581395937523
 20
20.79102488141027
 30
0.0
 10
134.381808871274
 20
24.86480848467032
 30
0.0
 10
134.4751377382747
 20
27.52599289637936
 30
0.0
 10
134.3992261351695
 20
31.4032022207491
 30
0.0
 10
134.3382897120853
 20
32.67651642285618
 30
0.0
 10
134.1334851899119
 20
35.18091325414363
 30
0.0
 10
133.989541564731
 20
36.41197807204311
 30
0.0
 10
133.6183690408723
 20
38.82969945177761
 30
0.0
 10
133.3911219057296
 20
40.01634901503448
 30
0.0
 10
132.865973802002
 20
42.34536967595925
 30
0.0
 10
132.5681118865785
 20
43.48774458775173
 30
0.0
 10
131.6065017308846
 20
46.85217767109351
 30
0.0
 10
130.8715719996451
 20
49.01084975569137
 30
0.0
 10
129.5289812157627
 20
53.20201183935169
 30
0.0
 10
128.9280696684483
 20
55.23566190985684
 30
0.0
 10
128.3801010960658
 20
58.23060598375341
 30
0.0
 10
128.2558684348404
 20
59.2196215984091
 30
0.0
 10
128.1474294669652
 20
61.18255731643618
 30
0.0
 10
128.163605951237
 20
62.15654611014876
 30
0.0
 10
128.3345223920161
 20
64.08887542212716
 30
0.0
 10
128.489702429072
 20
65.04729544343645
 30
0.0
 10
128.8995268406612
 20
66.94154038424082
 30
0.0
 10
129.1546685853698
 20
67.87745561948188
 30
0.0
 10
129.4141439248033
 20
68.79412921860694
 30
0.0
  0
SPLINE
  5
12E
330
1F
100
AcDbEntity
  8
0
  6
Continuous
 62
     7
370
    15
100
AcDbSpline
210
0.0
220
0.0
230
1.0
 70
    24
 71
     3
 72
     8
 73
     4
 74
     0
 42
0.000000001
 43
0.00000001
 40
514.744977848
 40
514.744977848
 40
514.744977848
 40
514.744977848
 40
529.043449455
 40
529.043449455
 40
529.043449455
 40
529.043449455
 10
140.3739443994052
 20
68.79412921860694
 30
0.0
 10
136.7018306106081
 20
68.79412921860694
 30
0.0
 10
133.0439311424793
 20
68.79412921860694
 30
0.0
 10
129.4141439248033
 20
68.79412921860694
 30
0.0
  0
SPLINE
  5
12F
330
1F
100
AcDbEntity
  8
0
  6
Continuous
 62
     7
370
    15
100
AcDbSpline
210
0.0
220
0.0
230
1.0
 70
     8
 71
     3
 72
    32
 73
    28
 74
     0
 42
0.000000001
 43
0.00000001
 40
0.0
 40
0.0
 40
0.0
 40
0.0
 40
0.0625000000000002
 40
0.0625000000000002
 40
0.1250000000000004
 40
0.1250000000000004
 40
0.2500000000000007
 40
0.2500000000000007
 40
0.3125000000000008
 40
0.3125000000000008
 40
0.3750000000000011
 40
0.3750000000000011
 40
0.4375000000000012
 40
0.4375000000000012
 40
0.5000000000000014
 40
0.5000000000000014
 40
0.6250000000000012
 40
0.6250000000000012
 40
0.7500000000000011
 40
0.7500000000000011
 40
0.8125000000000009
 40
0.8125000000000009
 40
0.8750000000000006
 40
0.8750000000000006
 40
0.9375000000000003
 40
0.9375000000000003
 40
1.0
 40
1.0
 40
1.0
 40
1.0
 10
150.8334478860392
 20
13.85417386780685
 30
0.0
 10
150.792222239497
 20
15.23440216805683
 30
0.0
 10
150.7512548522424
 20
16.60516989391403
 30
0.0
 10
150.6615700648769
 20
19.32684460849954
 30
0.0
 10
150.612571829375
 20
20.67770068382191
 30
0.0
 10
150.4251477376377
 20
24.69511075784903
 30
0.0
 10
150.2439077113699
 20
27.32637709070595
 30
0.0
 10
149.767613629165
 20
31.17472658044385
 30
0.0
 10
149.575110484202
 20
32.44106721802819
 30
0.0
 10
149.1122860456554
 20
34.93708907461945
 30
0.0
 10
148.8418958452925
 20
36.16675467030284
 30
0.0
 10
148.2234280573589
 20
38.5870764173184
 30
0.0
 10
147.8753345451618
 20
39.77772576784733
 30
0.0
 10
147.1135791521682
 20
42.11947459385379
 30
0.0
 10
146.6999543288982
 20
43.27057609104856
 30
0.0
 10
145.3964127296414
 20
46.66656704604976
 30
0.0
 10
144.4409645017825
 20
48.85356018644372
 30
0.0
 10
142.6505950608733
 20
53.1026923710487
 30
0.0
 10
141.8219459753518
 20
55.16574307219236
 30
0.0
 10
140.9079174643801
 20
58.19515918570551
 30
0.0
 10
140.6576055369694
 20
59.1940793267085
 30
0.0
 10
140.2868666690694
 20
61.1726157849104
 30
0.0
 10
140.1667946790242
 20
62.15228705895037
 30
0.0
 10
140.0546866698762
 20
64.09163789951577
 30
0.0
 10
140.0630585833704
 20
65.05138124540278
 30
0.0
 10
140.1709366660504
 20
66.94516051403232
 30
0.0
 10
140.2709037499861
 20
67.87926903865693
 30
0.0
 10
140.3739443994052
 20
68.79412921860673
 30
0.0
  0
SPLINE
  5
130
330
1F
100
AcDbEntity
  8
0
  6
Continuous
 62
     7
370
    15
100
AcDbSpline
210
0.0
220
0.0
230
1.0
 70
    24
 71
     3
 72
     8
 73
     4
 74
     0
 42
0.000000001
 43
0.00000001
 40
500.446506241
 40
500.446506241
 40
500.446506241
 40
500.446506241
 40
514.744977848
 40
514.744977848
 40
514.744977848
 40
514.744977848
 10
151.4025395587706
 20
68.79412921860694
 30
0.0
 10
147.7255332369147
 20
68.79412921860694
 30
0.0
 10
144.0460581882892
 20
68.79412921860694
 30
0.0
 10
140.3739443994052
 20
68.79412921860694
 30
0.0
  0
SPLINE
  5
131
330
1F
100
AcDbEntity
  8
0
  6
Continuous
 62
     7
370
    15
100
AcDbSpline
210
0.0
220
0.0
230
1.0
 70
     8
 71
     3
 72
    32
 73
    28
 74
     0
 42
0.000000001
 43
0.00000001
 40
0.0
 40
0.0
 40
0.0
 40
0.0
 40
0.0624999999999998
 40
0.0624999999999998
 40
0.1249999999999996
 40
0.1249999999999996
 40
0.2499999999999992
 40
0.2499999999999992
 40
0.3124999999999993
 40
0.3124999999999993
 40
0.3749999999999993
 40
0.3749999999999993
 40
0.4374999999999994
 40
0.4374999999999994
 40
0.4999999999999996
 40
0.4999999999999996
 40
0.6249999999999999
 40
0.6249999999999999
 40
0.7500000000000001
 40
0.7500000000000001
 40
0.8125000000000001
 40
0.8125000000000001
 40
0.875
 40
0.875
 40
0.9375
 40
0.9375
 40
1.0
 40
1.0
 40
1.0
 40
1.0
 10
167.9079277343976
 20
13.85415588502314
 30
0.0
 10
167.739600904017
 20
15.20715083086421
 30
0.0
 10
167.5705445764706
 20
16.55178277597447
 30
0.0
 10
167.2233951618867
 20
19.22406957770972
 30
0.0
 10
167.0450398902655
 20
20.55168657781281
 30
0.0
 10
166.4697384403106
 20
24.50536336320175
 30
0.0
 10
166.0303310494563
 20
27.10227379484631
 30
0.0
 10
165.1762229323896
 20
30.91734010730707
 30
0.0
 10
164.8593323467742
 20
32.17560153044285
 30
0.0
 10
164.1516558833617
 20
34.66192917167965
 30
0.0
 10
163.7608058312775
 20
35.88998269981736
 30
0.0
 10
162.9054592233471
 20
38.31341586250381
 30
0.0
 10
162.4409479957879
 20
39.50878909872934
 30
0.0
 10
161.4497061897973
 20
41.86556909765437
 30
0.0
 10
160.923010442227
 20
43.02697575367031
 30
0.0
 10
159.2830488684094
 20
46.46023266711108
 30
0.0
 10
158.1072537257995
 20
48.6806821316117
 30
0.0
 10
155.8649462916118
 20
52.9979237846947
 30
0.0
 10
154.804300834709
 20
55.09531655680555
 30
0.0
 10
153.5177362976284
 20
58.16412636256408
 30
0.0
 10
153.1391791081261
 20
59.17417989758334
 30
0.0
 10
152.5022648591944
 20
61.16972505816842
 30
0.0
 10
152.2442396460709
 20
62.1552543268884
 30
0.0
 10
151.8464338872481
 20
64.10092328362849
 30
0.0
 10
151.7070346904289
 20
65.06110690644218
 30
0.0
 10
151.5117026059721
 20
66.95193863227544
 30
0.0
 10
151.4562005697886
 20
67.88263696172869
 30
0.0
 10
151.4025395587706
 20
68.79412921860694
 30
0.0
  0
SPLINE
  5
132
330
1F
100
AcDbEntity
  8
0
  6
Continuous
 62
     7
370
    15
100
AcDbSpline
210
0.0
220
0.0
230
1.0
 70
     8
 71
     3
 72
    34
 73
    30
 74
     0
 42
0.000000001
 43
0.00000001
 40
0.0
 40
0.0
 40
0.0
 40
0.0
 40
0.0624999999999997
 40
0.0624999999999997
 40
0.1249999999999994
 40
0.1249999999999994
 40
0.2499999999999995
 40
0.2499999999999995
 40
0.3124999999999996
 40
0.3124999999999996
 40
0.3749999999999997
 40
0.3749999999999997
 40
0.4374999999999998
 40
0.4374999999999998
 40
0.4999999999999999
 40
0.4999999999999999
 40
0.5624999999999999
 40
0.5624999999999999
 40
0.625
 40
0.625
 40
0.7500000000000001
 40
0.7500000000000001
 40
0.8125000000000001
 40
0.8125000000000001
 40
0.8750000000000001
 40
0.8750000000000001
 40
0.9375
 40
0.9375
 40
1.0
 40
1.0
 40
1.0
 40
1.0
 10
116.7256978403155
 20
13.85417480980689
 30
0.0
 10
116.9512108378808
 20
15.27922069755694
 30
0.0
 10
117.1804327387855
 20
16.69266799017688
 30
0.0
 10
117.6363655424384
 20
19.49446374701513
 30
0.0
 10
117.8627462190274
 20
20.88274411745661
 30
0.0
 10
118.5035573636559
 20
25.00235613698521
 30
0.0
 10
118.8769641423513
 20
27.68810933507893
 30
0.0
 10
119.210329493132
 20
31.58993801400989
 30
0.0
 10
119.2840237567537
 20
32.86943578732537
 30
0.0
 10
119.3432749989144
 20
35.38194131115602
 30
0.0
 10
119.3287489794176
 20
36.61492968021341
 30
0.0
 10
119.2104511977026
 20
39.03234362277308
 30
0.0
 10
119.1066582444793
 20
40.21676199289725
 30
0.0
 10
118.8227443709121
 20
42.53761873383844
 30
0.0
 10
118.6426640665942
 20
43.6740620793572
 30
0.0
 10
118.2328281243609
 20
45.90224056648462
 30
0.0
 10
118.0031749095024
 20
46.99399286087469
 30
0.0
 10
117.5324350513887
 20
49.13841812804542
 30
0.0
 10
117.2915126382212
 20
50.19112043168761
 30
0.0
 10
116.6203423256867
 20
53.30154143205213
 30
0.0
 10
116.2453558409481
 20
55.31211409712667
 30
0.0
 10
116.0585568279007
 20
58.27814668569098
 30
0.0
 10
116.0584195868708
 20
59.25846537450696
 30
0.0
 10
116.2077629067105
 20
61.20668460015555
 30
0.0
 10
116.3576549257913
 20
62.17466318016807
 30
0.0
 10
116.8061638533785
 20
64.09785083763886
 30
0.0
 10
117.1052540271269
 20
65.0531501363567
 30
0.0
 10
117.8110436763472
 20
66.94332130387082
 30
0.0
 10
118.2182782240919
 20
67.87829557200675
 30
0.0
 10
118.6310857598712
 20
68.79412921860673
 30
0.0
  0
SPLINE
  5
133
330
1F
100
AcDbEntity
  8
0
  6
Continuous
 62
     7
370
    15
100
AcDbSpline
210
0.0
220
0.0
230
1.0
 70
    24
 71
     3
 72
     8
 73
     4
 74
     0
 42
0.000000001
 43
0.00000001
 40
529.043449455
 40
529.043449455
 40
529.043449455
 40
529.043449455
 40
543.341921062
 40
543.341921062
 40
543.341921062
 40
543.341921062
 10
129.4141439248033
 20
68.79412921860694
 30
0.0
 10
125.784356706084
 20
68.79412921860694
 30
0.0
 10
122.1849997434535
 20
68.79412921860694
 30
0.0
 10
118.6310857598712
 20
68.79412921860694
 30
0.0
  0
SPLINE
  5
134
330
1F
100
AcDbEntity
  8
0
  6
Continuous
 62
     7
370
    15
100
AcDbSpline
210
0.0
220
0.0
230
1.0
 70
    24
 71
     3
 72
     8
 73
     4
 74
     0
 42
0.000000001
 43
0.00000001
 40
486.148034635
 40
486.148034635
 40
486.148034635
 40
486.148034635
 40
500.446506241
 40
500.446506241
 40
500.446506241
 40
500.446506241
 10
162.3965683442962
 20
68.79412921860694
 30
0.0
 10
158.749875377369
 20
68.79412921860694
 30
0.0
 10
155.0795458805395
 20
68.79412921860694
 30
0.0
 10
151.4025395587706
 20
68.79412921860694
 30
0.0
  0
SPLINE
  5
135
330
1F
100
AcDbEntity
  8
0
  6
Continuous
 62
     7
370
    15
100
AcDbSpline
210
0.0
220
0.0
230
1.0
 70
     8
 71
     3
 72
    32
 73
    28
 74
     0
 42
0.000000001
 43
0.00000001
 40
0.0
 40
0.0
 40
0.0
 40
0.0
 40
0.0625000000000003
 40
0.0625000000000003
 40
0.1250000000000006
 40
0.1250000000000006
 40
0.2500000000000009
 40
0.2500000000000009
 40
0.3125000000000011
 40
0.3125000000000011
 40
0.3750000000000013
 40
0.3750000000000013
 40
0.4375000000000014
 40
0.4375000000000014
 40
0.5000000000000016
 40
0.5000000000000016
 40
0.6250000000000014
 40
0.6250000000000014
 40
0.7500000000000012
 40
0.7500000000000012
 40
0.8125000000000009
 40
0.8125000000000009
 40
0.8750000000000007
 40
0.8750000000000007
 40
0.9375000000000003
 40
0.9375000000000003
 40
1.0
 40
1.0
 40
1.0
 40
1.0
 10
184.7483841199375
 20
13.85418081780698
 30
0.0
 10
184.4526790681699
 20
15.17969344643189
 30
0.0
 10
184.155573074209
 20
16.4977775580557
 30
0.0
 10
183.5517786151705
 20
19.11958322406871
 30
0.0
 10
183.2448485566703
 20
20.42328159288997
 30
0.0
 10
182.285349651485
 20
24.3109833246018
 30
0.0
 10
181.5920388110874
 20
26.8717800725351
 30
0.0
 10
180.3698335300473
 20
30.6514799787605
 30
0.0
 10
179.9323413565658
 20
31.90105971262858
 30
0.0
 10
178.9884659376662
 20
34.3767915405937
 30
0.0
 10
178.482023540247
 20
35.60293436384177
 30
0.0
 10
177.4005042741331
 20
38.02925291229676
 30
0.0
 10
176.8254138637926
 20
39.22942284533404
 30
0.0
 10
175.6171219482378
 20
41.60175531118626
 30
0.0
 10
174.9839525117334
 20
42.77391553051157
 30
0.0
 10
173.0280459291811
 20
46.24625574635366
 30
0.0
 10
171.6464794843563
 20
48.50202338150989
 30
0.0
 10
168.9801125717762
 20
52.89126677426381
 30
0.0
 10
167.7007168968539
 20
55.02500245343245
 30
0.0
 10
166.0582874849002
 20
58.13522484785128
 30
0.0
 10
165.5565160554322
 20
59.15692136978068
 30
0.0
 10
164.6622601703452
 20
61.17005100483253
 30
0.0
 10
164.2700814455685
 20
62.16150267654275
 30
0.0
 10
163.5929950124136
 20
64.11315659673033
 30
0.0
 10
163.3084386452332
 20
65.07338088247505
 30
0.0
 10
162.8143117993128
 20
66.96014376061487
 30
0.0
 10
162.6051382721262
 20
67.8867078689569
 30
0.0
 10
162.3965683442962
 20
68.79412921860694
 30
0.0
  0
SPLINE
  5
136
330
1F
100
AcDbEntity
  8
0
  6
Continuous
 62
     7
370
    15
100
AcDbSpline
210
0.0
220
0.0
230
1.0
 70
     8
 71
     3
 72
    34
 73
    30
 74
     0
 42
0.000000001
 43
0.00000001
 40
0.0
 40
0.0
 40
0.0
 40
0.0
 40
0.0624999999999999
 40
0.0624999999999999
 40
0.1249999999999998
 40
0.1249999999999998
 40
0.2499999999999994
 40
0.2499999999999994
 40
0.3124999999999994
 40
0.3124999999999994
 40
0.3749999999999993
 40
0.3749999999999993
 40
0.4374999999999992
 40
0.4374999999999992
 40
0.4999999999999992
 40
0.4999999999999992
 40
0.5624999999999992
 40
0.5624999999999992
 40
0.6249999999999992
 40
0.6249999999999992
 40
0.7499999999999991
 40
0.7499999999999991
 40
0.8124999999999993
 40
0.8124999999999993
 40
0.8749999999999996
 40
0.8749999999999996
 40
0.9374999999999998
 40
0.9374999999999998
 40
1.0
 40
1.0
 40
1.0
 40
1.0
 10
100.1553474941762
 20
13.85416975180687
 30
0.0
 10
100.5138267617396
 20
15.29280977843195
 30
0.0
 10
100.8782573500975
 20
16.71934365895655
 30
0.0
 10
101.608182022406
 20
19.54604285317618
 30
0.0
 10
101.9733182282068
 20
20.94613630152975
 30
0.0
 10
103.0324559166178
 20
25.09870228709654
 30
0.0
 10
103.687353334764
 20
27.80307087293754
 30
0.0
 10
104.4313586983836
 20
31.72554244045278
 30
0.0
 10
104.6400083895337
 20
33.01071425245405
 30
0.0
 10
104.9634328425026
 20
35.53193570660973
 30
0.0
 10
105.0781162558163
 20
36.76796491641787
 30
0.0
 10
105.2115191068872
 20
39.18877241305352
 30
0.0
 10
105.2302138285503
 20
40.37354312578367
 30
0.0
 10
105.1846888705764
 20
42.69254754867213
 30
0.0
 10
105.1205111072564
 20
43.82678654298222
 30
0.0
 10
104.9371713707099
 20
46.04831847216584
 30
0.0
 10
104.8181179462115
 20
47.13562954943984
 30
0.0
 10
104.5655807201606
 20
49.26942221212838
 30
0.0
 10
104.4322720997475
 20
50.31593479819229
 30
0.0
 10
104.0840829623759
 20
53.40608588799923
 30
0.0
 10
103.9247351697259
 20
55.4008908276542
 30
0.0
 10
104.0821378233983
 20
58.34395617972898
 30
0.0
 10
104.2001897672293
 20
59.31673442049923
 30
0.0
 10
104.59521147859
 20
61.25065479792768
 30
0.0
 10
104.8726229569035
 20
62.21187936823114
 30
0.0
 10
105.5862171105213
 20
64.12266495895058
 30
0.0
 10
106.0229081290204
 20
65.0723212712605
 30
0.0
 10
107.0120181046815
 20
66.95225943817351
 30
0.0
 10
107.5650120374494
 20
67.88264944291944
 30
0.0
 10
108.1247751035677
 20
68.79412921860694
 30
0.0
  0
SPLINE
  5
137
330
1F
100
AcDbEntity
  8
0
  6
Continuous
 62
     7
370
    15
100
AcDbSpline
210
0.0
220
0.0
230
1.0
 70
    24
 71
     3
 72
     8
 73
     4
 74
     0
 42
0.000000001
 43
0.00000001
 40
543.341921062
 40
543.341921062
 40
543.341921062
 40
543.341921062
 40
557.640392669
 40
557.640392669
 40
557.640392669
 40
557.640392669
 10
118.6310857598712
 20
68.79412921860694
 30
0.0
 10
115.0771717762396
 20
68.79412921860694
 30
0.0
 10
111.5680798457651
 20
68.79412921860694
 30
0.0
 10
108.1247751035677
 20
68.79412921860694
 30
0.0
  0
SPLINE
  5
138
330
1F
100
AcDbEntity
  8
0
  6
Continuous
 62
     7
370
    15
100
AcDbSpline
210
0.0
220
0.0
230
1.0
 70
    24
 71
     3
 72
     8
 73
     4
 74
     0
 42
0.000000001
 43
0.00000001
 40
457.551091421
 40
457.551091421
 40
457.551091421
 40
457.551091421
 40
486.148034635
 40
486.148034635
 40
486.148034635
 40
486.148034635
 10
183.8505395797272
 20
68.79412921860694
 30
0.0
 10
176.8858754121583
 20
68.79412921860694
 30
0.0
 10
169.6899542782376
 20
68.79412921860694
 30
0.0
 10
162.3965683442962
 20
68.79412921860694
 30
0.0
  0
SPLINE
  5
139
330
1F
100
AcDbEntity
  8
0
  6
Continuous
 62
     7
370
    15
100
AcDbSpline
210
0.0
220
0.0
230
1.0
 70
     8
 71
     3
 72
    32
 73
    28
 74
     0
 42
0.000000001
 43
0.00000001
 40
0.0
 40
0.0
 40
0.0
 40
0.0
 40
0.0624999999999995
 40
0.0624999999999995
 40
0.1249999999999991
 40
0.1249999999999991
 40
0.2499999999999991
 40
0.2499999999999991
 40
0.312499999999999
 40
0.312499999999999
 40
0.3749999999999989
 40
0.3749999999999989
 40
0.4374999999999988
 40
0.4374999999999988
 40
0.4999999999999988
 40
0.4999999999999988
 40
0.6249999999999991
 40
0.6249999999999991
 40
0.7499999999999993
 40
0.7499999999999993
 40
0.8124999999999994
 40
0.8124999999999994
 40
0.8749999999999996
 40
0.8749999999999996
 40
0.9374999999999998
 40
0.9374999999999998
 40
1.0
 40
1.0
 40
1.0
 40
1.0
 10
217.0974430777267
 20
13.85417303780678
 30
0.0
 10
216.5734350363845
 20
15.12814839855681
 30
0.0
 10
216.04750062182
 20
16.39621889430076
 30
0.0
 10
214.98621861961
 20
18.9223529378999
 30
0.0
 10
214.4506597572467
 20
20.1804247124584
 30
0.0
 10
212.8088110293742
 20
23.94148823291275
 30
0.0
 10
211.6656706211047
 20
26.43181197491762
 30
0.0
 10
209.7881307503086
 20
30.14155881438718
 30
0.0
 10
209.1353674514603
 20
31.37373539883348
 30
0.0
 10
207.7679495224884
 20
33.82778882736681
 30
0.0
 10
207.0532420790666
 20
35.04966417814504
 30
0.0
 10
205.5615655898364
 20
37.48063964303072
 30
0.0
 10
204.7845833460845
 20
38.68973583382629
 30
0.0
 10
203.1768497206847
 20
41.09176971166284
 30
0.0
 10
202.3461247564482
 20
42.2847010453884
 30
0.0
 10
199.7990315190116
 20
45.83305195826703
 30
0.0
 10
198.0255917605695
 20
48.15811541029657
 30
0.0
 10
194.5421380763044
 20
52.6890459097229
 30
0.0
 10
192.8367725817015
 20
54.89447637073796
 30
0.0
 10
190.5013647058827
 20
58.08591631998672
 30
0.0
 10
189.7596688458989
 20
59.13033879901008
 30
0.0
 10
188.365283624731
 20
61.17739783807919
 30
0.0
 10
187.7128583730866
 20
62.18001346479141
 30
0.0
 10
186.4954400098296
 20
64.14211972542306
 30
0.0
 10
185.9307506231119
 20
65.10158699600588
 30
0.0
 10
184.8612291323916
 20
66.97842409765519
 30
0.0
 10
184.3567403686388
 20
67.89576813538179
 30
0.0
 10
183.8505395797272
 20
68.79412921860694
 30
0.0
  0
SPLINE
  5
13A
330
1F
100
AcDbEntity
  8
0
  6
Continuous
 62
     7
370
    15
100
AcDbSpline
210
0.0
220
0.0
230
1.0
 70
     8
 71
     3
 72
    34
 73
    30
 74
     0
 42
0.000000001
 43
0.00000001
 40
0.0
 40
0.0
 40
0.0
 40
0.0
 40
0.0625
 40
0.0625
 40
0.125
 40
0.125
 40
0.2499999999999999
 40
0.2499999999999999
 40
0.3125
 40
0.3125
 40
0.3750000000000001
 40
0.3750000000000001
 40
0.4375000000000001
 40
0.4375000000000001
 40
0.5000000000000002
 40
0.5000000000000002
 40
0.5625000000000002
 40
0.5625000000000002
 40
0.6250000000000002
 40
0.6250000000000002
 40
0.7500000000000001
 40
0.7500000000000001
 40
0.8125000000000002
 40
0.8125000000000002
 40
0.8750000000000003
 40
0.8750000000000003
 40
0.9375000000000002
 40
0.9375000000000002
 40
1.0
 40
1.0
 40
1.0
 40
1.0
 10
55.77927806540423
 20
13.85417554280677
 30
0.0
 10
56.45325007285598
 20
15.28213065580686
 30
0.0
 10
57.13745559237596
 20
16.6992982744516
 30
0.0
 10
58.51409646108436
 20
19.5103309028768
 30
0.0
 10
59.20613822462057
 20
20.90414578414079
 30
0.0
 10
61.25218445949175
 20
25.04410807886326
 30
0.0
 10
62.57308235707747
 20
27.74864766961582
 30
0.0
 10
64.30722036464988
 20
31.6895681697471
 30
0.0
 10
64.84444999425037
 20
32.98387468782904
 30
0.0
 10
65.8195501166282
 20
35.52926898135289
 30
0.0
 10
66.25731848933482
 20
36.78033994837193
 30
0.0
 10
67.03004964246385
 20
39.23616988059919
 30
0.0
 10
67.36498316921094
 20
40.44092036740765
 30
0.0
 10
67.94519868959598
 20
42.80290384549157
 30
0.0
 10
68.19052429595408
 20
43.96013668839039
 30
0.0
 10
68.6210631636995
 20
46.22789655202331
 30
0.0
 10
68.80639290420237
 20
47.33843175440411
 30
0.0
 10
69.16046297980438
 20
49.51550467840127
 30
0.0
 10
69.32939266041446
 20
50.5820589116881
 30
0.0
 10
69.89067657653662
 20
53.72207730490985
 30
0.0
 10
70.34148048823398
 20
55.73595379996399
 30
0.0
 10
71.44628532785134
 20
58.66846612174026
 30
0.0
 10
71.88550068671499
 20
59.63128875600155
 30
0.0
 10
72.93673400572125
 20
61.53158008396464
 30
0.0
 10
73.5492327769564
 20
62.4690986094305
 30
0.0
 10
74.94794423921984
 20
64.32041939094103
 30
0.0
 10
75.73471060773612
 20
65.23427980877261
 30
0.0
 10
77.436538240192
 20
67.03584780510651
 30
0.0
 10
78.35222604801501
 20
67.92362187541934
 30
0.0
 10
79.27733495963824
 20
68.79412921860694
 30
0.0
  0
SPLINE
  5
13B
330
1F
100
AcDbEntity
  8
0
  6
Continuous
 62
     7
370
    15
100
AcDbSpline
210
0.0
220
0.0
230
1.0
 70
    24
 71
     3
 72
    10
 73
     6
 74
     0
 42
0.000000001
 43
0.00000001
 40
557.640392669
 40
557.640392669
 40
557.640392669
 40
557.640392669
 40
571.938864276
 40
586.237335883
 40
600.53580749
 40
600.53580749
 40
600.53580749
 40
600.53580749
 10
108.1247751035677
 20
68.79412921860694
 30
0.0
 10
104.6814703622892
 20
68.79412921860694
 30
0.0
 10
97.92095933281695
 20
68.79412921860694
 30
0.0
 10
88.2585753466306
 20
68.79412921860694
 30
0.0
 10
82.19834355687266
 20
68.79412921860694
 30
0.0
 10
79.27733495963824
 20
68.79412921860694
 30
0.0
  0
SPLINE
  5
13C
330
1F
100
AcDbEntity
  8
0
  6
Continuous
 62
     7
370
    15
100
AcDbSpline
210
0.0
220
0.0
230
1.0
 70
    24
 71
     3
 72
     8
 73
     4
 74
     0
 42
0.000000001
 43
0.00000001
 40
443.252619814
 40
443.252619814
 40
443.252619814
 40
443.252619814
 40
457.551091421
 40
457.551091421
 40
457.551091421
 40
457.551091421
 10
194.1050425465027
 20
68.79412921860694
 30
0.0
 10
190.7556805762483
 20
68.79412921860694
 30
0.0
 10
187.3328716638021
 20
68.79412921860694
 30
0.0
 10
183.8505395797272
 20
68.79412921860694
 30
0.0
  0
SPLINE
  5
13D
330
1F
100
AcDbEntity
  8
0
  6
Continuous
 62
     7
370
    15
100
AcDbSpline
210
0.0
220
0.0
230
1.0
 70
     8
 71
     3
 72
    32
 73
    28
 74
     0
 42
0.000000001
 43
0.00000001
 40
0.0
 40
0.0
 40
0.0
 40
0.0
 40
0.0624999999999998
 40
0.0624999999999998
 40
0.1249999999999997
 40
0.1249999999999997
 40
0.2499999999999997
 40
0.2499999999999997
 40
0.3124999999999996
 40
0.3124999999999996
 40
0.3749999999999996
 40
0.3749999999999996
 40
0.4374999999999995
 40
0.4374999999999995
 40
0.4999999999999994
 40
0.4999999999999994
 40
0.6249999999999993
 40
0.6249999999999993
 40
0.7499999999999992
 40
0.7499999999999992
 40
0.8124999999999993
 40
0.8124999999999993
 40
0.8749999999999996
 40
0.8749999999999996
 40
0.9374999999999997
 40
0.9374999999999997
 40
1.0
 40
1.0
 40
1.0
 40
1.0
 10
232.4648785494047
 20
13.85415960180714
 30
0.0
 10
231.8490946904935
 20
15.11570482305702
 30
0.0
 10
231.2313222963135
 20
16.37191170351171
 30
0.0
 10
229.9863670163796
 20
18.87565744436048
 30
0.0
 10
229.3589755295706
 20
20.12321123493854
 30
0.0
 10
227.4417190743161
 20
23.85541657641177
 30
0.0
 10
226.1151939886244
 20
26.3301571730381
 30
0.0
 10
223.9618075155619
 20
30.02479820444348
 30
0.0
 10
223.2169436424279
 20
31.25330861466624
 30
0.0
 10
221.6645339668653
 20
33.70298849043962
 30
0.0
 10
220.8569348473181
 20
34.92415810937244
 30
0.0
 10
219.1779910882299
 20
37.35664276251338
 30
0.0
 10
218.3066319525544
 20
38.56795425590342
 30
0.0
 10
216.5077876198736
 20
40.97700623841094
 30
0.0
 10
215.5803267477181
 20
42.1747394925096
 30
0.0
 10
212.7379876551925
 20
45.74044640616237
 30
0.0
 10
210.7609689619814
 20
48.08108712381398
 30
0.0
 10
206.8485989059241
 20
52.64365157551487
 30
0.0
 10
204.9177527527677
 20
54.86498914572713
 30
0.0
 10
202.2234710568919
 20
58.07444598183209
 30
0.0
 10
201.3587430196216
 20
59.12390993636563
 30
0.0
 10
199.7114414841403
 20
61.17851947834785
 30
0.0
 10
198.9291252366847
 20
62.18363566557539
 30
0.0
 10
197.4457007708455
 20
64.14814590513073
 30
0.0
 10
196.7448886242019
 20
65.10750686303712
 30
0.0
 10
195.3984198266888
 20
66.98229632541741
 30
0.0
 10
194.7530980685436
 20
67.89768804126939
 30
0.0
 10
194.1050425465027
 20
68.79412921860694
 30
0.0
  0
SPLINE
  5
13E
330
1F
100
AcDbEntity
  8
0
  6
Continuous
 62
     7
370
    15
100
AcDbSpline
210
0.0
220
0.0
230
1.0
 70
     8
 71
     3
 72
     8
 73
     4
 74
     0
 42
0.000000001
 43
0.00000001
 40
0.0
 40
0.0
 40
0.0
 40
0.0
 40
1.0
 40
1.0
 40
1.0
 40
1.0
 10
203.1460986686438
 20
68.79417000354726
 30
0.0
 10
200.2040322070258
 20
68.79415639441189
 30
0.0
 10
197.1864503687934
 20
68.79414281020968
 30
0.0
 10
194.1050425465027
 20
68.79412921860694
 30
0.0
  0
SPLINE
  5
13F
330
1F
100
AcDbEntity
  8
0
  6
Continuous
 62
     7
370
    15
100
AcDbSpline
210
0.0
220
0.0
230
1.0
 70
     8
 71
     3
 72
     8
 73
     4
 74
     0
 42
0.000000001
 43
0.00000001
 40
0.0
 40
0.0
 40
0.0
 40
0.0
 40
1.0
 40
1.0
 40
1.0
 40
1.0
 10
203.1460871423938
 20
68.79412921860694
 30
0.0
 10
203.4015096462413
 20
68.79410852025435
 30
0.0
 10
203.6567782310862
 20
68.79408782190177
 30
0.0
 10
203.9118775169552
 20
68.79406712354941
 30
0.0
  0
SPLINE
  5
140
330
1F
100
AcDbEntity
  8
0
  6
Continuous
 62
     7
370
    15
100
AcDbSpline
210
0.0
220
0.0
230
1.0
 70
     8
 71
     3
 72
    32
 73
    28
 74
     0
 42
0.000000001
 43
0.00000001
 40
0.0
 40
0.0
 40
0.0
 40
0.0
 40
0.0624999999999997
 40
0.0624999999999997
 40
0.1249999999999994
 40
0.1249999999999994
 40
0.2499999999999992
 40
0.2499999999999992
 40
0.3124999999999992
 40
0.3124999999999992
 40
0.3749999999999992
 40
0.3749999999999992
 40
0.4374999999999991
 40
0.4374999999999991
 40
0.499999999999999
 40
0.499999999999999
 40
0.6249999999999993
 40
0.6249999999999993
 40
0.7499999999999998
 40
0.7499999999999998
 40
0.8124999999999998
 40
0.8124999999999998
 40
0.8749999999999998
 40
0.8749999999999998
 40
0.9374999999999999
 40
0.9374999999999999
 40
1.0
 40
1.0
 40
1.0
 40
1.0
 10
247.1862616024243
 20
13.85417635580732
 30
0.0
 10
246.4770139039986
 20
15.1128601363073
 30
0.0
 10
245.7655472804148
 20
16.36647551514181
 30
0.0
 10
244.3330059232434
 20
18.865503643549
 30
0.0
 10
243.6117309467819
 20
20.11093233108308
 30
0.0
 10
241.4132418681723
 20
23.83743668110561
 30
0.0
 10
239.899906693114
 20
26.30927518959414
 30
0.0
 10
237.4693570820826
 20
30.00100269175121
 30
0.0
 10
236.6325911059227
 20
31.2287829884379
 30
0.0
 10
234.8972629280736
 20
33.67749121792652
 30
0.0
 10
233.9986487088181
 20
34.89841962926743
 30
0.0
 10
232.1380943781033
 20
37.33089420349356
 30
0.0
 10
231.1761393054048
 20
38.54243698006221
 30
0.0
 10
229.1956574448908
 20
40.95237673463203
 30
0.0
 10
228.177152752163
 20
42.1507664614611
 30
0.0
 10
225.0591776209914
 20
45.71896046412105
 30
0.0
 10
222.8951097082152
 20
48.06195978480243
 30
0.0
 10
218.5896740694463
 20
52.62967551446107
 30
0.0
 10
216.4525707936333
 20
54.85378885977666
 30
0.0
 10
213.4261602543949
 20
58.06689905640305
 30
0.0
 10
212.4469653246565
 20
59.11749633715502
 30
0.0
 10
210.5626788126885
 20
61.17410851081506
 30
0.0
 10
209.6578316635078
 20
62.18009296341664
 30
0.0
 10
207.9217309507025
 20
64.14604097483777
 30
0.0
 10
207.0907588764535
 20
65.1059702284953
 30
0.0
 10
205.4781990189688
 20
66.98165864801365
 30
0.0
 10
204.696929781436
 20
67.89737964385667
 30
0.0
 10
203.9118980127576
 20
68.79412921860694
 30
0.0
  0
SPLINE
  5
141
330
1F
100
AcDbEntity
  8
0
  6
Continuous
 62
     7
370
    15
100
AcDbSpline
210
0.0
220
0.0
230
1.0
 70
     8
 71
     3
 72
    34
 73
    30
 74
     0
 42
0.000000001
 43
0.00000001
 40
0.0
 40
0.0
 40
0.0
 40
0.0
 40
0.0624999999999999
 40
0.0624999999999999
 40
0.1249999999999999
 40
0.1249999999999999
 40
0.2499999999999999
 40
0.2499999999999999
 40
0.3125
 40
0.3125
 40
0.375
 40
0.375
 40
0.4375000000000001
 40
0.4375000000000001
 40
0.5000000000000001
 40
0.5000000000000001
 40
0.5625000000000001
 40
0.5625000000000001
 40
0.6250000000000002
 40
0.6250000000000002
 40
0.7499999999999998
 40
0.7499999999999998
 40
0.8124999999999999
 40
0.8124999999999999
 40
0.8749999999999999
 40
0.8749999999999999
 40
0.9375
 40
0.9375
 40
1.0
 40
1.0
 40
1.0
 40
1.0
 10
43.60398128799883
 20
13.85418133180694
 30
0.0
 10
44.33558870867116
 20
15.26395316318196
 30
0.0
 10
45.07721039765841
 20
16.66386525188246
 30
0.0
 10
46.56859856354985
 20
19.44274932654655
 30
0.0
 10
47.31798663592851
 20
20.82169079986063
 30
0.0
 10
49.537631533144
 20
24.92237292248101
 30
0.0
 10
50.97638974842469
 20
27.60804391987293
 30
0.0
 10
52.89906549256465
 20
31.53853808368346
 30
0.0
 10
53.50110191749665
 20
32.83231689245603
 30
0.0
 10
54.6108620389696
 20
35.38294340877779
 30
0.0
 10
55.1184885190671
 20
36.63977847906597
 30
0.0
 10
56.03665271719074
 20
39.11304884283084
 30
0.0
 10
56.44716351579401
 20
40.32947596789338
 30
0.0
 10
57.18434309731801
 20
42.71949866359837
 30
0.0
 10
57.51105525783648
 20
43.89309053467372
 30
0.0
 10
58.10966021702544
 20
46.19622586248684
 30
0.0
 10
58.38166669031422
 20
47.32577008850502
 30
0.0
 10
58.91330305308456
 20
49.54085213827786
 30
0.0
 10
59.17311691420495
 20
50.62639520015977
 30
0.0
 10
60.01109093444157
 20
53.81883094183948
 30
0.0
 10
60.65169668101674
 20
55.86126612738562
 30
0.0
 10
62.03876612357021
 20
58.81081139904909
 30
0.0
 10
62.57165796907717
 20
59.77506251479747
 30
0.0
 10
63.80810989414443
 20
61.66850190880213
 30
0.0
 10
64.51213513342569
 20
62.59771330057351
 30
0.0
 10
66.09124862494758
 20
64.42337664371878
 30
0.0
 10
66.96687233392973
 20
65.31985617745528
 30
0.0
 10
68.84457584558523
 20
67.08106642575706
 30
0.0
 10
69.84726140202056
 20
67.9458291915318
 30
0.0
 10
70.85981161780346
 20
68.79412921860673
 30
0.0
  0
SPLINE
  5
142
330
1F
100
AcDbEntity
  8
0
  6
Continuous
 62
     7
370
    15
100
AcDbSpline
210
0.0
220
0.0
230
1.0
 70
    24
 71
     3
 72
     8
 73
     4
 74
     0
 42
0.000000001
 43
0.00000001
 40
600.53580749
 40
600.53580749
 40
600.53580749
 40
600.53580749
 40
614.834279097
 40
614.834279097
 40
614.834279097
 40
614.834279097
 10
79.27733495963824
 20
68.79412921860694
 30
0.0
 10
76.35632636240382
 20
68.79412921860694
 30
0.0
 10
73.54719236260135
 20
68.79412921860694
 30
0.0
 10
70.85981161780347
 20
68.79412921860694
 30
0.0
  0
SPLINE
  5
143
330
1F
100
AcDbEntity
  8
0
  6
Continuous
 62
     7
370
    15
100
AcDbSpline
210
0.0
220
0.0
230
1.0
 70
    24
 71
     3
 72
     8
 73
     4
 74
     0
 42
0.000000001
 43
0.00000001
 40
400.357204993
 40
400.357204993
 40
400.357204993
 40
400.357204993
 40
428.954148207
 40
428.954148207
 40
428.954148207
 40
428.954148207
 10
221.811070070977
 20
68.79412921860673
 30
0.0
 10
216.2850872789013
 20
68.79412921860694
 30
0.0
 10
210.2789735460549
 20
68.79412921860694
 30
0.0
 10
203.9118980127576
 20
68.79412921860694
 30
0.0
  0
SPLINE
  5
144
330
1F
100
AcDbEntity
  8
0
  6
Continuous
 62
     7
370
    15
100
AcDbSpline
210
0.0
220
0.0
230
1.0
 70
     8
 71
     3
 72
    32
 73
    28
 74
     0
 42
0.000000001
 43
0.00000001
 40
0.0
 40
0.0
 40
0.0
 40
0.0
 40
0.0624999999999998
 40
0.0624999999999998
 40
0.1249999999999997
 40
0.1249999999999997
 40
0.2499999999999995
 40
0.2499999999999995
 40
0.3124999999999993
 40
0.3124999999999993
 40
0.3749999999999992
 40
0.3749999999999992
 40
0.4374999999999991
 40
0.4374999999999991
 40
0.4999999999999989
 40
0.4999999999999989
 40
0.624999999999999
 40
0.624999999999999
 40
0.7499999999999991
 40
0.7499999999999991
 40
0.8124999999999996
 40
0.8124999999999996
 40
0.875
 40
0.875
 40
0.9375
 40
0.9375
 40
1.0
 40
1.0
 40
1.0
 40
1.0
 10
274.0856552233933
 20
13.85417331080685
 30
0.0
 10
273.1966486041858
 20
15.12343364643187
 30
0.0
 10
272.3041854189671
 20
16.38709509309066
 30
0.0
 10
270.5079015167635
 20
18.90453927713786
 30
0.0
 10
269.6039115617449
 20
20.1583352829624
 30
0.0
 10
266.8575390654515
 20
23.90663951810268
 30
0.0
 10
264.9795633818273
 20
26.38849609438276
 30
0.0
 10
262.0149733730677
 20
30.08696846098702
 30
0.0
 10
261.0023095294503
 20
31.3156429544863
 30
0.0
 10
258.9203443817811
 20
33.76352488736622
 30
0.0
 10
257.8509984652009
 20
34.98273304043287
 30
0.0
 10
255.6539131879679
 20
37.40948757797491
 30
0.0
 10
254.5261603711639
 20
38.61703153744855
 30
0.0
 10
252.2174750065817
 20
41.01725402056533
 30
0.0
 10
251.0365601590289
 20
42.2099269805194
 30
0.0
 10
247.4322256430109
 20
45.75950852217559
 30
0.0
 10
244.9453752512153
 20
48.08813714843608
 30
0.0
 10
239.9638002518237
 20
52.63028723182273
 30
0.0
 10
237.4726330635656
 20
54.84332933688529
 30
0.0
 10
233.8656400008434
 20
58.04687661844521
 30
0.0
 10
232.6847284379138
 20
59.0954402657804
 30
0.0
 10
230.3783780789046
 20
61.15059385745148
 30
0.0
 10
229.2531439213086
 20
62.15715940597266
 30
0.0
 10
227.0580247399341
 20
64.12667870875511
 30
0.0
 10
225.9883755110158
 20
65.08960492851412
 30
0.0
 10
223.8845916056653
 20
66.97279367022246
 30
0.0
 10
222.8507238804699
 20
67.8930255189818
 30
0.0
 10
221.811070070977
 20
68.79412921860673
 30
0.0
  0
SPLINE
  5
145
330
1F
100
AcDbEntity
  8
0
  6
Continuous
 62
     7
370
    15
100
AcDbSpline
210
0.0
220
0.0
230
1.0
 70
     8
 71
     3
 72
    34
 73
    30
 74
     0
 42
0.000000001
 43
0.00000001
 40
0.0
 40
0.0
 40
0.0
 40
0.0
 40
0.0624999999999999
 40
0.0624999999999999
 40
0.1249999999999998
 40
0.1249999999999998
 40
0.2499999999999997
 40
0.2499999999999997
 40
0.3124999999999997
 40
0.3124999999999997
 40
0.3749999999999996
 40
0.3749999999999996
 40
0.4374999999999996
 40
0.4374999999999996
 40
0.4999999999999996
 40
0.4999999999999996
 40
0.5624999999999996
 40
0.5624999999999996
 40
0.6249999999999994
 40
0.6249999999999994
 40
0.7499999999999994
 40
0.7499999999999994
 40
0.8124999999999997
 40
0.8124999999999997
 40
0.8749999999999998
 40
0.8749999999999998
 40
0.9374999999999999
 40
0.9374999999999999
 40
1.0
 40
1.0
 40
1.0
 40
1.0
 10
23.5421408561487
 20
13.85416829380692
 30
0.0
 10
24.30945695000819
 20
15.22224960580676
 30
0.0
 10
25.08473587675439
 20
16.58195667584383
 30
0.0
 10
26.64137296796493
 20
19.28469267348687
 30
0.0
 10
27.42242725981597
 20
20.62773826505349
 30
0.0
 10
29.74244893264738
 20
24.63166456596899
 30
0.0
 10
31.25561223712989
 20
27.26785148931899
 30
0.0
 10
33.34239378689121
 20
31.16474845126249
 30
0.0
 10
34.00787601917571
 20
32.45403201185981
 30
0.0
 10
35.26719157911551
 20
35.01035668403474
 30
0.0
 10
35.86095086615801
 20
36.27739577486433
 30
0.0
 10
36.97686904567815
 20
38.78523810148127
 30
0.0
 10
37.49901135554312
 20
40.02603464534382
 30
0.0
 10
38.48484061580135
 20
42.47640871746561
 30
0.0
 10
38.94856844158207
 20
43.68597488262282
 30
0.0
 10
39.84344590217037
 20
46.06818610763774
 30
0.0
 10
40.27469387036559
 20
47.24081513321621
 30
0.0
 10
41.14113278606016
 20
49.54314202095667
 30
0.0
 10
41.57647952494725
 20
50.67281917766242
 30
0.0
 10
42.95346416120163
 20
53.98880350689272
 30
0.0
 10
43.96966764288921
 20
56.10110454582839
 30
0.0
 10
45.89083649177303
 20
59.0983871972246
 30
0.0
 10
46.59687081569329
 20
60.06914793964846
 30
0.0
 10
48.16331360904777
 20
61.95374229466655
 30
0.0
 10
49.02410770187026
 20
62.86753651709609
 30
0.0
 10
50.89815833765028
 20
64.64171707858534
 30
0.0
 10
51.91185796199621
 20
65.50205935630294
 30
0.0
 10
54.05172463737465
 20
67.17795591226694
 30
0.0
 10
55.17839222779575
 20
67.99346145799423
 30
0.0
 10
56.31517719997339
 20
68.79412921860694
 30
0.0
  0
SPLINE
  5
146
330
1F
100
AcDbEntity
  8
0
  6
Continuous
 62
     7
370
    15
100
AcDbSpline
210
0.0
220
0.0
230
1.0
 70
    24
 71
     3
 72
     9
 73
     5
 74
     0
 42
0.000000001
 43
0.00000001
 40
614.834279097
 40
614.834279097
 40
614.834279097
 40
614.834279097
 40
629.132750704
 40
643.43122231
 40
643.43122231
 40
643.43122231
 40
643.43122231
 10
70.85981161780347
 20
68.79412921860694
 30
0.0
 10
68.17243087300562
 20
68.79412921860694
 30
0.0
 10
63.04419703116143
 20
68.79412921860694
 30
0.0
 10
58.46080358213909
 20
68.79412921860694
 30
0.0
 10
56.31517719997339
 20
68.79412921860694
 30
0.0
  0
SPLINE
  5
147
330
1F
100
AcDbEntity
  8
0
  6
Continuous
 62
     7
370
    15
100
AcDbSpline
210
0.0
220
0.0
230
1.0
 70
    24
 71
     3
 72
     8
 73
     4
 74
     0
 42
0.000000001
 43
0.00000001
 40
371.760261779
 40
371.760261779
 40
371.760261779
 40
371.760261779
 40
400.357204993
 40
400.357204993
 40
400.357204993
 40
400.357204993
 10
236.8580665706795
 20
68.79412921860673
 30
0.0
 10
232.3852788093933
 20
68.79412921860673
 30
0.0
 10
227.33705286303
 20
68.79412921860673
 30
0.0
 10
221.811070070977
 20
68.79412921860673
 30
0.0
  0
SPLINE
  5
148
330
1F
100
AcDbEntity
  8
0
  6
Continuous
 62
     7
370
    15
100
AcDbSpline
210
0.0
220
0.0
230
1.0
 70
     8
 71
     3
 72
    32
 73
    28
 74
     0
 42
0.000000001
 43
0.00000001
 40
0.0
 40
0.0
 40
0.0
 40
0.0
 40
0.0624999999999994
 40
0.0624999999999994
 40
0.1249999999999988
 40
0.1249999999999988
 40
0.2499999999999989
 40
0.2499999999999989
 40
0.3124999999999991
 40
0.3124999999999991
 40
0.3749999999999992
 40
0.3749999999999992
 40
0.4374999999999993
 40
0.4374999999999993
 40
0.4999999999999993
 40
0.4999999999999993
 40
0.6249999999999981
 40
0.6249999999999981
 40
0.7499999999999969
 40
0.7499999999999969
 40
0.8124999999999977
 40
0.8124999999999977
 40
0.8749999999999986
 40
0.8749999999999986
 40
0.9374999999999992
 40
0.9374999999999992
 40
1.0
 40
1.0
 40
1.0
 40
1.0
 10
296.6745969951527
 20
13.85417902980679
 30
0.0
 10
295.6324886968824
 20
15.15278996280678
 30
0.0
 10
294.5850491642321
 20
16.44493290579518
 30
0.0
 10
292.4757702270556
 20
19.01646335930729
 30
0.0
 10
291.4138001922631
 20
20.29584933444873
 30
0.0
 10
288.1924926701507
 20
24.11432815757619
 30
0.0
 10
285.9968171450599
 20
26.63395650688072
 30
0.0
 10
282.5704625824861
 20
30.36790618044116
 30
0.0
 10
281.4063156083881
 20
31.60491746482141
 30
0.0
 10
279.0278860185485
 20
34.06198972967211
 30
0.0
 10
277.8135690609495
 20
35.28204849329786
 30
0.0
 10
275.3333513363447
 20
37.7032218803981
 30
0.0
 10
274.0674402995842
 20
38.90433411666283
 30
0.0
 10
271.4880021517259
 20
41.28537302062529
 30
0.0
 10
270.1744888429757
 20
42.46529713074776
 30
0.0
 10
266.1765207787292
 20
45.96966883504506
 30
0.0
 10
263.433206285118
 20
48.25871249130343
 30
0.0
 10
257.9142262625455
 20
52.72229087333136
 30
0.0
 10
255.1413133305342
 20
54.89672740160656
 30
0.0
 10
251.0626906552582
 20
58.05825120563868
 30
0.0
 10
249.7164493387248
 20
59.09542321557781
 30
0.0
 10
247.0603722082084
 20
61.13444504770915
 30
0.0
 10
245.7506946291874
 20
62.13629129013331
 30
0.0
 10
243.1676992076083
 20
64.10305003733541
 30
0.0
 10
241.8945636721141
 20
65.06795879197958
 30
0.0
 10
239.3693779972052
 20
66.95971990275874
 30
0.0
 10
238.1175342369569
 20
67.88656833839424
 30
0.0
 10
236.8580665706795
 20
68.79412921860673
 30
0.0
  0
SPLINE
  5
149
330
1F
100
AcDbEntity
  8
0
  6
Continuous
 62
     7
370
    15
100
AcDbSpline
210
0.0
220
0.0
230
1.0
 70
     8
 71
     3
 72
     8
 73
     4
 74
     0
 42
0.000000001
 43
0.00000001
 40
0.0
 40
0.0
 40
0.0
 40
0.0
 40
1.0
 40
1.0
 40
1.0
 40
1.0
 10
56.31517719997339
 20
68.79412921860694
 30
0.0
 10
53.99785787162109
 20
68.79412773576243
 30
0.0
 10
51.85166429835361
 20
68.79412629885762
 30
0.0
 10
49.88925860658733
 20
68.79412490945836
 30
0.0
  0
SPLINE
  5
14A
330
1F
100
AcDbEntity
  8
0
  6
Continuous
 62
     7
370
    15
100
AcDbSpline
210
0.0
220
0.0
230
1.0
 70
     8
 71
     3
 72
    34
 73
    30
 74
     0
 42
0.000000001
 43
0.00000001
 40
0.0
 40
0.0
 40
0.0
 40
0.0
 40
0.0624999999999999
 40
0.0624999999999999
 40
0.1249999999999998
 40
0.1249999999999998
 40
0.2499999999999996
 40
0.2499999999999996
 40
0.3124999999999996
 40
0.3124999999999996
 40
0.3749999999999996
 40
0.3749999999999996
 40
0.4374999999999997
 40
0.4374999999999997
 40
0.4999999999999997
 40
0.4999999999999997
 40
0.5624999999999997
 40
0.5624999999999997
 40
0.6249999999999997
 40
0.6249999999999997
 40
0.7499999999999996
 40
0.7499999999999996
 40
0.8124999999999997
 40
0.8124999999999997
 40
0.8749999999999998
 40
0.8749999999999998
 40
0.9374999999999999
 40
0.9374999999999999
 40
1.0
 40
1.0
 40
1.0
 40
1.0
 10
9.51291230278689
 20
13.85414129980678
 30
0.0
 10
10.24611924783567
 20
15.1953653270569
 30
0.0
 10
10.98460317017852
 20
16.5292855647301
 30
0.0
 10
12.46518053569315
 20
19.18339203246644
 30
0.0
 10
13.20706296245414
 20
20.50363460525206
 30
0.0
 10
15.4167695408434
 20
24.44702987069691
 30
0.0
 10
16.86644653488548
 20
27.05371766617293
 30
0.0
 10
18.92470758098982
 20
30.93685613549368
 30
0.0
 10
19.59177788153604
 20
32.22658398114531
 30
0.0
 10
20.88276724895685
 20
34.79483396413685
 30
0.0
 10
21.50664054835077
 20
36.07336302381125
 30
0.0
 10
22.71456341911915
 20
38.61472373805408
 30
0.0
 10
23.29860853524551
 20
39.87754995985981
 30
0.0
 10
24.43957535516911
 20
42.38036312640614
 30
0.0
 10
24.99653391595075
 20
43.62033228328688
 30
0.0
 10
26.10491472486903
 20
46.06798758219233
 30
0.0
 10
26.65641514222267
 20
47.27564358126046
 30
0.0
 10
27.78262815494292
 20
49.64764592316362
 30
0.0
 10
28.357460231759
 20
50.81194976794512
 30
0.0
 10
30.1661924116807
 20
54.22261692322871
 30
0.0
 10
31.4875363402764
 20
56.38517234491225
 30
0.0
 10
33.82375028582016
 20
59.40737494963555
 30
0.0
 10
34.6610224663107
 20
60.37812746164395
 30
0.0
 10
36.46750117311809
 20
62.24373932482074
 30
0.0
 10
37.43699242981452
 20
63.13850675754718
 30
0.0
 10
39.50320599510426
 20
64.85696458838986
 30
0.0
 10
40.60025434630973
 20
65.68055071296719
 30
0.0
 10
42.88766113304823
 20
67.2719766347436
 30
0.0
 10
44.07838692342597
 20
68.03969980330682
 30
0.0
 10
45.27899795443738
 20
68.79412921860694
 30
0.0
  0
SPLINE
  5
14B
330
1F
100
AcDbEntity
  8
0
  6
Continuous
 62
     7
370
    15
100
AcDbSpline
210
0.0
220
0.0
230
1.0
 70
     8
 71
     3
 72
     8
 73
     4
 74
     0
 42
0.000000001
 43
0.00000001
 40
0.0
 40
0.0
 40
0.0
 40
0.0
 40
1.0
 40
1.0
 40
1.0
 40
1.0
 10
49.88925860658733
 20
68.79412490945836
 30
0.0
 10
48.21764760096492
 20
68.79412638586268
 30
0.0
 10
46.67865415793393
 20
68.79412782139637
 30
0.0
 10
45.27899795443738
 20
68.79412921860694
 30
0.0
  0
SPLINE
  5
14C
330
1F
100
AcDbEntity
  8
0
  6
Continuous
 62
     7
370
    15
100
AcDbSpline
210
0.0
220
0.0
230
1.0
 70
    24
 71
     3
 72
     8
 73
     4
 74
     0
 42
0.000000001
 43
0.00000001
 40
343.163318566
 40
343.163318566
 40
343.163318566
 40
343.163318566
 40
371.760261779
 40
371.760261779
 40
371.760261779
 40
371.760261779
 10
248.4755518770308
 20
68.79412921860673
 30
0.0
 10
245.2282901381053
 20
68.79412921860673
 30
0.0
 10
241.3308543319918
 20
68.79412921860673
 30
0.0
 10
236.8580665706795
 20
68.79412921860673
 30
0.0
  0
SPLINE
  5
14D
330
1F
100
AcDbEntity
  8
0
  6
Continuous
 62
     7
370
    15
100
AcDbSpline
210
0.0
220
0.0
230
1.0
 70
     8
 71
     3
 72
    26
 73
    22
 74
     0
 42
0.000000001
 43
0.00000001
 40
0.0
 40
0.0
 40
0.0
 40
0.0
 40
0.1249999999999999
 40
0.1249999999999999
 40
0.2499999999999999
 40
0.2499999999999999
 40
0.3749999999999998
 40
0.3749999999999998
 40
0.4999999999999998
 40
0.4999999999999998
 40
0.6249999999999998
 40
0.6249999999999998
 40
0.7499999999999997
 40
0.7499999999999997
 40
0.8124999999999998
 40
0.8124999999999998
 40
0.8749999999999998
 40
0.8749999999999998
 40
0.9374999999999999
 40
0.9374999999999999
 40
1.0
 40
1.0
 40
1.0
 40
1.0
 10
313.7070775841941
 20
13.8541732128068
 30
0.0
 10
311.3900388232871
 20
16.50039235180678
 30
0.0
 10
309.0453028369526
 20
19.1174309976252
 30
0.0
 10
304.263132066284
 20
24.28479713209253
 30
0.0
 10
301.8234273561166
 20
26.83478934514039
 30
0.0
 10
296.7919842899266
 20
31.85155311720034
 30
0.0
 10
294.1990100789799
 20
34.318119520101
 30
0.0
 10
288.8388573675161
 20
39.15240011481602
 30
0.0
 10
286.0714770829844
 20
41.52003927000835
 30
0.0
 10
280.3990703688663
 20
46.14591464306783
 30
0.0
 10
277.4948762261744
 20
48.40420594380279
 30
0.0
 10
271.6346711852963
 20
52.80621501882288
 30
0.0
 10
268.6805266449132
 20
54.95011799546567
 30
0.0
 10
264.2814129908242
 20
58.07749626778968
 30
0.0
 10
262.8202799529985
 20
59.10520540854702
 30
0.0
 10
259.9150503875424
 20
61.13022983441319
 30
0.0
 10
258.4710606556671
 20
62.12755700644635
 30
0.0
 10
255.5999782274588
 20
64.09025955227054
 30
0.0
 10
254.1730084842388
 20
65.05564884610315
 30
0.0
 10
251.3254994244271
 20
66.9518462271732
 30
0.0
 10
249.905099218307
 20
67.88267026756944
 30
0.0
 10
248.4755518770308
 20
68.79412921860673
 30
0.0
  0
SPLINE
  5
14E
330
1F
100
AcDbEntity
  8
0
  6
Continuous
 62
     7
370
    15
100
AcDbSpline
210
0.0
220
0.0
230
1.0
 70
    24
 71
     3
 72
     8
 73
     4
 74
     0
 42
0.000000001
 43
0.00000001
 40
285.969432138
 40
285.969432138
 40
285.969432138
 40
285.969432138
 40
314.566375352
 40
314.566375352
 40
314.566375352
 40
314.566375352
 10
259.7853736548787
 20
68.79412921860673
 30
0.0
 10
259.3112492462827
 20
68.79412921860673
 30
0.0
 10
258.1144442870869
 20
68.79412921860673
 30
0.0
 10
256.217121043272
 20
68.79412921860673
 30
0.0
  0
SPLINE
  5
14F
330
1F
100
AcDbEntity
  8
0
  6
Continuous
 62
     7
370
    15
100
AcDbSpline
210
0.0
220
0.0
230
1.0
 70
    24
 71
     3
 72
     8
 73
     4
 74
     0
 42
0.000000001
 43
0.00000001
 40
314.566375352
 40
314.566375352
 40
314.566375352
 40
314.566375352
 40
343.163318566
 40
343.163318566
 40
343.163318566
 40
343.163318566
 10
256.217121043272
 20
68.79412921860673
 30
0.0
 10
254.3197977994568
 20
68.79412921860673
 30
0.0
 10
251.7228136159937
 20
68.79412921860673
 30
0.0
 10
248.4755518770308
 20
68.79412921860673
 30
0.0
  0
SPLINE
  5
150
330
1F
100
AcDbEntity
  8
0
  6
Continuous
 62
     7
370
    15
100
AcDbSpline
210
0.0
220
0.0
230
1.0
 70
     8
 71
     3
 72
    34
 73
    30
 74
     0
 42
0.000000001
 43
0.00000001
 40
0.0
 40
0.0
 40
0.0
 40
0.0
 40
0.0624999999999999
 40
0.0624999999999999
 40
0.1249999999999997
 40
0.1249999999999997
 40
0.2499999999999995
 40
0.2499999999999995
 40
0.3124999999999995
 40
0.3124999999999995
 40
0.3749999999999996
 40
0.3749999999999996
 40
0.4374999999999996
 40
0.4374999999999996
 40
0.4999999999999996
 40
0.4999999999999996
 40
0.5624999999999996
 40
0.5624999999999996
 40
0.6249999999999994
 40
0.6249999999999994
 40
0.7499999999999994
 40
0.7499999999999994
 40
0.8124999999999996
 40
0.8124999999999996
 40
0.8749999999999994
 40
0.8749999999999994
 40
0.9374999999999998
 40
0.9374999999999998
 40
1.0
 40
1.0
 40
1.0
 40
1.0
 10
4.551976047489803
 20
13.85416080380675
 30
0.0
 10
5.248607866104399
 20
15.18521981293186
 30
0.0
 10
5.949419654639049
 20
16.50914315695173
 30
0.0
 10
7.354178512425452
 20
19.14391187625331
 30
0.0
 10
8.057965192224264
 20
20.45483172884999
 30
0.0
 10
10.15870373929134
 20
24.37282567343901
 30
0.0
 10
11.54311363693336
 20
26.96614050558876
 30
0.0
 10
13.54232493500196
 20
30.84146870814997
 30
0.0
 10
14.19616485938277
 20
32.13061684376428
 30
0.0
 10
15.47687409411747
 20
34.70232930624096
 30
0.0
 10
16.10371263450136
 20
35.98490493006934
 30
0.0
 10
17.33531335836267
 20
38.53891247157782
 30
0.0
 10
17.94007717674079
 20
39.81033989113669
 30
0.0
 10
19.13972327729413
 20
42.33410300746554
 30
0.0
 10
19.73463959924088
 20
43.58641841102706
 30
0.0
 10
20.93355097113453
 20
46.06099322941159
 30
0.0
 10
21.53761246572369
 20
47.28321655593892
 30
0.0
 10
22.77903262439876
 20
49.68447242754803
 30
0.0
 10
23.41649013799765
 20
50.86345308924712
 30
0.0
 10
25.41930424273181
 20
54.31463028573225
 30
0.0
 10
26.87804440998509
 20
56.49925411819812
 30
0.0
 10
29.39381124215115
 20
59.53347373045092
 30
0.0
 10
30.28651960225742
 20
60.50475434655267
 30
0.0
 10
32.19051859248454
 20
62.36337965152461
 30
0.0
 10
33.20203769160135
 20
63.25060927666337
 30
0.0
 10
35.33753338044077
 20
64.94641585307215
 30
0.0
 10
36.46177084403013
 20
65.75486194552305
 30
0.0
 10
38.79237799389423
 20
67.31123942341833
 30
0.0
 10
39.99904095890644
 20
68.05902415495679
 30
0.0
 10
41.21535101251406
 20
68.79412921860673
 30
0.0
  0
SPLINE
  5
151
330
1F
100
AcDbEntity
  8
0
  6
Continuous
 62
     7
370
    15
100
AcDbSpline
210
0.0
220
0.0
230
1.0
 70
    24
 71
     3
 72
     8
 73
     4
 74
     0
 42
0.000000001
 43
0.00000001
 40
672.028165524
 40
672.028165524
 40
672.028165524
 40
672.028165524
 40
686.326637131
 40
686.326637131
 40
686.326637131
 40
686.326637131
 10
45.27899795443738
 20
68.79412921860694
 30
0.0
 10
43.75759870697499
 20
68.79412921860694
 30
0.0
 10
42.40102366371465
 20
68.79412921860694
 30
0.0
 10
41.21535101251406
 20
68.79412921860673
 30
0.0
  0
SPLINE
  5
152
330
1F
100
AcDbEntity
  8
0
  6
Continuous
 62
     7
370
    15
100
AcDbSpline
210
0.0
220
0.0
230
1.0
 70
     8
 71
     3
 72
    26
 73
    22
 74
     0
 42
0.000000001
 43
0.00000001
 40
0.0
 40
0.0
 40
0.0
 40
0.0
 40
0.1249999999999999
 40
0.1249999999999999
 40
0.2499999999999998
 40
0.2499999999999998
 40
0.3749999999999998
 40
0.3749999999999998
 40
0.4999999999999999
 40
0.4999999999999999
 40
0.6249999999999999
 40
0.6249999999999999
 40
0.7499999999999999
 40
0.7499999999999999
 40
0.8125
 40
0.8125
 40
0.8750000000000001
 40
0.8750000000000001
 40
0.9375
 40
0.9375
 40
1.0
 40
1.0
 40
1.0
 40
1.0
 10
324.3865952348939
 20
13.85417531180688
 30
0.0
 10
321.9337776688556
 20
16.52415239680693
 30
0.0
 10
319.4445367678433
 20
19.16029958341947
 30
0.0
 10
314.3720229442046
 20
24.35633785351232
 30
0.0
 10
311.7875075243585
 20
26.91586205737262
 30
0.0
 10
306.4920180527943
 20
31.94266770143339
 30
0.0
 10
303.7803729631834
 20
34.40973451685614
 30
0.0
 10
298.2192872230244
 20
39.23800920422926
 30
0.0
 10
295.3697469939104
 20
41.59915470624442
 30
0.0
 10
289.5541829737514
 20
46.20849598840682
 30
0.0
 10
286.5886310634676
 20
48.45678165346068
 30
0.0
 10
280.5894200751142
 20
52.83942516016182
 30
0.0
 10
277.5568043371329
 20
54.97402514155758
 30
0.0
 10
272.9963347117276
 20
58.09059490021862
 30
0.0
 10
271.4741865476363
 20
59.11521503762928
 30
0.0
 10
268.4295045805031
 20
61.1352971573329
 30
0.0
 10
266.9070301689949
 20
62.13077384343823
 30
0.0
 10
263.8615254267535
 20
64.09097704128453
 30
0.0
 10
262.3385634166063
 20
65.05572063582021
 30
0.0
 10
259.2861287041545
 20
66.95145742075547
 30
0.0
 10
257.7567332514877
 20
67.88247007293191
 30
0.0
 10
256.217121043272
 20
68.79412921860673
 30
0.0
  0
SPLINE
  5
153
330
1F
100
AcDbEntity
  8
0
  6
Continuous
 62
     7
370
    15
100
AcDbSpline
210
0.0
220
0.0
230
1.0
 70
     8
 71
     3
 72
    32
 73
    28
 74
     0
 42
0.000000001
 43
0.00000001
 40
0.0
 40
0.0
 40
0.0
 40
0.0
 40
0.0624999999999999
 40
0.0624999999999999
 40
0.1249999999999998
 40
0.1249999999999998
 40
0.2499999999999995
 40
0.2499999999999995
 40
0.3124999999999995
 40
0.3124999999999995
 40
0.3749999999999994
 40
0.3749999999999994
 40
0.4374999999999994
 40
0.4374999999999994
 40
0.4999999999999994
 40
0.4999999999999994
 40
0.6249999999999996
 40
0.6249999999999996
 40
0.7499999999999996
 40
0.7499999999999996
 40
0.8124999999999997
 40
0.8124999999999997
 40
0.8749999999999998
 40
0.8749999999999998
 40
0.9374999999999999
 40
0.9374999999999999
 40
1.0
 40
1.0
 40
1.0
 40
1.0
 10
0.6249830339166429
 20
13.85421095680694
 30
0.0
 10
1.286638834405329
 20
15.18137619643189
 30
0.0
 10
1.95217575098583
 20
16.50124208262582
 30
0.0
 10
3.287450420242005
 20
19.12771259428236
 30
0.0
 10
3.95707263788142
 20
20.43440481767789
 30
0.0
 10
5.962300266861287
 20
24.3405176260374
 30
0.0
 10
7.292650607778866
 20
26.9270618484041
 30
0.0
 10
9.249004727318876
 20
30.79904557962454
 30
0.0
 10
9.89489798124793
 20
32.08820620450381
 30
0.0
 10
11.17501736161269
 20
34.66268305098686
 30
0.0
 10
11.80922538010776
 20
35.94801392754898
 30
0.0
 10
13.07190471078362
 20
38.51032162581669
 30
0.0
 10
13.70038227179768
 20
39.78729486673682
 30
0.0
 10
14.96294190156683
 20
42.32447926212335
 30
0.0
 10
15.59705457592911
 20
43.58466860006027
 30
0.0
 10
17.53209814611403
 20
47.32220530636067
 30
0.0
 10
18.86511935947649
 20
49.75695835234428
 30
0.0
 10
21.7814538046838
 20
54.39209967062153
 30
0.0
 10
23.36808466625376
 20
56.59003918257577
 30
0.0
 10
26.04740261650149
 20
59.62978063132552
 30
0.0
 10
26.98993562804899
 20
60.60051637399266
 30
0.0
 10
28.98017313841536
 20
62.45254040947135
 30
0.0
 10
30.0280543834848
 20
63.33369747129125
 30
0.0
 10
32.22180687992216
 20
65.01217037517493
 30
0.0
 10
33.36787923431459
 20
65.80933675050326
 30
0.0
 10
35.73136103836333
 20
67.33990183403394
 30
0.0
 10
36.94899594781806
 20
68.0731328397568
 30
0.0
 10
38.17603801318431
 20
68.79412921860673
 30
0.0
  0
SPLINE
  5
154
330
1F
100
AcDbEntity
  8
0
  6
Continuous
 62
     7
370
    15
100
AcDbSpline
210
0.0
220
0.0
230
1.0
 70
    24
 71
     3
 72
     8
 73
     4
 74
     0
 42
0.000000001
 43
0.00000001
 40
686.326637131
 40
686.326637131
 40
686.326637131
 40
686.326637131
 40
700.625108738
 40
700.625108738
 40
700.625108738
 40
700.625108738
 10
41.21535101251406
 20
68.79412921860673
 30
0.0
 10
40.02967836131344
 20
68.79412921860673
 30
0.0
 10
39.01459702155072
 20
68.79412921860673
 30
0.0
 10
38.17603801318431
 20
68.79412921860673
 30
0.0
  0
SPLINE
  5
155
330
1F
100
AcDbEntity
  8
0
  6
Continuous
 62
     7
370
    15
100
AcDbSpline
210
0.0
220
0.0
230
1.0
 70
    24
 71
     3
 72
     8
 73
     4
 74
     0
 42
0.000000001
 43
0.00000001
 40
700.625108738
 40
700.625108738
 40
700.625108738
 40
700.625108738
 40
714.923580345
 40
714.923580345
 40
714.923580345
 40
714.923580345
 10
38.17603801318431
 20
68.79412921860673
 30
0.0
 10
37.33747900568737
 20
68.79412921860673
 30
0.0
 10
36.67441227744148
 20
68.79412921860673
 30
0.0
 10
36.19083164114295
 20
68.79412921860673
 30
0.0
  0
SPLINE
  5
156
330
1F
100
AcDbEntity
  8
0
  6
Continuous
 62
     7
370
    15
100
AcDbSpline
210
0.0
220
0.0
230
1.0
 70
    24
 71
     3
 72
     8
 73
     4
 74
     0
 42
0.000000001
 43
0.00000001
 40
714.923580345
 40
714.923580345
 40
714.923580345
 40
714.923580345
 40
729.222051952
 40
729.222051952
 40
729.222051952
 40
729.222051952
 10
36.19083164114295
 20
68.79412921860673
 30
0.0
 10
35.70725100484442
 20
68.79412921860673
 30
0.0
 10
35.40262770759215
 20
68.79412921860673
 30
0.0
 10
35.27873910055465
 20
68.79412921860673
 30
0.0
  0
SPLINE
  5
157
330
1F
100
AcDbEntity
  8
0
  6
Continuous
 62
     7
370
    15
100
AcDbSpline
210
0.0
220
0.0
230
1.0
 70
     8
 71
     3
 72
    32
 73
    28
 74
     0
 42
0.000000001
 43
0.00000001
 40
0.0
 40
0.0
 40
0.0
 40
0.0
 40
0.0624999999999999
 40
0.0624999999999999
 40
0.1249999999999998
 40
0.1249999999999998
 40
0.2499999999999998
 40
0.2499999999999998
 40
0.3124999999999998
 40
0.3124999999999998
 40
0.3749999999999998
 40
0.3749999999999998
 40
0.4374999999999998
 40
0.4374999999999998
 40
0.4999999999999999
 40
0.4999999999999999
 40
0.6249999999999999
 40
0.6249999999999999
 40
0.75
 40
0.75
 40
0.8125
 40
0.8125
 40
0.875
 40
0.875
 40
0.9375000000000001
 40
0.9375000000000001
 40
1.0
 40
1.0
 40
1.0
 40
1.0
 10
-2.109078078721543
 20
13.85417285280677
 30
0.0
 10
-1.47674946525822
 20
15.18093428330691
 30
0.0
 10
-0.8403134149534419
 20
16.5000948932188
 30
0.0
 10
0.4386241431347804
 20
19.12459198316441
 30
0.0
 10
1.081045315280499
 20
20.43002501097235
 30
0.0
 10
3.011728873558078
 20
24.33220552610171
 30
0.0
 10
4.302071556442716
 20
26.91596419706377
 30
0.0
 10
6.231069655110444
 20
30.78706020752264
 30
0.0
 10
6.873251247154627
 20
32.07647132688862
 30
0.0
 10
8.158623869926219
 20
34.65292074530723
 30
0.0
 10
8.801806272504125
 20
35.93997612306676
 30
0.0
 10
10.09567073221723
 20
38.50730738554265
 30
0.0
 10
10.74636208807495
 20
39.78758048169939
 30
0.0
 10
12.06562295050434
 20
42.33270997675432
 30
0.0
 10
12.73421968267058
 20
43.59754371982594
 30
0.0
 10
14.78740547276516
 20
47.35019079828251
 30
0.0
 10
16.21920994792442
 20
49.79667115368436
 30
0.0
 10
19.33905221317952
 20
54.45110582565826
 30
0.0
 10
21.02968220201851
 20
56.65642789817448
 30
0.0
 10
23.83926336489969
 20
59.69797426187529
 30
0.0
 10
24.82095545595742
 20
60.66778017866326
 30
0.0
 10
26.87781579401002
 20
62.51440547289499
 30
0.0
 10
27.95311882783177
 20
63.3910829909119
 30
0.0
 10
30.18934015132749
 20
65.05726421327762
 30
0.0
 10
31.35041115470039
 20
65.84660619093263
 30
0.0
 10
33.73475430692244
 20
67.35944035718377
 30
0.0
 10
34.95819709634262
 20
68.08275095181938
 30
0.0
 10
36.19083164114295
 20
68.79412921860673
 30
0.0
  0
SPLINE
  5
158
330
1F
100
AcDbEntity
  8
0
  6
Continuous
 62
     7
370
    15
100
AcDbSpline
210
0.0
220
0.0
230
1.0
 70
     8
 71
     3
 72
    26
 73
    22
 74
     0
 42
0.000000001
 43
0.00000001
 40
0.0
 40
0.0
 40
0.0
 40
0.0
 40
0.1250000000000001
 40
0.1250000000000001
 40
0.2500000000000001
 40
0.2500000000000001
 40
0.3750000000000001
 40
0.3750000000000001
 40
0.5
 40
0.5
 40
0.6249999999999999
 40
0.6249999999999999
 40
0.7499999999999999
 40
0.7499999999999999
 40
0.8124999999999999
 40
0.8124999999999999
 40
0.8749999999999999
 40
0.8749999999999999
 40
0.9375
 40
0.9375
 40
1.0
 40
1.0
 40
1.0
 40
1.0
 10
328.5624290804752
 20
13.85417923280685
 30
0.0
 10
326.0683293506015
 20
16.53391280405692
 30
0.0
 10
323.5311398948445
 20
19.1753871237581
 30
0.0
 10
318.3640791032091
 20
24.3767298494757
 30
0.0
 10
315.7337203245445
 20
26.93627291907141
 30
0.0
 10
310.3688268700272
 20
31.961211564558
 30
0.0
 10
307.6340271573135
 20
34.42641534200708
 30
0.0
 10
302.0564731210462
 20
39.25135442548111
 30
0.0
 10
299.2136761665561
 20
41.61103147104362
 30
0.0
 10
293.4286792534573
 20
46.21856759889198
 30
0.0
 10
290.486659069837
 20
48.46650195869429
 30
0.0
 10
284.5220404647827
 20
52.848919453232
 30
0.0
 10
281.4998442242625
 20
54.98361140346253
 30
0.0
 10
276.9213926256394
 20
58.09967708983055
 30
0.0
 10
275.3876889399396
 20
59.12402013995277
 30
0.0
 10
272.3065538538914
 20
61.14320891995995
 30
0.0
 10
270.7591454469745
 20
62.13806743492212
 30
0.0
 10
267.6505147636707
 20
64.09666169739081
 30
0.0
 10
266.0893189558079
 20
65.0604123165055
 30
0.0
 10
262.9507816039623
 20
66.95390994171268
 30
0.0
 10
261.3734700035961
 20
67.88367390594429
 30
0.0
 10
259.7853736548787
 20
68.79412921860673
 30
0.0
  0
SPLINE
  5
159
330
1F
100
AcDbEntity
  8
0
  6
Continuous
 62
     7
370
    15
100
AcDbSpline
210
0.0
220
0.0
230
1.0
 70
     8
 71
     3
 72
    26
 73
    22
 74
     0
 42
0.000000001
 43
0.00000001
 40
0.0
 40
0.0
 40
0.0
 40
0.0
 40
0.1249999999999998
 40
0.1249999999999998
 40
0.2499999999999996
 40
0.2499999999999996
 40
0.3749999999999994
 40
0.3749999999999994
 40
0.4999999999999992
 40
0.4999999999999992
 40
0.624999999999999
 40
0.624999999999999
 40
0.7499999999999989
 40
0.7499999999999989
 40
0.812499999999999
 40
0.812499999999999
 40
0.8749999999999993
 40
0.8749999999999993
 40
0.9374999999999997
 40
0.9374999999999997
 40
1.0
 40
1.0
 40
1.0
 40
1.0
 10
-3.519173783411544
 20
13.85417946780687
 30
0.0
 10
-2.294614893732589
 20
16.50818282230681
 30
0.0
 10
-1.051619876360793
 20
19.12895434703099
 30
0.0
 10
1.458678755079518
 20
24.32889774750513
 30
0.0
 10
2.724590431977814
 20
26.91067812302395
 30
0.0
 10
5.278144647001409
 20
32.07047775265725
 30
0.0
 10
6.565266129626435
 20
34.64976663151997
 30
0.0
 10
9.201868671590757
 20
39.78932969507443
 30
0.0
 10
10.5516995570997
 20
42.34953462949353
 30
0.0
 10
13.40012451123557
 20
47.36457851391695
 30
0.0
 10
14.89993928770203
 20
49.81800933862846
 30
0.0
 10
18.15695251093449
 20
54.48421662939018
 30
0.0
 10
19.91624254721
 20
56.69424609512741
 30
0.0
 10
22.80908003514007
 20
59.73737559411485
 30
0.0
 10
23.81526049023292
 20
60.70680296123765
 30
0.0
 10
25.91249016778147
 20
62.55053743449124
 30
0.0
 10
27.00364557498763
 20
63.42469593709544
 30
0.0
 10
29.26264015844118
 20
65.08380230857247
 30
0.0
 10
30.43059912696516
 20
65.8685806539967
 30
0.0
 10
32.82218984409369
 20
67.37099523338053
 30
0.0
 10
34.04595499250087
 20
68.08844102396927
 30
0.0
 10
35.27873910055462
 20
68.79412921860673
 30
0.0
  0
SPLINE
  5
15A
330
1F
100
AcDbEntity
  8
0
  6
Continuous
 62
     7
370
    15
100
AcDbSpline
210
0.0
220
0.0
230
1.0
 70
     8
 71
     3
 72
     9
 73
     5
 74
     0
 42
0.000000001
 43
0.00000001
 40
0.0
 40
0.0
 40
0.0
 40
0.0
 40
0.8346054395082638
 40
1.0
 40
1.0
 40
1.0
 40
1.0
 10
147.3695857505937
 20
103.0595756025325
 30
0.0
 10
146.7752837344261
 20
103.039954723779
 30
0.0
 10
146.0632083176666
 20
103.0164455566627
 30
0.0
 10
145.5048877366065
 20
102.994710723747
 30
0.0
 10
145.4125445494886
 20
102.9911159006096
 30
0.0
  0
SPLINE
  5
161
330
1F
100
AcDbEntity
  8
0
  6
Continuous
 62
     7
370
    15
100
AcDbSpline
210
0.0
220
0.0
230
1.0
 70
     8
 71
     3
 72
     9
 73
     5
 74
     0
 42
0.000000001
 43
0.00000001
 40
0.0
 40
0.0
 40
0.0
 40
0.0
 40
0.6568994788905685
 40
1.0
 40
1.0
 40
1.0
 40
1.0
 10
111.8425671885449
 20
96.89159567194694
 30
0.0
 10
111.8536666919934
 20
96.97419024244813
 30
0.0
 10
111.8705634985904
 20
97.09992419894408
 30
0.0
 10
112.2194841405013
 20
97.26348739581492
 30
0.0
 10
112.3391989945667
 20
97.31960601389567
 30
0.0
  0
LWPOLYLINE
  5
162
330
1F
100
AcDbEntity
  8
0
  6
Continuous
 62
     7
370
    15
100
AcDbPolyline
 90
       18
 70
   128
 43
0.0
 10
114.7113823198
 20
98.0715934898
 10
114.8970374345
 20
98.1175058114
 10
116.2781626933
 20
98.3700082401
 10
117.5870424404
 20
98.5297954083
 10
118.67184712
 20
98.583157927
 10
119.431682602
 20
98.5307754669
 10
119.8060557455
 20
98.381324958
 10
119.7593259806
 20
98.1483615348
 10
119.279977539
 20
97.8517661543
 10
118.3962030447
 20
97.5208771616
 10
117.1957072851
 20
97.1949991493
 10
115.8287776166
 20
96.9176165208
 10
114.4785544061
 20
96.725115948
 10
113.3111085847
 20
96.6374698583
 10
112.4430576489
 20
96.657991944
 10
111.9447231057
 20
96.7796668707
 10
111.8425671885
 20
96.8915956719
 10
111.8425671885
 20
96.8915956719
  0
SPLINE
  5
169
330
1F
100
AcDbEntity
  8
0
  6
Continuous
 62
     7
370
    15
100
AcDbSpline
210
0.0
220
0.0
230
1.0
 70
     8
 71
     3
 72
    10
 73
     6
 74
     0
 42
0.000000001
 43
0.00000001
 40
0.0
 40
0.0
 40
0.0
 40
0.0
 40
0.0841196529939506
 40
0.733650451071949
 40
1.0
 40
1.0
 40
1.0
 40
1.0
 10
153.5533676819633
 20
271.8500433035047
 30
0.0
 10
153.5507771278876
 20
271.8927864047868
 30
0.0
 10
153.5281835828776
 20
272.2655708186518
 30
0.0
 10
153.4936444290202
 20
272.9273255014932
 30
0.0
 10
153.4635282703622
 20
273.461788343653
 30
0.0
 10
153.4547701118318
 20
273.617216874676
 30
0.0
  0
SPLINE
  5
16B
330
1F
100
AcDbEntity
  8
0
  6
Continuous
 62
     7
370
    15
100
AcDbSpline
210
0.0
220
0.0
230
1.0
 70
     8
 71
     3
 72
     9
 73
     5
 74
     0
 42
0.000000001
 43
0.00000001
 40
0.0
 40
0.0
 40
0.0
 40
0.0
 40
0.637501195700185
 40
1.0
 40
1.0
 40
1.0
 40
1.0
 10
153.3488029448972
 20
272.9283135652212
 30
0.0
 10
153.344813751369
 20
273.0007618671042
 30
0.0
 10
153.3385562046302
 20
273.1144060490629
 30
0.0
 10
153.3322986578913
 20
273.2261194628347
 30
0.0
 10
153.3300303046806
 20
273.2666154417514
 30
0.0
  0
SPLINE
  5
16C
330
1F
100
AcDbEntity
  8
0
  6
Continuous
 62
     7
370
    15
100
AcDbSpline
210
0.0
220
0.0
230
1.0
 70
    24
 71
     3
 72
    16
 73
    12
 74
     0
 42
0.000000001
 43
0.00000001
 40
0.0
 40
0.0
 40
0.0
 40
0.0
 40
0.0694241730044818
 40
0.1287961166285546
 40
0.278850359031699
 40
0.3956058352185229
 40
0.5120092733067081
 40
0.6372455272713572
 40
0.7624447391263827
 40
0.8879073403060003
 40
1.0
 40
1.0
 40
1.0
 40
1.0
 10
154.1590041479613
 20
270.7055173997401
 30
0.0
 10
154.1590041479613
 20
270.6987617097611
 30
0.0
 10
154.1590041479613
 20
270.6862285156764
 30
0.0
 10
154.1590041479613
 20
270.8879150123005
 30
0.0
 10
154.1590041479612
 20
271.2747515491461
 30
0.0
 10
154.1590041479617
 20
272.0008732926897
 30
0.0
 10
154.1590041479612
 20
272.8173392224522
 30
0.0
 10
154.1590041479614
 20
273.7130215400867
 30
0.0
 10
154.1590041479613
 20
274.5833551143593
 30
0.0
 10
154.1590041479613
 20
275.3108257546183
 30
0.0
 10
154.1590041479613
 20
275.6355766015081
 30
0.0
 10
154.1590041479613
 20
275.7888133095981
 30
0.0
  0
SPLINE
  5
16D
330
1F
100
AcDbEntity
  8
0
  6
Continuous
 62
     7
370
    15
100
AcDbSpline
210
0.0
220
0.0
230
1.0
 70
     8
 71
     3
 72
    11
 73
     7
 74
     0
 42
0.000000001
 43
0.00000001
 40
0.0
 40
0.0
 40
0.0
 40
0.0
 40
0.2367591707998137
 40
0.5169975610445368
 40
0.8087821197010975
 40
1.0
 40
1.0
 40
1.0
 40
1.0
 10
144.8228762497077
 20
2713.853949727112
 30
0.0
 10
144.9752281488334
 20
2713.601025833741
 30
0.0
 10
145.3079103423148
 20
2713.048730285648
 30
0.0
 10
145.4863007217357
 20
2711.930272970156
 30
0.0
 10
145.439690968023
 20
2710.857672263588
 30
0.0
 10
145.2004520240562
 20
2710.321472537212
 30
0.0
 10
145.1057387057359
 20
2710.109194157591
 30
0.0
  0
SPLINE
  5
16E
330
1F
100
AcDbEntity
  8
0
  6
Continuous
 62
     7
370
    15
100
AcDbSpline
210
0.0
220
0.0
230
1.0
 70
     8
 71
     3
 72
    11
 73
     7
 74
     0
 42
0.000000001
 43
0.00000001
 40
0.0
 40
0.0
 40
0.0
 40
0.0
 40
0.1418307081688198
 40
0.5244504412857851
 40
0.9228345808153566
 40
1.0
 40
1.0
 40
1.0
 40
1.0
 10
145.1606848000845
 20
2713.408949113446
 30
0.0
 10
145.2250421096134
 20
2713.295920062556
 30
0.0
 10
145.4630175087226
 20
2712.877970125035
 30
0.0
 10
145.5772944929147
 20
2711.930913221312
 30
0.0
 10
145.5772157906736
 20
2711.032221067517
 30
0.0
 10
145.4159346134447
 20
2710.63758051109
 30
0.0
 10
145.3897641977237
 20
2710.573543854119
 30
0.0
  0
SPLINE
  5
16F
330
1F
100
AcDbEntity
  8
0
  6
Continuous
 62
     7
370
    15
100
AcDbSpline
210
0.0
220
0.0
230
1.0
 70
     8
 71
     3
 72
    50
 73
    46
 74
     0
 42
0.000000001
 43
0.00000001
 40
0.0
 40
0.0
 40
0.0
 40
0.0
 40
0.0624999999998818
 40
0.0624999999998818
 40
0.0937499999998456
 40
0.0937499999998456
 40
0.1249999999998095
 40
0.1249999999998095
 40
0.1562499999997733
 40
0.1562499999997733
 40
0.1874999999997371
 40
0.1874999999997371
 40
0.2499999999996644
 40
0.2499999999996644
 40
0.3124999999995917
 40
0.3124999999995917
 40
0.3437499999996059
 40
0.3437499999996059
 40
0.37499999999962
 40
0.37499999999962
 40
0.4374999999996502
 40
0.4374999999996502
 40
0.4687499999996637
 40
0.4687499999996637
 40
0.4999999999996773
 40
0.4999999999996773
 40
0.5312499999996908
 40
0.5312499999996908
 40
0.5624999999997043
 40
0.5624999999997043
 40
0.5937499999997178
 40
0.5937499999997178
 40
0.6249999999997313
 40
0.6249999999997313
 40
0.7499999999997848
 40
0.7499999999997848
 40
0.7812499999998117
 40
0.7812499999998117
 40
0.8124999999998386
 40
0.8124999999998386
 40
0.8749999999998924
 40
0.8749999999998924
 40
0.9374999999999462
 40
0.9374999999999462
 40
1.0
 40
1.0
 40
1.0
 40
1.0
 10
143.300706735679
 20
2714.74300853388
 30
0.0
 10
143.4832952560866
 20
2714.70435891239
 30
0.0
 10
143.6585479332171
 20
2714.63078994563
 30
0.0
 10
143.9090790157597
 20
2714.461659102786
 30
0.0
 10
143.9903571970952
 20
2714.395150124651
 30
0.0
 10
144.1429697777064
 20
2714.246746767617
 30
0.0
 10
144.2150821555887
 20
2714.164382639462
 30
0.0
 10
144.3509061057937
 20
2713.98330422002
 30
0.0
 10
144.4151238237635
 20
2713.883589647534
 30
0.0
 10
144.5315253261044
 20
2713.672452837217
 30
0.0
 10
144.583803396389
 20
2713.561244316707
 30
0.0
 10
144.7232152180896
 20
2713.211027571826
 30
0.0
 10
144.7929806911701
 20
2712.952539327212
 30
0.0
 10
144.8759815078272
 20
2712.424393315312
 30
0.0
 10
144.8888788882055
 20
2712.145620108794
 30
0.0
 10
144.8598623324875
 20
2711.740408709835
 30
0.0
 10
144.8414765269449
 20
2711.606957427799
 30
0.0
 10
144.7984117459646
 20
2711.341224274542
 30
0.0
 10
144.7717357978541
 20
2711.209750597832
 30
0.0
 10
144.6726053681233
 20
2710.826915935233
 30
0.0
 10
144.5801696875216
 20
2710.584654665186
 30
0.0
 10
144.4091416226403
 20
2710.267411937883
 30
0.0
 10
144.3468672364743
 20
2710.169042330139
 30
0.0
 10
144.2117559625242
 20
2709.987104508254
 30
0.0
 10
144.1384499311493
 20
2709.903129142664
 30
0.0
 10
143.9846351010389
 20
2709.753956880509
 30
0.0
 10
143.9033787507525
 20
2709.688052334937
 30
0.0
 10
143.7371983017126
 20
2709.57586604569
 30
0.0
 10
143.6520505050125
 20
2709.529412858069
 30
0.0
 10
143.4785577411669
 20
2709.45148558589
 30
0.0
 10
143.3908872862804
 20
2709.41685133554
 30
0.0
 10
143.2104974779095
 20
2709.371237492477
 30
0.0
 10
143.1184074968221
 20
2709.359963588172
 30
0.0
 10
142.6642740856456
 20
2709.361817692256
 30
0.0
 10
142.2996399822934
 20
2709.547900446013
 30
0.0
 10
141.9311490258087
 20
2709.945129498079
 30
0.0
 10
141.8618862142279
 20
2710.03243087003
 30
0.0
 10
141.7322347381878
 20
2710.222750736987
 30
0.0
 10
141.6714322034985
 20
2710.326736897662
 30
0.0
 10
141.5079087204032
 20
2710.653827582685
 30
0.0
 10
141.4223873454519
 20
2710.894884235533
 30
0.0
 10
141.2999351146291
 20
2711.409974986744
 30
0.0
 10
141.2631337553586
 20
2711.675456550262
 30
0.0
 10
141.2389517667023
 20
2712.22247765539
 30
0.0
 10
141.2520716132204
 20
2712.493754634512
 30
0.0
 10
141.290397923665
 20
2712.761987217008
 30
0.0
  0
SPLINE
  5
17C
330
1F
100
AcDbEntity
  8
0
  6
Continuous
 62
     7
370
    15
100
AcDbSpline
210
0.0
220
0.0
230
1.0
 70
     8
 71
     3
 72
    12
 73
     8
 74
     0
 42
0.000000001
 43
0.00000001
 40
0.0
 40
0.0
 40
0.0
 40
0.0
 40
0.2121247879324592
 40
0.4241536554926529
 40
0.6386631021614941
 40
0.8548607756053795
 40
1.0
 40
1.0
 40
1.0
 40
1.0
 10
154.0376795590481
 20
108.2595756025326
 30
0.0
 10
154.0403998695982
 20
108.3986068378888
 30
0.0
 10
154.0458392606057
 20
108.6766064402866
 30
0.0
 10
154.0839124651225
 20
109.048883963863
 30
0.0
 10
154.1254685674023
 20
109.3303182441427
 30
0.0
 10
154.1558168909999
 20
109.4931890137691
 30
0.0
 10
154.1560090458776
 20
109.4939514332986
 30
0.0
 10
154.1560862292765
 20
109.4942576765301
 30
0.0
  0
SPLINE
  5
17D
330
1F
100
AcDbEntity
  8
0
  6
Continuous
 62
     7
370
    15
100
AcDbSpline
210
0.0
220
0.0
230
1.0
 70
     8
 71
     3
 72
    12
 73
     8
 74
     0
 42
0.000000001
 43
0.00000001
 40
0.0
 40
0.0
 40
0.0
 40
0.0
 40
0.1996035980897299
 40
0.4105531866924799
 40
0.6246918172011254
 40
0.8408242207459048
 40
1.0
 40
1.0
 40
1.0
 40
1.0
 10
154.1583281210439
 20
107.0131713813205
 30
0.0
 10
154.156239797467
 20
107.0237419830826
 30
0.0
 10
154.1519444445396
 20
107.045484047255
 30
0.0
 10
154.1160163297951
 20
107.2457940885243
 30
0.0
 10
154.0739330183603
 20
107.5515778315512
 30
0.0
 10
154.0428028394497
 20
107.9098438100805
 30
0.0
 10
154.0392053338293
 20
108.1554212507732
 30
0.0
 10
154.0376795590481
 20
108.2595756025326
 30
0.0
  0
SPLINE
  5
183
330
1F
100
AcDbEntity
  8
0
  6
Continuous
 62
     7
370
    15
100
AcDbSpline
210
0.0
220
0.0
230
1.0
 70
     8
 71
     3
 72
    12
 73
     8
 74
     0
 42
0.000000001
 43
0.00000001
 40
0.0
 40
0.0
 40
0.0
 40
0.0
 40
0.0289564551901039
 40
0.2894249921652647
 40
0.5451982699488951
 40
0.785878678627606
 40
0.9999999999999999
 40
0.9999999999999999
 40
0.9999999999999999
 40
0.9999999999999999
 10
144.4400026917068
 20
2710.015435503188
 30
0.0
 10
144.4221357252175
 20
2709.99127605257
 30
0.0
 10
144.2435521726992
 20
2709.749797986284
 30
0.0
 10
143.7851550265945
 20
2709.482654468512
 30
0.0
 10
143.1907265881481
 20
2709.314310439554
 30
0.0
 10
142.6821783047559
 20
2709.419956314618
 30
0.0
 10
142.4540549601312
 20
2709.67067260343
 30
0.0
 10
142.3466541549904
 20
2709.788710199822
 30
0.0
  0
SPLINE
  5
184
330
1F
100
AcDbEntity
  8
0
  6
Continuous
 62
     7
370
    15
100
AcDbSpline
210
0.0
220
0.0
230
1.0
 70
     8
 71
     3
 72
    15
 73
    11
 74
     0
 42
0.000000001
 43
0.00000001
 40
0.0
 40
0.0
 40
0.0
 40
0.0
 40
0.0177890864479944
 40
0.1711098493315997
 40
0.3373876177948715
 40
0.5066491212778017
 40
0.6641787620394934
 40
0.8130249589150585
 40
0.9661767431294549
 40
1.0
 40
1.0
 40
1.0
 40
1.0
 10
141.8434980634172
 20
2712.661432528567
 30
0.0
 10
141.8447594831657
 20
2712.691458374156
 30
0.0
 10
141.8568928405328
 20
2712.980271289303
 30
0.0
 10
141.9733291176724
 20
2713.465951100221
 30
0.0
 10
142.236647397689
 20
2714.028536400736
 30
0.0
 10
142.6729282359094
 20
2714.349615813284
 30
0.0
 10
143.2249883316115
 20
2714.385418541267
 30
0.0
 10
143.8142036250087
 20
2714.163016245724
 30
0.0
 10
144.2315064937274
 20
2713.843699281724
 30
0.0
 10
144.4352809418451
 20
2713.619799539455
 30
0.0
 10
144.4721431640023
 20
2713.579296708426
 30
0.0
  0
SPLINE
  5
189
330
1F
100
AcDbEntity
  8
0
  6
Continuous
 62
     8
370
    15
100
AcDbSpline
210
0.0
220
0.0
230
1.0
 70
     8
 71
     3
 72
    14
 73
    10
 74
     0
 42
0.000000001
 43
0.00000001
 40
0.0
 40
0.0
 40
0.0
 40
0.0
 40
0.0920995875202589
 40
0.2188017272751418
 40
0.3731526697365312
 40
0.5296590652132425
 40
0.6872788937438937
 40
0.844582070903279
 40
0.9999999999999999
 40
0.9999999999999999
 40
0.9999999999999999
 40
0.9999999999999999
 10
152.189263934237
 20
-339.9745968740815
 30
0.0
 10
152.9995272518709
 20
-339.9281717118072
 30
0.0
 10
154.924476301257
 20
-339.8178790821867
 30
0.0
 10
158.0876032674027
 20
-338.3166951233245
 30
0.0
 10
161.687561968014
 20
-335.7428105338927
 30
0.0
 10
165.4197576043338
 20
-332.1487747046951
 30
0.0
 10
169.0992124746581
 20
-328.0904121410977
 30
0.0
 10
172.7321252658163
 20
-323.8379639029254
 30
0.0
 10
175.1685144128516
 20
-321.1664630582214
 30
0.0
 10
176.379365065816
 20
-319.838765245193
 30
0.0
  0
SPLINE
  5
18B
330
1F
100
AcDbEntity
  8
0
  6
Continuous
 62
     8
370
    15
100
AcDbSpline
210
0.0
220
0.0
230
1.0
 70
     8
 71
     3
 72
     9
 73
     5
 74
     0
 42
0.000000001
 43
0.00000001
 40
0.0
 40
0.0
 40
0.0
 40
0.0
 40
0.6046361078926913
 40
1.0
 40
1.0
 40
1.0
 40
1.0
 10
203.1460871423938
 20
68.79412921860694
 30
0.0
 10
200.9932267521331
 20
71.21254116865794
 30
0.0
 10
197.432638222672
 20
75.21232205915052
 30
0.0
 10
193.694997583282
 20
78.47684494868146
 30
0.0
 10
192.2172694327943
 20
79.76751942416004
 30
0.0
  0
SPLINE
  5
18C
330
1F
100
AcDbEntity
  8
0
  6
Continuous
 62
     8
370
    15
100
AcDbSpline
210
0.0
220
0.0
230
1.0
 70
     8
 71
     3
 72
     9
 73
     5
 74
     0
 42
0.000000001
 43
0.00000001
 40
0.0
 40
0.0
 40
0.0
 40
0.0
 40
0.6046407760937611
 40
1.0
 40
1.0
 40
1.0
 40
1.0
 10
49.88925897569307
 20
68.79413087190444
 30
0.0
 10
53.68311763252308
 20
71.21562171443507
 30
0.0
 10
59.9576839648501
 20
75.22046382610093
 30
0.0
 10
66.54460432349978
 20
78.48810601283151
 30
0.0
 10
69.14880404442773
 20
79.77999849178063
 30
0.0
  0
LINE
  5
195
330
1F
100
AcDbEntity
  8
0
  6
Continuous
 62
     7
370
    15
100
AcDbLine
 10
112.3391989946
 20
98.0715934898
 30
0.0
 11
112.3391989946
 21
96.6833503991
 31
0.0
  0
LINE
  5
196
330
1F
100
AcDbEntity
  8
0
  6
Continuous
 62
     7
370
    15
100
AcDbLine
 10
119.3391989946
 20
97.8884092486
 30
0.0
 11
119.3391989946
 21
98.0715934898
 31
0.0
  0
LINE
  5
197
330
1F
100
AcDbEntity
  8
0
  6
Continuous
 62
     7
370
    15
100
AcDbLine
 10
141.159004148
 20
263.2595756025
 30
0.0
 11
141.359004148
 21
263.0595756025
 31
0.0
  0
LINE
  5
198
330
1F
100
AcDbEntity
  8
0
  6
Continuous
 62
     7
370
    15
100
AcDbLine
 10
153.959004148
 20
263.0595756025
 30
0.0
 11
154.159004148
 21
263.2595756025
 31
0.0
  0
LINE
  5
199
330
1F
100
AcDbEntity
  8
0
  6
Continuous
 62
     7
370
    15
100
AcDbLine
 10
154.159004148
 20
276.0595756025
 30
0.0
 11
154.159004148
 21
277.8595756025
 31
0.0
  0
LINE
  5
19A
330
1F
100
AcDbEntity
  8
0
  6
Continuous
 62
     7
370
    15
100
AcDbLine
 10
154.159004148
 20
263.2595756025
 30
0.0
 11
154.159004148
 21
270.5880519357
 31
0.0
  0
LINE
  5
19B
330
1F
100
AcDbEntity
  8
0
  6
Continuous
 62
     7
370
    15
100
AcDbLine
 10
141.159004148
 20
277.8595756025
 30
0.0
 11
141.159004148
 21
263.2595756025
 31
0.0
  0
LINE
  5
19C
330
1F
100
AcDbEntity
  8
0
  6
Continuous
 62
     7
370
    15
100
AcDbLine
 10
154.159004148
 20
277.8595756025
 30
0.0
 11
153.959004148
 21
278.0595756025
 31
0.0
  0
LINE
  5
19D
330
1F
100
AcDbEntity
  8
0
  6
Continuous
 62
     7
370
    15
100
AcDbLine
 10
141.359004148
 20
278.0595756025
 30
0.0
 11
141.159004148
 21
277.8595756025
 31
0.0
  0
LINE
  5
19E
330
1F
100
AcDbEntity
  8
0
  6
Continuous
 62
     7
370
    15
100
AcDbLine
 10
142.659004148
 20
2722.0885608325
 30
0.0
 11
142.659004148
 21
2721.8595756025
 31
0.0
  0
LINE
  5
19F
330
1F
100
AcDbEntity
  8
0
  6
Continuous
 62
     7
370
    15
100
AcDbLine
 10
57.159004148
 20
80.1216897996
 30
0.0
 11
57.2946981354
 21
79.8712000269
 31
0.0
  0
LINE
  5
1A0
330
1F
100
AcDbEntity
  8
0
  6
Continuous
 62
     7
370
    15
100
AcDbLine
 10
237.9361418549
 20
79.7102881879
 30
0.0
 11
238.159004148
 21
80.1216897996
 31
0.0
  0
LINE
  5
1A1
330
1F
100
AcDbEntity
  8
0
  6
Continuous
 62
     7
370
    15
100
AcDbLine
 10
151.159004148
 20
278.0595756025
 30
0.0
 11
151.159004148
 21
2706.8595756025
 31
0.0
  0
LINE
  5
1A2
330
1F
100
AcDbEntity
  8
0
  6
Continuous
 62
     7
370
    15
100
AcDbLine
 10
144.159004148
 20
2706.8595756025
 30
0.0
 11
144.159004148
 21
278.0595756025
 31
0.0
  0
LINE
  5
1A3
330
1F
100
AcDbEntity
  8
0
  6
Continuous
 62
     7
370
    15
100
AcDbLine
 10
143.7275466429
 20
2805.0595756025
 30
0.0
 11
143.7275466429
 21
2808.0595756025
 31
0.0
  0
LINE
  5
1A4
330
1F
100
AcDbEntity
  8
0
  6
Continuous
 62
     7
370
    15
100
AcDbLine
 10
142.7275466429
 20
2808.0595756025
 30
0.0
 11
142.7275466429
 21
2805.0595756025
 31
0.0
  0
LINE
  5
1A5
330
1F
100
AcDbEntity
  8
0
  6
Continuous
 62
     7
370
    15
100
AcDbLine
 10
152.590461653
 20
2805.0595756025
 30
0.0
 11
152.590461653
 21
2808.0595756025
 31
0.0
  0
LINE
  5
1A6
330
1F
100
AcDbEntity
  8
0
  6
Continuous
 62
     7
370
    15
100
AcDbLine
 10
151.590461653
 20
2808.0595756025
 30
0.0
 11
151.590461653
 21
2805.0595756025
 31
0.0
  0
LINE
  5
1A7
330
1F
100
AcDbEntity
  8
0
  6
Continuous
 62
     7
370
    15
100
AcDbLine
 10
142.0275466429
 20
2805.0595756025
 30
0.0
 11
142.0275466429
 21
2803.0595756025
 31
0.0
  0
LINE
  5
1A8
330
1F
100
AcDbEntity
  8
0
  6
Continuous
 62
     7
370
    15
100
AcDbLine
 10
144.4275466429
 20
2803.0595756025
 30
0.0
 11
144.4275466429
 21
2805.0595756025
 31
0.0
  0
LINE
  5
1A9
330
1F
100
AcDbEntity
  8
0
  6
Continuous
 62
     7
370
    15
100
AcDbLine
 10
150.890461653
 20
2805.0595756025
 30
0.0
 11
150.890461653
 21
2803.0595756025
 31
0.0
  0
LINE
  5
1AA
330
1F
100
AcDbEntity
  8
0
  6
Continuous
 62
     7
370
    15
100
AcDbLine
 10
153.290461653
 20
2803.0595756025
 30
0.0
 11
153.290461653
 21
2805.0595756025
 31
0.0
  0
LINE
  5
1AB
330
1F
100
AcDbEntity
  8
0
  6
Continuous
 62
     7
370
    15
100
AcDbLine
 10
202.659004148
 20
2783.0595756025
 30
0.0
 11
92.659004148
 21
2783.0595756025
 31
0.0
  0
LINE
  5
1AC
330
1F
100
AcDbEntity
  8
0
  6
Continuous
 62
     7
370
    15
100
AcDbLine
 10
141.159004148
 20
103.2595756025
 30
0.0
 11
141.359004148
 21
103.0595756025
 31
0.0
  0
LINE
  5
1AD
330
1F
100
AcDbEntity
  8
0
  6
Continuous
 62
     7
370
    15
100
AcDbLine
 10
153.959004148
 20
103.0595756025
 30
0.0
 11
154.159004148
 21
103.2595756025
 31
0.0
  0
LINE
  5
1AE
330
1F
100
AcDbEntity
  8
0
  6
Continuous
 62
     7
370
    15
100
AcDbLine
 10
154.159004148
 20
262.8595756025
 30
0.0
 11
153.959004148
 21
263.0595756025
 31
0.0
  0
LINE
  5
1AF
330
1F
100
AcDbEntity
  8
0
  6
Continuous
 62
     7
370
    15
100
AcDbLine
 10
141.359004148
 20
263.0595756025
 30
0.0
 11
141.159004148
 21
262.8595756025
 31
0.0
  0
LINE
  5
1B0
330
1F
100
AcDbEntity
  8
0
  6
Continuous
 62
     7
370
    15
100
AcDbLine
 10
154.159004148
 20
109.4942576765
 30
0.0
 11
154.159004148
 21
262.8595756025
 31
0.0
  0
LINE
  5
1B1
330
1F
100
AcDbEntity
  8
0
  6
Continuous
 62
     7
370
    15
100
AcDbLine
 10
154.159004148
 20
103.2595756025
 30
0.0
 11
154.159004148
 21
107.0131713813
 31
0.0
  0
LINE
  5
1B2
330
1F
100
AcDbEntity
  8
0
  6
Continuous
 62
     7
370
    15
100
AcDbLine
 10
141.159004148
 20
262.8595756025
 30
0.0
 11
141.159004148
 21
103.2595756025
 31
0.0
  0
LINE
  5
1B3
330
1F
100
AcDbEntity
  8
0
  6
Continuous
 62
     7
370
    15
100
AcDbLine
 10
152.259004148
 20
2721.8595756025
 30
0.0
 11
152.259004148
 21
2722.0500826537
 31
0.0
  0
LINE
  5
1B4
330
1F
100
AcDbEntity
  8
0
  6
Continuous
 62
     7
370
    15
100
AcDbLine
 10
141.1657526393
 20
2721.6663240939
 30
0.0
 11
141.4567516802
 21
2713.3332018556
 31
0.0
  0
LINE
  5
1B5
330
1F
100
AcDbEntity
  8
0
  6
Continuous
 62
     7
370
    15
100
AcDbLine
 10
141.5505277284
 20
2710.6478071872
 30
0.0
 11
141.675835791
 21
2707.0594537679
 31
0.0
  0
LINE
  5
1B6
330
1F
100
AcDbEntity
  8
0
  6
Continuous
 62
     7
370
    15
100
AcDbLine
 10
153.6421725049
 20
2707.0594537679
 30
0.0
 11
154.1522556566
 21
2721.6663240939
 31
0.0
  0
LINE
  5
1B7
330
1F
100
AcDbEntity
  8
0
  6
Continuous
 62
     7
370
    15
100
AcDbLine
 10
154.1522556566
 20
2721.6663240939
 30
0.0
 11
153.959004148
 21
2721.8595756025
 31
0.0
  0
LINE
  5
1B8
330
1F
100
AcDbEntity
  8
0
  6
Continuous
 62
     7
370
    15
100
AcDbLine
 10
141.359004148
 20
2721.8595756025
 30
0.0
 11
141.1657526393
 21
2721.6663240939
 31
0.0
  0
LINE
  5
1B9
330
1F
100
AcDbEntity
  8
0
  6
Continuous
 62
     7
370
    15
100
AcDbLine
 10
141.675835791
 20
2707.0594537679
 30
0.0
 11
141.8901788814
 21
2706.8595756025
 31
0.0
  0
LINE
  5
1BA
330
1F
100
AcDbEntity
  8
0
  6
Continuous
 62
     7
370
    15
100
AcDbLine
 10
153.4278294145
 20
2706.8595756025
 30
0.0
 11
153.6421725049
 21
2707.0594537679
 31
0.0
  0
LINE
  5
1BB
330
1F
100
AcDbEntity
  8
0
  6
Continuous
 62
     7
370
    15
100
AcDbLine
 10
119.3391989946
 20
98.0715934898
 30
0.0
 11
112.3391989946
 21
98.0715934898
 31
0.0
  0
LINE
  5
1BC
330
1F
100
AcDbEntity
  8
0
  6
Continuous
 62
     7
370
    15
100
AcDbLine
 10
141.159004148
 20
263.2595756025
 30
0.0
 11
154.159004148
 21
263.2595756025
 31
0.0
  0
LINE
  5
1BD
330
1F
100
AcDbEntity
  8
0
  6
Continuous
 62
     7
370
    15
100
AcDbLine
 10
141.359004148
 20
263.0595756025
 30
0.0
 11
153.959004148
 21
263.0595756025
 31
0.0
  0
LINE
  5
1BE
330
1F
100
AcDbEntity
  8
0
  6
Continuous
 62
     7
370
    15
100
AcDbLine
 10
154.159004148
 20
277.8595756025
 30
0.0
 11
141.159004148
 21
277.8595756025
 31
0.0
  0
LINE
  5
1BF
330
1F
100
AcDbEntity
  8
0
  6
Continuous
 62
     7
370
    15
100
AcDbLine
 10
141.359004148
 20
278.0595756025
 30
0.0
 11
153.959004148
 21
278.0595756025
 31
0.0
  0
LINE
  5
1C0
330
1F
100
AcDbEntity
  8
0
  6
Continuous
 62
     7
370
    15
100
AcDbLine
 10
149.3578803637
 20
2721.8595756025
 30
0.0
 11
150.2929175862
 21
2722.1252851107
 31
0.0
  0
LINE
  5
1C1
330
1F
100
AcDbEntity
  8
0
  6
Continuous
 62
     7
370
    15
100
AcDbLine
 10
145.0250907097
 20
2722.0885608325
 30
0.0
 11
145.0250907097
 21
2721.9495285271
 31
0.0
  0
LINE
  5
1C2
330
1F
100
AcDbEntity
  8
0
  6
Continuous
 62
     7
370
    15
100
AcDbLine
 10
74.4798575282
 20
83.6750479055
 30
0.0
 11
74.4798575282
 21
83.2352201584
 31
0.0
  0
LINE
  5
1C3
330
1F
100
AcDbEntity
  8
0
  6
Continuous
 62
     7
370
    15
100
AcDbLine
 10
74.4798575282
 20
83.6750479055
 30
0.0
 11
72.2146959637
 21
83.2352201584
 31
0.0
  0
LINE
  5
1C4
330
1F
100
AcDbEntity
  8
0
  6
Continuous
 62
     7
370
    15
100
AcDbLine
 10
75.1871394109
 20
83.6383113681
 30
0.0
 11
74.4798575282
 21
83.6750479055
 31
0.0
  0
LINE
  5
1C5
330
1F
100
AcDbEntity
  8
0
  6
Continuous
 62
     7
370
    15
100
AcDbLine
 10
220.130868885
 20
83.6383113681
 30
0.0
 11
220.8381507677
 21
83.6750479055
 31
0.0
  0
LINE
  5
1C6
330
1F
100
AcDbEntity
  8
0
  6
Continuous
 62
     7
370
    15
100
AcDbLine
 10
220.8381507677
 20
83.6750479055
 30
0.0
 11
218.3402961528
 21
83.2352201584
 31
0.0
  0
LINE
  5
1C7
330
1F
100
AcDbEntity
  8
0
  6
Continuous
 62
     7
370
    15
100
AcDbLine
 10
220.8381507677
 20
83.6750479055
 30
0.0
 11
220.8381507677
 21
83.2352201584
 31
0.0
  0
LINE
  5
1C8
330
1F
100
AcDbEntity
  8
0
  6
Continuous
 62
     7
370
    15
100
AcDbLine
 10
148.2502455406
 20
103.0595756025
 30
0.0
 11
148.2502455406
 21
102.9911159006
 31
0.0
  0
LINE
  5
1C9
330
1F
100
AcDbEntity
  8
0
  6
Continuous
 62
     7
370
    15
100
AcDbLine
 10
152.5378770104
 20
103.0595756025
 30
0.0
 11
152.405555022
 21
102.9911159006
 31
0.0
  0
LINE
  5
1CA
330
1F
100
AcDbEntity
  8
0
  6
Continuous
 62
     7
370
    15
100
AcDbLine
 10
148.4133808919
 20
102.9911159006
 30
0.0
 11
142.559004148
 21
102.9911159006
 31
0.0
  0
LINE
  5
1CB
330
1F
100
AcDbEntity
  8
0
  6
Continuous
 62
     7
370
    15
100
AcDbLine
 10
152.759004148
 20
102.9911159006
 30
0.0
 11
152.7029030098
 21
102.9911159006
 31
0.0
  0
LINE
  5
1CC
330
1F
100
AcDbEntity
  8
0
  6
Continuous
 62
     7
370
    15
100
AcDbLine
 10
238.159004148
 20
80.1216897996
 30
0.0
 11
57.159004148
 21
80.1216897996
 31
0.0
  0
LINE
  5
1CD
330
1F
100
AcDbEntity
  8
0
  6
Continuous
 62
     7
370
    15
100
AcDbLine
 10
142.7275466429
 20
2808.0595756025
 30
0.0
 11
143.7275466429
 21
2808.0595756025
 31
0.0
  0
LINE
  5
1CE
330
1F
100
AcDbEntity
  8
0
  6
Continuous
 62
     7
370
    15
100
AcDbLine
 10
151.590461653
 20
2808.0595756025
 30
0.0
 11
152.590461653
 21
2808.0595756025
 31
0.0
  0
LINE
  5
1CF
330
1F
100
AcDbEntity
  8
0
  6
Continuous
 62
     7
370
    15
100
AcDbLine
 10
144.8476978189
 20
2788.9619098125
 30
0.0
 11
147.1967556248
 21
2789.4537709967
 31
0.0
  0
LINE
  5
1D0
330
1F
100
AcDbEntity
  8
0
  6
Continuous
 62
     7
370
    15
100
AcDbLine
 10
142.0275466429
 20
2805.0595756025
 30
0.0
 11
144.4275466429
 21
2805.0595756025
 31
0.0
  0
LINE
  5
1D1
330
1F
100
AcDbEntity
  8
0
  6
Continuous
 62
     7
370
    15
100
AcDbLine
 10
148.1212526711
 20
2789.4537709967
 30
0.0
 11
150.470310477
 21
2788.9619098125
 31
0.0
  0
LINE
  5
1D2
330
1F
100
AcDbEntity
  8
0
  6
Continuous
 62
     7
370
    15
100
AcDbLine
 10
150.890461653
 20
2805.0595756025
 30
0.0
 11
153.290461653
 21
2805.0595756025
 31
0.0
  0
LINE
  5
1D3
330
1F
100
AcDbEntity
  8
0
  6
Continuous
 62
     7
370
    15
100
AcDbLine
 10
154.159004148
 20
275.7888133096
 30
0.0
 11
154.1215756638
 21
275.928608185
 31
0.0
  0
LINE
  5
1D4
330
1F
100
AcDbEntity
  8
0
  6
Continuous
 62
     7
370
    15
100
AcDbLine
 10
144.5006122883
 20
2712.7885256897
 30
0.0
 11
143.7725592535
 21
2713.8241852618
 31
0.0
  0
LINE
  5
1D5
330
1F
100
AcDbEntity
  8
0
  6
Continuous
 62
     7
370
    15
100
AcDbLine
 10
143.7725592535
 20
2713.8241852618
 30
0.0
 11
141.9195181602
 21
2710.9306255154
 31
0.0
  0
LINE
  5
1D6
330
1F
100
AcDbEntity
  8
0
  6
Continuous
 62
     7
370
    15
100
AcDbLine
 10
141.9195181602
 20
2710.9306255154
 30
0.0
 11
142.647571195
 21
2709.8949659433
 31
0.0
  0
LINE
  5
1D7
330
1F
100
AcDbEntity
  8
0
  6
Continuous
 62
     7
370
    15
100
AcDbLine
 10
142.647571195
 20
2709.8949659433
 30
0.0
 11
144.5006122883
 21
2712.7885256897
 31
0.0
  0
LINE
  5
1D8
330
1F
100
AcDbEntity
  8
0
  6
Continuous
 62
     7
370
    15
100
AcDbLine
 10
143.3108095291
 20
2710.9306255154
 30
0.0
 11
141.9195181602
 21
2710.9306255154
 31
0.0
  0
LINE
  5
1D9
330
1F
100
AcDbEntity
  8
0
  6
Continuous
 62
     7
370
    15
100
AcDbLine
 10
152.8122215393
 20
2722.0885608325
 30
0.0
 11
142.5057867567
 21
2722.0885608325
 31
0.0
  0
LINE
  5
1DA
330
1F
100
AcDbEntity
  8
0
  6
Continuous
 62
     7
370
    15
100
AcDbLine
 10
141.159004148
 20
103.2595756025
 30
0.0
 11
154.159004148
 21
103.2595756025
 31
0.0
  0
LINE
  5
1DB
330
1F
100
AcDbEntity
  8
0
  6
Continuous
 62
     7
370
    15
100
AcDbLine
 10
153.959004148
 20
103.0595756025
 30
0.0
 11
141.359004148
 21
103.0595756025
 31
0.0
  0
LINE
  5
1DC
330
1F
100
AcDbEntity
  8
0
  6
Continuous
 62
     7
370
    15
100
AcDbLine
 10
154.159004148
 20
262.8595756025
 30
0.0
 11
141.159004148
 21
262.8595756025
 31
0.0
  0
LINE
  5
1DD
330
1F
100
AcDbEntity
  8
0
  6
Continuous
 62
     7
370
    15
100
AcDbLine
 10
154.159004148
 20
109.2595756025
 30
0.0
 11
154.159004148
 21
107.2595756025
 31
0.0
  0
LINE
  5
1DE
330
1F
100
AcDbEntity
  8
0
  6
Continuous
 62
     7
370
    15
100
AcDbLine
 10
154.1522556566
 20
2721.6663240939
 30
0.0
 11
141.1657526393
 21
2721.6663240939
 31
0.0
  0
LINE
  5
1DF
330
1F
100
AcDbEntity
  8
0
  6
Continuous
 62
     7
370
    15
100
AcDbLine
 10
141.675835791
 20
2707.0594537679
 30
0.0
 11
153.6421725049
 21
2707.0594537679
 31
0.0
  0
LINE
  5
1E0
330
1F
100
AcDbEntity
  8
0
  6
Continuous
 62
     7
370
    15
100
AcDbLine
 10
141.359004148
 20
2721.8595756025
 30
0.0
 11
153.959004148
 21
2721.8595756025
 31
0.0
  0
LINE
  5
1E1
330
1F
100
AcDbEntity
  8
0
  6
Continuous
 62
     7
370
    15
100
AcDbLine
 10
153.4278294145
 20
2706.8595756025
 30
0.0
 11
141.8901788814
 21
2706.8595756025
 31
0.0
  0
LINE
  5
1E2
330
1F
100
AcDbEntity
  8
0
  6
Continuous
 62
     8
370
    15
100
AcDbLine
 10
328.6094812883
 20
13.854119253
 30
0.0
 11
328.5918259545
 21
13.8541175934
 31
0.0
  0
LINE
  5
1E3
330
1F
100
AcDbEntity
  8
0
  6
Continuous
 62
     8
370
    15
100
AcDbLine
 10
259.8966789327
 20
68.7941292186
 30
0.0
 11
259.7853736549
 21
68.7941292186
 31
0.0
  0
LINE
  5
1E4
330
1F
100
AcDbEntity
  8
0
  6
Continuous
 62
     8
370
    15
100
AcDbLine
 10
35.2787391006
 20
68.7941292186
 30
0.0
 11
35.3369169054
 21
68.7941292186
 31
0.0
  0
LINE
  5
1E5
330
1F
100
AcDbEntity
  8
0
  6
Continuous
 62
     8
370
    15
100
AcDbLine
 10
143.8119045455
 20
2792.6595756025
 30
0.0
 11
146.0746462453
 21
2793.4595756025
 31
0.0
  0
LINE
  5
1E6
330
1F
100
AcDbEntity
  8
0
  6
Continuous
 62
     8
370
    15
100
AcDbLine
 10
142.0275466429
 20
2803.0595756025
 30
0.0
 11
144.4275466429
 21
2803.0595756025
 31
0.0
  0
LINE
  5
1E7
330
1F
100
AcDbEntity
  8
0
  6
Continuous
 62
     8
370
    15
100
AcDbLine
 10
149.2433620506
 20
2793.4595756025
 30
0.0
 11
151.5061037504
 21
2792.6595756025
 31
0.0
  0
LINE
  5
1E8
330
1F
100
AcDbEntity
  8
0
  6
Continuous
 62
     8
370
    15
100
AcDbLine
 10
150.890461653
 20
2803.0595756025
 30
0.0
 11
153.290461653
 21
2803.0595756025
 31
0.0
  0
LINE
  5
1E9
330
1F
100
AcDbEntity
  8
0
  6
Continuous
 62
     8
370
    15
100
AcDbLine
 10
205.759004148
 20
2779.9595756025
 30
0.0
 11
89.559004148
 21
2779.9595756025
 31
0.0
  0
ARC
  5
1EA
330
1F
100
AcDbEntity
  8
0
  6
Continuous
 62
     7
370
    15
100
AcDbCircle
 10
147.659004148
 20
-86.9404243975
 30
0.0
 40
189.9999999999975
100
AcDbArc
 50
91.5381240853
 51
118.4450555703
  0
ARC
  5
1EB
330
1F
100
AcDbEntity
  8
0
  6
Continuous
 62
     7
370
    15
100
AcDbCircle
 10
147.659004148
 20
-86.9404243975
 30
0.0
 40
189.9999999999974
100
AcDbArc
 50
61.5549444297
 51
88.4618759147
  0
ARC
  5
1EC
330
1F
100
AcDbEntity
  8
0
  6
Continuous
 62
     7
370
    15
100
AcDbCircle
 10
116.659004148
 20
2783.0595756025
 30
0.0
 40
29.00000000000066
100
AcDbArc
 50
0.0
 51
11.8261131759
  0
ARC
  5
1ED
330
1F
100
AcDbEntity
  8
0
  6
Continuous
 62
     7
370
    15
100
AcDbCircle
 10
116.659004148
 20
2783.0595756025
 30
0.0
 40
30.99999999998498
100
AcDbArc
 50
360.0
 51
11.8261131759
  0
ARC
  5
1EE
330
1F
100
AcDbEntity
  8
0
  6
Continuous
 62
     7
370
    15
100
AcDbCircle
 10
178.659004148
 20
2783.0595756025
 30
0.0
 40
28.99999999999862
100
AcDbArc
 50
168.1738868241
 51
180.0
  0
ARC
  5
1EF
330
1F
100
AcDbEntity
  8
0
  6
Continuous
 62
     7
370
    15
100
AcDbCircle
 10
178.659004148
 20
2783.0595756025
 30
0.0
 40
30.99999999999315
100
AcDbArc
 50
168.1738868241
 51
180.0
  0
ARC
  5
1F0
330
1F
100
AcDbEntity
  8
0
  6
Continuous
 62
     7
370
    15
100
AcDbCircle
 10
116.659004148
 20
2783.0595756025
 30
0.0
 40
28.79999999996994
100
AcDbArc
 50
11.8261131759
 51
19.4712206345
  0
ARC
  5
1F1
330
1F
100
AcDbEntity
  8
0
  6
Continuous
 62
     7
370
    15
100
AcDbCircle
 10
116.6590041479
 20
2783.0595756025
 30
0.0
 40
31.200000000023
100
AcDbArc
 50
11.8261131759
 51
19.4712206345
  0
ARC
  5
1F2
330
1F
100
AcDbEntity
  8
0
  6
Continuous
 62
     7
370
    15
100
AcDbCircle
 10
173.2275466429
 20
2803.0595756025
 30
0.0
 40
28.79999999999692
100
AcDbArc
 50
180.0
 51
199.4712206345
  0
ARC
  5
1F3
330
1F
100
AcDbEntity
  8
0
  6
Continuous
 62
     7
370
    15
100
AcDbCircle
 10
173.2275466429
 20
2803.0595756025
 30
0.0
 40
31.20000000000148
100
AcDbArc
 50
180.0
 51
199.4712206345
  0
ARC
  5
1F4
330
1F
100
AcDbEntity
  8
0
  6
Continuous
 62
     7
370
    15
100
AcDbCircle
 10
122.090461653
 20
2803.0595756025
 30
0.0
 40
28.79999999999773
100
AcDbArc
 50
340.5287793655
 51
0.0
  0
ARC
  5
1F5
330
1F
100
AcDbEntity
  8
0
  6
Continuous
 62
     7
370
    15
100
AcDbCircle
 10
122.090461653
 20
2803.0595756025
 30
0.0
 40
31.19999999999912
100
AcDbArc
 50
340.5287793655
 51
0.0
  0
ARC
  5
1F6
330
1F
100
AcDbEntity
  8
0
  6
Continuous
 62
     7
370
    15
100
AcDbCircle
 10
178.6590041479
 20
2783.0595756025
 30
0.0
 40
28.79999999998418
100
AcDbArc
 50
160.5287793655
 51
168.1738868241
  0
ARC
  5
1F7
330
1F
100
AcDbEntity
  8
0
  6
Continuous
 62
     7
370
    15
100
AcDbCircle
 10
178.659004148
 20
2783.0595756025
 30
0.0
 40
31.20000000000221
100
AcDbArc
 50
160.5287793655
 51
168.1738868241
  0
ARC
  5
1F8
330
1F
100
AcDbEntity
  8
0
  6
Continuous
 62
     7
370
    15
100
AcDbCircle
 10
147.659004148
 20
2779.9595756025
 30
0.0
 40
58.10000000000097
100
AcDbArc
 50
275.0885733614
 51
0.0
  0
ARC
  5
1F9
330
1F
100
AcDbEntity
  8
0
  6
Continuous
 62
     7
370
    15
100
AcDbCircle
 10
147.659004148
 20
2779.9595756025
 30
0.0
 40
58.10000000000133
100
AcDbArc
 50
180.0
 51
264.9114266386
  0
ARC
  5
1FA
330
1F
100
AcDbEntity
  8
0
  6
Continuous
 62
     7
370
    15
100
AcDbCircle
 10
202.659004148
 20
2779.9595756025
 30
0.0
 40
3.099999999999454
100
AcDbArc
 50
0.0
 51
90.0
  0
ARC
  5
1FB
330
1F
100
AcDbEntity
  8
0
  6
Continuous
 62
     7
370
    15
100
AcDbCircle
 10
92.659004148
 20
2779.9595756025
 30
0.0
 40
3.099999999999639
100
AcDbArc
 50
90.0
 51
180.0
  0
ARC
  5
1FC
330
1F
100
AcDbEntity
  8
0
  6
Continuous
 62
     7
370
    15
100
AcDbCircle
 10
150.5581419508
 20
8.0303910917
 30
0.0
 40
94.98494226056329
100
AcDbArc
 50
88.7061506953
 51
91.2938493047
  0
ARC
  5
1FD
330
1F
100
AcDbEntity
  8
0
  6
Continuous
 62
     7
370
    15
100
AcDbCircle
 10
144.4196415487
 20
2712.186966189
 30
0.0
 40
3.181637133178661
100
AcDbArc
 50
137.6751414523
 51
169.5876482386
  0
ENDSEC
  0
SECTION
  2
OBJECTS
  0
DICTIONARY
  5
C
330
0
100
AcDbDictionary
281
     1
  3
ACAD_GROUP
350
D
  3
ACAD_LAYOUT
350
1A
  3
ACAD_MLINESTYLE
350
17
  3
ACAD_PLOTSETTINGS
350
19
  3
ACAD_PLOTSTYLENAME
350
E
  3
ACAD_SCALELIST
350
47
  0
DICTIONARY
  5
D
102
{ACAD_REACTORS
330
C
102
}
330
C
100
AcDbDictionary
281
     1
  0
DICTIONARY
  5
1A
102
{ACAD_REACTORS
330
C
102
}
330
C
100
AcDbDictionary
281
     1
  3
Layout1
350
1E
  3
Layout2
350
26
  3
Model
350
22
  0
DICTIONARY
  5
17
102
{ACAD_REACTORS
330
C
102
}
330
C
100
AcDbDictionary
281
     1
  3
Standard
350
18
  0
DICTIONARY
  5
19
102
{ACAD_REACTORS
330
C
102
}
330
C
100
AcDbDictionary
281
     1
  0
ACDBDICTIONARYWDFLT
  5
E
102
{ACAD_REACTORS
330
C
102
}
330
C
100
AcDbDictionary
281
     1
  3
Normal
350
F
100
AcDbDictionaryWithDefault
340
F
  0
DICTIONARY
  5
47
102
{ACAD_REACTORS
330
C
102
}
330
C
100
AcDbDictionary
281
     1
  3
A0
350
48
  3
A1
350
49
  3
A2
350
4A
  3
A3
350
4B
  3
A4
350
4C
  3
A5
350
4D
  3
A6
350
4E
  3
A7
350
4F
  3
A8
350
50
  3
A9
350
51
  3
B0
350
52
  3
B1
350
53
  3
B2
350
54
  3
B3
350
55
  3
B4
350
56
  3
B5
350
57
  3
B6
350
58
  3
B7
350
59
  3
B8
350
5A
  3
B9
350
5B
  3
C0
350
5C
  3
C1
350
5D
  3
C2
350
5E
  3
C3
350
5F
  3
C4
350
60
  3
C5
350
61
  3
C6
350
62
  3
C7
350
63
  3
C8
350
64
  3
C9
350
65
  3
D0
350
66
  3
D1
350
67
  3
D2
350
68
  0
LAYOUT
  5
1E
102
{ACAD_REACTORS
330
1A
102
}
330
1A
100
AcDbPlotSettings
  1

  2
none_device
  4

  6

 40
0.0
 41
0.0
 42
0.0
 43
0.0
 44
0.0
 45
0.0
 46
0.0
 47
0.0
 48
0.0
 49
0.0
140
0.0
141
0.0
142
1.0
143
1.0
 70
   688
 72
     1
 73
     0
 74
     5
  7

 75
    16
147
1.0
148
0.0
149
0.0
100
AcDbLayout
  1
Layout1
 70
     1
 71
     1
 10
0.0
 20
0.0
 11
420.0
 21
297.0
 12
0.0
 22
0.0
 32
0.0
 14
1.0000000000E+20
 24
1.0000000000E+20
 34
1.0000000000E+20
 15
-1.0000000000E+20
 25
-1.0000000000E+20
 35
-1.0000000000E+20
146
0.0
 13
0.0
 23
0.0
 33
0.0
 16
1.0
 26
0.0
 36
0.0
 17
0.0
 27
1.0
 37
0.0
 76
     0
330
1B
  0
LAYOUT
  5
26
102
{ACAD_REACTORS
330
1A
102
}
330
1A
100
AcDbPlotSettings
  1

  2
none_device
  4

  6

 40
0.0
 41
0.0
 42
0.0
 43
0.0
 44
0.0
 45
0.0
 46
0.0
 47
0.0
 48
0.0
 49
0.0
140
0.0
141
0.0
142
1.0
143
1.0
 70
   688
 72
     1
 73
     0
 74
     5
  7

 75
    16
147
1.0
148
0.0
149
0.0
100
AcDbLayout
  1
Layout2
 70
     1
 71
     2
 10
0.0
 20
0.0
 11
0.0
 21
0.0
 12
0.0
 22
0.0
 32
0.0
 14
0.0
 24
0.0
 34
0.0
 15
0.0
 25
0.0
 35
0.0
146
0.0
 13
0.0
 23
0.0
 33
0.0
 16
1.0
 26
0.0
 36
0.0
 17
0.0
 27
1.0
 37
0.0
 76
     0
330
23
  0
LAYOUT
  5
22
102
{ACAD_REACTORS
330
1A
102
}
330
1A
100
AcDbPlotSettings
  1

  2
none_device
  4
ANSI_A_(11.00_x_8.50_Inches)
  6

 40
6.35
 41
19.05
 42
6.35000508
 43
19.05000254
 44
279.4
 45
215.9
 46
121.6878739587
 47
5.1245536865
 48
0.0
 49
0.0
140
0.0
141
0.0
142
0.0026729297
143
1.0
 70
  1696
 72
     0
 73
     0
 74
     0
  7

 75
     0
147
0.0179189148
148
-1300.4909072572
149
0.0
100
AcDbLayout
  1
Model
 70
     1
 71
     0
 10
0.0
 20
0.0
 11
420.0
 21
297.0
 12
0.0
 22
0.0
 32
0.0
 14
-53.7201258761
 24
-340.171359034
 34
0.0
 15
397.2672971755
 25
2808.0595756025
 35
0.0
146
0.0
 13
0.0
 23
0.0
 33
0.0
 16
1.0
 26
0.0
 36
0.0
 17
0.0
 27
1.0
 37
0.0
 76
     0
330
1F
331
29
  0
MLINESTYLE
  5
18
102
{ACAD_REACTORS
330
17
102
}
330
17
100
AcDbMlineStyle
  2
Standard
 70
     0
  3

 62
   256
 51
90.0
 52
90.0
 71
     2
 49
0.5
 62
   256
  6
BYLAYER
 49
-0.5
 62
   256
  6
BYLAYER
  0
ACDBPLACEHOLDER
  5
F
102
{ACAD_REACTORS
330
E
102
}
330
E
  0
SCALE
  5
48
102
{ACAD_REACTORS
330
47
102
}
330
47
100
AcDbScale
 70
     0
300
1:1
140
1.0
141
1.0
290
     1
  0
SCALE
  5
49
102
{ACAD_REACTORS
330
47
102
}
330
47
100
AcDbScale
 70
     0
300
1:2
140
1.0
141
2.0
290
     0
  0
SCALE
  5
4A
102
{ACAD_REACTORS
330
47
102
}
330
47
100
AcDbScale
 70
     0
300
1:4
140
1.0
141
4.0
290
     0
  0
SCALE
  5
4B
102
{ACAD_REACTORS
330
47
102
}
330
47
100
AcDbScale
 70
     0
300
1:5
140
1.0
141
5.0
290
     0
  0
SCALE
  5
4C
102
{ACAD_REACTORS
330
47
102
}
330
47
100
AcDbScale
 70
     0
300
1:8
140
1.0
141
8.0
290
     0
  0
SCALE
  5
4D
102
{ACAD_REACTORS
330
47
102
}
330
47
100
AcDbScale
 70
     0
300
1:10
140
1.0
141
10.0
290
     0
  0
SCALE
  5
4E
102
{ACAD_REACTORS
330
47
102
}
330
47
100
AcDbScale
 70
     0
300
1:16
140
1.0
141
16.0
290
     0
  0
SCALE
  5
4F
102
{ACAD_REACTORS
330
47
102
}
330
47
100
AcDbScale
 70
     0
300
1:20
140
1.0
141
20.0
290
     0
  0
SCALE
  5
50
102
{ACAD_REACTORS
330
47
102
}
330
47
100
AcDbScale
 70
     0
300
1:30
140
1.0
141
30.0
290
     0
  0
SCALE
  5
51
102
{ACAD_REACTORS
330
47
102
}
330
47
100
AcDbScale
 70
     0
300
1:40
140
1.0
141
40.0
290
     0
  0
SCALE
  5
52
102
{ACAD_REACTORS
330
47
102
}
330
47
100
AcDbScale
 70
     0
300
1:50
140
1.0
141
50.0
290
     0
  0
SCALE
  5
53
102
{ACAD_REACTORS
330
47
102
}
330
47
100
AcDbScale
 70
     0
300
1:100
140
1.0
141
100.0
290
     0
  0
SCALE
  5
54
102
{ACAD_REACTORS
330
47
102
}
330
47
100
AcDbScale
 70
     0
300
2:1
140
2.0
141
1.0
290
     0
  0
SCALE
  5
55
102
{ACAD_REACTORS
330
47
102
}
330
47
100
AcDbScale
 70
     0
300
4:1
140
4.0
141
1.0
290
     0
  0
SCALE
  5
56
102
{ACAD_REACTORS
330
47
102
}
330
47
100
AcDbScale
 70
     0
300
8:1
140
8.0
141
1.0
290
     0
  0
SCALE
  5
57
102
{ACAD_REACTORS
330
47
102
}
330
47
100
AcDbScale
 70
     0
300
10:1
140
10.0
141
1.0
290
     0
  0
SCALE
  5
58
102
{ACAD_REACTORS
330
47
102
}
330
47
100
AcDbScale
 70
     0
300
100:1
140
100.0
141
1.0
290
     0
  0
SCALE
  5
59
102
{ACAD_REACTORS
330
47
102
}
330
47
100
AcDbScale
 70
     0
300
1/128" = 1'-0"
140
0.0078125
141
12.0
290
     0
  0
SCALE
  5
5A
102
{ACAD_REACTORS
330
47
102
}
330
47
100
AcDbScale
 70
     0
300
1/64" = 1'-0"
140
0.015625
141
12.0
290
     0
  0
SCALE
  5
5B
102
{ACAD_REACTORS
330
47
102
}
330
47
100
AcDbScale
 70
     0
300
1/32" = 1'-0"
140
0.03125
141
12.0
290
     0
  0
SCALE
  5
5C
102
{ACAD_REACTORS
330
47
102
}
330
47
100
AcDbScale
 70
     0
300
1/16" = 1'-0"
140
0.0625
141
12.0
290
     0
  0
SCALE
  5
5D
102
{ACAD_REACTORS
330
47
102
}
330
47
100
AcDbScale
 70
     0
300
3/32" = 1'-0"
140
0.09375
141
12.0
290
     0
  0
SCALE
  5
5E
102
{ACAD_REACTORS
330
47
102
}
330
47
100
AcDbScale
 70
     0
300
1/8" = 1'-0"
140
0.125
141
12.0
290
     0
  0
SCALE
  5
5F
102
{ACAD_REACTORS
330
47
102
}
330
47
100
AcDbScale
 70
     0
300
3/16" = 1'-0"
140
0.1875
141
12.0
290
     0
  0
SCALE
  5
60
102
{ACAD_REACTORS
330
47
102
}
330
47
100
AcDbScale
 70
     0
300
1/4" = 1'-0"
140
0.25
141
12.0
290
     0
  0
SCALE
  5
61
102
{ACAD_REACTORS
330
47
102
}
330
47
100
AcDbScale
 70
     0
300
3/8" = 1'-0"
140
0.375
141
12.0
290
     0
  0
SCALE
  5
62
102
{ACAD_REACTORS
330
47
102
}
330
47
100
AcDbScale
 70
     0
300
1/2" = 1'-0"
140
0.5
141
12.0
290
     0
  0
SCALE
  5
63
102
{ACAD_REACTORS
330
47
102
}
330
47
100
AcDbScale
 70
     0
300
3/4" = 1'-0"
140
0.75
141
12.0
290
     0
  0
SCALE
  5
64
102
{ACAD_REACTORS
330
47
102
}
330
47
100
AcDbScale
 70
     0
300
1" = 1'-0"
140
1.0
141
12.0
290
     0
  0
SCALE
  5
65
102
{ACAD_REACTORS
330
47
102
}
330
47
100
AcDbScale
 70
     0
300
1-1/2" = 1'-0"
140
1.5
141
12.0
290
     0
  0
SCALE
  5
66
102
{ACAD_REACTORS
330
47
102
}
330
47
100
AcDbScale
 70
     0
300
3" = 1'-0"
140
3.0
141
12.0
290
     0
  0
SCALE
  5
67
102
{ACAD_REACTORS
330
47
102
}
330
47
100
AcDbScale
 70
     0
300
6" = 1'-0"
140
6.0
141
12.0
290
     0
  0
SCALE
  5
68
102
{ACAD_REACTORS
330
47
102
}
330
47
100
AcDbScale
 70
     0
300
1'-0" = 1'-0"
140
12.0
141
12.0
290
     0
  0
ENDSEC
  0
EOF
