  0
SECTION
  2
HEADER
  9
$ACADVER
  1
AC1009
  9
$INSBASE
 10
0.0
 20
0.0
 30
0.0
  9
$EXTMIN
 10
-4.70052
 20
-21.070900000000002
 30
0.0
  9
$EXTMAX
 10
205.30099999999999
 20
275.93099999999993
 30
0.0
  9
$LIMMIN
 10
0.0
 20
0.0
  9
$LIMMAX
 10
12.0
 20
9.0
  9
$ORTHOMODE
 70
     0
  9
$REGENMODE
 70
     1
  9
$FILLMODE
 70
     1
  9
$QTEXTMODE
 70
     0
  9
$MIRRTEXT
 70
     1
  9
$DRAGMODE
 70
     2
  9
$LTSCALE
 40
1.0
  9
$OSMODE
 70
    37
  9
$ATTMODE
 70
     1
  9
$TEXTSIZE
 40
0.0
  9
$TRACEWID
 40
0.05
  9
$TEXTSTYLE
  7
STANDARD
  9
$CLAYER
  8
0
  9
$CELTYPE
  6
CONTINUOUS
  9
$CECOLOR
 62
   256
  9
$DIMSCALE
 40
1.0
  9
$DIMASZ
 40
0.18
  9
$DIMEXO
 40
0.0625
  9
$DIMDLI
 40
0.38
  9
$DIMRND
 40
0.0
  9
$DIMDLE
 40
0.0
  9
$DIMEXE
 40
0.18
  9
$DIMTP
 40
0.0
  9
$DIMTM
 40
0.0
  9
$DIMTXT
 40
0.18
  9
$DIMCEN
 40
0.09
  9
$DIMTSZ
 40
0.0
  9
$DIMTOL
 70
     0
  9
$DIMLIM
 70
     0
  9
$DIMTIH
 70
     1
  9
$DIMTOH
 70
     1
  9
$DIMSE1
 70
     0
  9
$DIMSE2
 70
     0
  9
$DIMTAD
 70
     0
  9
$DIMZIN
 70
     0
  9
$DIMBLK
  1

  9
$DIMASO
 70
     1
  9
$DIMSHO
 70
     1
  9
$DIMPOST
  1

  9
$DIMAPOST
  1

  9
$DIMALT
 70
     0
  9
$DIMALTD
 70
     2
  9
$DIMALTF
 40
25.399999999999999
  9
$DIMLFAC
 40
1.0
  9
$DIMTOFL
 70
     0
  9
$DIMTVP
 40
0.0
  9
$DIMTIX
 70
     0
  9
$DIMSOXD
 70
     0
  9
$DIMSAH
 70
     0
  9
$DIMBLK1
  1

  9
$DIMBLK2
  1

  9
$DIMSTYLE
  2
STANDARD
  9
$DIMCLRD
 70
     0
  9
$DIMCLRE
 70
     0
  9
$DIMCLRT
 70
     0
  9
$DIMTFAC
 40
1.0
  9
$DIMGAP
 40
0.09
  9
$LUNITS
 70
     2
  9
$LUPREC
 70
     4
  9
$SKETCHINC
 40
0.1
  9
$FILLETRAD
 40
0.0
  9
$AUNITS
 70
     0
  9
$AUPREC
 70
     0
  9
$MENU
  1
.
  9
$ELEVATION
 40
0.0
  9
$PELEVATION
 40
0.0
  9
$THICKNESS
 40
0.0
  9
$LIMCHECK
 70
     0
  9
$BLIPMODE
 70
     0
  9
$CHAMFERA
 40
0.0
  9
$CHAMFERB
 40
0.0
  9
$SKPOLY
 70
     0
  9
$TDCREATE
 40
2444972.375
  9
$TDUPDATE
 40
2453826.2540914351
  9
$TDINDWG
 40
0.000141169
  9
$TDUSRTIMER
 40
0.000141169
  9
$USRTIMER
 70
     1
  9
$ANGBASE
 50
0.0
  9
$ANGDIR
 70
     0
  9
$PDMODE
 70
     0
  9
$PDSIZE
 40
0.0
  9
$PLINEWID
 40
0.0
  9
$COORDS
 70
     1
  9
$SPLFRAME
 70
     0
  9
$SPLINETYPE
 70
     6
  9
$SPLINESEGS
 70
     8
  9
$ATTDIA
 70
     0
  9
$ATTREQ
 70
     1
  9
$HANDLING
 70
     1
  9
$HANDSEED
  5
D1
  9
$SURFTAB1
 70
     6
  9
$SURFTAB2
 70
     6
  9
$SURFTYPE
 70
     6
  9
$SURFU
 70
     6
  9
$SURFV
 70
     6
  9
$UCSNAME
  2

  9
$UCSORG
 10
0.0
 20
0.0
 30
0.0
  9
$UCSXDIR
 10
1.0
 20
0.0
 30
0.0
  9
$UCSYDIR
 10
0.0
 20
1.0
 30
0.0
  9
$PUCSNAME
  2

  9
$PUCSORG
 10
0.0
 20
0.0
 30
0.0
  9
$PUCSXDIR
 10
1.0
 20
0.0
 30
0.0
  9
$PUCSYDIR
 10
0.0
 20
1.0
 30
0.0
  9
$USERI1
 70
     0
  9
$USERI2
 70
     0
  9
$USERI3
 70
     0
  9
$USERI4
 70
     0
  9
$USERI5
 70
     0
  9
$USERR1
 40
0.0
  9
$USERR2
 40
0.0
  9
$USERR3
 40
0.0
  9
$USERR4
 40
0.0
  9
$USERR5
 40
0.0
  9
$WORLDVIEW
 70
     1
  9
$SHADEDGE
 70
     3
  9
$SHADEDIF
 70
    70
  9
$TILEMODE
 70
     1
  9
$MAXACTVP
 70
    48
  9
$PLIMCHECK
 70
     0
  9
$PEXTMIN
 10
1.0000000000000000E+020
 20
1.0000000000000000E+020
 30
1.0000000000000000E+020
  9
$PEXTMAX
 10
-1.0000000000000000E+020
 20
-1.0000000000000000E+020
 30
-1.0000000000000000E+020
  9
$PLIMMIN
 10
0.0
 20
0.0
  9
$PLIMMAX
 10
12.0
 20
9.0
  9
$UNITMODE
 70
     0
  9
$VISRETAIN
 70
     1
  9
$PLINEGEN
 70
     0
  9
$PSLTSCALE
 70
     1
  0
ENDSEC
  0
SECTION
  2
TABLES
  0
TABLE
  2
VPORT
 70
     2
  0
VPORT
  2
*ACTIVE
 70
     0
 10
0.0
 20
0.0
 11
1.0
 21
1.0
 12
200.17533677571029
 22
127.43004999999989
 13
0.0
 23
0.0
 14
1.0
 24
1.0
 15
0.0
 25
0.0
 16
0.0
 26
0.0
 36
1.0
 17
0.0
 27
0.0
 37
0.0
 40
299.1857374999999
 41
2.1842105263157889
 42
50.0
 43
0.0
 44
0.0
 50
0.0
 51
0.0
 71
     0
 72
   100
 73
     1
 74
     1
 75
     0
 76
     0
 77
     0
 78
     0
  0
ENDTAB
  0
TABLE
  2
LTYPE
 70
     2
  0
LTYPE
  2
CONTINUOUS
 70
     0
  3
Solid line
 72
    65
 73
     0
 40
0.0
  0
LTYPE
  2
AIGENLINE001
 70
     0
  3
generate AI->DXF Converter
 72
    65
 73
     4
 40
5.8561449999999988
 49
3.5278
 49
-0.776115
 49
0.776115
 49
-0.776115
  0
ENDTAB
  0
TABLE
  2
LAYER
 70
     2
  0
LAYER
  2
0
 70
     0
 62
     7
  6
CONTINUOUS
  0
LAYER
  2
_________2
 70
     0
 62
     7
  6
CONTINUOUS
  0
ENDTAB
  0
TABLE
  2
STYLE
 70
     1
  0
STYLE
  2
STANDARD
 70
     0
 40
0.0
 41
0.0
 50
0.0
 71
     0
 42
0.0
  3
TXT
  4
EXTFONT.SHX
  0
ENDTAB
  0
TABLE
  2
VIEW
 70
     0
  0
ENDTAB
  0
TABLE
  2
UCS
 70
     0
  0
ENDTAB
  0
TABLE
  2
APPID
 70
     1
  0
APPID
  2
ACAD
 70
     0
  0
ENDTAB
  0
TABLE
  2
DIMSTYLE
 70
     1
  0
DIMSTYLE
  2
STANDARD
 70
     0
  3

  4

  5

  6

  7

 40
1.0
 41
0.18
 42
0.0625
 43
0.38
 44
0.18
 45
0.0
 46
0.0
 47
0.0
 48
0.0
140
0.18
141
0.09
142
0.0
143
25.399999999999999
144
1.0
145
0.0
146
1.0
147
0.09
 71
     0
 72
     0
 73
     1
 74
     1
 75
     0
 76
     0
 77
     0
 78
     0
170
     0
171
     2
172
     0
173
     0
174
     0
175
     0
176
     0
177
     0
178
     0
  0
ENDTAB
  0
ENDSEC
  0
SECTION
  2
BLOCKS
  0
BLOCK
  8
0
  2
$MODEL_SPACE
 70
     0
 10
0.0
 20
0.0
 30
0.0
  3
$MODEL_SPACE
  1

  0
ENDBLK
  5
1A
  8
0
  0
BLOCK
 67
     1
  8
0
  2
$PAPER_SPACE
 70
     0
 10
0.0
 20
0.0
 30
0.0
  3
$PAPER_SPACE
  1

  0
ENDBLK
  5
17
 67
     1
  8
0
  0
ENDSEC
  0
SECTION
  2
ENTITIES
  0
TEXT
  5
22
  8
0
 62
     7
 10
140.78399999999999
 20
127.4499999999999
 30
0.0
 40
3.0923400000000001
  1
3/8×100
 41
0.5
  0
TEXT
  5
23
  8
0
 62
     7
 10
81.108199999999997
 20
146.3179999999999
 30
0.0
 40
3.0923400000000001
  1
%%c30
 50
90.0
 41
0.5
  0
TEXT
  5
24
  8
0
 62
     7
 10
92.455600000000004
 20
146.58899999999991
 30
0.0
 40
3.0923400000000001
  1
%%c35
 50
90.0
 41
0.5
  0
LINE
  5
25
  8
0
 62
     7
 10
128.39799999999991
 20
136.67099999999991
 30
0.0
 11
126.3929999999999
 21
137.77399999999989
 31
0.0
  0
LINE
  5
26
  8
0
 62
     7
 10
126.3929999999999
 20
137.77399999999989
 30
0.0
 11
127.5779999999999
 21
135.816
 31
0.0
  0
LINE
  5
27
  8
0
 62
     7
 10
127.5779999999999
 20
135.816
 30
0.0
 11
128.39799999999991
 21
136.67099999999991
 31
0.0
  0
LINE
  5
28
  8
0
 62
     7
 10
156.845
 20
126.37899999999991
 30
0.0
 11
138.2649999999999
 21
126.37899999999991
 31
0.0
  0
LINE
  5
29
  8
0
 62
     7
 10
138.2649999999999
 20
126.37899999999991
 30
0.0
 11
126.468
 21
137.69999999999999
 31
0.0
  0
LINE
  5
2A
  8
0
 62
     7
 10
82.279399999999995
 20
128.482
 30
0.0
 11
82.871600000000001
 21
126.27200000000001
 31
0.0
  0
LINE
  5
2B
  8
0
 62
     7
 10
82.871600000000001
 20
126.27200000000001
 30
0.0
 11
83.463999999999999
 21
128.482
 31
0.0
  0
LINE
  5
2C
  8
0
 62
     7
 10
83.463999999999999
 20
128.482
 30
0.0
 11
82.279399999999995
 21
128.482
 31
0.0
  0
LINE
  5
2D
  8
0
 62
     7
 10
83.449399999999983
 20
154.16499999999991
 30
0.0
 11
82.857099999999988
 21
156.376
 31
0.0
  0
LINE
  5
2E
  8
0
 62
     7
 10
82.857099999999988
 20
156.376
 30
0.0
 11
82.264700000000005
 21
154.16499999999991
 31
0.0
  0
LINE
  5
2F
  8
0
 62
     7
 10
82.264700000000005
 20
154.16499999999991
 30
0.0
 11
83.449399999999983
 21
154.16499999999991
 31
0.0
  0
LINE
  5
30
  8
0
 62
     7
 10
82.864400000000003
 20
126.27200000000001
 30
0.0
 11
82.864400000000003
 21
156.21899999999999
 31
0.0
  0
LINE
  5
31
  8
0
 62
     7
 10
93.333200000000005
 20
125.97799999999989
 30
0.0
 11
93.925399999999996
 21
123.7679999999999
 31
0.0
  0
LINE
  5
32
  8
0
 62
     7
 10
93.925399999999996
 20
123.7679999999999
 30
0.0
 11
94.517799999999994
 21
125.97799999999989
 31
0.0
  0
LINE
  5
33
  8
0
 62
     7
 10
94.517799999999994
 20
125.97799999999989
 30
0.0
 11
93.333200000000005
 21
125.97799999999989
 31
0.0
  0
LINE
  5
34
  8
0
 62
     7
 10
94.503200000000007
 20
156.6579999999999
 30
0.0
 11
93.910999999999987
 21
158.86899999999989
 31
0.0
  0
LINE
  5
35
  8
0
 62
     7
 10
93.910999999999987
 20
158.86899999999989
 30
0.0
 11
93.318600000000004
 21
156.6579999999999
 31
0.0
  0
LINE
  5
36
  8
0
 62
     7
 10
93.318600000000004
 20
156.6579999999999
 30
0.0
 11
94.503200000000007
 21
156.6579999999999
 31
0.0
  0
LINE
  5
37
  8
0
 62
     7
 10
93.918199999999999
 20
123.901
 30
0.0
 11
93.918199999999999
 21
158.738
 31
0.0
  0
LINE
  5
38
  8
0
 62
     7
 10
94.834599999999995
 20
123.7679999999999
 30
0.0
 11
67.048400000000001
 21
123.7679999999999
 31
0.0
  0
LINE
  5
39
  8
0
 62
     7
 10
83.576800000000006
 20
126.27200000000001
 30
0.0
 11
68.318200000000004
 21
126.27200000000001
 31
0.0
  0
LINE
  5
3A
  8
0
 62
     7
 10
83.576800000000006
 20
156.376
 30
0.0
 11
68.318200000000004
 21
156.376
 31
0.0
  0
LINE
  5
3B
  8
0
 62
     7
 10
94.834599999999995
 20
158.86899999999989
 30
0.0
 11
67.048400000000001
 21
158.86899999999989
 31
0.0
  0
LINE
  5
3C
  8
0
  6
AIGENLINE001
 62
     7
 10
159.852
 20
141.297
 30
0.0
 11
40.67369999999999
 21
141.297
 31
0.0
  0
LINE
  5
3D
  8
0
 62
     7
 10
151.553
 20
144.87200000000001
 30
0.0
 11
151.553
 21
137.86899999999989
 31
0.0
  0
LINE
  5
3E
  8
0
 62
     7
 10
145.64400000000001
 20
145.8539999999999
 30
0.0
 11
150.2299999999999
 21
136.77000000000001
 31
0.0
  0
LINE
  5
3F
  8
0
 62
     7
 10
141.41099999999989
 20
145.8539999999999
 30
0.0
 11
145.99700000000001
 21
136.77000000000001
 31
0.0
  0
LINE
  5
40
  8
0
 62
     7
 10
137.17699999999999
 20
145.8539999999999
 30
0.0
 11
141.76300000000001
 21
136.77000000000001
 31
0.0
  0
LINE
  5
41
  8
0
 62
     7
 10
132.9439999999999
 20
145.8539999999999
 30
0.0
 11
137.52999999999989
 21
136.77000000000001
 31
0.0
  0
LINE
  5
42
  8
0
 62
     7
 10
128.71000000000001
 20
145.8539999999999
 30
0.0
 11
133.29699999999991
 21
136.77000000000001
 31
0.0
  0
LINE
  5
43
  8
0
 62
     7
 10
124.477
 20
145.8539999999999
 30
0.0
 11
129.0629999999999
 21
136.77000000000001
 31
0.0
  0
LINE
  5
44
  8
0
 62
     7
 10
120.2439999999999
 20
145.8539999999999
 30
0.0
 11
124.8299999999999
 21
136.77000000000001
 31
0.0
  0
LINE
  5
45
  8
0
 62
     7
 10
116.01000000000001
 20
145.8539999999999
 30
0.0
 11
120.59699999999999
 21
136.77000000000001
 31
0.0
  0
LINE
  5
46
  8
0
 62
     7
 10
111.7769999999999
 20
145.8539999999999
 30
0.0
 11
116.3629999999999
 21
136.77000000000001
 31
0.0
  0
LINE
  5
47
  8
0
 62
     7
 10
107.5439999999999
 20
145.8539999999999
 30
0.0
 11
112.1299999999999
 21
136.77000000000001
 31
0.0
  0
LINE
  5
48
  8
0
 62
     7
 10
103.31
 20
145.8539999999999
 30
0.0
 11
107.896
 21
136.77000000000001
 31
0.0
  0
LINE
  5
49
  8
0
 62
     7
 10
99.076899999999995
 20
145.8539999999999
 30
0.0
 11
103.6629999999999
 21
136.77000000000001
 31
0.0
  0
LINE
  5
4A
  8
0
 62
     7
 10
94.843599999999995
 20
145.8539999999999
 30
0.0
 11
99.429699999999997
 21
136.77000000000001
 31
0.0
  0
LINE
  5
4B
  8
0
 62
     7
 10
90.610200000000006
 20
145.8539999999999
 30
0.0
 11
95.196299999999994
 21
136.77000000000001
 31
0.0
  0
LINE
  5
4C
  8
0
 62
     7
 10
86.376800000000003
 20
145.8539999999999
 30
0.0
 11
90.962999999999994
 21
136.77000000000001
 31
0.0
  0
LINE
  5
4D
  8
0
 62
     7
 10
72.000900000000001
 20
146.3829999999999
 30
0.0
 11
72.000900000000001
 21
136.27000000000001
 31
0.0
  0
LINE
  5
4E
  8
0
 62
     7
 10
67.120900000000006
 20
137.31100000000001
 30
0.0
 11
72.059799999999996
 21
137.31100000000001
 31
0.0
  0
LINE
  5
4F
  8
0
 62
     7
 10
72.059799999999996
 20
137.31100000000001
 30
0.0
 11
73.059200000000004
 21
137.01699999999991
 31
0.0
  0
LINE
  5
50
  8
0
 62
     7
 10
73.059200000000004
 20
137.01699999999991
 30
0.0
 11
72.000900000000001
 21
136.31200000000001
 31
0.0
  0
LINE
  5
51
  8
0
 62
     7
 10
72.000900000000001
 20
136.31200000000001
 30
0.0
 11
67.120900000000006
 21
136.31200000000001
 31
0.0
  0
LINE
  5
52
  8
0
 62
     7
 10
67.120900000000006
 20
145.3839999999999
 30
0.0
 11
72.059799999999996
 21
145.3839999999999
 31
0.0
  0
LINE
  5
53
  8
0
 62
     7
 10
72.059799999999996
 20
145.3839999999999
 30
0.0
 11
73.059200000000004
 21
145.678
 31
0.0
  0
LINE
  5
54
  8
0
 62
     7
 10
73.059200000000004
 20
145.678
 30
0.0
 11
72.000900000000001
 21
146.3829999999999
 31
0.0
  0
LINE
  5
55
  8
0
 62
     7
 10
72.000900000000001
 20
146.3829999999999
 30
0.0
 11
67.120900000000006
 21
146.3829999999999
 31
0.0
  0
LINE
  5
56
  8
0
 62
     7
 10
73.059399999999997
 20
136.976
 30
0.0
 11
85.935900000000004
 21
136.976
 31
0.0
  0
LINE
  5
57
  8
0
 62
     7
 10
85.935900000000004
 20
136.976
 30
0.0
 11
85.935900000000004
 21
145.56
 31
0.0
  0
LINE
  5
58
  8
0
 62
     7
 10
85.935900000000004
 20
145.56
 30
0.0
 11
72.647900000000007
 21
145.56
 31
0.0
  0
LINE
  5
59
  8
0
 62
     7
 10
85.935900000000004
 20
137.86899999999989
 30
0.0
 11
151.553
 21
137.86899999999989
 31
0.0
  0
LINE
  5
5A
  8
0
 62
     7
 10
151.553
 20
137.86899999999989
 30
0.0
 11
155.87999999999991
 21
141.30799999999991
 31
0.0
  0
LINE
  5
5B
  8
0
 62
     7
 10
155.87999999999991
 20
141.30799999999991
 30
0.0
 11
155.87999999999991
 21
141.34100000000001
 31
0.0
  0
LINE
  5
5C
  8
0
 62
     7
 10
155.87999999999991
 20
141.34100000000001
 30
0.0
 11
151.553
 21
144.87200000000001
 31
0.0
  0
LINE
  5
5D
  8
0
 62
     7
 10
151.553
 20
144.87200000000001
 30
0.0
 11
85.935900000000004
 21
144.87200000000001
 31
0.0
  0
LINE
  5
5E
  8
0
 62
     7
 10
67.146000000000001
 20
126.32599999999999
 30
0.0
 11
65.782300000000006
 21
126.32599999999999
 31
0.0
  0
LINE
  5
5F
  8
0
 62
     7
 10
65.782300000000006
 20
126.32599999999999
 30
0.0
 11
65.782300000000006
 21
156.32599999999991
 31
0.0
  0
LINE
  5
60
  8
0
 62
     7
 10
65.782300000000006
 20
156.32599999999991
 30
0.0
 11
67.146000000000001
 21
156.32599999999991
 31
0.0
  0
LINE
  5
61
  8
0
 62
     7
 10
67.146000000000001
 20
156.32599999999991
 30
0.0
 11
67.146000000000001
 21
126.32599999999999
 31
0.0
  0
LINE
  5
62
  8
0
 62
     7
 10
65.703199999999995
 20
123.82599999999999
 30
0.0
 11
64.527199999999993
 21
123.82599999999999
 31
0.0
  0
LINE
  5
63
  8
0
 62
     7
 10
64.527199999999993
 20
123.82599999999999
 30
0.0
 11
64.527199999999993
 21
158.82599999999999
 31
0.0
  0
LINE
  5
64
  8
0
 62
     7
 10
64.527199999999993
 20
158.82599999999999
 30
0.0
 11
65.703199999999995
 21
158.82599999999999
 31
0.0
  0
LINE
  5
65
  8
0
 62
     7
 10
65.703199999999995
 20
158.82599999999999
 30
0.0
 11
65.703199999999995
 21
123.82599999999999
 31
0.0
  0
ARC
  5
66
  8
0
 62
     7
 10
45.390369
 20
129.81846299999989
 30
0.0
 40
9.7256149999999995
 50
22.337716
 51
34.752043
  0
ARC
  5
67
  8
0
 62
     7
 10
50.825868
 20
133.55117699999991
 30
0.0
 40
3.132077999999999
 50
35.327908999999998
 51
50.971845999999999
  0
ARC
  5
68
  8
0
 62
     7
 10
64.979008999999991
 20
152.51003600000001
 30
0.0
 40
20.529824999999999
 50
231.2709089999999
 51
233.60667599999991
  0
ARC
  5
69
  8
0
 62
     7
 10
57.331066
 20
142.838874
 30
0.0
 40
8.2008119999999991
 50
215.74003099999999
 51
230.68123899999989
  0
ARC
  5
6A
  8
0
 62
     7
 10
55.493110999999999
 20
141.4035649999999
 30
0.0
 40
5.8713249999999988
 50
180.38430999999991
 51
214.8476609999999
  0
LINE
  5
6B
  8
0
 62
     7
 10
55.72359999999999
 20
136.33699999999999
 30
0.0
 11
54.637
 21
141.364
 31
0.0
  0
LINE
  5
6C
  8
0
 62
     7
 10
64.416300000000007
 20
131.83899999999991
 30
0.0
 11
56.057899999999989
 21
131.83899999999991
 31
0.0
  0
LINE
  5
6D
  8
0
 62
     7
 10
56.057899999999989
 20
131.83899999999991
 30
0.0
 11
54.386200000000002
 21
133.95599999999999
 31
0.0
  0
LINE
  5
6E
  8
0
 62
     7
 10
54.386200000000002
 20
133.95599999999999
 30
0.0
 11
55.72359999999999
 21
136.33699999999999
 31
0.0
  0
LINE
  5
6F
  8
0
 62
     7
 10
55.72359999999999
 20
136.33699999999999
 30
0.0
 11
64.416300000000007
 21
136.33699999999999
 31
0.0
  0
ARC
  5
70
  8
0
 62
     7
 10
45.390369
 20
152.83359899999991
 30
0.0
 40
9.7256149999999995
 50
325.24795699999987
 51
337.662284
  0
ARC
  5
71
  8
0
 62
     7
 10
50.825868
 20
149.10088500000001
 30
0.0
 40
3.132077999999999
 50
309.02815399999997
 51
324.67209100000002
  0
ARC
  5
72
  8
0
 62
     7
 10
64.979008999999991
 20
130.1420259999999
 30
0.0
 40
20.529824999999999
 50
126.39332399999989
 51
128.7290909999999
  0
ARC
  5
73
  8
0
 62
     7
 10
57.331066
 20
139.813188
 30
0.0
 40
8.2008119999999991
 50
129.31876099999999
 51
144.2599689999999
  0
ARC
  5
74
  8
0
 62
     7
 10
55.493110999999999
 20
141.2484969999999
 30
0.0
 40
5.8713249999999988
 50
145.15233900000001
 51
179.61568999999989
  0
LINE
  5
75
  8
0
 62
     7
 10
55.72359999999999
 20
146.31499999999991
 30
0.0
 11
54.637
 21
141.2879999999999
 31
0.0
  0
LINE
  5
76
  8
0
 62
     7
 10
64.416300000000007
 20
150.8129999999999
 30
0.0
 11
56.057899999999989
 21
150.8129999999999
 31
0.0
  0
LINE
  5
77
  8
0
 62
     7
 10
56.057899999999989
 20
150.8129999999999
 30
0.0
 11
54.386200000000002
 21
148.696
 31
0.0
  0
LINE
  5
78
  8
0
 62
     7
 10
54.386200000000002
 20
148.696
 30
0.0
 11
55.72359999999999
 21
146.31499999999991
 31
0.0
  0
LINE
  5
79
  8
0
 62
     7
 10
55.72359999999999
 20
146.31499999999991
 30
0.0
 11
64.416300000000007
 21
146.31499999999991
 31
0.0
  0
LINE
  5
7A
  8
_________2
 62
     7
 10
205.30099999999999
 20
127.41200000000001
 30
0.0
 11
183.55099999999999
 21
127.41200000000001
 31
0.0
  0
LINE
  5
7B
  8
_________2
 62
     7
 10
100.2999999999999
 20
-4.0909000000000004
 30
0.0
 11
100.2999999999999
 21
-21.070900000000002
 31
0.0
  0
LINE
  5
7C
  8
_________2
 62
     7
 10
100.2999999999999
 20
275.93099999999993
 30
0.0
 11
100.2999999999999
 21
258.911
 31
0.0
  0
LINE
  5
7D
  8
_________2
 62
     7
 10
17.049600000000002
 20
127.41200000000001
 30
0.0
 11
-4.70052
 21
127.41200000000001
 31
0.0
  0
LINE
  5
7E
  8
_________2
 62
     7
 10
76.741200000000006
 20
28.740500000000001
 30
0.0
 11
74.554699999999997
 21
28.740500000000001
 31
0.0
  0
LINE
  5
7F
  8
_________2
 62
     7
 10
77.233800000000002
 20
28.740500000000001
 30
0.0
 11
76.981700000000004
 21
28.740500000000001
 31
0.0
  0
LINE
  5
80
  8
_________2
 62
     7
 10
77.726299999999995
 20
28.740500000000001
 30
0.0
 11
80.651399999999995
 21
28.740500000000001
 31
0.0
  0
LINE
  5
81
  8
_________2
 62
     7
 10
77.233800000000002
 20
28.740500000000001
 30
0.0
 11
77.485699999999994
 21
28.740500000000001
 31
0.0
  0
LINE
  5
82
  8
_________2
 62
     7
 10
70.837299999999999
 20
28.740500000000001
 30
0.0
 11
68.650499999999994
 21
28.740500000000001
 31
0.0
  0
LINE
  5
83
  8
_________2
 62
     7
 10
71.329800000000006
 20
28.740500000000001
 30
0.0
 11
71.077799999999996
 21
28.740500000000001
 31
0.0
  0
LINE
  5
84
  8
_________2
 62
     7
 10
71.329800000000006
 20
29.233000000000001
 30
0.0
 11
71.329800000000006
 21
31.419599999999999
 31
0.0
  0
LINE
  5
85
  8
_________2
 62
     7
 10
71.329800000000006
 20
28.740500000000001
 30
0.0
 11
71.329800000000006
 21
28.992699999999989
 31
0.0
  0
LINE
  5
86
  8
_________2
 62
     7
 10
71.822400000000002
 20
28.740500000000001
 30
0.0
 11
74.009
 21
28.740500000000001
 31
0.0
  0
LINE
  5
87
  8
_________2
 62
     7
 10
71.329800000000006
 20
28.740500000000001
 30
0.0
 11
71.581999999999994
 21
28.740500000000001
 31
0.0
  0
LINE
  5
88
  8
_________2
 62
     7
 10
71.329800000000006
 20
28.248100000000001
 30
0.0
 11
71.329800000000006
 21
26.061499999999992
 31
0.0
  0
LINE
  5
89
  8
_________2
 62
     7
 10
71.329800000000006
 20
28.740500000000001
 30
0.0
 11
71.329800000000006
 21
28.488700000000001
 31
0.0
  0
LINE
  5
8A
  8
_________2
 62
     7
 10
75.040899999999993
 20
27.521000000000001
 30
0.0
 11
80.218500000000006
 21
26.6557
 31
0.0
  0
LINE
  5
8B
  8
_________2
 62
     7
 10
75.040899999999993
 20
29.960100000000001
 30
0.0
 11
80.218500000000006
 21
30.825399999999991
 31
0.0
  0
LINE
  5
8C
  8
_________2
 62
     7
 10
80.218500000000006
 20
26.6557
 30
0.0
 11
80.218500000000006
 21
30.825399999999991
 31
0.0
  0
LINE
  5
8D
  8
_________2
 62
     7
 10
75.040899999999993
 20
27.521000000000001
 30
0.0
 11
75.040899999999993
 21
29.960100000000001
 31
0.0
  0
ARC
  5
8E
  8
_________2
 62
     7
 10
71.329860999999994
 20
28.740459999999992
 30
0.0
 40
1.219657999999999
 50
0.004056
 51
90.004025999999996
  0
ARC
  5
8F
  8
_________2
 62
     7
 10
71.329689000000002
 20
28.740459999999992
 30
0.0
 40
1.219657999999999
 50
89.995953999999998
 51
179.99592399999989
  0
ARC
  5
90
  8
_________2
 62
     7
 10
71.329689000000002
 20
28.740632000000002
 30
0.0
 40
1.2196569999999991
 50
180.00405599999999
 51
270.00406600000002
  0
ARC
  5
91
  8
_________2
 62
     7
 10
71.329860999999994
 20
28.740632999999999
 30
0.0
 40
1.219657999999999
 50
269.99597399999999
 51
359.99594400000001
  0
ARC
  5
92
  8
_________2
 62
     7
 10
71.329688000000004
 20
28.740632000000002
 30
0.0
 40
2.0847269999999991
 50
359.9976430000001
 51
89.997613000000015
  0
ARC
  5
93
  8
_________2
 62
     7
 10
71.329774999999984
 20
28.740545999999998
 30
0.0
 40
2.084813
 50
90.0
 51
179.99996999999991
  0
ARC
  5
94
  8
_________2
 62
     7
 10
71.329774999999984
 20
28.740545999999998
 30
0.0
 40
2.084811999999999
 50
179.99996999999991
 51
270.00002000000001
  0
ARC
  5
95
  8
_________2
 62
     7
 10
71.329688000000004
 20
28.740461
 30
0.0
 40
2.0847269999999991
 50
270.00238699999989
 51
0.002357
  0
TEXT
  5
96
  8
_________2
 62
     7
 10
32.7119
 20
18.486999999999998
 30
0.0
 40
2.5300899999999991
  1
福田
 41
0.5
  0
TEXT
  5
97
  8
_________2
 62
     7
 10
22.456299999999992
 20
18.486999999999998
 30
0.0
 40
2.5300899999999991
  1
石原
 41
0.5
  0
TEXT
  5
98
  8
_________2
 62
     7
 10
104.605
 20
11.6669
 30
0.0
 40
2.248969999999999
  1
図番
 41
0.5
  0
TEXT
  5
99
  8
_________2
 62
     7
 10
104.605
 20
30.805199999999989
 30
0.0
 40
2.248969999999999
  1
名称
 41
0.5
  0
TEXT
  5
9A
  8
_________2
 62
     7
 10
90.890100000000004
 20
25.319700000000001
 30
0.0
 40
3.3734599999999988
  1
m m
 41
0.5
  0
TEXT
  5
9B
  8
_________2
 62
     7
 10
85.643199999999993
 20
30.805199999999989
 30
0.0
 40
2.248969999999999
  1
単位
 41
0.5
  0
TEXT
  5
9C
  8
_________2
 62
     7
 10
85.643199999999993
 20
20.398199999999999
 30
0.0
 40
2.248969999999999
  1
尺度
 41
0.5
  0
TEXT
  5
9D
  8
_________2
 62
     7
 10
88.186599999999984
 20
14.077999999999991
 30
0.0
 40
3.6545800000000002
  1
1 ： 1
 41
0.5
  0
TEXT
  5
9E
  8
_________2
 62
     7
 10
136.00657499999991
 20
1.64625
 30
0.0
 40
3.9357000000000002
  1
TU37DV21
 41
0.5
 72
     1
 11
143.55000000000001
 21
1.64625
 31
0.0
  0
TEXT
  5
9F
  8
_________2
 62
     7
 10
24.587099999999989
 20
0.7074550000000001
 30
0.0
 40
3.9357000000000002
  1
1セット・2コ入り
 41
0.5
  0
TEXT
  5
A0
  8
_________2
 62
     7
 10
109.179
 20
24.226099999999999
 30
0.0
 40
3.9357000000000002
  1
洗面器用取付ボルト
 41
0.5
  0
TEXT
  5
A1
  8
_________2
 62
     7
 10
67.785600000000002
 20
14.077999999999991
 30
0.0
 40
3.6545800000000002
  1
02.01.25
 41
0.5
  0
TEXT
  5
A2
  8
_________2
 62
     7
 10
66.593100000000007
 20
20.398199999999999
 30
0.0
 40
2.248969999999999
  1
日付
 41
0.5
  0
TEXT
  5
A3
  8
_________2
 62
     7
 10
29.639399999999998
 20
20.398199999999999
 30
0.0
 40
2.248969999999999
  1
検図
 41
0.5
  0
TEXT
  5
A4
  8
_________2
 62
     7
 10
18.021399999999989
 20
6.1988000000000003
 30
0.0
 40
2.248969999999999
  1
備考
 41
0.5
  0
TEXT
  5
A5
  8
_________2
 62
     7
 10
18.021399999999989
 20
20.398199999999999
 30
0.0
 40
2.248969999999999
  1
製図
 41
0.5
  0
TEXT
  5
A6
  8
_________2
 62
     7
 10
23.788665333333341
 20
26.7179
 30
0.0
 40
4.4979399999999989
  1
セラトレーディング株式会社
 41
0.5
 72
     1
 11
41.180700000000002
 21
26.7179
 31
0.0
  0
LINE
  5
A7
  8
_________2
 62
     7
 10
183.55099999999999
 20
-4.0909000000000004
 30
0.0
 11
17.049600000000002
 21
-4.0909000000000004
 31
0.0
  0
LINE
  5
A8
  8
_________2
 62
     7
 10
17.049600000000002
 20
-4.0909000000000004
 30
0.0
 11
17.049600000000002
 21
258.911
 31
0.0
  0
LINE
  5
A9
  8
_________2
 62
     7
 10
17.049600000000002
 20
258.911
 30
0.0
 11
183.55099999999999
 21
258.911
 31
0.0
  0
LINE
  5
AA
  8
_________2
 62
     7
 10
183.55099999999999
 20
258.911
 30
0.0
 11
183.55099999999999
 21
-4.0909000000000004
 31
0.0
  0
LINE
  5
AB
  8
_________2
 62
     7
 10
65.549700000000001
 20
9.4091300000000011
 30
0.0
 11
65.549700000000001
 21
33.909300000000002
 31
0.0
  0
LINE
  5
AC
  8
_________2
 62
     7
 10
84.549899999999994
 20
9.4091300000000011
 30
0.0
 11
84.549899999999994
 21
33.909300000000002
 31
0.0
  0
LINE
  5
AD
  8
_________2
 62
     7
 10
103.55
 20
-4.0909000000000004
 30
0.0
 11
103.55
 21
33.909300000000002
 31
0.0
  0
LINE
  5
AE
  8
_________2
 62
     7
 10
28.549700000000001
 20
9.4091300000000011
 30
0.0
 11
28.549700000000001
 21
23.409199999999998
 31
0.0
  0
LINE
  5
AF
  8
_________2
 62
     7
 10
17.049600000000002
 20
9.4091300000000011
 30
0.0
 11
103.55
 21
9.4091300000000011
 31
0.0
  0
LINE
  5
B0
  8
_________2
 62
     7
 10
17.049600000000002
 20
23.409199999999998
 30
0.0
 11
103.55
 21
23.409199999999998
 31
0.0
  0
LINE
  5
B1
  8
_________2
 62
     7
 10
103.55
 20
14.9091
 30
0.0
 11
183.55099999999999
 21
14.9091
 31
0.0
  0
LINE
  5
B2
  8
_________2
 62
     7
 10
17.049600000000002
 20
33.909300000000002
 30
0.0
 11
183.55099999999999
 21
33.909300000000002
 31
0.0
  0
ENDSEC
  0
EOF
