  0
SECTION
  2
HEADER
  9
$ACADVER
  1
AC1009
  9
$LUNITS
 70
2
  9
$LUPREC
 70
4
  9
$LTSCALE
 40
1.0
  9
$EXTMIN
 10
-30.3177
 20
33.3285
 30
0
  9
$EXTMAX
 10
251.6749
 20
230.337
 30
0
  0
ENDSEC
  0
SECTION
  2
TABLES
  0
TABLE
  2
LTYPE
 70
256
  0
LTYPE
  2
AIGENLINE001
 70
64
  3
generate AI->DXF Converter
 72
65
 73
2
 40
0.3344
 49
0.1672
 49
-0.1672
  0
LTYPE
  2
AIGENLINE002
 70
64
  3
generate AI->DXF Converter
 72
65
 73
2
 40
0.6583
 49
0.3291
 49
-0.3291
  0
LTYPE
  2
AIGENLINE003
 70
64
  3
generate AI->DXF Converter
 72
65
 73
2
 40
0.3725
 49
0.1863
 49
-0.1863
  0
LTYPE
  2
AIGENLINE004
 70
64
  3
generate AI->DXF Converter
 72
65
 73
2
 40
1.1536
 49
0.5768
 49
-0.5768
  0
LTYPE
  2
AIGENLINE005
 70
64
  3
generate AI->DXF Converter
 72
65
 73
2
 40
1.1839
 49
0.592
 49
-0.592
  0
LTYPE
  2
AIGENLINE006
 70
64
  3
generate AI->DXF Converter
 72
65
 73
2
 40
1.1575
 49
0.3859
 49
-0.7715
  0
LTYPE
  2
AIGENLINE007
 70
64
  3
generate AI->DXF Converter
 72
65
 73
2
 40
1.1437
 49
0.3813
 49
-0.7624
  0
LTYPE
  2
AIGENLINE008
 70
64
  3
generate AI->DXF Converter
 72
65
 73
2
 40
0.6294
 49
0.2099
 49
-0.4195
  0
LTYPE
  2
AIGENLINE009
 70
64
  3
generate AI->DXF Converter
 72
65
 73
2
 40
0.0113
 49
0.0056
 49
-0.0056
  0
LTYPE
  2
AIGENLINE010
 70
64
  3
generate AI->DXF Converter
 72
65
 73
2
 40
0.1235
 49
0.0617
 49
-0.0617
  0
ENDTAB
  0
TABLE
  2
LAYER
 70
2
  0
LAYER
  2
LAYER_1
 70
64
 62
7
  6
CONTINUOUS
  0
LAYER
  2
LAYER_2
 70
64
 62
7
  6
CONTINUOUS
  0
ENDTAB
  0
TABLE
  2
STYLE
 70
6
  0
STYLE
  2
STANDARD
 70
0
 40
0
 50
0
 71
0
 41
0
 42
0
  3
TXT
  4
BIGFONT
  0
ENDTAB
  0
ENDSEC
  0
SECTION
  2
BLOCKS
  0
BLOCK
  8
LAYER_2
  2
AIGNBL02040006
 70
64
 10
0
 20
0
 30
0
  3
AIGNBL02040006
  0
POLYLINE
  8
LAYER_2
 40
0.05
 41
0.05
 66
1
 10
0
 20
0
 30
0
 70
1
  0
VERTEX
  8
LAYER_2
 10
146.7545
 20
39.1418
  0
VERTEX
  8
LAYER_2
 10
146.2656
 20
37.9567
  0
VERTEX
  8
LAYER_2
 10
145.6376
 20
37.9567
  0
VERTEX
  8
LAYER_2
 10
147.2372
 20
41.7225
  0
VERTEX
  8
LAYER_2
 10
147.9703
 20
41.7225
  0
VERTEX
  8
LAYER_2
 10
149.5768
 20
37.9567
  0
VERTEX
  8
LAYER_2
 10
148.9267
 20
37.9567
  0
VERTEX
  8
LAYER_2
 10
148.424
 20
39.1418
  0
SEQEND
  0
POLYLINE
  8
LAYER_2
 40
0.05
 41
0.05
 66
1
 10
0
 20
0
 30
0
 70
1
  0
VERTEX
  8
LAYER_2
 10
148.2983
 20
39.5207
  0
VERTEX
  8
LAYER_2
 10
147.8373
 20
40.6056
  0
VERTEX
  8
LAYER_2
 10
147.5927
 20
41.2926
  0
VERTEX
  8
LAYER_2
 10
147.5789
 20
41.2926
  0
VERTEX
  8
LAYER_2
 10
147.3412
 20
40.6101
  0
VERTEX
  8
LAYER_2
 10
146.8806
 20
39.5207
  0
SEQEND
  0
ENDBLK
  0
BLOCK
  8
LAYER_2
  2
AIGNBL02040007
 70
64
 10
0
 20
0
 30
0
  3
AIGNBL02040007
  0
POLYLINE
  8
LAYER_2
 40
0.05
 41
0.05
 66
1
 10
0
 20
0
 30
0
 70
1
  0
VERTEX
  8
LAYER_2
 10
153.942
 20
37.4034
 42
-0.01557776889
  0
VERTEX
  8
LAYER_2
 10
152.1399
 20
37.8395
  0
VERTEX
  8
LAYER_2
 10
151.8533
 20
37.895
 42
-0.08356586593
  0
VERTEX
  8
LAYER_2
 10
150.9892
 20
38.0612
 42
-0.09749891868
  0
VERTEX
  8
LAYER_2
 10
150.3281
 20
38.4671
 42
-0.2129139625
  0
VERTEX
  8
LAYER_2
 10
149.7793
 20
39.7998
 42
-0.09685063121
  0
VERTEX
  8
LAYER_2
 10
149.9239
 20
40.5732
 42
-0.2046489378
  0
VERTEX
  8
LAYER_2
 10
150.9715
 20
41.5974
 42
-0.09824326873
  0
VERTEX
  8
LAYER_2
 10
151.9725
 20
41.7838
 42
-0.08554303155
  0
VERTEX
  8
LAYER_2
 10
152.8411
 20
41.6425
 42
-0.100439485
  0
VERTEX
  8
LAYER_2
 10
153.5062
 20
41.2483
 42
-0.2140965971
  0
VERTEX
  8
LAYER_2
 10
154.0815
 20
39.8784
 42
-0.09539620281
  0
VERTEX
  8
LAYER_2
 10
153.9426
 20
39.1106
 42
-0.2143310008
  0
VERTEX
  8
LAYER_2
 10
152.9198
 20
38.1321
 42
-0.02339132607
  0
VERTEX
  8
LAYER_2
 10
152.7407
 20
38.0738
  0
VERTEX
  8
LAYER_2
 10
152.7407
 20
38.0514
 42
0.01711818545
  0
VERTEX
  8
LAYER_2
 10
154.117
 20
37.8113
  0
SEQEND
  0
POLYLINE
  8
LAYER_2
 40
0.05
 41
0.05
 66
1
 10
0
 20
0
 30
0
 70
1
  0
VERTEX
  8
LAYER_2
 10
153.4394
 20
39.857
 42
0.1071643265
  0
VERTEX
  8
LAYER_2
 10
153.2881
 20
40.5618
 42
0.2976270581
  0
VERTEX
  8
LAYER_2
 10
151.9511
 20
41.3873
 42
0.1072356843
  0
VERTEX
  8
LAYER_2
 10
151.2613
 20
41.2478
 42
0.2385874916
  0
VERTEX
  8
LAYER_2
 10
150.4743
 20
40.2422
 42
0.05751786987
  0
VERTEX
  8
LAYER_2
 10
150.4287
 20
39.8122
 42
0.218058121
  0
VERTEX
  8
LAYER_2
 10
150.9593
 20
38.6168
 42
0.1772828752
  0
VERTEX
  8
LAYER_2
 10
151.9232
 20
38.2912
 42
0.1075205619
  0
VERTEX
  8
LAYER_2
 10
152.6045
 20
38.4302
 42
0.2370768657
  0
VERTEX
  8
LAYER_2
 10
153.3917
 20
39.4298
 42
0.05602139055
  0
SEQEND
  0
ENDBLK
  0
BLOCK
  8
LAYER_2
  2
AIGNBL02040008
 70
64
 10
0
 20
0
 30
0
  3
AIGNBL02040008
  0
POLYLINE
  8
LAYER_2
 40
0.05
 41
0.05
 66
1
 10
0
 20
0
 30
0
 70
1
  0
VERTEX
  8
LAYER_2
 10
155.4089
 20
41.7225
  0
VERTEX
  8
LAYER_2
 10
155.4089
 20
39.4932
 42
0.114533087
  0
VERTEX
  8
LAYER_2
 10
155.5428
 20
38.8274
 42
0.1464774934
  0
VERTEX
  8
LAYER_2
 10
155.8932
 20
38.4422
 42
0.1362552487
  0
VERTEX
  8
LAYER_2
 10
156.5055
 20
38.2912
 42
0.1219300979
  0
VERTEX
  8
LAYER_2
 10
157.1286
 20
38.4259
 42
0.1503016186
  0
VERTEX
  8
LAYER_2
 10
157.5004
 20
38.7949
 42
0.1256239276
  0
VERTEX
  8
LAYER_2
 10
157.651
 20
39.4932
  0
VERTEX
  8
LAYER_2
 10
157.651
 20
41.7225
  0
VERTEX
  8
LAYER_2
 10
158.2656
 20
41.7225
  0
VERTEX
  8
LAYER_2
 10
158.2656
 20
39.5266
 42
-0.09996665729
  0
VERTEX
  8
LAYER_2
 10
158.1307
 20
38.7839
 42
-0.1215019567
  0
VERTEX
  8
LAYER_2
 10
157.7575
 20
38.2772
 42
-0.1106305922
  0
VERTEX
  8
LAYER_2
 10
157.132
 20
37.9706
 42
-0.06128719854
  0
VERTEX
  8
LAYER_2
 10
156.4845
 20
37.895
 42
-0.0941826643
  0
VERTEX
  8
LAYER_2
 10
155.6654
 20
38.0331
 42
-0.2431541134
  0
VERTEX
  8
LAYER_2
 10
154.8618
 20
38.9438
 42
-0.06321248355
  0
VERTEX
  8
LAYER_2
 10
154.7943
 20
39.5045
  0
VERTEX
  8
LAYER_2
 10
154.7943
 20
41.7225
  0
SEQEND
  0
ENDBLK
  0
BLOCK
  8
LAYER_2
  2
AIGNBL02040009
 70
64
 10
0
 20
0
 30
0
  3
AIGNBL02040009
  0
POLYLINE
  8
LAYER_2
 40
0.05
 41
0.05
 66
1
 10
0
 20
0
 30
0
 70
1
  0
VERTEX
  8
LAYER_2
 10
160.0119
 20
39.1418
  0
VERTEX
  8
LAYER_2
 10
159.5227
 20
37.9567
  0
VERTEX
  8
LAYER_2
 10
158.8947
 20
37.9567
  0
VERTEX
  8
LAYER_2
 10
160.4939
 20
41.7225
  0
VERTEX
  8
LAYER_2
 10
161.227
 20
41.7225
  0
VERTEX
  8
LAYER_2
 10
162.8335
 20
37.9567
  0
VERTEX
  8
LAYER_2
 10
162.1841
 20
37.9567
  0
VERTEX
  8
LAYER_2
 10
161.6814
 20
39.1418
  0
SEQEND
  0
POLYLINE
  8
LAYER_2
 40
0.05
 41
0.05
 66
1
 10
0
 20
0
 30
0
 70
1
  0
VERTEX
  8
LAYER_2
 10
161.5553
 20
39.5207
  0
VERTEX
  8
LAYER_2
 10
161.094
 20
40.6056
  0
VERTEX
  8
LAYER_2
 10
160.8494
 20
41.2926
  0
VERTEX
  8
LAYER_2
 10
160.8357
 20
41.2926
  0
VERTEX
  8
LAYER_2
 10
160.5983
 20
40.6101
  0
VERTEX
  8
LAYER_2
 10
160.1373
 20
39.5207
  0
SEQEND
  0
ENDBLK
  0
BLOCK
  8
LAYER_2
  2
AIGNBL0204000A
 70
64
 10
0
 20
0
 30
0
  3
AIGNBL0204000A
  0
POLYLINE
  8
LAYER_2
 40
0.05
 41
0.05
 66
1
 10
0
 20
0
 30
0
 70
1
  0
VERTEX
  8
LAYER_2
 10
163.8742
 20
41.6777
 42
-0.03245918394
  0
VERTEX
  8
LAYER_2
 10
165.0411
 20
41.7508
 42
-0.08084226265
  0
VERTEX
  8
LAYER_2
 10
165.9975
 20
41.619
 42
-0.07815635113
  0
VERTEX
  8
LAYER_2
 10
166.3609
 20
41.4379
 42
-0.2484709269
  0
VERTEX
  8
LAYER_2
 10
166.7726
 20
40.6497
 42
-0.226147
  0
VERTEX
  8
LAYER_2
 10
166.4095
 20
39.8456
 42
-0.1096895144
  0
VERTEX
  8
LAYER_2
 10
165.7812
 20
39.5323
 42
-0.06565832551
  0
VERTEX
  8
LAYER_2
 10
164.9708
 20
39.4319
 42
-0.06238309955
  0
VERTEX
  8
LAYER_2
 10
164.4823
 20
39.4653
  0
VERTEX
  8
LAYER_2
 10
164.4823
 20
37.9567
  0
VERTEX
  8
LAYER_2
 10
163.8742
 20
37.9567
  0
SEQEND
  0
POLYLINE
  8
LAYER_2
 40
0.05
 41
0.05
 66
1
 10
0
 20
0
 30
0
 70
1
  0
VERTEX
  8
LAYER_2
 10
164.4823
 20
39.8622
 42
0.04203451964
  0
VERTEX
  8
LAYER_2
 10
164.9846
 20
39.8229
 42
0.1032111168
  0
VERTEX
  8
LAYER_2
 10
165.7038
 20
39.9502
 42
0.1555938032
  0
VERTEX
  8
LAYER_2
 10
166.0686
 20
40.2546
 42
0.1352673748
  0
VERTEX
  8
LAYER_2
 10
166.1656
 20
40.6273
 42
0.1737047371
  0
VERTEX
  8
LAYER_2
 10
166.0308
 20
41.0346
 42
0.1517050813
  0
VERTEX
  8
LAYER_2
 10
165.6097
 20
41.2941
 42
0.06879756253
  0
VERTEX
  8
LAYER_2
 10
165.0552
 20
41.3649
 42
0.0634356619
  0
VERTEX
  8
LAYER_2
 10
164.4823
 20
41.3257
  0
SEQEND
  0
ENDBLK
  0
BLOCK
  8
LAYER_2
  2
AIGNBL0204000B
 70
64
 10
0
 20
0
 30
0
  3
AIGNBL0204000B
  0
POLYLINE
  8
LAYER_2
 40
0.05
 41
0.05
 66
1
 10
0
 20
0
 30
0
 70
1
  0
VERTEX
  8
LAYER_2
 10
168.3246
 20
41.4207
 42
-0.2767461975
  0
VERTEX
  8
LAYER_2
 10
168.1851
 20
41.1806
 42
-0.1265294091
  0
VERTEX
  8
LAYER_2
 10
167.9329
 20
41.1189
 42
-0.2237518698
  0
VERTEX
  8
LAYER_2
 10
167.6226
 20
41.2513
 42
-0.1708341408
  0
VERTEX
  8
LAYER_2
 10
167.5626
 20
41.4207
 42
-0.2643879937
  0
VERTEX
  8
LAYER_2
 10
167.712
 20
41.6678
 42
-0.1290073663
  0
VERTEX
  8
LAYER_2
 10
167.9467
 20
41.7277
 42
-0.225342086
  0
VERTEX
  8
LAYER_2
 10
168.2635
 20
41.597
 42
-0.1691136206
  0
SEQEND
  0
POLYLINE
  8
LAYER_2
 40
0.05
 41
0.05
 66
1
 10
0
 20
0
 30
0
 70
1
  0
VERTEX
  8
LAYER_2
 10
167.639
 20
37.9567
  0
VERTEX
  8
LAYER_2
 10
167.639
 20
40.6607
  0
VERTEX
  8
LAYER_2
 10
168.2537
 20
40.6607
  0
VERTEX
  8
LAYER_2
 10
168.2537
 20
37.9567
  0
SEQEND
  0
ENDBLK
  0
BLOCK
  8
LAYER_2
  2
AIGNBL0204000C
 70
64
 10
0
 20
0
 30
0
  3
AIGNBL0204000C
  0
POLYLINE
  8
LAYER_2
 40
0.05
 41
0.05
 66
1
 10
0
 20
0
 30
0
 70
1
  0
VERTEX
  8
LAYER_2
 10
170.1254
 20
39.1418
  0
VERTEX
  8
LAYER_2
 10
169.6372
 20
37.9567
  0
VERTEX
  8
LAYER_2
 10
169.0081
 20
37.9567
  0
VERTEX
  8
LAYER_2
 10
170.6077
 20
41.7225
  0
VERTEX
  8
LAYER_2
 10
171.3415
 20
41.7225
  0
VERTEX
  8
LAYER_2
 10
172.9479
 20
37.9567
  0
VERTEX
  8
LAYER_2
 10
172.2982
 20
37.9567
  0
VERTEX
  8
LAYER_2
 10
171.7955
 20
39.1418
  0
SEQEND
  0
POLYLINE
  8
LAYER_2
 40
0.05
 41
0.05
 66
1
 10
0
 20
0
 30
0
 70
1
  0
VERTEX
  8
LAYER_2
 10
171.6695
 20
39.5207
  0
VERTEX
  8
LAYER_2
 10
171.2085
 20
40.6056
  0
VERTEX
  8
LAYER_2
 10
170.9646
 20
41.2926
  0
VERTEX
  8
LAYER_2
 10
170.9498
 20
41.2926
  0
VERTEX
  8
LAYER_2
 10
170.7128
 20
40.6101
  0
VERTEX
  8
LAYER_2
 10
170.2518
 20
39.5207
  0
SEQEND
  0
ENDBLK
  0
BLOCK
  8
LAYER_2
  2
AIGNBL02030005
 70
64
 10
0
 20
0
 30
0
  3
AIGNBL02030005
  0
INSERT
  8
LAYER_2
  2
AIGNBL02040006
 10
0
 20
0
 30
0
  0
INSERT
  8
LAYER_2
  2
AIGNBL02040007
 10
0
 20
0
 30
0
  0
INSERT
  8
LAYER_2
  2
AIGNBL02040008
 10
0
 20
0
 30
0
  0
INSERT
  8
LAYER_2
  2
AIGNBL02040009
 10
0
 20
0
 30
0
  0
INSERT
  8
LAYER_2
  2
AIGNBL0204000A
 10
0
 20
0
 30
0
  0
INSERT
  8
LAYER_2
  2
AIGNBL0204000B
 10
0
 20
0
 30
0
  0
INSERT
  8
LAYER_2
  2
AIGNBL0204000C
 10
0
 20
0
 30
0
  0
ENDBLK
  0
BLOCK
  8
LAYER_2
  2
AIGNBL0203000E
 70
64
 10
0
 20
0
 30
0
  3
AIGNBL0203000E
  0
POLYLINE
  8
LAYER_2
 40
0.05
 41
0.05
 66
1
 10
0
 20
0
 30
0
 70
1
  0
VERTEX
  8
LAYER_2
 10
145.7475
 20
36.0574
  0
VERTEX
  8
LAYER_2
 10
146.3008
 20
36.0574
  0
VERTEX
  8
LAYER_2
 10
146.3008
 20
35.9637
  0
VERTEX
  8
LAYER_2
 10
145.6424
 20
35.9637
  0
VERTEX
  8
LAYER_2
 10
145.6424
 20
36.9969
  0
VERTEX
  8
LAYER_2
 10
146.2832
 20
36.9969
  0
VERTEX
  8
LAYER_2
 10
146.2832
 20
36.9035
  0
VERTEX
  8
LAYER_2
 10
145.7475
 20
36.9035
  0
VERTEX
  8
LAYER_2
 10
145.7475
 20
36.549
  0
VERTEX
  8
LAYER_2
 10
146.2481
 20
36.549
  0
VERTEX
  8
LAYER_2
 10
146.2481
 20
36.4557
  0
VERTEX
  8
LAYER_2
 10
145.7475
 20
36.4557
  0
SEQEND
  0
ENDBLK
  0
BLOCK
  8
LAYER_2
  2
AIGNBL0203000F
 70
64
 10
0
 20
0
 30
0
  3
AIGNBL0203000F
  0
POLYLINE
  8
LAYER_2
 40
0.05
 41
0.05
 66
1
 10
0
 20
0
 30
0
 70
1
  0
VERTEX
  8
LAYER_2
 10
147.4404
 20
36.117
  0
VERTEX
  8
LAYER_2
 10
147.4432
 20
36.117
  0
VERTEX
  8
LAYER_2
 10
147.4432
 20
36.9969
  0
VERTEX
  8
LAYER_2
 10
147.5483
 20
36.9969
  0
VERTEX
  8
LAYER_2
 10
147.5483
 20
35.9637
  0
VERTEX
  8
LAYER_2
 10
147.4174
 20
35.9637
  0
VERTEX
  8
LAYER_2
 10
146.8162
 20
36.8525
  0
VERTEX
  8
LAYER_2
 10
146.8127
 20
36.8525
  0
VERTEX
  8
LAYER_2
 10
146.8127
 20
35.9637
  0
VERTEX
  8
LAYER_2
 10
146.708
 20
35.9637
  0
VERTEX
  8
LAYER_2
 10
146.708
 20
36.9969
  0
VERTEX
  8
LAYER_2
 10
146.8393
 20
36.9969
  0
SEQEND
  0
ENDBLK
  0
BLOCK
  8
LAYER_2
  2
AIGNBL02030010
 70
64
 10
0
 20
0
 30
0
  3
AIGNBL02030010
  0
POLYLINE
  8
LAYER_2
 40
0.05
 41
0.05
 66
1
 10
0
 20
0
 30
0
 70
1
  0
VERTEX
  8
LAYER_2
 10
148.0213
 20
36.1756
  0
VERTEX
  8
LAYER_2
 10
148.0757
 20
36.0725
 42
0.1803975231
  0
VERTEX
  8
LAYER_2
 10
148.1891
 20
36.0309
  0
VERTEX
  8
LAYER_2
 10
148.2783
 20
36.0505
  0
VERTEX
  8
LAYER_2
 10
148.3344
 20
36.1039
  0
VERTEX
  8
LAYER_2
 10
148.3634
 20
36.1804
  0
VERTEX
  8
LAYER_2
 10
148.3717
 20
36.27
  0
VERTEX
  8
LAYER_2
 10
148.3717
 20
36.9969
  0
VERTEX
  8
LAYER_2
 10
148.4767
 20
36.9969
  0
VERTEX
  8
LAYER_2
 10
148.4767
 20
36.2614
  0
VERTEX
  8
LAYER_2
 10
148.4654
 20
36.1535
  0
VERTEX
  8
LAYER_2
 10
148.424
 20
36.0485
  0
VERTEX
  8
LAYER_2
 10
148.3393
 20
35.9689
  0
VERTEX
  8
LAYER_2
 10
148.2004
 20
35.9375
 42
-0.1845231376
  0
VERTEX
  8
LAYER_2
 10
148.0158
 20
35.9974
 42
-0.1765285731
  0
VERTEX
  8
LAYER_2
 10
147.9234
 20
36.149
  0
SEQEND
  0
ENDBLK
  0
BLOCK
  8
LAYER_2
  2
AIGNBL02030011
 70
64
 10
0
 20
0
 30
0
  3
AIGNBL02030011
  0
POLYLINE
  8
LAYER_2
 40
0.05
 41
0.05
 66
1
 10
0
 20
0
 30
0
 70
1
  0
VERTEX
  8
LAYER_2
 10
149.965
 20
36.4805
 42
-0.1041417444
  0
VERTEX
  8
LAYER_2
 10
149.924
 20
36.2631
 42
-0.10057123
  0
VERTEX
  8
LAYER_2
 10
149.8113
 20
36.0915
  0
VERTEX
  8
LAYER_2
 10
149.6405
 20
35.9785
 42
-0.0950295922
  0
VERTEX
  8
LAYER_2
 10
149.4265
 20
35.9375
 42
-0.1010765979
  0
VERTEX
  8
LAYER_2
 10
149.2129
 20
35.9785
 42
-0.1000570207
  0
VERTEX
  8
LAYER_2
 10
149.042
 20
36.0915
 42
-0.09442769366
  0
VERTEX
  8
LAYER_2
 10
148.9287
 20
36.2631
 42
-0.09293305267
  0
VERTEX
  8
LAYER_2
 10
148.8881
 20
36.4805
 42
-0.1024980643
  0
VERTEX
  8
LAYER_2
 10
148.9287
 20
36.6978
 42
-0.1008832254
  0
VERTEX
  8
LAYER_2
 10
149.042
 20
36.8694
 42
-0.09625117665
  0
VERTEX
  8
LAYER_2
 10
149.2129
 20
36.9824
 42
-0.0952064105
  0
VERTEX
  8
LAYER_2
 10
149.4265
 20
37.0234
 42
-0.1012184087
  0
VERTEX
  8
LAYER_2
 10
149.6405
 20
36.9824
 42
-0.09890806396
  0
VERTEX
  8
LAYER_2
 10
149.8113
 20
36.8694
 42
-0.09577200427
  0
VERTEX
  8
LAYER_2
 10
149.924
 20
36.6978
 42
-0.09400765476
  0
SEQEND
  0
POLYLINE
  8
LAYER_2
 40
0.05
 41
0.05
 66
1
 10
0
 20
0
 30
0
 70
1
  0
VERTEX
  8
LAYER_2
 10
149.8541
 20
36.4798
  0
VERTEX
  8
LAYER_2
 10
149.8251
 20
36.6517
  0
VERTEX
  8
LAYER_2
 10
149.7404
 20
36.795
  0
VERTEX
  8
LAYER_2
 10
149.6053
 20
36.8932
  0
VERTEX
  8
LAYER_2
 10
149.4265
 20
36.93
  0
VERTEX
  8
LAYER_2
 10
149.2478
 20
36.8932
  0
VERTEX
  8
LAYER_2
 10
149.113
 20
36.795
  0
VERTEX
  8
LAYER_2
 10
149.0283
 20
36.6517
  0
VERTEX
  8
LAYER_2
 10
148.999
 20
36.4798
  0
VERTEX
  8
LAYER_2
 10
149.0283
 20
36.3079
  0
VERTEX
  8
LAYER_2
 10
149.113
 20
36.1649
  0
VERTEX
  8
LAYER_2
 10
149.2478
 20
36.0674
 42
0.1008814383
  0
VERTEX
  8
LAYER_2
 10
149.4265
 20
36.0309
 42
0.1157330551
  0
VERTEX
  8
LAYER_2
 10
149.6053
 20
36.0674
  0
VERTEX
  8
LAYER_2
 10
149.7404
 20
36.1649
  0
VERTEX
  8
LAYER_2
 10
149.8251
 20
36.3079
  0
SEQEND
  0
ENDBLK
  0
BLOCK
  8
LAYER_2
  2
AIGNBL02030012
 70
64
 10
0
 20
0
 30
0
  3
AIGNBL02030012
  0
POLYLINE
  8
LAYER_2
 40
0.05
 41
0.05
 66
1
 10
0
 20
0
 30
0
 70
1
  0
VERTEX
  8
LAYER_2
 10
150.7398
 20
35.9637
  0
VERTEX
  8
LAYER_2
 10
150.6351
 20
35.9637
  0
VERTEX
  8
LAYER_2
 10
150.6351
 20
36.4091
  0
VERTEX
  8
LAYER_2
 10
150.2482
 20
36.9969
  0
VERTEX
  8
LAYER_2
 10
150.3795
 20
36.9969
  0
VERTEX
  8
LAYER_2
 10
150.6905
 20
36.4967
  0
VERTEX
  8
LAYER_2
 10
151.0041
 20
36.9969
  0
VERTEX
  8
LAYER_2
 10
151.1263
 20
36.9969
  0
VERTEX
  8
LAYER_2
 10
150.7398
 20
36.4091
  0
SEQEND
  0
ENDBLK
  0
BLOCK
  8
LAYER_2
  2
AIGNBL02030013
 70
64
 10
0
 20
0
 30
0
  3
AIGNBL02030013
  0
POLYLINE
  8
LAYER_2
 40
0.05
 41
0.05
 66
1
 10
0
 20
0
 30
0
 70
1
  0
VERTEX
  8
LAYER_2
 10
152.0314
 20
36.9969
  0
VERTEX
  8
LAYER_2
 10
152.339
 20
36.9969
  0
VERTEX
  8
LAYER_2
 10
152.4575
 20
36.9845
  0
VERTEX
  8
LAYER_2
 10
152.5643
 20
36.9421
  0
VERTEX
  8
LAYER_2
 10
152.6422
 20
36.8611
  0
VERTEX
  8
LAYER_2
 10
152.6718
 20
36.733
 42
-0.1790346201
  0
VERTEX
  8
LAYER_2
 10
152.6219
 20
36.5907
 42
-0.1642933266
  0
VERTEX
  8
LAYER_2
 10
152.4885
 20
36.5111
  0
VERTEX
  8
LAYER_2
 10
152.4885
 20
36.5084
 42
-0.1735805246
  0
VERTEX
  8
LAYER_2
 10
152.6553
 20
36.4302
 42
-0.1921994171
  0
VERTEX
  8
LAYER_2
 10
152.7214
 20
36.2496
  0
VERTEX
  8
LAYER_2
 10
152.6942
 20
36.1325
  0
VERTEX
  8
LAYER_2
 10
152.6181
 20
36.0419
  0
VERTEX
  8
LAYER_2
 10
152.4972
 20
35.9844
  0
VERTEX
  8
LAYER_2
 10
152.3373
 20
35.9637
  0
VERTEX
  8
LAYER_2
 10
152.0314
 20
35.9637
  0
SEQEND
  0
POLYLINE
  8
LAYER_2
 40
0.05
 41
0.05
 66
1
 10
0
 20
0
 30
0
 70
1
  0
VERTEX
  8
LAYER_2
 10
152.1364
 20
36.5445
  0
VERTEX
  8
LAYER_2
 10
152.348
 20
36.5445
  0
VERTEX
  8
LAYER_2
 10
152.4248
 20
36.5535
  0
VERTEX
  8
LAYER_2
 10
152.4951
 20
36.5831
  0
VERTEX
  8
LAYER_2
 10
152.5471
 20
36.6396
  0
VERTEX
  8
LAYER_2
 10
152.5668
 20
36.7258
  0
VERTEX
  8
LAYER_2
 10
152.5471
 20
36.8095
  0
VERTEX
  8
LAYER_2
 10
152.494
 20
36.8656
  0
VERTEX
  8
LAYER_2
 10
152.4152
 20
36.897
  0
VERTEX
  8
LAYER_2
 10
152.3187
 20
36.9066
  0
VERTEX
  8
LAYER_2
 10
152.1364
 20
36.9066
  0
SEQEND
  0
POLYLINE
  8
LAYER_2
 40
0.05
 41
0.05
 66
1
 10
0
 20
0
 30
0
 70
1
  0
VERTEX
  8
LAYER_2
 10
152.1364
 20
36.0543
  0
VERTEX
  8
LAYER_2
 10
152.3321
 20
36.0543
  0
VERTEX
  8
LAYER_2
 10
152.4406
 20
36.0653
  0
VERTEX
  8
LAYER_2
 10
152.5313
 20
36.1001
  0
VERTEX
  8
LAYER_2
 10
152.5929
 20
36.1632
  0
VERTEX
  8
LAYER_2
 10
152.6164
 20
36.2559
 42
0.2557371221
  0
VERTEX
  8
LAYER_2
 10
152.5471
 20
36.4081
 42
0.1381508151
  0
VERTEX
  8
LAYER_2
 10
152.3511
 20
36.4584
  0
VERTEX
  8
LAYER_2
 10
152.1364
 20
36.4584
  0
SEQEND
  0
ENDBLK
  0
BLOCK
  8
LAYER_2
  2
AIGNBL02030014
 70
64
 10
0
 20
0
 30
0
  3
AIGNBL02030014
  0
POLYLINE
  8
LAYER_2
 40
0.05
 41
0.05
 66
1
 10
0
 20
0
 30
0
 70
1
  0
VERTEX
  8
LAYER_2
 10
153.1534
 20
35.9637
  0
VERTEX
  8
LAYER_2
 10
153.038
 20
35.9637
  0
VERTEX
  8
LAYER_2
 10
153.4849
 20
36.9969
  0
VERTEX
  8
LAYER_2
 10
153.5872
 20
36.9969
  0
VERTEX
  8
LAYER_2
 10
154.0306
 20
35.9637
  0
VERTEX
  8
LAYER_2
 10
153.9138
 20
35.9637
  0
VERTEX
  8
LAYER_2
 10
153.7997
 20
36.2352
  0
VERTEX
  8
LAYER_2
 10
153.2657
 20
36.2352
  0
SEQEND
  0
POLYLINE
  8
LAYER_2
 40
0.05
 41
0.05
 66
1
 10
0
 20
0
 30
0
 70
1
  0
VERTEX
  8
LAYER_2
 10
153.305
 20
36.3316
  0
VERTEX
  8
LAYER_2
 10
153.7604
 20
36.3316
  0
VERTEX
  8
LAYER_2
 10
153.5327
 20
36.8804
  0
SEQEND
  0
ENDBLK
  0
BLOCK
  8
LAYER_2
  2
AIGNBL02030015
 70
64
 10
0
 20
0
 30
0
  3
AIGNBL02030015
  0
POLYLINE
  8
LAYER_2
 40
0.05
 41
0.05
 66
1
 10
0
 20
0
 30
0
 70
1
  0
VERTEX
  8
LAYER_2
 10
154.7151
 20
35.9637
  0
VERTEX
  8
LAYER_2
 10
154.61
 20
35.9637
  0
VERTEX
  8
LAYER_2
 10
154.61
 20
36.9035
  0
VERTEX
  8
LAYER_2
 10
154.2638
 20
36.9035
  0
VERTEX
  8
LAYER_2
 10
154.2638
 20
36.9969
  0
VERTEX
  8
LAYER_2
 10
155.0606
 20
36.9969
  0
VERTEX
  8
LAYER_2
 10
155.0606
 20
36.9035
  0
VERTEX
  8
LAYER_2
 10
154.7151
 20
36.9035
  0
SEQEND
  0
ENDBLK
  0
BLOCK
  8
LAYER_2
  2
AIGNBL02030016
 70
64
 10
0
 20
0
 30
0
  3
AIGNBL02030016
  0
POLYLINE
  8
LAYER_2
 40
0.05
 41
0.05
 66
1
 10
0
 20
0
 30
0
 70
1
  0
VERTEX
  8
LAYER_2
 10
155.4169
 20
36.9969
  0
VERTEX
  8
LAYER_2
 10
155.5216
 20
36.9969
  0
VERTEX
  8
LAYER_2
 10
155.5216
 20
36.549
  0
VERTEX
  8
LAYER_2
 10
156.0852
 20
36.549
  0
VERTEX
  8
LAYER_2
 10
156.0852
 20
36.9969
  0
VERTEX
  8
LAYER_2
 10
156.1903
 20
36.9969
  0
VERTEX
  8
LAYER_2
 10
156.1903
 20
35.9637
  0
VERTEX
  8
LAYER_2
 10
156.0852
 20
35.9637
  0
VERTEX
  8
LAYER_2
 10
156.0852
 20
36.4529
  0
VERTEX
  8
LAYER_2
 10
155.5216
 20
36.4529
  0
VERTEX
  8
LAYER_2
 10
155.5216
 20
35.9637
  0
VERTEX
  8
LAYER_2
 10
155.4169
 20
35.9637
  0
SEQEND
  0
ENDBLK
  0
BLOCK
  8
LAYER_2
  2
AIGNBL02030017
 70
64
 10
0
 20
0
 30
0
  3
AIGNBL02030017
  0
POLYLINE
  8
LAYER_2
 40
0.05
 41
0.05
 66
1
 10
0
 20
0
 30
0
 70
1
  0
VERTEX
  8
LAYER_2
 10
156.7708
 20
35.9637
  0
VERTEX
  8
LAYER_2
 10
156.6657
 20
35.9637
  0
VERTEX
  8
LAYER_2
 10
156.6657
 20
36.9969
  0
VERTEX
  8
LAYER_2
 10
156.9696
 20
36.9969
  0
VERTEX
  8
LAYER_2
 10
157.1101
 20
36.9824
  0
VERTEX
  8
LAYER_2
 10
157.2228
 20
36.9349
  0
VERTEX
  8
LAYER_2
 10
157.2962
 20
36.8494
  0
VERTEX
  8
LAYER_2
 10
157.3223
 20
36.7213
  0
VERTEX
  8
LAYER_2
 10
157.3024
 20
36.6176
  0
VERTEX
  8
LAYER_2
 10
157.2469
 20
36.5366
  0
VERTEX
  8
LAYER_2
 10
157.1635
 20
36.4818
  0
VERTEX
  8
LAYER_2
 10
157.0585
 20
36.4557
  0
VERTEX
  8
LAYER_2
 10
157.3606
 20
35.9637
  0
VERTEX
  8
LAYER_2
 10
157.2321
 20
35.9637
  0
VERTEX
  8
LAYER_2
 10
156.9461
 20
36.4467
  0
VERTEX
  8
LAYER_2
 10
156.7708
 20
36.4467
  0
SEQEND
  0
POLYLINE
  8
LAYER_2
 40
0.05
 41
0.05
 66
1
 10
0
 20
0
 30
0
 70
1
  0
VERTEX
  8
LAYER_2
 10
156.7708
 20
36.5373
  0
VERTEX
  8
LAYER_2
 10
156.9534
 20
36.5373
 42
0.165389034
  0
VERTEX
  8
LAYER_2
 10
157.1491
 20
36.5831
 42
0.2500512188
  0
VERTEX
  8
LAYER_2
 10
157.2176
 20
36.7213
  0
VERTEX
  8
LAYER_2
 10
157.1983
 20
36.8071
  0
VERTEX
  8
LAYER_2
 10
157.146
 20
36.8643
  0
VERTEX
  8
LAYER_2
 10
157.0643
 20
36.8963
  0
VERTEX
  8
LAYER_2
 10
156.9578
 20
36.9066
  0
VERTEX
  8
LAYER_2
 10
156.7708
 20
36.9066
  0
SEQEND
  0
ENDBLK
  0
BLOCK
  8
LAYER_2
  2
AIGNBL02030018
 70
64
 10
0
 20
0
 30
0
  3
AIGNBL02030018
  0
POLYLINE
  8
LAYER_2
 40
0.05
 41
0.05
 66
1
 10
0
 20
0
 30
0
 70
1
  0
VERTEX
  8
LAYER_2
 10
158.7627
 20
36.4805
 42
-0.1007216321
  0
VERTEX
  8
LAYER_2
 10
158.7221
 20
36.2631
 42
-0.1006914115
  0
VERTEX
  8
LAYER_2
 10
158.6087
 20
36.0915
 42
-0.09598545762
  0
VERTEX
  8
LAYER_2
 10
158.4382
 20
35.9785
 42
-0.09506675375
  0
VERTEX
  8
LAYER_2
 10
158.2243
 20
35.9375
 42
-0.1012083438
  0
VERTEX
  8
LAYER_2
 10
158.0103
 20
35.9785
 42
-0.1000476754
  0
VERTEX
  8
LAYER_2
 10
157.8398
 20
36.0915
 42
-0.09637642458
  0
VERTEX
  8
LAYER_2
 10
157.7268
 20
36.2631
 42
-0.09293305267
  0
VERTEX
  8
LAYER_2
 10
157.6862
 20
36.4805
 42
-0.1024980643
  0
VERTEX
  8
LAYER_2
 10
157.7268
 20
36.6978
 42
-0.101511181
  0
VERTEX
  8
LAYER_2
 10
157.8398
 20
36.8694
 42
-0.09563682649
  0
VERTEX
  8
LAYER_2
 10
158.0103
 20
36.9824
 42
-0.09502028874
  0
VERTEX
  8
LAYER_2
 10
158.2243
 20
37.0234
 42
-0.101175466
  0
VERTEX
  8
LAYER_2
 10
158.4382
 20
36.9824
 42
-0.1020868526
  0
VERTEX
  8
LAYER_2
 10
158.6087
 20
36.8694
 42
-0.09463764759
  0
VERTEX
  8
LAYER_2
 10
158.7221
 20
36.6978
 42
-0.09279149058
  0
SEQEND
  0
POLYLINE
  8
LAYER_2
 40
0.05
 41
0.05
 66
1
 10
0
 20
0
 30
0
 70
1
  0
VERTEX
  8
LAYER_2
 10
158.6518
 20
36.4798
  0
VERTEX
  8
LAYER_2
 10
158.6225
 20
36.6517
  0
VERTEX
  8
LAYER_2
 10
158.5378
 20
36.795
  0
VERTEX
  8
LAYER_2
 10
158.4031
 20
36.8932
  0
VERTEX
  8
LAYER_2
 10
158.2243
 20
36.93
  0
VERTEX
  8
LAYER_2
 10
158.0455
 20
36.8932
  0
VERTEX
  8
LAYER_2
 10
157.9104
 20
36.795
  0
VERTEX
  8
LAYER_2
 10
157.8257
 20
36.6517
  0
VERTEX
  8
LAYER_2
 10
157.7968
 20
36.4798
  0
VERTEX
  8
LAYER_2
 10
157.8257
 20
36.3079
  0
VERTEX
  8
LAYER_2
 10
157.9104
 20
36.1649
  0
VERTEX
  8
LAYER_2
 10
158.0455
 20
36.0674
 42
0.1008280473
  0
VERTEX
  8
LAYER_2
 10
158.2243
 20
36.0309
  0
VERTEX
  8
LAYER_2
 10
158.4031
 20
36.0674
  0
VERTEX
  8
LAYER_2
 10
158.5378
 20
36.1649
  0
VERTEX
  8
LAYER_2
 10
158.6225
 20
36.3079
  0
SEQEND
  0
ENDBLK
  0
BLOCK
  8
LAYER_2
  2
AIGNBL02030019
 70
64
 10
0
 20
0
 30
0
  3
AIGNBL02030019
  0
POLYLINE
  8
LAYER_2
 40
0.05
 41
0.05
 66
1
 10
0
 20
0
 30
0
 70
1
  0
VERTEX
  8
LAYER_2
 10
160.2045
 20
36.4805
 42
-0.1041417444
  0
VERTEX
  8
LAYER_2
 10
160.1635
 20
36.2631
 42
-0.09974098701
  0
VERTEX
  8
LAYER_2
 10
160.0509
 20
36.0915
 42
-0.09536265516
  0
VERTEX
  8
LAYER_2
 10
159.88
 20
35.9785
 42
-0.09506675375
  0
VERTEX
  8
LAYER_2
 10
159.6661
 20
35.9375
 42
-0.1018653774
  0
VERTEX
  8
LAYER_2
 10
159.4524
 20
35.9785
 42
-0.1019766254
  0
VERTEX
  8
LAYER_2
 10
159.2816
 20
36.0915
 42
-0.09463339148
  0
VERTEX
  8
LAYER_2
 10
159.1682
 20
36.2631
 42
-0.09293305267
  0
VERTEX
  8
LAYER_2
 10
159.1276
 20
36.4805
 42
-0.1024980643
  0
VERTEX
  8
LAYER_2
 10
159.1682
 20
36.6978
 42
-0.1011981835
  0
VERTEX
  8
LAYER_2
 10
159.2816
 20
36.8694
 42
-0.09612009159
  0
VERTEX
  8
LAYER_2
 10
159.4524
 20
36.9824
 42
-0.09524800311
  0
VERTEX
  8
LAYER_2
 10
159.6661
 20
37.0234
 42
-0.101175466
  0
VERTEX
  8
LAYER_2
 10
159.88
 20
36.9824
 42
-0.09853409661
  0
VERTEX
  8
LAYER_2
 10
160.0509
 20
36.8694
 42
-0.09555545285
  0
VERTEX
  8
LAYER_2
 10
160.1635
 20
36.6978
 42
-0.09400765476
  0
SEQEND
  0
POLYLINE
  8
LAYER_2
 40
0.05
 41
0.05
 66
1
 10
0
 20
0
 30
0
 70
1
  0
VERTEX
  8
LAYER_2
 10
160.0936
 20
36.4798
  0
VERTEX
  8
LAYER_2
 10
160.0647
 20
36.6517
  0
VERTEX
  8
LAYER_2
 10
159.9799
 20
36.795
  0
VERTEX
  8
LAYER_2
 10
159.8448
 20
36.8932
  0
VERTEX
  8
LAYER_2
 10
159.6661
 20
36.93
  0
VERTEX
  8
LAYER_2
 10
159.4872
 20
36.8932
  0
VERTEX
  8
LAYER_2
 10
159.3525
 20
36.795
  0
VERTEX
  8
LAYER_2
 10
159.2678
 20
36.6517
  0
VERTEX
  8
LAYER_2
 10
159.2385
 20
36.4798
  0
VERTEX
  8
LAYER_2
 10
159.2678
 20
36.3079
  0
VERTEX
  8
LAYER_2
 10
159.3525
 20
36.1649
  0
VERTEX
  8
LAYER_2
 10
159.4872
 20
36.0674
  0
VERTEX
  8
LAYER_2
 10
159.6661
 20
36.0309
  0
VERTEX
  8
LAYER_2
 10
159.8448
 20
36.0674
  0
VERTEX
  8
LAYER_2
 10
159.9799
 20
36.1649
  0
VERTEX
  8
LAYER_2
 10
160.0647
 20
36.3079
  0
SEQEND
  0
ENDBLK
  0
BLOCK
  8
LAYER_2
  2
AIGNBL0203001A
 70
64
 10
0
 20
0
 30
0
  3
AIGNBL0203001A
  0
POLYLINE
  8
LAYER_2
 40
0.05
 41
0.05
 66
1
 10
0
 20
0
 30
0
 70
1
  0
VERTEX
  8
LAYER_2
 10
161.1354
 20
36.1418
  0
VERTEX
  8
LAYER_2
 10
161.1371
 20
36.1418
  0
VERTEX
  8
LAYER_2
 10
161.4826
 20
36.9969
  0
VERTEX
  8
LAYER_2
 10
161.6435
 20
36.9969
  0
VERTEX
  8
LAYER_2
 10
161.6435
 20
35.9637
  0
VERTEX
  8
LAYER_2
 10
161.5381
 20
35.9637
  0
VERTEX
  8
LAYER_2
 10
161.5381
 20
36.8611
  0
VERTEX
  8
LAYER_2
 10
161.5354
 20
36.8611
  0
VERTEX
  8
LAYER_2
 10
161.1619
 20
35.9637
  0
VERTEX
  8
LAYER_2
 10
161.1064
 20
35.9637
  0
VERTEX
  8
LAYER_2
 10
160.7326
 20
36.8611
  0
VERTEX
  8
LAYER_2
 10
160.7299
 20
36.8611
  0
VERTEX
  8
LAYER_2
 10
160.7299
 20
35.9637
  0
VERTEX
  8
LAYER_2
 10
160.6248
 20
35.9637
  0
VERTEX
  8
LAYER_2
 10
160.6248
 20
36.9969
  0
VERTEX
  8
LAYER_2
 10
160.7853
 20
36.9969
  0
SEQEND
  0
ENDBLK
  0
BLOCK
  8
LAYER_2
  2
AIGNBL0203001B
 70
64
 10
0
 20
0
 30
0
  3
AIGNBL0203001B
  0
POLYLINE
  8
LAYER_2
 40
0.05
 41
0.05
 66
1
 10
0
 20
0
 30
0
 70
1
  0
VERTEX
  8
LAYER_2
 10
162.79
 20
36.0574
  0
VERTEX
  8
LAYER_2
 10
163.3433
 20
36.0574
  0
VERTEX
  8
LAYER_2
 10
163.3433
 20
35.9637
  0
VERTEX
  8
LAYER_2
 10
162.685
 20
35.9637
  0
VERTEX
  8
LAYER_2
 10
162.685
 20
36.9969
  0
VERTEX
  8
LAYER_2
 10
163.3258
 20
36.9969
  0
VERTEX
  8
LAYER_2
 10
163.3258
 20
36.9035
  0
VERTEX
  8
LAYER_2
 10
162.79
 20
36.9035
  0
VERTEX
  8
LAYER_2
 10
162.79
 20
36.549
  0
VERTEX
  8
LAYER_2
 10
163.2906
 20
36.549
  0
VERTEX
  8
LAYER_2
 10
163.2906
 20
36.4557
  0
VERTEX
  8
LAYER_2
 10
162.79
 20
36.4557
  0
SEQEND
  0
ENDBLK
  0
BLOCK
  8
LAYER_2
  2
AIGNBL0203001C
 70
64
 10
0
 20
0
 30
0
  3
AIGNBL0203001C
  0
POLYLINE
  8
LAYER_2
 40
0.05
 41
0.05
 66
1
 10
0
 20
0
 30
0
 70
1
  0
VERTEX
  8
LAYER_2
 10
164.0885
 20
36.5797
  0
VERTEX
  8
LAYER_2
 10
164.3707
 20
36.9969
  0
VERTEX
  8
LAYER_2
 10
164.4957
 20
36.9969
  0
VERTEX
  8
LAYER_2
 10
164.1533
 20
36.5053
  0
VERTEX
  8
LAYER_2
 10
164.5326
 20
35.9637
  0
VERTEX
  8
LAYER_2
 10
164.4013
 20
35.9637
  0
VERTEX
  8
LAYER_2
 10
164.0858
 20
36.4295
  0
VERTEX
  8
LAYER_2
 10
163.7722
 20
35.9637
  0
VERTEX
  8
LAYER_2
 10
163.6407
 20
35.9637
  0
VERTEX
  8
LAYER_2
 10
164.0203
 20
36.5066
  0
VERTEX
  8
LAYER_2
 10
163.6744
 20
36.9969
  0
VERTEX
  8
LAYER_2
 10
163.806
 20
36.9969
  0
SEQEND
  0
ENDBLK
  0
BLOCK
  8
LAYER_2
  2
AIGNBL0203001D
 70
64
 10
0
 20
0
 30
0
  3
AIGNBL0203001D
  0
POLYLINE
  8
LAYER_2
 40
0.05
 41
0.05
 66
1
 10
0
 20
0
 30
0
 70
1
  0
VERTEX
  8
LAYER_2
 10
164.8988
 20
36.9969
  0
VERTEX
  8
LAYER_2
 10
165.1909
 20
36.9969
  0
VERTEX
  8
LAYER_2
 10
165.3339
 20
36.9804
  0
VERTEX
  8
LAYER_2
 10
165.4438
 20
36.929
  0
VERTEX
  8
LAYER_2
 10
165.5148
 20
36.8429
  0
VERTEX
  8
LAYER_2
 10
165.5392
 20
36.7213
  0
VERTEX
  8
LAYER_2
 10
165.5141
 20
36.5993
  0
VERTEX
  8
LAYER_2
 10
165.4424
 20
36.5132
  0
VERTEX
  8
LAYER_2
 10
165.3315
 20
36.4615
  0
VERTEX
  8
LAYER_2
 10
165.1878
 20
36.444
  0
VERTEX
  8
LAYER_2
 10
165.0039
 20
36.444
  0
VERTEX
  8
LAYER_2
 10
165.0039
 20
35.9637
  0
VERTEX
  8
LAYER_2
 10
164.8988
 20
35.9637
  0
SEQEND
  0
POLYLINE
  8
LAYER_2
 40
0.05
 41
0.05
 66
1
 10
0
 20
0
 30
0
 70
1
  0
VERTEX
  8
LAYER_2
 10
165.0039
 20
36.5328
  0
VERTEX
  8
LAYER_2
 10
165.1816
 20
36.5328
 42
0.1829732243
  0
VERTEX
  8
LAYER_2
 10
165.3701
 20
36.581
 42
0.2345943979
  0
VERTEX
  8
LAYER_2
 10
165.4345
 20
36.7213
 42
0.26486771
  0
VERTEX
  8
LAYER_2
 10
165.368
 20
36.8622
 42
0.126412566
  0
VERTEX
  8
LAYER_2
 10
165.1816
 20
36.9066
  0
VERTEX
  8
LAYER_2
 10
165.0039
 20
36.9066
  0
SEQEND
  0
ENDBLK
  0
BLOCK
  8
LAYER_2
  2
AIGNBL0203001E
 70
64
 10
0
 20
0
 30
0
  3
AIGNBL0203001E
  0
POLYLINE
  8
LAYER_2
 40
0.05
 41
0.05
 66
1
 10
0
 20
0
 30
0
 70
1
  0
VERTEX
  8
LAYER_2
 10
166.0515
 20
36.0574
  0
VERTEX
  8
LAYER_2
 10
166.6048
 20
36.0574
  0
VERTEX
  8
LAYER_2
 10
166.6048
 20
35.9637
  0
VERTEX
  8
LAYER_2
 10
165.9465
 20
35.9637
  0
VERTEX
  8
LAYER_2
 10
165.9465
 20
36.9969
  0
VERTEX
  8
LAYER_2
 10
166.5872
 20
36.9969
  0
VERTEX
  8
LAYER_2
 10
166.5872
 20
36.9035
  0
VERTEX
  8
LAYER_2
 10
166.0515
 20
36.9035
  0
VERTEX
  8
LAYER_2
 10
166.0515
 20
36.549
  0
VERTEX
  8
LAYER_2
 10
166.5521
 20
36.549
  0
VERTEX
  8
LAYER_2
 10
166.5521
 20
36.4557
  0
VERTEX
  8
LAYER_2
 10
166.0515
 20
36.4557
  0
SEQEND
  0
ENDBLK
  0
BLOCK
  8
LAYER_2
  2
AIGNBL0203001F
 70
64
 10
0
 20
0
 30
0
  3
AIGNBL0203001F
  0
POLYLINE
  8
LAYER_2
 40
0.05
 41
0.05
 66
1
 10
0
 20
0
 30
0
 70
1
  0
VERTEX
  8
LAYER_2
 10
167.1168
 20
35.9637
  0
VERTEX
  8
LAYER_2
 10
167.0117
 20
35.9637
  0
VERTEX
  8
LAYER_2
 10
167.0117
 20
36.9969
  0
VERTEX
  8
LAYER_2
 10
167.3155
 20
36.9969
  0
VERTEX
  8
LAYER_2
 10
167.4561
 20
36.9824
  0
VERTEX
  8
LAYER_2
 10
167.5687
 20
36.9349
  0
VERTEX
  8
LAYER_2
 10
167.6425
 20
36.8494
  0
VERTEX
  8
LAYER_2
 10
167.6683
 20
36.7213
  0
VERTEX
  8
LAYER_2
 10
167.6483
 20
36.6176
  0
VERTEX
  8
LAYER_2
 10
167.5929
 20
36.5366
  0
VERTEX
  8
LAYER_2
 10
167.5095
 20
36.4818
  0
VERTEX
  8
LAYER_2
 10
167.4044
 20
36.4557
  0
VERTEX
  8
LAYER_2
 10
167.7066
 20
35.9637
  0
VERTEX
  8
LAYER_2
 10
167.578
 20
35.9637
  0
VERTEX
  8
LAYER_2
 10
167.2921
 20
36.4467
  0
VERTEX
  8
LAYER_2
 10
167.1168
 20
36.4467
  0
SEQEND
  0
POLYLINE
  8
LAYER_2
 40
0.05
 41
0.05
 66
1
 10
0
 20
0
 30
0
 70
1
  0
VERTEX
  8
LAYER_2
 10
167.1168
 20
36.5373
  0
VERTEX
  8
LAYER_2
 10
167.2994
 20
36.5373
 42
0.1667243505
  0
VERTEX
  8
LAYER_2
 10
167.495
 20
36.5831
 42
0.2503949893
  0
VERTEX
  8
LAYER_2
 10
167.5636
 20
36.7213
  0
VERTEX
  8
LAYER_2
 10
167.5446
 20
36.8071
  0
VERTEX
  8
LAYER_2
 10
167.4919
 20
36.8643
  0
VERTEX
  8
LAYER_2
 10
167.4103
 20
36.8963
  0
VERTEX
  8
LAYER_2
 10
167.3038
 20
36.9066
  0
VERTEX
  8
LAYER_2
 10
167.1168
 20
36.9066
  0
SEQEND
  0
ENDBLK
  0
BLOCK
  8
LAYER_2
  2
AIGNBL02030020
 70
64
 10
0
 20
0
 30
0
  3
AIGNBL02030020
  0
POLYLINE
  8
LAYER_2
 40
0.05
 41
0.05
 66
1
 10
0
 20
0
 30
0
 70
1
  0
VERTEX
  8
LAYER_2
 10
168.1923
 20
35.9637
  0
VERTEX
  8
LAYER_2
 10
168.0876
 20
35.9637
  0
VERTEX
  8
LAYER_2
 10
168.0876
 20
36.9969
  0
VERTEX
  8
LAYER_2
 10
168.1923
 20
36.9969
  0
SEQEND
  0
ENDBLK
  0
BLOCK
  8
LAYER_2
  2
AIGNBL02030021
 70
64
 10
0
 20
0
 30
0
  3
AIGNBL02030021
  0
POLYLINE
  8
LAYER_2
 40
0.05
 41
0.05
 66
1
 10
0
 20
0
 30
0
 70
1
  0
VERTEX
  8
LAYER_2
 10
168.7732
 20
36.0574
  0
VERTEX
  8
LAYER_2
 10
169.3261
 20
36.0574
  0
VERTEX
  8
LAYER_2
 10
169.3261
 20
35.9637
  0
VERTEX
  8
LAYER_2
 10
168.6681
 20
35.9637
  0
VERTEX
  8
LAYER_2
 10
168.6681
 20
36.9969
  0
VERTEX
  8
LAYER_2
 10
169.3089
 20
36.9969
  0
VERTEX
  8
LAYER_2
 10
169.3089
 20
36.9035
  0
VERTEX
  8
LAYER_2
 10
168.7732
 20
36.9035
  0
VERTEX
  8
LAYER_2
 10
168.7732
 20
36.549
  0
VERTEX
  8
LAYER_2
 10
169.2737
 20
36.549
  0
VERTEX
  8
LAYER_2
 10
169.2737
 20
36.4557
  0
VERTEX
  8
LAYER_2
 10
168.7732
 20
36.4557
  0
SEQEND
  0
ENDBLK
  0
BLOCK
  8
LAYER_2
  2
AIGNBL02030022
 70
64
 10
0
 20
0
 30
0
  3
AIGNBL02030022
  0
POLYLINE
  8
LAYER_2
 40
0.05
 41
0.05
 66
1
 10
0
 20
0
 30
0
 70
1
  0
VERTEX
  8
LAYER_2
 10
170.4661
 20
36.117
  0
VERTEX
  8
LAYER_2
 10
170.4689
 20
36.117
  0
VERTEX
  8
LAYER_2
 10
170.4689
 20
36.9969
  0
VERTEX
  8
LAYER_2
 10
170.5739
 20
36.9969
  0
VERTEX
  8
LAYER_2
 10
170.5739
 20
35.9637
  0
VERTEX
  8
LAYER_2
 10
170.4426
 20
35.9637
  0
VERTEX
  8
LAYER_2
 10
169.8415
 20
36.8525
  0
VERTEX
  8
LAYER_2
 10
169.8384
 20
36.8525
  0
VERTEX
  8
LAYER_2
 10
169.8384
 20
35.9637
  0
VERTEX
  8
LAYER_2
 10
169.7333
 20
35.9637
  0
VERTEX
  8
LAYER_2
 10
169.7333
 20
36.9969
  0
VERTEX
  8
LAYER_2
 10
169.8649
 20
36.9969
  0
SEQEND
  0
ENDBLK
  0
BLOCK
  8
LAYER_2
  2
AIGNBL02030023
 70
64
 10
0
 20
0
 30
0
  3
AIGNBL02030023
  0
POLYLINE
  8
LAYER_2
 40
0.05
 41
0.05
 66
1
 10
0
 20
0
 30
0
 70
1
  0
VERTEX
  8
LAYER_2
 10
171.9196
 20
36.1315
  0
VERTEX
  8
LAYER_2
 10
171.8558
 20
36.0571
  0
VERTEX
  8
LAYER_2
 10
171.7697
 20
35.9954
  0
VERTEX
  8
LAYER_2
 10
171.6615
 20
35.953
  0
VERTEX
  8
LAYER_2
 10
171.5327
 20
35.9375
 42
-0.1011939289
  0
VERTEX
  8
LAYER_2
 10
171.3167
 20
35.9785
 42
-0.1032846426
  0
VERTEX
  8
LAYER_2
 10
171.1461
 20
36.0915
 42
-0.0974858305
  0
VERTEX
  8
LAYER_2
 10
171.0345
 20
36.2631
 42
-0.09232404316
  0
VERTEX
  8
LAYER_2
 10
170.9942
 20
36.4805
 42
-0.1041003847
  0
VERTEX
  8
LAYER_2
 10
171.0352
 20
36.6978
 42
-0.1005616574
  0
VERTEX
  8
LAYER_2
 10
171.1479
 20
36.8694
 42
-0.09522588778
  0
VERTEX
  8
LAYER_2
 10
171.3187
 20
36.9824
 42
-0.09501991035
  0
VERTEX
  8
LAYER_2
 10
171.5327
 20
37.0234
  0
VERTEX
  8
LAYER_2
 10
171.6443
 20
37.0114
  0
VERTEX
  8
LAYER_2
 10
171.7473
 20
36.9779
  0
VERTEX
  8
LAYER_2
 10
171.8348
 20
36.9263
  0
VERTEX
  8
LAYER_2
 10
171.9006
 20
36.8584
  0
VERTEX
  8
LAYER_2
 10
171.8131
 20
36.794
  0
VERTEX
  8
LAYER_2
 10
171.7697
 20
36.8439
  0
VERTEX
  8
LAYER_2
 10
171.7063
 20
36.8877
  0
VERTEX
  8
LAYER_2
 10
171.6267
 20
36.9183
  0
VERTEX
  8
LAYER_2
 10
171.5341
 20
36.93
  0
VERTEX
  8
LAYER_2
 10
171.3539
 20
36.8935
  0
VERTEX
  8
LAYER_2
 10
171.2188
 20
36.7954
  0
VERTEX
  8
LAYER_2
 10
171.1341
 20
36.652
  0
VERTEX
  8
LAYER_2
 10
171.1052
 20
36.4805
  0
VERTEX
  8
LAYER_2
 10
171.1351
 20
36.3089
  0
VERTEX
  8
LAYER_2
 10
171.2205
 20
36.1656
  0
VERTEX
  8
LAYER_2
 10
171.3556
 20
36.0674
 42
0.100995487
  0
VERTEX
  8
LAYER_2
 10
171.5341
 20
36.0309
  0
VERTEX
  8
LAYER_2
 10
171.7032
 20
36.0674
 42
0.1321059012
  0
VERTEX
  8
LAYER_2
 10
171.8376
 20
36.1842
  0
SEQEND
  0
ENDBLK
  0
BLOCK
  8
LAYER_2
  2
AIGNBL02030024
 70
64
 10
0
 20
0
 30
0
  3
AIGNBL02030024
  0
POLYLINE
  8
LAYER_2
 40
0.05
 41
0.05
 66
1
 10
0
 20
0
 30
0
 70
1
  0
VERTEX
  8
LAYER_2
 10
172.4067
 20
36.0574
  0
VERTEX
  8
LAYER_2
 10
172.96
 20
36.0574
  0
VERTEX
  8
LAYER_2
 10
172.96
 20
35.9637
  0
VERTEX
  8
LAYER_2
 10
172.3016
 20
35.9637
  0
VERTEX
  8
LAYER_2
 10
172.3016
 20
36.9969
  0
VERTEX
  8
LAYER_2
 10
172.9424
 20
36.9969
  0
VERTEX
  8
LAYER_2
 10
172.9424
 20
36.9035
  0
VERTEX
  8
LAYER_2
 10
172.4067
 20
36.9035
  0
VERTEX
  8
LAYER_2
 10
172.4067
 20
36.549
  0
VERTEX
  8
LAYER_2
 10
172.9073
 20
36.549
  0
VERTEX
  8
LAYER_2
 10
172.9073
 20
36.4557
  0
VERTEX
  8
LAYER_2
 10
172.4067
 20
36.4557
  0
SEQEND
  0
ENDBLK
  0
BLOCK
  8
LAYER_2
  2
AIGNBL02020004
 70
64
 10
0
 20
0
 30
0
  3
AIGNBL02020004
  0
INSERT
  8
LAYER_2
  2
AIGNBL02030005
 10
0
 20
0
 30
0
  0
ENDBLK
  0
BLOCK
  8
LAYER_2
  2
AIGNBL0202000D
 70
64
 10
0
 20
0
 30
0
  3
AIGNBL0202000D
  0
INSERT
  8
LAYER_2
  2
AIGNBL0203000E
 10
0
 20
0
 30
0
  0
INSERT
  8
LAYER_2
  2
AIGNBL0203000F
 10
0
 20
0
 30
0
  0
INSERT
  8
LAYER_2
  2
AIGNBL02030010
 10
0
 20
0
 30
0
  0
INSERT
  8
LAYER_2
  2
AIGNBL02030011
 10
0
 20
0
 30
0
  0
INSERT
  8
LAYER_2
  2
AIGNBL02030012
 10
0
 20
0
 30
0
  0
INSERT
  8
LAYER_2
  2
AIGNBL02030013
 10
0
 20
0
 30
0
  0
INSERT
  8
LAYER_2
  2
AIGNBL02030014
 10
0
 20
0
 30
0
  0
INSERT
  8
LAYER_2
  2
AIGNBL02030015
 10
0
 20
0
 30
0
  0
INSERT
  8
LAYER_2
  2
AIGNBL02030016
 10
0
 20
0
 30
0
  0
INSERT
  8
LAYER_2
  2
AIGNBL02030017
 10
0
 20
0
 30
0
  0
INSERT
  8
LAYER_2
  2
AIGNBL02030018
 10
0
 20
0
 30
0
  0
INSERT
  8
LAYER_2
  2
AIGNBL02030019
 10
0
 20
0
 30
0
  0
INSERT
  8
LAYER_2
  2
AIGNBL0203001A
 10
0
 20
0
 30
0
  0
INSERT
  8
LAYER_2
  2
AIGNBL0203001B
 10
0
 20
0
 30
0
  0
INSERT
  8
LAYER_2
  2
AIGNBL0203001C
 10
0
 20
0
 30
0
  0
INSERT
  8
LAYER_2
  2
AIGNBL0203001D
 10
0
 20
0
 30
0
  0
INSERT
  8
LAYER_2
  2
AIGNBL0203001E
 10
0
 20
0
 30
0
  0
INSERT
  8
LAYER_2
  2
AIGNBL0203001F
 10
0
 20
0
 30
0
  0
INSERT
  8
LAYER_2
  2
AIGNBL02030020
 10
0
 20
0
 30
0
  0
INSERT
  8
LAYER_2
  2
AIGNBL02030021
 10
0
 20
0
 30
0
  0
INSERT
  8
LAYER_2
  2
AIGNBL02030022
 10
0
 20
0
 30
0
  0
INSERT
  8
LAYER_2
  2
AIGNBL02030023
 10
0
 20
0
 30
0
  0
INSERT
  8
LAYER_2
  2
AIGNBL02030024
 10
0
 20
0
 30
0
  0
ENDBLK
  0
BLOCK
  8
LAYER_2
  2
AIGNBL02010002
 70
64
 10
0
 20
0
 30
0
  3
AIGNBL02010002
  0
POLYLINE
  8
LAYER_2
 40
0.7056
 41
0.7056
 66
1
 10
0
 20
0
 30
0
 70
1
  0
VERTEX
  8
LAYER_2
 10
251.6749
 20
230.337
  0
VERTEX
  8
LAYER_2
 10
251.6749
 20
33.3285
  0
VERTEX
  8
LAYER_2
 10
-30.3177
 20
33.3285
  0
VERTEX
  8
LAYER_2
 10
-30.3177
 20
230.337
  0
SEQEND
  0
ENDBLK
  0
BLOCK
  8
LAYER_2
  2
AIGNBL02010003
 70
64
 10
0
 20
0
 30
0
  3
AIGNBL02010003
  0
INSERT
  8
LAYER_2
  2
AIGNBL02020004
 10
0
 20
0
 30
0
  0
INSERT
  8
LAYER_2
  2
AIGNBL0202000D
 10
0
 20
0
 30
0
  0
ENDBLK
  0
ENDSEC
  0
SECTION
  2
ENTITIES
  0
TEXT
  8
LAYER_1
 10
19.7754
 20
69.5221
 11
19.7754
 21
69.5221
 40
5.3706
 41
0.5
  1
上記の + 表記はビス固定位置を示す。キャビネットの連結はダボ穴以外の位置で4点固定をしてください。
  0
TEXT
  8
LAYER_1
 10
20.8837
 20
202.9334
 11
20.8837
 21
202.9334
 40
4.5514
 41
0.5
  1
鏡＋アルミ＋パーチクルボード
  0
TEXT
  8
LAYER_1
 10
20.1956
 20
196.9334
 11
20.1956
 21
196.9334
 40
4.5514
 41
0.5
  1
Ｆ☆☆☆☆対応
  0
TEXT
  8
LAYER_1
 10
20.8837
 20
190.9334
 11
20.8837
 21
190.9334
 40
5.3706
 41
0.5
  1
耐荷重 
  0
TEXT
  8
LAYER_1
 10
20.7795
 20
184.9335
 11
20.7795
 21
184.9335
 40
5.3706
 41
0.5
  1
ボックス本体：10kg
  0
TEXT
  8
LAYER_1
 10
20.8837
 20
178.9333
 11
20.8837
 21
178.9333
 40
5.3706
 41
0.5
  1
棚（1枚につき）：3kg　
  0
POLYLINE
  8
LAYER_1
 40
0.1058
 41
0.1058
 66
1
 10
0
 20
0
 30
0
  0
VERTEX
  8
LAYER_1
 10
130.4362
 20
90.2389
  0
VERTEX
  8
LAYER_1
 10
130.4362
 20
148.2749
  0
SEQEND
  0
POLYLINE
  8
LAYER_1
 40
0.1058
 41
0.1058
 66
1
 10
0
 20
0
 30
0
  0
VERTEX
  8
LAYER_1
 10
159.4582
 20
90.2389
  0
VERTEX
  8
LAYER_1
 10
159.4582
 20
148.2749
  0
SEQEND
  0
POLYLINE
  8
LAYER_1
 40
0.1058
 41
0.1058
 66
1
 10
0
 20
0
 30
0
  0
VERTEX
  8
LAYER_1
 10
130.633
 20
87.922
  0
VERTEX
  8
LAYER_1
 10
130.6822
 20
87.922
  0
SEQEND
  0
POLYLINE
  8
LAYER_1
 40
0.1058
 41
0.1058
 66
1
 10
0
 20
0
 30
0
  0
VERTEX
  8
LAYER_1
 10
159.2128
 20
87.922
  0
VERTEX
  8
LAYER_1
 10
159.262
 20
87.922
  0
SEQEND
  0
POLYLINE
  8
LAYER_1
 40
0.1058
 41
0.1058
 66
1
 10
0
 20
0
 30
0
  0
VERTEX
  8
LAYER_1
 10
130.633
 20
150.5999
  0
VERTEX
  8
LAYER_1
 10
130.6822
 20
150.5999
  0
SEQEND
  0
POLYLINE
  8
LAYER_1
 40
0.1058
 41
0.1058
 66
1
 10
0
 20
0
 30
0
  0
VERTEX
  8
LAYER_1
 10
159.2128
 20
150.5999
  0
VERTEX
  8
LAYER_1
 10
159.262
 20
150.5999
  0
SEQEND
  0
POLYLINE
  8
LAYER_1
 40
0.1058
 41
0.1058
 66
1
 10
0
 20
0
 30
0
  0
VERTEX
  8
LAYER_1
 10
130.6821
 20
150.6981
  0
VERTEX
  8
LAYER_1
 10
159.2131
 20
150.6981
  0
SEQEND
  0
POLYLINE
  8
LAYER_1
 40
0.1058
 41
0.1058
 66
1
 10
0
 20
0
 30
0
  0
VERTEX
  8
LAYER_1
 10
130.6821
 20
87.8239
  0
VERTEX
  8
LAYER_1
 10
159.2131
 20
87.8239
  0
SEQEND
  0
POLYLINE
  8
LAYER_1
 40
0.1058
 41
0.1058
 66
1
 10
0
 20
0
 30
0
  0
VERTEX
  8
LAYER_1
 10
159.2128
 20
150.6981
  0
VERTEX
  8
LAYER_1
 10
159.2128
 20
150.3055
  0
SEQEND
  0
POLYLINE
  8
LAYER_1
 40
0.1058
 41
0.1058
 66
1
 10
0
 20
0
 30
0
  0
VERTEX
  8
LAYER_1
 10
130.6821
 20
150.6981
  0
VERTEX
  8
LAYER_1
 10
130.6821
 20
150.3055
  0
SEQEND
  0
POLYLINE
  8
LAYER_1
 40
0.1058
 41
0.1058
 66
1
 10
0
 20
0
 30
0
  0
VERTEX
  8
LAYER_1
 10
130.7802
 20
150.2068
  0
VERTEX
  8
LAYER_1
 10
159.1149
 20
150.2068
  0
VERTEX
  8
LAYER_1
 10
159.1641
 20
150.2237
  0
VERTEX
  8
LAYER_1
 10
159.2046
 20
150.2561
  0
VERTEX
  8
LAYER_1
 10
159.2127
 20
150.3053
  0
SEQEND
  0
POLYLINE
  8
LAYER_1
 40
0.1058
 41
0.1058
 66
1
 10
0
 20
0
 30
0
  0
VERTEX
  8
LAYER_1
 10
130.6821
 20
150.3052
  0
VERTEX
  8
LAYER_1
 10
130.6902
 20
150.256
  0
VERTEX
  8
LAYER_1
 10
130.7313
 20
150.2236
  0
VERTEX
  8
LAYER_1
 10
130.7799
 20
150.2068
  0
SEQEND
  0
POLYLINE
  8
LAYER_1
 40
0.1058
 41
0.1058
 66
1
 10
0
 20
0
 30
0
  0
VERTEX
  8
LAYER_1
 10
130.633
 20
87.922
  0
VERTEX
  8
LAYER_1
 10
133.2522
 20
87.922
  0
SEQEND
  0
POLYLINE
  8
LAYER_1
 40
0.1058
 41
0.1058
 66
1
 10
0
 20
0
 30
0
  0
VERTEX
  8
LAYER_1
 10
134.4804
 20
87.922
  0
VERTEX
  8
LAYER_1
 10
136.9364
 20
87.922
  0
SEQEND
  0
POLYLINE
  8
LAYER_1
 40
0.1058
 41
0.1058
 66
1
 10
0
 20
0
 30
0
  0
VERTEX
  8
LAYER_1
 10
138.1647
 20
87.922
  0
VERTEX
  8
LAYER_1
 10
140.62
 20
87.922
  0
SEQEND
  0
POLYLINE
  8
LAYER_1
 40
0.1058
 41
0.1058
 66
1
 10
0
 20
0
 30
0
  0
VERTEX
  8
LAYER_1
 10
141.8485
 20
87.922
  0
VERTEX
  8
LAYER_1
 10
144.3132
 20
87.922
  0
SEQEND
  0
POLYLINE
  8
LAYER_1
 40
0.1058
 41
0.1058
 66
1
 10
0
 20
0
 30
0
  0
VERTEX
  8
LAYER_1
 10
145.5409
 20
87.922
  0
VERTEX
  8
LAYER_1
 10
147.9963
 20
87.922
  0
SEQEND
  0
POLYLINE
  8
LAYER_1
 40
0.1058
 41
0.1058
 66
1
 10
0
 20
0
 30
0
  0
VERTEX
  8
LAYER_1
 10
149.2247
 20
87.922
  0
VERTEX
  8
LAYER_1
 10
151.6807
 20
87.922
  0
SEQEND
  0
POLYLINE
  8
LAYER_1
 40
0.1058
 41
0.1058
 66
1
 10
0
 20
0
 30
0
  0
VERTEX
  8
LAYER_1
 10
152.909
 20
87.922
  0
VERTEX
  8
LAYER_1
 10
155.3644
 20
87.922
  0
SEQEND
  0
POLYLINE
  8
LAYER_1
 40
0.1058
 41
0.1058
 66
1
 10
0
 20
0
 30
0
  0
VERTEX
  8
LAYER_1
 10
156.5928
 20
87.922
  0
VERTEX
  8
LAYER_1
 10
159.2127
 20
87.922
  0
SEQEND
  0
POLYLINE
  8
LAYER_1
 40
0.1058
 41
0.1058
 66
1
 10
0
 20
0
 30
0
  0
VERTEX
  8
LAYER_1
 10
159.2128
 20
87.8239
  0
VERTEX
  8
LAYER_1
 10
159.2128
 20
88.2084
  0
SEQEND
  0
POLYLINE
  8
LAYER_1
 40
0.1058
 41
0.1058
 66
1
 10
0
 20
0
 30
0
  0
VERTEX
  8
LAYER_1
 10
130.6821
 20
87.8239
  0
VERTEX
  8
LAYER_1
 10
130.6821
 20
88.2084
  0
SEQEND
  0
POLYLINE
  8
LAYER_1
 40
0.1058
 41
0.1058
 66
1
 10
0
 20
0
 30
0
  0
VERTEX
  8
LAYER_1
 10
130.7802
 20
88.307
  0
VERTEX
  8
LAYER_1
 10
159.1149
 20
88.307
  0
SEQEND
  0
POLYLINE
  8
LAYER_1
 40
0.1058
 41
0.1058
 66
1
 10
0
 20
0
 30
0
  0
VERTEX
  8
LAYER_1
 10
159.2128
 20
88.2083
  0
VERTEX
  8
LAYER_1
 10
159.2047
 20
88.2575
  0
VERTEX
  8
LAYER_1
 10
159.1636
 20
88.2905
  0
VERTEX
  8
LAYER_1
 10
159.115
 20
88.3067
  0
SEQEND
  0
POLYLINE
  8
LAYER_1
 40
0.1058
 41
0.1058
 66
1
 10
0
 20
0
 30
0
  0
VERTEX
  8
LAYER_1
 10
130.7802
 20
88.307
  0
VERTEX
  8
LAYER_1
 10
130.731
 20
88.2908
  0
VERTEX
  8
LAYER_1
 10
130.6905
 20
88.2571
  0
VERTEX
  8
LAYER_1
 10
130.6824
 20
88.2085
  0
SEQEND
  0
POLYLINE
  8
LAYER_1
 40
0.1058
 41
0.1058
 66
1
 10
0
 20
0
 30
0
  0
VERTEX
  8
LAYER_1
 10
159.2128
 20
87.8239
  0
VERTEX
  8
LAYER_1
 10
159.2128
 20
150.3051
  0
SEQEND
  0
POLYLINE
  8
LAYER_1
 40
0.1058
 41
0.1058
 66
1
 10
0
 20
0
 30
0
  0
VERTEX
  8
LAYER_1
 10
159.1638
 20
88.2906
  0
VERTEX
  8
LAYER_1
 10
159.1638
 20
150.2234
  0
SEQEND
  0
POLYLINE
  8
LAYER_1
 40
0.1058
 41
0.1058
 66
1
 10
0
 20
0
 30
0
  0
VERTEX
  8
LAYER_1
 10
130.6821
 20
87.8239
  0
VERTEX
  8
LAYER_1
 10
130.6821
 20
150.3051
  0
SEQEND
  0
POLYLINE
  8
LAYER_1
 40
0.1058
 41
0.1058
 66
1
 10
0
 20
0
 30
0
  0
VERTEX
  8
LAYER_1
 10
130.7311
 20
88.2906
  0
VERTEX
  8
LAYER_1
 10
130.7311
 20
150.2234
  0
SEQEND
  0
POLYLINE
  8
LAYER_1
 40
0.1058
 41
0.1058
 66
1
 10
0
 20
0
 30
0
  0
VERTEX
  8
LAYER_1
 10
130.633
 20
87.922
  0
VERTEX
  8
LAYER_1
 10
130.633
 20
150.6002
  0
SEQEND
  0
POLYLINE
  8
LAYER_1
 40
0.1058
 41
0.1058
 66
1
 10
0
 20
0
 30
0
  0
VERTEX
  8
LAYER_1
 10
159.2619
 20
87.922
  0
VERTEX
  8
LAYER_1
 10
159.2619
 20
150.6002
  0
SEQEND
  0
POLYLINE
  8
LAYER_1
 40
0.1058
 41
0.1058
 66
1
 10
0
 20
0
 30
0
  0
VERTEX
  8
LAYER_1
 10
159.4582
 20
148.275
  0
VERTEX
  8
LAYER_1
 10
159.2619
 20
148.275
  0
SEQEND
  0
POLYLINE
  8
LAYER_1
 40
0.1058
 41
0.1058
 66
1
 10
0
 20
0
 30
0
  0
VERTEX
  8
LAYER_1
 10
130.633
 20
148.275
  0
VERTEX
  8
LAYER_1
 10
130.436
 20
148.275
  0
SEQEND
  0
POLYLINE
  8
LAYER_1
 40
0.1058
 41
0.1058
 66
1
 10
0
 20
0
 30
0
  0
VERTEX
  8
LAYER_1
 10
159.4582
 20
90.2389
  0
VERTEX
  8
LAYER_1
 10
159.2619
 20
90.2389
  0
SEQEND
  0
POLYLINE
  8
LAYER_1
 40
0.1058
 41
0.1058
 66
1
 10
0
 20
0
 30
0
  0
VERTEX
  8
LAYER_1
 10
130.633
 20
90.2389
  0
VERTEX
  8
LAYER_1
 10
130.436
 20
90.2389
  0
SEQEND
  0
POLYLINE
  8
LAYER_1
 40
0.1058
 41
0.1058
 66
1
 10
0
 20
0
 30
0
  0
VERTEX
  8
LAYER_1
 10
136.3667
 20
141.9935
 42
0.414214319
  0
VERTEX
  8
LAYER_1
 10
136.7294
 20
141.6308
 42
0.4141954009
  0
VERTEX
  8
LAYER_1
 10
137.0921
 20
141.9935
 42
0.4142128046
  0
VERTEX
  8
LAYER_1
 10
136.7294
 20
142.3562
 42
0.4142317255
  0
VERTEX
  8
LAYER_1
 10
136.3667
 20
141.9935
  0
SEQEND
  0
POLYLINE
  8
LAYER_1
 40
0.1058
 41
0.1058
 66
1
 10
0
 20
0
 30
0
  0
VERTEX
  8
LAYER_1
 10
152.8104
 20
141.9935
 42
0.3931571266
  0
VERTEX
  8
LAYER_1
 10
153.1724
 20
141.6308
 42
0.3930552578
  0
VERTEX
  8
LAYER_1
 10
153.5358
 20
141.9935
 42
0.3935462394
  0
VERTEX
  8
LAYER_1
 10
153.1724
 20
142.3562
 42
0.3935500504
  0
VERTEX
  8
LAYER_1
 10
152.8104
 20
141.9935
  0
SEQEND
  0
POLYLINE
  8
LAYER_1
 40
0.1058
 41
0.1058
 66
1
 10
0
 20
0
 30
0
  0
VERTEX
  8
LAYER_1
 10
136.3667
 20
96.5324
 42
0.4142331995
  0
VERTEX
  8
LAYER_1
 10
136.7294
 20
96.1697
 42
0.4142142785
  0
VERTEX
  8
LAYER_1
 10
137.0921
 20
96.5324
 42
0.4141939271
  0
VERTEX
  8
LAYER_1
 10
136.7294
 20
96.8951
 42
0.414212845
  0
VERTEX
  8
LAYER_1
 10
136.3667
 20
96.5324
  0
SEQEND
  0
POLYLINE
  8
LAYER_1
 40
0.1058
 41
0.1058
 66
1
 10
0
 20
0
 30
0
  0
VERTEX
  8
LAYER_1
 10
152.8104
 20
96.5324
 42
0.3931571266
  0
VERTEX
  8
LAYER_1
 10
153.1724
 20
96.1697
 42
0.3930552578
  0
VERTEX
  8
LAYER_1
 10
153.5358
 20
96.5324
 42
0.3935462394
  0
VERTEX
  8
LAYER_1
 10
153.1724
 20
96.8951
 42
0.3935500504
  0
VERTEX
  8
LAYER_1
 10
152.8104
 20
96.5324
  0
SEQEND
  0
POLYLINE
  8
LAYER_1
 40
0.1058
 41
0.1058
 66
1
 10
0
 20
0
 30
0
  0
VERTEX
  8
LAYER_1
 10
151.9428
 20
96.5263
  0
VERTEX
  8
LAYER_1
 10
152.7281
 20
96.5263
  0
SEQEND
  0
POLYLINE
  8
LAYER_1
  6
AIGENLINE001
 40
0.1058
 41
0.1058
 66
1
 10
0
 20
0
 30
0
 70
128
  0
VERTEX
  8
LAYER_1
 10
153.0236
 20
96.5263
  0
VERTEX
  8
LAYER_1
 10
153.4667
 20
96.5263
  0
SEQEND
  0
POLYLINE
  8
LAYER_1
 40
0.1058
 41
0.1058
 66
1
 10
0
 20
0
 30
0
  0
VERTEX
  8
LAYER_1
 10
153.6135
 20
96.5263
  0
VERTEX
  8
LAYER_1
 10
154.3987
 20
96.5263
  0
SEQEND
  0
POLYLINE
  8
LAYER_1
 40
0.1058
 41
0.1058
 66
1
 10
0
 20
0
 30
0
  0
VERTEX
  8
LAYER_1
 10
153.1708
 20
95.2983
  0
VERTEX
  8
LAYER_1
 10
153.1708
 20
96.0836
  0
SEQEND
  0
POLYLINE
  8
LAYER_1
  6
AIGENLINE001
 40
0.1058
 41
0.1058
 66
1
 10
0
 20
0
 30
0
 70
128
  0
VERTEX
  8
LAYER_1
 10
153.1708
 20
96.3788
  0
VERTEX
  8
LAYER_1
 10
153.1708
 20
96.8219
  0
SEQEND
  0
POLYLINE
  8
LAYER_1
 40
0.1058
 41
0.1058
 66
1
 10
0
 20
0
 30
0
  0
VERTEX
  8
LAYER_1
 10
153.1708
 20
96.9692
  0
VERTEX
  8
LAYER_1
 10
153.1708
 20
97.7544
  0
SEQEND
  0
POLYLINE
  8
LAYER_1
 40
0.1058
 41
0.1058
 66
1
 10
0
 20
0
 30
0
  0
VERTEX
  8
LAYER_1
 10
135.4957
 20
96.5263
  0
VERTEX
  8
LAYER_1
 10
136.2809
 20
96.5263
  0
SEQEND
  0
POLYLINE
  8
LAYER_1
  6
AIGENLINE001
 40
0.1058
 41
0.1058
 66
1
 10
0
 20
0
 30
0
 70
128
  0
VERTEX
  8
LAYER_1
 10
136.5763
 20
96.5263
  0
VERTEX
  8
LAYER_1
 10
137.0194
 20
96.5263
  0
SEQEND
  0
POLYLINE
  8
LAYER_1
 40
0.1058
 41
0.1058
 66
1
 10
0
 20
0
 30
0
  0
VERTEX
  8
LAYER_1
 10
137.1663
 20
96.5263
  0
VERTEX
  8
LAYER_1
 10
137.9515
 20
96.5263
  0
SEQEND
  0
POLYLINE
  8
LAYER_1
 40
0.1058
 41
0.1058
 66
1
 10
0
 20
0
 30
0
  0
VERTEX
  8
LAYER_1
 10
136.7236
 20
95.2983
  0
VERTEX
  8
LAYER_1
 10
136.7236
 20
96.0836
  0
SEQEND
  0
POLYLINE
  8
LAYER_1
  6
AIGENLINE001
 40
0.1058
 41
0.1058
 66
1
 10
0
 20
0
 30
0
 70
128
  0
VERTEX
  8
LAYER_1
 10
136.7236
 20
96.3788
  0
VERTEX
  8
LAYER_1
 10
136.7236
 20
96.8219
  0
SEQEND
  0
POLYLINE
  8
LAYER_1
 40
0.1058
 41
0.1058
 66
1
 10
0
 20
0
 30
0
  0
VERTEX
  8
LAYER_1
 10
136.7236
 20
96.9692
  0
VERTEX
  8
LAYER_1
 10
136.7236
 20
97.7544
  0
SEQEND
  0
POLYLINE
  8
LAYER_1
 40
0.1058
 41
0.1058
 66
1
 10
0
 20
0
 30
0
  0
VERTEX
  8
LAYER_1
 10
161.0179
 20
96.5263
  0
VERTEX
  8
LAYER_1
 10
160.2327
 20
96.5263
  0
SEQEND
  0
POLYLINE
  8
LAYER_1
  6
AIGENLINE002
 40
0.1058
 41
0.1058
 66
1
 10
0
 20
0
 30
0
 70
128
  0
VERTEX
  8
LAYER_1
 10
159.6509
 20
96.5263
  0
VERTEX
  8
LAYER_1
 10
158.7784
 20
96.5263
  0
SEQEND
  0
POLYLINE
  8
LAYER_1
 40
0.1058
 41
0.1058
 66
1
 10
0
 20
0
 30
0
  0
VERTEX
  8
LAYER_1
 10
158.4874
 20
96.5263
  0
VERTEX
  8
LAYER_1
 10
157.7022
 20
96.5263
  0
SEQEND
  0
POLYLINE
  8
LAYER_1
 40
0.1058
 41
0.1058
 66
1
 10
0
 20
0
 30
0
  0
VERTEX
  8
LAYER_1
 10
135.4957
 20
141.9876
  0
VERTEX
  8
LAYER_1
 10
136.2809
 20
141.9876
  0
SEQEND
  0
POLYLINE
  8
LAYER_1
  6
AIGENLINE001
 40
0.1058
 41
0.1058
 66
1
 10
0
 20
0
 30
0
 70
128
  0
VERTEX
  8
LAYER_1
 10
136.5763
 20
141.9876
  0
VERTEX
  8
LAYER_1
 10
137.0194
 20
141.9876
  0
SEQEND
  0
POLYLINE
  8
LAYER_1
 40
0.1058
 41
0.1058
 66
1
 10
0
 20
0
 30
0
  0
VERTEX
  8
LAYER_1
 10
137.1663
 20
141.9876
  0
VERTEX
  8
LAYER_1
 10
137.9515
 20
141.9876
  0
SEQEND
  0
POLYLINE
  8
LAYER_1
 40
0.1058
 41
0.1058
 66
1
 10
0
 20
0
 30
0
  0
VERTEX
  8
LAYER_1
 10
136.7236
 20
140.7594
  0
VERTEX
  8
LAYER_1
 10
136.7236
 20
141.5446
  0
SEQEND
  0
POLYLINE
  8
LAYER_1
  6
AIGENLINE001
 40
0.1058
 41
0.1058
 66
1
 10
0
 20
0
 30
0
 70
128
  0
VERTEX
  8
LAYER_1
 10
136.7236
 20
141.8398
  0
VERTEX
  8
LAYER_1
 10
136.7236
 20
142.2829
  0
SEQEND
  0
POLYLINE
  8
LAYER_1
 40
0.1058
 41
0.1058
 66
1
 10
0
 20
0
 30
0
  0
VERTEX
  8
LAYER_1
 10
136.7236
 20
142.4303
  0
VERTEX
  8
LAYER_1
 10
136.7236
 20
143.2155
  0
SEQEND
  0
POLYLINE
  8
LAYER_1
 40
0.1058
 41
0.1058
 66
1
 10
0
 20
0
 30
0
  0
VERTEX
  8
LAYER_1
 10
151.9428
 20
141.9876
  0
VERTEX
  8
LAYER_1
 10
152.7281
 20
141.9876
  0
SEQEND
  0
POLYLINE
  8
LAYER_1
  6
AIGENLINE001
 40
0.1058
 41
0.1058
 66
1
 10
0
 20
0
 30
0
 70
128
  0
VERTEX
  8
LAYER_1
 10
153.0236
 20
141.9876
  0
VERTEX
  8
LAYER_1
 10
153.4667
 20
141.9876
  0
SEQEND
  0
POLYLINE
  8
LAYER_1
 40
0.1058
 41
0.1058
 66
1
 10
0
 20
0
 30
0
  0
VERTEX
  8
LAYER_1
 10
153.6135
 20
141.9876
  0
VERTEX
  8
LAYER_1
 10
154.3987
 20
141.9876
  0
SEQEND
  0
POLYLINE
  8
LAYER_1
 40
0.1058
 41
0.1058
 66
1
 10
0
 20
0
 30
0
  0
VERTEX
  8
LAYER_1
 10
153.1708
 20
140.7594
  0
VERTEX
  8
LAYER_1
 10
153.1708
 20
141.5446
  0
SEQEND
  0
POLYLINE
  8
LAYER_1
  6
AIGENLINE001
 40
0.1058
 41
0.1058
 66
1
 10
0
 20
0
 30
0
 70
128
  0
VERTEX
  8
LAYER_1
 10
153.1708
 20
141.8398
  0
VERTEX
  8
LAYER_1
 10
153.1708
 20
142.2829
  0
SEQEND
  0
POLYLINE
  8
LAYER_1
 40
0.1058
 41
0.1058
 66
1
 10
0
 20
0
 30
0
  0
VERTEX
  8
LAYER_1
 10
153.1708
 20
142.4303
  0
VERTEX
  8
LAYER_1
 10
153.1708
 20
143.2155
  0
SEQEND
  0
POLYLINE
  8
LAYER_1
 40
0.1058
 41
0.1058
 66
1
 10
0
 20
0
 30
0
  0
VERTEX
  8
LAYER_1
 10
161.0179
 20
141.9876
  0
VERTEX
  8
LAYER_1
 10
160.2327
 20
141.9876
  0
SEQEND
  0
POLYLINE
  8
LAYER_1
  6
AIGENLINE002
 40
0.1058
 41
0.1058
 66
1
 10
0
 20
0
 30
0
 70
128
  0
VERTEX
  8
LAYER_1
 10
159.6509
 20
141.9876
  0
VERTEX
  8
LAYER_1
 10
158.7784
 20
141.9876
  0
SEQEND
  0
POLYLINE
  8
LAYER_1
 40
0.1058
 41
0.1058
 66
1
 10
0
 20
0
 30
0
  0
VERTEX
  8
LAYER_1
 10
158.4874
 20
141.9876
  0
VERTEX
  8
LAYER_1
 10
157.7022
 20
141.9876
  0
SEQEND
  0
POLYLINE
  8
LAYER_1
 40
0.1058
 41
0.1058
 66
1
 10
0
 20
0
 30
0
  0
VERTEX
  8
LAYER_1
 10
159.4582
 20
148.275
  0
VERTEX
  8
LAYER_1
 10
159.4582
 20
160.244
  0
SEQEND
  0
POLYLINE
  8
LAYER_1
 40
0.1058
 41
0.1058
 66
1
 10
0
 20
0
 30
0
  0
VERTEX
  8
LAYER_1
 10
130.4362
 20
148.275
  0
VERTEX
  8
LAYER_1
 10
130.4362
 20
160.244
  0
SEQEND
  0
POLYLINE
  8
LAYER_1
 40
0.1058
 41
0.1058
 66
1
 10
0
 20
0
 30
0
  0
VERTEX
  8
LAYER_1
 10
158.014
 20
159.2778
  0
VERTEX
  8
LAYER_1
 10
131.8805
 20
159.2778
  0
SEQEND
  0
POLYLINE
  8
LAYER_1
 40
0.05
 41
0.05
 66
1
 10
0
 20
0
 30
0
 70
1
  0
VERTEX
  8
LAYER_1
 10
157.7032
 20
159.7341
  0
VERTEX
  8
LAYER_1
 10
159.4057
 20
159.2779
  0
VERTEX
  8
LAYER_1
 10
157.7032
 20
158.8218
  0
SEQEND
  0
POLYLINE
  8
LAYER_1
 40
0.05
 41
0.05
 66
1
 10
0
 20
0
 30
0
 70
1
  0
VERTEX
  8
LAYER_1
 10
132.1916
 20
159.7341
  0
VERTEX
  8
LAYER_1
 10
130.4891
 20
159.2779
  0
VERTEX
  8
LAYER_1
 10
132.1916
 20
158.8218
  0
SEQEND
  0
POLYLINE
  8
LAYER_1
 40
0.1058
 41
0.1058
 66
1
 10
0
 20
0
 30
0
  0
VERTEX
  8
LAYER_1
 10
130.6821
 20
150.6981
  0
VERTEX
  8
LAYER_1
 10
116.3549
 20
150.6981
  0
SEQEND
  0
POLYLINE
  8
LAYER_1
 40
0.1058
 41
0.1058
 66
1
 10
0
 20
0
 30
0
  0
VERTEX
  8
LAYER_1
 10
130.6821
 20
87.8239
  0
VERTEX
  8
LAYER_1
 10
116.3549
 20
87.8239
  0
SEQEND
  0
POLYLINE
  8
LAYER_1
 40
0.1058
 41
0.1058
 66
1
 10
0
 20
0
 30
0
  0
VERTEX
  8
LAYER_1
 10
117.321
 20
149.254
  0
VERTEX
  8
LAYER_1
 10
117.321
 20
89.2599
  0
SEQEND
  0
POLYLINE
  8
LAYER_1
 40
0.05
 41
0.05
 66
1
 10
0
 20
0
 30
0
 70
1
  0
VERTEX
  8
LAYER_1
 10
116.865
 20
148.9429
  0
VERTEX
  8
LAYER_1
 10
117.3212
 20
150.6454
  0
VERTEX
  8
LAYER_1
 10
117.7774
 20
148.9429
  0
SEQEND
  0
POLYLINE
  8
LAYER_1
 40
0.05
 41
0.05
 66
1
 10
0
 20
0
 30
0
 70
1
  0
VERTEX
  8
LAYER_1
 10
116.8651
 20
89.5714
  0
VERTEX
  8
LAYER_1
 10
117.3213
 20
87.8682
  0
VERTEX
  8
LAYER_1
 10
117.7774
 20
89.5714
  0
SEQEND
  0
POLYLINE
  8
LAYER_1
 40
0.1058
 41
0.1058
 66
1
 10
0
 20
0
 30
0
  0
VERTEX
  8
LAYER_1
 10
136.7236
 20
143.9415
  0
VERTEX
  8
LAYER_1
 10
136.7236
 20
154.8162
  0
SEQEND
  0
POLYLINE
  8
LAYER_1
 40
0.1058
 41
0.1058
 66
1
 10
0
 20
0
 30
0
  0
VERTEX
  8
LAYER_1
 10
153.1708
 20
143.9415
  0
VERTEX
  8
LAYER_1
 10
153.1708
 20
154.8162
  0
SEQEND
  0
POLYLINE
  8
LAYER_1
 40
0.1058
 41
0.1058
 66
1
 10
0
 20
0
 30
0
  0
VERTEX
  8
LAYER_1
 10
138.1677
 20
153.85
  0
VERTEX
  8
LAYER_1
 10
151.7265
 20
153.85
  0
SEQEND
  0
POLYLINE
  8
LAYER_1
 40
0.05
 41
0.05
 66
1
 10
0
 20
0
 30
0
 70
1
  0
VERTEX
  8
LAYER_1
 10
138.479
 20
153.3937
  0
VERTEX
  8
LAYER_1
 10
136.7764
 20
153.8499
  0
VERTEX
  8
LAYER_1
 10
138.479
 20
154.3061
  0
SEQEND
  0
POLYLINE
  8
LAYER_1
 40
0.05
 41
0.05
 66
1
 10
0
 20
0
 30
0
 70
1
  0
VERTEX
  8
LAYER_1
 10
151.4158
 20
153.3937
  0
VERTEX
  8
LAYER_1
 10
153.1183
 20
153.8499
  0
VERTEX
  8
LAYER_1
 10
151.4158
 20
154.3061
  0
SEQEND
  0
POLYLINE
  8
LAYER_1
 40
0.1058
 41
0.1058
 66
1
 10
0
 20
0
 30
0
  0
VERTEX
  8
LAYER_1
 10
131.9023
 20
153.85
  0
VERTEX
  8
LAYER_1
 10
135.2526
 20
153.85
  0
SEQEND
  0
POLYLINE
  8
LAYER_1
 40
0.05
 41
0.05
 66
1
 10
0
 20
0
 30
0
 70
1
  0
VERTEX
  8
LAYER_1
 10
132.2136
 20
153.3937
  0
VERTEX
  8
LAYER_1
 10
130.5104
 20
153.8499
  0
VERTEX
  8
LAYER_1
 10
132.2136
 20
154.3061
  0
SEQEND
  0
POLYLINE
  8
LAYER_1
 40
0.05
 41
0.05
 66
1
 10
0
 20
0
 30
0
 70
1
  0
VERTEX
  8
LAYER_1
 10
134.9415
 20
153.3937
  0
VERTEX
  8
LAYER_1
 10
136.644
 20
153.8499
  0
VERTEX
  8
LAYER_1
 10
134.9415
 20
154.3061
  0
SEQEND
  0
POLYLINE
  8
LAYER_1
 40
0.1058
 41
0.1058
 66
1
 10
0
 20
0
 30
0
  0
VERTEX
  8
LAYER_1
 10
134.9722
 20
141.9873
  0
VERTEX
  8
LAYER_1
 10
122.1519
 20
141.9873
  0
SEQEND
  0
POLYLINE
  8
LAYER_1
 40
0.1058
 41
0.1058
 66
1
 10
0
 20
0
 30
0
  0
VERTEX
  8
LAYER_1
 10
123.6411
 20
140.5514
  0
VERTEX
  8
LAYER_1
 10
123.6411
 20
97.9705
  0
SEQEND
  0
POLYLINE
  8
LAYER_1
 40
0.05
 41
0.05
 66
1
 10
0
 20
0
 30
0
 70
1
  0
VERTEX
  8
LAYER_1
 10
123.1851
 20
140.2402
  0
VERTEX
  8
LAYER_1
 10
123.6413
 20
141.9428
  0
VERTEX
  8
LAYER_1
 10
124.0975
 20
140.2402
  0
SEQEND
  0
POLYLINE
  8
LAYER_1
 40
0.05
 41
0.05
 66
1
 10
0
 20
0
 30
0
 70
1
  0
VERTEX
  8
LAYER_1
 10
123.1851
 20
98.2817
  0
VERTEX
  8
LAYER_1
 10
123.6413
 20
96.5792
  0
VERTEX
  8
LAYER_1
 10
124.0975
 20
98.2817
  0
SEQEND
  0
POLYLINE
  8
LAYER_1
 40
0.1058
 41
0.1058
 66
1
 10
0
 20
0
 30
0
  0
VERTEX
  8
LAYER_1
 10
130.6821
 20
87.8239
  0
VERTEX
  8
LAYER_1
 10
122.6753
 20
87.8239
  0
SEQEND
  0
POLYLINE
  8
LAYER_1
 40
0.1058
 41
0.1058
 66
1
 10
0
 20
0
 30
0
  0
VERTEX
  8
LAYER_1
 10
134.6214
 20
96.5263
  0
VERTEX
  8
LAYER_1
 10
122.6755
 20
96.5263
  0
SEQEND
  0
POLYLINE
  8
LAYER_1
 40
0.1058
 41
0.1058
 66
1
 10
0
 20
0
 30
0
  0
VERTEX
  8
LAYER_1
 10
123.6411
 20
89.2598
  0
VERTEX
  8
LAYER_1
 10
123.6411
 20
95.0904
  0
SEQEND
  0
POLYLINE
  8
LAYER_1
 40
0.05
 41
0.05
 66
1
 10
0
 20
0
 30
0
 70
1
  0
VERTEX
  8
LAYER_1
 10
123.1855
 20
89.5714
  0
VERTEX
  8
LAYER_1
 10
123.6411
 20
87.8682
  0
VERTEX
  8
LAYER_1
 10
124.0967
 20
89.5714
  0
SEQEND
  0
POLYLINE
  8
LAYER_1
 40
0.05
 41
0.05
 66
1
 10
0
 20
0
 30
0
 70
1
  0
VERTEX
  8
LAYER_1
 10
124.0976
 20
94.7791
  0
VERTEX
  8
LAYER_1
 10
123.6414
 20
96.4817
  0
VERTEX
  8
LAYER_1
 10
123.1852
 20
94.7791
  0
SEQEND
  0
TEXT
  8
LAYER_1
 10
140.6807
 20
160.5324
 11
140.6807
 21
160.5324
 40
4.6993
 41
0.5
  1
300
  0
TEXT
  8
LAYER_1
 10
139.2551
 20
154.9458
 11
139.2551
 21
154.9458
 40
4.6993
 41
0.5
  1
P190
  0
TEXT
  8
LAYER_1
 10
130.7347
 20
154.9458
 11
130.7347
 21
154.9458
 40
4.6993
 41
0.5
  1
55
  0
TEXT
  8
LAYER_1
 10
116.9095
 20
115.0223
 11
116.9095
 21
115.0223
 40
4.6993
 41
0.5
 50
89.99999999
  1
600
  0
TEXT
  8
LAYER_1
 10
123.2767
 20
113.5974
 11
123.2767
 21
113.5974
 40
4.6993
 41
0.5
 50
89.99999999
  1
P450
  0
TEXT
  8
LAYER_1
 10
123.2767
 20
89.3632
 11
123.2767
 21
89.3632
 40
4.6993
 41
0.5
 50
89.99999999
  1
75
  0
POLYLINE
  8
LAYER_1
 40
0.1058
 41
0.1058
 66
1
 10
0
 20
0
 30
0
  0
VERTEX
  8
LAYER_1
 10
130.4339
 20
196.1839
  0
VERTEX
  8
LAYER_1
 10
159.456
 20
196.1839
  0
SEQEND
  0
POLYLINE
  8
LAYER_1
 40
0.1058
 41
0.1058
 66
1
 10
0
 20
0
 30
0
  0
VERTEX
  8
LAYER_1
 10
126.1735
 20
209.8642
  0
VERTEX
  8
LAYER_1
 10
169.7963
 20
209.8642
  0
SEQEND
  0
POLYLINE
  8
LAYER_1
 40
0.1058
 41
0.1058
 66
1
 10
0
 20
0
 30
0
  0
VERTEX
  8
LAYER_1
 10
126.1735
 20
211.0758
  0
VERTEX
  8
LAYER_1
 10
169.7963
 20
211.0758
  0
SEQEND
  0
POLYLINE
  8
LAYER_1
 40
0.1058
 41
0.1058
 66
1
 10
0
 20
0
 30
0
  0
VERTEX
  8
LAYER_1
 10
126.1735
 20
211.9436
  0
VERTEX
  8
LAYER_1
 10
169.7963
 20
211.9436
  0
SEQEND
  0
POLYLINE
  8
LAYER_1
 40
0.1058
 41
0.1058
 66
1
 10
0
 20
0
 30
0
  0
VERTEX
  8
LAYER_1
 10
132.0218
 20
195.8424
 42
0.2631152726
  0
VERTEX
  8
LAYER_1
 10
131.8523
 20
196.0826
 42
0.1288663344
  0
VERTEX
  8
LAYER_1
 10
131.408
 20
196.1908
 42
0.1510172899
  0
VERTEX
  8
LAYER_1
 10
130.9245
 20
196.0573
 42
0.2463905329
  0
VERTEX
  8
LAYER_1
 10
130.7935
 20
195.8424
  0
SEQEND
  0
POLYLINE
  8
LAYER_1
 40
0.1058
 41
0.1058
 66
1
 10
0
 20
0
 30
0
  0
VERTEX
  8
LAYER_1
 10
159.4559
 20
196.1839
  0
VERTEX
  8
LAYER_1
 10
159.4559
 20
209.8642
  0
SEQEND
  0
POLYLINE
  8
LAYER_1
 40
0.1058
 41
0.1058
 66
1
 10
0
 20
0
 30
0
  0
VERTEX
  8
LAYER_1
 10
157.9991
 20
196.1839
  0
VERTEX
  8
LAYER_1
 10
157.9991
 20
209.8642
  0
SEQEND
  0
POLYLINE
  8
LAYER_1
 40
0.1058
 41
0.1058
 66
1
 10
0
 20
0
 30
0
  0
VERTEX
  8
LAYER_1
 10
130.4339
 20
196.1839
  0
VERTEX
  8
LAYER_1
 10
130.4339
 20
209.8642
  0
SEQEND
  0
POLYLINE
  8
LAYER_1
 40
0.1058
 41
0.1058
 66
1
 10
0
 20
0
 30
0
  0
VERTEX
  8
LAYER_1
 10
131.8832
 20
196.1839
  0
VERTEX
  8
LAYER_1
 10
131.8832
 20
209.8642
  0
SEQEND
  0
POLYLINE
  8
LAYER_1
 40
0.1058
 41
0.1058
 66
1
 10
0
 20
0
 30
0
  0
VERTEX
  8
LAYER_1
 10
130.6305
 20
194.3911
  0
VERTEX
  8
LAYER_1
 10
130.6797
 20
194.3911
  0
SEQEND
  0
POLYLINE
  8
LAYER_1
 40
0.1058
 41
0.1058
 66
1
 10
0
 20
0
 30
0
  0
VERTEX
  8
LAYER_1
 10
159.2106
 20
194.3911
  0
VERTEX
  8
LAYER_1
 10
159.2598
 20
194.3911
  0
VERTEX
  8
LAYER_1
 10
159.2598
 20
195.84
  0
SEQEND
  0
POLYLINE
  8
LAYER_1
 40
0.1058
 41
0.1058
 66
1
 10
0
 20
0
 30
0
  0
VERTEX
  8
LAYER_1
 10
130.6305
 20
195.8401
  0
VERTEX
  8
LAYER_1
 10
159.2599
 20
195.8401
  0
SEQEND
  0
POLYLINE
  8
LAYER_1
 40
0.1058
 41
0.1058
 66
1
 10
0
 20
0
 30
0
  0
VERTEX
  8
LAYER_1
 10
130.6796
 20
193.8998
  0
VERTEX
  8
LAYER_1
 10
159.2106
 20
193.8998
  0
SEQEND
  0
POLYLINE
  8
LAYER_1
 40
0.1058
 41
0.1058
 66
1
 10
0
 20
0
 30
0
  0
VERTEX
  8
LAYER_1
 10
130.6796
 20
193.8998
  0
VERTEX
  8
LAYER_1
 10
130.6796
 20
195.8404
  0
SEQEND
  0
POLYLINE
  8
LAYER_1
 40
0.1058
 41
0.1058
 66
1
 10
0
 20
0
 30
0
  0
VERTEX
  8
LAYER_1
 10
159.2106
 20
193.8998
  0
VERTEX
  8
LAYER_1
 10
159.2106
 20
195.8404
  0
SEQEND
  0
POLYLINE
  8
LAYER_1
 40
0.1058
 41
0.1058
 66
1
 10
0
 20
0
 30
0
  0
VERTEX
  8
LAYER_1
 10
130.6305
 20
195.8401
  0
VERTEX
  8
LAYER_1
 10
130.6305
 20
194.3912
  0
SEQEND
  0
POLYLINE
  8
LAYER_1
 40
0.1058
 41
0.1058
 66
1
 10
0
 20
0
 30
0
  0
VERTEX
  8
LAYER_1
 10
133.2936
 20
195.117
 42
0.4142420479
  0
VERTEX
  8
LAYER_1
 10
133.5354
 20
194.8752
 42
0.4142754025
  0
VERTEX
  8
LAYER_1
 10
133.7772
 20
195.117
 42
0.4141850673
  0
VERTEX
  8
LAYER_1
 10
133.5354
 20
195.3588
 42
0.4141517352
  0
VERTEX
  8
LAYER_1
 10
133.2936
 20
195.117
  0
SEQEND
  0
POLYLINE
  8
LAYER_1
 40
0.1058
 41
0.1058
 66
1
 10
0
 20
0
 30
0
  0
VERTEX
  8
LAYER_1
 10
133.6924
 20
195.0622
  0
VERTEX
  8
LAYER_1
 10
133.5778
 20
195.0622
  0
SEQEND
  0
POLYLINE
  8
LAYER_1
 40
0.1058
 41
0.1058
 66
1
 10
0
 20
0
 30
0
  0
VERTEX
  8
LAYER_1
 10
133.5777
 20
194.9478
  0
VERTEX
  8
LAYER_1
 10
133.4798
 20
194.9478
  0
SEQEND
  0
POLYLINE
  8
LAYER_1
 40
0.1058
 41
0.1058
 66
1
 10
0
 20
0
 30
0
  0
VERTEX
  8
LAYER_1
 10
133.5777
 20
194.9478
  0
VERTEX
  8
LAYER_1
 10
133.5777
 20
195.0625
  0
SEQEND
  0
POLYLINE
  8
LAYER_1
 40
0.1058
 41
0.1058
 66
1
 10
0
 20
0
 30
0
  0
VERTEX
  8
LAYER_1
 10
133.6924
 20
195.1607
  0
VERTEX
  8
LAYER_1
 10
133.6924
 20
195.0622
  0
SEQEND
  0
POLYLINE
  8
LAYER_1
 40
0.1058
 41
0.1058
 66
1
 10
0
 20
0
 30
0
  0
VERTEX
  8
LAYER_1
 10
133.6924
 20
195.1607
  0
VERTEX
  8
LAYER_1
 10
133.5778
 20
195.1607
  0
VERTEX
  8
LAYER_1
 10
133.5778
 20
195.2754
  0
SEQEND
  0
POLYLINE
  8
LAYER_1
 40
0.1058
 41
0.1058
 66
1
 10
0
 20
0
 30
0
  0
VERTEX
  8
LAYER_1
 10
133.4795
 20
195.1607
  0
VERTEX
  8
LAYER_1
 10
133.3648
 20
195.1607
  0
SEQEND
  0
POLYLINE
  8
LAYER_1
 40
0.1058
 41
0.1058
 66
1
 10
0
 20
0
 30
0
  0
VERTEX
  8
LAYER_1
 10
133.4795
 20
195.1607
  0
VERTEX
  8
LAYER_1
 10
133.4795
 20
195.2754
  0
VERTEX
  8
LAYER_1
 10
133.5773
 20
195.2754
  0
SEQEND
  0
POLYLINE
  8
LAYER_1
 40
0.1058
 41
0.1058
 66
1
 10
0
 20
0
 30
0
  0
VERTEX
  8
LAYER_1
 10
133.4795
 20
195.0622
  0
VERTEX
  8
LAYER_1
 10
133.3648
 20
195.0622
  0
VERTEX
  8
LAYER_1
 10
133.3648
 20
195.1607
  0
SEQEND
  0
POLYLINE
  8
LAYER_1
 40
0.1058
 41
0.1058
 66
1
 10
0
 20
0
 30
0
  0
VERTEX
  8
LAYER_1
 10
133.4795
 20
194.9478
  0
VERTEX
  8
LAYER_1
 10
133.4795
 20
195.0625
  0
SEQEND
  0
POLYLINE
  8
LAYER_1
 40
0.1058
 41
0.1058
 66
1
 10
0
 20
0
 30
0
  0
VERTEX
  8
LAYER_1
 10
156.1208
 20
195.117
 42
0.414226555
  0
VERTEX
  8
LAYER_1
 10
156.3626
 20
194.8752
 42
0.414290896
  0
VERTEX
  8
LAYER_1
 10
156.6044
 20
195.117
 42
0.4142005502
  0
VERTEX
  8
LAYER_1
 10
156.3626
 20
195.3588
 42
0.4141362528
  0
VERTEX
  8
LAYER_1
 10
156.1208
 20
195.117
  0
SEQEND
  0
POLYLINE
  8
LAYER_1
 40
0.1058
 41
0.1058
 66
1
 10
0
 20
0
 30
0
  0
VERTEX
  8
LAYER_1
 10
156.5252
 20
195.0622
  0
VERTEX
  8
LAYER_1
 10
156.4105
 20
195.0622
  0
SEQEND
  0
POLYLINE
  8
LAYER_1
 40
0.1058
 41
0.1058
 66
1
 10
0
 20
0
 30
0
  0
VERTEX
  8
LAYER_1
 10
156.4107
 20
194.9478
  0
VERTEX
  8
LAYER_1
 10
156.3128
 20
194.9478
  0
SEQEND
  0
POLYLINE
  8
LAYER_1
 40
0.1058
 41
0.1058
 66
1
 10
0
 20
0
 30
0
  0
VERTEX
  8
LAYER_1
 10
156.4107
 20
194.9478
  0
VERTEX
  8
LAYER_1
 10
156.4107
 20
195.0625
  0
SEQEND
  0
POLYLINE
  8
LAYER_1
 40
0.1058
 41
0.1058
 66
1
 10
0
 20
0
 30
0
  0
VERTEX
  8
LAYER_1
 10
156.5252
 20
195.1607
  0
VERTEX
  8
LAYER_1
 10
156.5252
 20
195.0622
  0
SEQEND
  0
POLYLINE
  8
LAYER_1
 40
0.1058
 41
0.1058
 66
1
 10
0
 20
0
 30
0
  0
VERTEX
  8
LAYER_1
 10
156.5252
 20
195.1607
  0
VERTEX
  8
LAYER_1
 10
156.4105
 20
195.1607
  0
VERTEX
  8
LAYER_1
 10
156.4105
 20
195.2754
  0
SEQEND
  0
POLYLINE
  8
LAYER_1
 40
0.1058
 41
0.1058
 66
1
 10
0
 20
0
 30
0
  0
VERTEX
  8
LAYER_1
 10
156.3125
 20
195.1607
  0
VERTEX
  8
LAYER_1
 10
156.1979
 20
195.1607
  0
SEQEND
  0
POLYLINE
  8
LAYER_1
 40
0.1058
 41
0.1058
 66
1
 10
0
 20
0
 30
0
  0
VERTEX
  8
LAYER_1
 10
156.3125
 20
195.1607
  0
VERTEX
  8
LAYER_1
 10
156.3125
 20
195.2754
  0
VERTEX
  8
LAYER_1
 10
156.4104
 20
195.2754
  0
SEQEND
  0
POLYLINE
  8
LAYER_1
 40
0.1058
 41
0.1058
 66
1
 10
0
 20
0
 30
0
  0
VERTEX
  8
LAYER_1
 10
156.3125
 20
195.0622
  0
VERTEX
  8
LAYER_1
 10
156.1979
 20
195.0622
  0
VERTEX
  8
LAYER_1
 10
156.1979
 20
195.1607
  0
SEQEND
  0
POLYLINE
  8
LAYER_1
 40
0.1058
 41
0.1058
 66
1
 10
0
 20
0
 30
0
  0
VERTEX
  8
LAYER_1
 10
156.3125
 20
194.9478
  0
VERTEX
  8
LAYER_1
 10
156.3125
 20
195.0625
  0
SEQEND
  0
POLYLINE
  8
LAYER_1
 40
0.1058
 41
0.1058
 66
1
 10
0
 20
0
 30
0
  0
VERTEX
  8
LAYER_1
 10
163.947
 20
170.6033
 42
0.2690938707
  0
VERTEX
  8
LAYER_1
 10
164.0754
 20
170.3895
  0
SEQEND
  0
POLYLINE
  8
LAYER_1
  6
AIGENLINE003
 40
0.1058
 41
0.1058
 66
1
 10
0
 20
0
 30
0
 70
128
  0
VERTEX
  8
LAYER_1
 10
164.3754
 20
170.4495
 42
0.1713081961
  0
VERTEX
  8
LAYER_1
 10
164.4302
 20
170.6034
 42
0.3388737179
  0
VERTEX
  8
LAYER_1
 10
164.2395
 20
170.8402
  0
SEQEND
  0
POLYLINE
  8
LAYER_1
 40
0.1058
 41
0.1058
 66
1
 10
0
 20
0
 30
0
  0
VERTEX
  8
LAYER_1
 10
164.0753
 20
170.817
 42
0.2726761199
  0
VERTEX
  8
LAYER_1
 10
163.9469
 20
170.6032
  0
SEQEND
  0
POLYLINE
  8
LAYER_1
 40
0.1058
 41
0.1058
 66
1
 10
0
 20
0
 30
0
  0
VERTEX
  8
LAYER_1
 10
158.0389
 20
192.6529
 42
0.2695791469
  0
VERTEX
  8
LAYER_1
 10
158.1673
 20
192.4392
  0
SEQEND
  0
POLYLINE
  8
LAYER_1
  6
AIGENLINE003
 40
0.1058
 41
0.1058
 66
1
 10
0
 20
0
 30
0
 70
128
  0
VERTEX
  8
LAYER_1
 10
158.4673
 20
192.499
 42
0.1710655094
  0
VERTEX
  8
LAYER_1
 10
158.5221
 20
192.6529
 42
0.3387737249
  0
VERTEX
  8
LAYER_1
 10
158.3314
 20
192.8898
  0
SEQEND
  0
POLYLINE
  8
LAYER_1
 40
0.1058
 41
0.1058
 66
1
 10
0
 20
0
 30
0
  0
VERTEX
  8
LAYER_1
 10
158.1673
 20
192.8666
 42
0.2720250028
  0
VERTEX
  8
LAYER_1
 10
158.0389
 20
192.6528
  0
SEQEND
  0
POLYLINE
  8
LAYER_1
 40
0.1058
 41
0.1058
 66
1
 10
0
 20
0
 30
0
  0
VERTEX
  8
LAYER_1
 10
163.9163
 20
168.9562
  0
VERTEX
  8
LAYER_1
 10
164.0522
 20
168.4501
  0
SEQEND
  0
POLYLINE
  8
LAYER_1
 40
0.1058
 41
0.1058
 66
1
 10
0
 20
0
 30
0
  0
VERTEX
  8
LAYER_1
 10
164.0993
 20
168.2732
  0
VERTEX
  8
LAYER_1
 10
164.2352
 20
167.7672
  0
SEQEND
  0
POLYLINE
  8
LAYER_1
 40
0.1058
 41
0.1058
 66
1
 10
0
 20
0
 30
0
  0
VERTEX
  8
LAYER_1
 10
163.8013
 20
168.0068
 42
0.2861440214
  0
VERTEX
  8
LAYER_1
 10
164.2351
 20
167.7669
  0
VERTEX
  8
LAYER_1
 10
164.2674
 20
167.6448
  0
VERTEX
  8
LAYER_1
 10
164.7735
 20
167.7781
  0
SEQEND
  0
POLYLINE
  8
LAYER_1
 40
0.1058
 41
0.1058
 66
1
 10
0
 20
0
 30
0
  0
VERTEX
  8
LAYER_1
 10
165.5757
 20
167.99
  0
VERTEX
  8
LAYER_1
 10
166.0817
 20
168.124
  0
VERTEX
  8
LAYER_1
 10
165.9465
 20
168.6294
  0
SEQEND
  0
POLYLINE
  8
LAYER_1
  6
AIGENLINE004
 40
0.1058
 41
0.1058
 66
1
 10
0
 20
0
 30
0
 70
128
  0
VERTEX
  8
LAYER_1
 10
165.6831
 20
169.6136
  0
VERTEX
  8
LAYER_1
 10
158.9644
 20
194.7065
  0
SEQEND
  0
POLYLINE
  8
LAYER_1
 40
0.1058
 41
0.1058
 66
1
 10
0
 20
0
 30
0
  0
VERTEX
  8
LAYER_1
 10
158.8327
 20
195.1986
  0
VERTEX
  8
LAYER_1
 10
158.6969
 20
195.7039
  0
VERTEX
  8
LAYER_1
 10
158.1908
 20
195.57
  0
SEQEND
  0
POLYLINE
  8
LAYER_1
 40
0.1058
 41
0.1058
 66
1
 10
0
 20
0
 30
0
  0
VERTEX
  8
LAYER_1
 10
157.3892
 20
195.3583
  0
VERTEX
  8
LAYER_1
 10
156.8831
 20
195.2249
  0
VERTEX
  8
LAYER_1
 10
157.0184
 20
194.7189
  0
SEQEND
  0
POLYLINE
  8
LAYER_1
  6
AIGENLINE005
 40
0.1058
 41
0.1058
 66
1
 10
0
 20
0
 30
0
 70
128
  0
VERTEX
  8
LAYER_1
 10
157.289
 20
193.7086
  0
VERTEX
  8
LAYER_1
 10
163.6461
 20
169.9669
  0
SEQEND
  0
POLYLINE
  8
LAYER_1
 40
0.1058
 41
0.1058
 66
1
 10
0
 20
0
 30
0
  0
VERTEX
  8
LAYER_1
 10
163.7814
 20
169.4618
  0
VERTEX
  8
LAYER_1
 10
163.9166
 20
168.9564
 42
0.2490951167
  0
VERTEX
  8
LAYER_1
 10
163.6964
 20
168.726
 42
0.1049088357
  0
VERTEX
  8
LAYER_1
 10
163.6723
 20
168.5351
  0
SEQEND
  0
POLYLINE
  8
LAYER_1
 40
0.1058
 41
0.1058
 66
1
 10
0
 20
0
 30
0
  0
VERTEX
  8
LAYER_1
 10
153.1686
 20
207.5882
  0
VERTEX
  8
LAYER_1
 10
153.1686
 20
208.8969
  0
SEQEND
  0
POLYLINE
  8
LAYER_1
  6
AIGENLINE006
 40
0.1058
 41
0.1058
 66
1
 10
0
 20
0
 30
0
 70
128
  0
VERTEX
  8
LAYER_1
 10
153.1686
 20
210.2601
  0
VERTEX
  8
LAYER_1
 10
153.1686
 20
211.623
  0
SEQEND
  0
POLYLINE
  8
LAYER_1
 40
0.1058
 41
0.1058
 66
1
 10
0
 20
0
 30
0
  0
VERTEX
  8
LAYER_1
 10
153.1686
 20
212.3052
  0
VERTEX
  8
LAYER_1
 10
153.1686
 20
213.6139
  0
SEQEND
  0
POLYLINE
  8
LAYER_1
 40
0.1058
 41
0.1058
 66
1
 10
0
 20
0
 30
0
  0
VERTEX
  8
LAYER_1
 10
136.7216
 20
207.5635
  0
VERTEX
  8
LAYER_1
 10
136.7216
 20
208.8722
  0
SEQEND
  0
POLYLINE
  8
LAYER_1
  6
AIGENLINE007
 40
0.1058
 41
0.1058
 66
1
 10
0
 20
0
 30
0
 70
128
  0
VERTEX
  8
LAYER_1
 10
136.7216
 20
210.2192
  0
VERTEX
  8
LAYER_1
 10
136.7216
 20
211.5659
  0
SEQEND
  0
POLYLINE
  8
LAYER_1
 40
0.1058
 41
0.1058
 66
1
 10
0
 20
0
 30
0
  0
VERTEX
  8
LAYER_1
 10
136.7216
 20
212.2395
  0
VERTEX
  8
LAYER_1
 10
136.7216
 20
213.5482
  0
SEQEND
  0
POLYLINE
  8
LAYER_1
 40
0.1058
 41
0.1058
 66
1
 10
0
 20
0
 30
0
  0
VERTEX
  8
LAYER_1
 10
156.6724
 20
198.1242
  0
VERTEX
  8
LAYER_1
 10
157.9811
 20
198.1242
  0
SEQEND
  0
POLYLINE
  8
LAYER_1
  6
AIGENLINE008
 40
0.1058
 41
0.1058
 66
1
 10
0
 20
0
 30
0
 70
128
  0
VERTEX
  8
LAYER_1
 10
158.7224
 20
198.1242
  0
VERTEX
  8
LAYER_1
 10
159.4634
 20
198.1242
  0
SEQEND
  0
POLYLINE
  8
LAYER_1
 40
0.1058
 41
0.1058
 66
1
 10
0
 20
0
 30
0
  0
VERTEX
  8
LAYER_1
 10
159.8332
 20
198.1242
  0
VERTEX
  8
LAYER_1
 10
161.1419
 20
198.1242
  0
SEQEND
  0
POLYLINE
  8
LAYER_1
 40
0.1058
 41
0.1058
 66
1
 10
0
 20
0
 30
0
  0
VERTEX
  8
LAYER_1
 10
156.6724
 20
205.8606
  0
VERTEX
  8
LAYER_1
 10
157.9811
 20
205.8606
  0
SEQEND
  0
POLYLINE
  8
LAYER_1
  6
AIGENLINE008
 40
0.1058
 41
0.1058
 66
1
 10
0
 20
0
 30
0
 70
128
  0
VERTEX
  8
LAYER_1
 10
158.7224
 20
205.8606
  0
VERTEX
  8
LAYER_1
 10
159.4634
 20
205.8606
  0
SEQEND
  0
POLYLINE
  8
LAYER_1
 40
0.1058
 41
0.1058
 66
1
 10
0
 20
0
 30
0
  0
VERTEX
  8
LAYER_1
 10
159.8332
 20
205.8606
  0
VERTEX
  8
LAYER_1
 10
161.1419
 20
205.8606
  0
SEQEND
  0
POLYLINE
  8
LAYER_1
 40
0.1058
 41
0.1058
 66
1
 10
0
 20
0
 30
0
  0
VERTEX
  8
LAYER_1
 10
169.7963
 20
209.8642
  0
VERTEX
  8
LAYER_1
 10
173.3522
 20
209.8642
  0
SEQEND
  0
POLYLINE
  8
LAYER_1
 40
0.1058
 41
0.1058
 66
1
 10
0
 20
0
 30
0
  0
VERTEX
  8
LAYER_1
 10
164.2374
 20
167.6122
  0
VERTEX
  8
LAYER_1
 10
173.3522
 20
167.6122
  0
SEQEND
  0
POLYLINE
  8
LAYER_1
 40
0.1058
 41
0.1058
 66
1
 10
0
 20
0
 30
0
  0
VERTEX
  8
LAYER_1
 10
172.386
 20
208.4279
  0
VERTEX
  8
LAYER_1
 10
172.386
 20
169.0478
  0
SEQEND
  0
POLYLINE
  8
LAYER_1
 40
0.05
 41
0.05
 66
1
 10
0
 20
0
 30
0
 70
1
  0
VERTEX
  8
LAYER_1
 10
171.9301
 20
208.1169
  0
VERTEX
  8
LAYER_1
 10
172.3863
 20
209.8194
  0
VERTEX
  8
LAYER_1
 10
172.8424
 20
208.1169
  0
SEQEND
  0
POLYLINE
  8
LAYER_1
 40
0.05
 41
0.05
 66
1
 10
0
 20
0
 30
0
 70
1
  0
VERTEX
  8
LAYER_1
 10
171.9299
 20
169.3595
  0
VERTEX
  8
LAYER_1
 10
172.3867
 20
167.657
  0
VERTEX
  8
LAYER_1
 10
172.8423
 20
169.3595
  0
SEQEND
  0
POLYLINE
  8
LAYER_1
 40
0.1058
 41
0.1058
 66
1
 10
0
 20
0
 30
0
  0
VERTEX
  8
LAYER_1
 10
159.4559
 20
209.8642
  0
VERTEX
  8
LAYER_1
 10
159.4559
 20
215.8238
  0
SEQEND
  0
POLYLINE
  8
LAYER_1
 40
0.1058
 41
0.1058
 66
1
 10
0
 20
0
 30
0
  0
VERTEX
  8
LAYER_1
 10
166.0875
 20
168.1526
  0
VERTEX
  8
LAYER_1
 10
166.0875
 20
215.8237
  0
SEQEND
  0
POLYLINE
  8
LAYER_1
 40
0.1058
 41
0.1058
 66
1
 10
0
 20
0
 30
0
  0
VERTEX
  8
LAYER_1
 10
160.892
 20
214.8574
  0
VERTEX
  8
LAYER_1
 10
164.6517
 20
214.8574
  0
SEQEND
  0
POLYLINE
  8
LAYER_1
 40
0.05
 41
0.05
 66
1
 10
0
 20
0
 30
0
 70
1
  0
VERTEX
  8
LAYER_1
 10
161.2033
 20
214.4012
  0
VERTEX
  8
LAYER_1
 10
159.5008
 20
214.8574
  0
VERTEX
  8
LAYER_1
 10
161.2033
 20
215.3135
  0
SEQEND
  0
POLYLINE
  8
LAYER_1
 40
0.05
 41
0.05
 66
1
 10
0
 20
0
 30
0
 70
1
  0
VERTEX
  8
LAYER_1
 10
164.3401
 20
214.4012
  0
VERTEX
  8
LAYER_1
 10
166.0433
 20
214.8574
  0
VERTEX
  8
LAYER_1
 10
164.3401
 20
215.3135
  0
SEQEND
  0
POLYLINE
  8
LAYER_1
 40
0.1058
 41
0.1058
 66
1
 10
0
 20
0
 30
0
  0
VERTEX
  8
LAYER_1
 10
139.4246
 20
192.4658
 42
0.06485970175
  0
VERTEX
  8
LAYER_1
 10
140.3972
 20
187.9209
 42
0.1268736881
  0
VERTEX
  8
LAYER_1
 10
145.3691
 20
180.5728
 42
0.02624858368
  0
VERTEX
  8
LAYER_1
 10
146.9229
 20
179.3358
 42
0.06796994721
  0
VERTEX
  8
LAYER_1
 10
150.8944
 20
177.2556
 42
0.06443164206
  0
VERTEX
  8
LAYER_1
 10
155.4858
 20
176.2239
 42
0.06037838365
  0
VERTEX
  8
LAYER_1
 10
160.1973
 20
176.3512
 42
0.001515950251
  0
VERTEX
  8
LAYER_1
 10
160.319
 20
176.3694
  0
SEQEND
  0
POLYLINE
  8
LAYER_1
 40
0.05
 41
0.05
 66
1
 10
0
 20
0
 30
0
 70
1
  0
VERTEX
  8
LAYER_1
 10
139.0121
 20
192.1289
  0
VERTEX
  8
LAYER_1
 10
139.3654
 20
193.8552
  0
VERTEX
  8
LAYER_1
 10
139.9232
 20
192.1831
  0
SEQEND
  0
POLYLINE
  8
LAYER_1
 40
0.05
 41
0.05
 66
1
 10
0
 20
0
 30
0
 70
1
  0
VERTEX
  8
LAYER_1
 10
160.0843
 20
175.8928
  0
VERTEX
  8
LAYER_1
 10
161.6877
 20
176.6251
  0
VERTEX
  8
LAYER_1
 10
159.9328
 20
176.7933
  0
SEQEND
  0
TEXT
  8
LAYER_1
 10
156.1802
 20
216.6008
 11
156.1802
 21
216.6008
 40
4.6993
 41
0.5
  1
（60）
  0
TEXT
  8
LAYER_1
 10
171.6424
 20
180.7552
 11
171.6424
 21
180.7552
 40
4.6993
 41
0.5
 50
89.99999999
  1
（445）
  0
TEXT
  8
LAYER_1
 10
143.8861
 20
183.6679
 11
143.8861
 21
183.6679
 40
4.6993
 41
0.5
 50
322.6977432
  1
105%%d
  0
POLYLINE
  8
LAYER_1
 40
0.1058
 41
0.1058
 66
1
 10
0
 20
0
 30
0
  0
VERTEX
  8
LAYER_1
 10
62.3936
 20
150.5997
  0
VERTEX
  8
LAYER_1
 10
62.3936
 20
87.9215
  0
SEQEND
  0
POLYLINE
  8
LAYER_1
 40
0.1058
 41
0.1058
 66
1
 10
0
 20
0
 30
0
  0
VERTEX
  8
LAYER_1
 10
60.9364
 20
87.9218
  0
VERTEX
  8
LAYER_1
 10
60.9364
 20
150.5999
  0
VERTEX
  8
LAYER_1
 10
62.394
 20
150.5999
  0
SEQEND
  0
POLYLINE
  8
LAYER_1
 40
0.1058
 41
0.1058
 66
1
 10
0
 20
0
 30
0
  0
VERTEX
  8
LAYER_1
 10
60.9364
 20
87.9218
  0
VERTEX
  8
LAYER_1
 10
62.394
 20
87.9218
  0
SEQEND
  0
POLYLINE
  8
LAYER_1
 40
0.1058
 41
0.1058
 66
1
 10
0
 20
0
 30
0
  0
VERTEX
  8
LAYER_1
 10
60.4532
 20
150.6979
  0
VERTEX
  8
LAYER_1
 10
62.3938
 20
150.6979
  0
VERTEX
  8
LAYER_1
 10
62.3938
 20
150.6
  0
VERTEX
  8
LAYER_1
 10
60.5511
 20
150.6
  0
SEQEND
  0
POLYLINE
  8
LAYER_1
 40
0.1058
 41
0.1058
 66
1
 10
0
 20
0
 30
0
  0
VERTEX
  8
LAYER_1
 10
60.4532
 20
150.6979
  0
VERTEX
  8
LAYER_1
 10
60.4532
 20
150.2068
  0
VERTEX
  8
LAYER_1
 10
60.5511
 20
150.2068
  0
VERTEX
  8
LAYER_1
 10
60.5511
 20
150.6
  0
SEQEND
  0
POLYLINE
  8
LAYER_1
 40
0.1058
 41
0.1058
 66
1
 10
0
 20
0
 30
0
  0
VERTEX
  8
LAYER_1
 10
60.4532
 20
87.8236
  0
VERTEX
  8
LAYER_1
 10
62.3938
 20
87.8236
  0
VERTEX
  8
LAYER_1
 10
62.3938
 20
87.9215
  0
VERTEX
  8
LAYER_1
 10
60.5511
 20
87.9215
  0
SEQEND
  0
POLYLINE
  8
LAYER_1
 40
0.1058
 41
0.1058
 66
1
 10
0
 20
0
 30
0
  0
VERTEX
  8
LAYER_1
 10
60.4532
 20
87.8236
  0
VERTEX
  8
LAYER_1
 10
60.4532
 20
88.3066
  0
VERTEX
  8
LAYER_1
 10
60.5511
 20
88.3066
  0
VERTEX
  8
LAYER_1
 10
60.5511
 20
87.9215
  0
SEQEND
  0
POLYLINE
  8
LAYER_1
 40
0.1058
 41
0.1058
 66
1
 10
0
 20
0
 30
0
  0
VERTEX
  8
LAYER_1
 10
60.5514
 20
88.0608
  0
VERTEX
  8
LAYER_1
 10
60.5514
 20
150.4523
  0
SEQEND
  0
POLYLINE
  8
LAYER_1
 40
0.1058
 41
0.1058
 66
1
 10
0
 20
0
 30
0
  0
VERTEX
  8
LAYER_1
 10
60.6005
 20
150.5015
  0
VERTEX
  8
LAYER_1
 10
60.5513
 20
150.4523
  0
SEQEND
  0
POLYLINE
  8
LAYER_1
 40
0.1058
 41
0.1058
 66
1
 10
0
 20
0
 30
0
  0
VERTEX
  8
LAYER_1
 10
60.6005
 20
88.0199
  0
VERTEX
  8
LAYER_1
 10
60.5513
 20
88.0604
  0
SEQEND
  0
POLYLINE
  8
LAYER_1
 40
0.1058
 41
0.1058
 66
1
 10
0
 20
0
 30
0
  0
VERTEX
  8
LAYER_1
 10
60.6005
 20
150.5015
  0
VERTEX
  8
LAYER_1
 10
60.7968
 20
150.5015
  0
SEQEND
  0
POLYLINE
  8
LAYER_1
 40
0.1058
 41
0.1058
 66
1
 10
0
 20
0
 30
0
  0
VERTEX
  8
LAYER_1
 10
60.6005
 20
88.0199
  0
VERTEX
  8
LAYER_1
 10
60.7968
 20
88.0199
  0
SEQEND
  0
POLYLINE
  8
LAYER_1
 40
0.1058
 41
0.1058
 66
1
 10
0
 20
0
 30
0
  0
VERTEX
  8
LAYER_1
 10
60.8462
 20
88.0608
  0
VERTEX
  8
LAYER_1
 10
60.8462
 20
150.4523
  0
SEQEND
  0
POLYLINE
  8
LAYER_1
 40
0.1058
 41
0.1058
 66
1
 10
0
 20
0
 30
0
  0
VERTEX
  8
LAYER_1
 10
60.7971
 20
150.5015
  0
VERTEX
  8
LAYER_1
 10
60.8463
 20
150.4523
  0
SEQEND
  0
POLYLINE
  8
LAYER_1
 40
0.1058
 41
0.1058
 66
1
 10
0
 20
0
 30
0
  0
VERTEX
  8
LAYER_1
 10
60.7971
 20
88.0199
  0
VERTEX
  8
LAYER_1
 10
60.8463
 20
88.0604
  0
SEQEND
  0
POLYLINE
  8
LAYER_1
 40
0.1058
 41
0.1058
 66
1
 10
0
 20
0
 30
0
  0
VERTEX
  8
LAYER_1
 10
62.3946
 20
146.6021
 42
0.2630628957
  0
VERTEX
  8
LAYER_1
 10
62.6348
 20
146.7716
 42
0.1288909971
  0
VERTEX
  8
LAYER_1
 10
62.743
 20
147.2159
 42
0.1510324428
  0
VERTEX
  8
LAYER_1
 10
62.6095
 20
147.6994
 42
0.2463620938
  0
VERTEX
  8
LAYER_1
 10
62.3946
 20
147.8304
  0
SEQEND
  0
POLYLINE
  8
LAYER_1
 40
0.1058
 41
0.1058
 66
1
 10
0
 20
0
 30
0
  0
VERTEX
  8
LAYER_1
 10
62.3946
 20
90.6946
 42
0.2631699836
  0
VERTEX
  8
LAYER_1
 10
62.6348
 20
90.8642
 42
0.1288011666
  0
VERTEX
  8
LAYER_1
 10
62.743
 20
91.3091
 42
0.1511029041
  0
VERTEX
  8
LAYER_1
 10
62.6095
 20
91.792
 42
0.2462665394
  0
VERTEX
  8
LAYER_1
 10
62.3946
 20
91.9229
  0
SEQEND
  0
POLYLINE
  8
LAYER_1
 40
0.1058
 41
0.1058
 66
1
 10
0
 20
0
 30
0
  0
VERTEX
  8
LAYER_1
 10
62.7374
 20
148.2747
  0
VERTEX
  8
LAYER_1
 10
62.7374
 20
90.2387
  0
SEQEND
  0
POLYLINE
  8
LAYER_1
 40
0.1058
 41
0.1058
 66
1
 10
0
 20
0
 30
0
  0
VERTEX
  8
LAYER_1
 10
76.4174
 20
148.2747
  0
VERTEX
  8
LAYER_1
 10
62.7371
 20
148.2747
  0
SEQEND
  0
POLYLINE
  8
LAYER_1
 40
0.1058
 41
0.1058
 66
1
 10
0
 20
0
 30
0
  0
VERTEX
  8
LAYER_1
 10
76.4174
 20
90.2385
  0
VERTEX
  8
LAYER_1
 10
62.7371
 20
90.2385
  0
SEQEND
  0
POLYLINE
  8
LAYER_1
 40
0.1058
 41
0.1058
 66
1
 10
0
 20
0
 30
0
  0
VERTEX
  8
LAYER_1
 10
76.4174
 20
163.5454
  0
VERTEX
  8
LAYER_1
 10
76.4174
 20
83.8453
  0
SEQEND
  0
POLYLINE
  8
LAYER_1
 40
0.1058
 41
0.1058
 66
1
 10
0
 20
0
 30
0
  0
VERTEX
  8
LAYER_1
 10
77.6208
 20
163.5454
  0
VERTEX
  8
LAYER_1
 10
77.6208
 20
83.8453
  0
SEQEND
  0
POLYLINE
  8
LAYER_1
 40
0.1058
 41
0.1058
 66
1
 10
0
 20
0
 30
0
  0
VERTEX
  8
LAYER_1
 10
78.497
 20
163.5454
  0
VERTEX
  8
LAYER_1
 10
78.497
 20
83.8453
  0
SEQEND
  0
POLYLINE
  8
LAYER_1
 40
0.1058
 41
0.1058
 66
1
 10
0
 20
0
 30
0
  0
VERTEX
  8
LAYER_1
 10
64.1936
 20
141.9932
 42
0.4142528412
  0
VERTEX
  8
LAYER_1
 10
64.6772
 20
141.5096
 42
0.4142125048
  0
VERTEX
  8
LAYER_1
 10
65.1608
 20
141.9932
 42
0.4141742902
  0
VERTEX
  8
LAYER_1
 10
64.6772
 20
142.4768
 42
0.4142146147
  0
VERTEX
  8
LAYER_1
 10
64.1936
 20
141.9932
  0
SEQEND
  0
POLYLINE
  8
LAYER_1
 40
0.1058
 41
0.1058
 66
1
 10
0
 20
0
 30
0
  0
VERTEX
  8
LAYER_1
 10
71.9316
 20
141.9932
 42
0.4142571158
  0
VERTEX
  8
LAYER_1
 10
72.4152
 20
141.5096
 42
0.4142082303
  0
VERTEX
  8
LAYER_1
 10
72.8988
 20
141.9932
 42
0.4141700169
  0
VERTEX
  8
LAYER_1
 10
72.4152
 20
142.4768
 42
0.4142188881
  0
VERTEX
  8
LAYER_1
 10
71.9316
 20
141.9932
  0
SEQEND
  0
POLYLINE
  8
LAYER_1
 40
0.1058
 41
0.1058
 66
1
 10
0
 20
0
 30
0
  0
VERTEX
  8
LAYER_1
 10
64.1936
 20
96.5321
 42
0.4142209213
  0
VERTEX
  8
LAYER_1
 10
64.6772
 20
96.0485
 42
0.4141805948
  0
VERTEX
  8
LAYER_1
 10
65.1608
 20
96.5321
 42
0.4142062
  0
VERTEX
  8
LAYER_1
 10
64.6772
 20
97.0157
 42
0.4142465345
  0
VERTEX
  8
LAYER_1
 10
64.1936
 20
96.5321
  0
SEQEND
  0
POLYLINE
  8
LAYER_1
 40
0.1058
 41
0.1058
 66
1
 10
0
 20
0
 30
0
  0
VERTEX
  8
LAYER_1
 10
71.9316
 20
96.5321
 42
0.4142251949
  0
VERTEX
  8
LAYER_1
 10
72.4152
 20
96.0485
 42
0.4141763213
  0
VERTEX
  8
LAYER_1
 10
72.8988
 20
96.5321
 42
0.4142019257
  0
VERTEX
  8
LAYER_1
 10
72.4152
 20
97.0157
 42
0.4142508089
  0
VERTEX
  8
LAYER_1
 10
71.9316
 20
96.5321
  0
SEQEND
  0
POLYLINE
  8
LAYER_1
 40
0.1058
 41
0.1058
 66
1
 10
0
 20
0
 30
0
  0
VERTEX
  8
LAYER_1
 10
76.4174
 20
148.2747
  0
VERTEX
  8
LAYER_1
 10
76.4174
 20
160.2437
  0
SEQEND
  0
POLYLINE
  8
LAYER_1
 40
0.1058
 41
0.1058
 66
1
 10
0
 20
0
 30
0
  0
VERTEX
  8
LAYER_1
 10
71.6099
 20
96.526
  0
VERTEX
  8
LAYER_1
 10
72.3951
 20
96.526
  0
SEQEND
  0
POLYLINE
  8
LAYER_1
  6
AIGENLINE009
 40
0.1058
 41
0.1058
 66
1
 10
0
 20
0
 30
0
 70
128
  0
VERTEX
  8
LAYER_1
 10
72.4049
 20
96.526
  0
VERTEX
  8
LAYER_1
 10
72.4199
 20
96.526
  0
SEQEND
  0
POLYLINE
  8
LAYER_1
 40
0.1058
 41
0.1058
 66
1
 10
0
 20
0
 30
0
  0
VERTEX
  8
LAYER_1
 10
72.4249
 20
96.526
  0
VERTEX
  8
LAYER_1
 10
73.2101
 20
96.526
  0
SEQEND
  0
POLYLINE
  8
LAYER_1
 40
0.1058
 41
0.1058
 66
1
 10
0
 20
0
 30
0
  0
VERTEX
  8
LAYER_1
 10
72.4141
 20
95.73
  0
VERTEX
  8
LAYER_1
 10
72.4141
 20
96.5152
  0
SEQEND
  0
POLYLINE
  8
LAYER_1
  6
AIGENLINE009
 40
0.1058
 41
0.1058
 66
1
 10
0
 20
0
 30
0
 70
128
  0
VERTEX
  8
LAYER_1
 10
72.4141
 20
96.5249
  0
VERTEX
  8
LAYER_1
 10
72.4141
 20
96.5399
  0
SEQEND
  0
POLYLINE
  8
LAYER_1
 40
0.1058
 41
0.1058
 66
1
 10
0
 20
0
 30
0
  0
VERTEX
  8
LAYER_1
 10
72.4141
 20
96.5454
  0
VERTEX
  8
LAYER_1
 10
72.4141
 20
97.3306
  0
SEQEND
  0
POLYLINE
  8
LAYER_1
 40
0.1058
 41
0.1058
 66
1
 10
0
 20
0
 30
0
  0
VERTEX
  8
LAYER_1
 10
63.8732
 20
96.526
  0
VERTEX
  8
LAYER_1
 10
64.6585
 20
96.526
  0
SEQEND
  0
POLYLINE
  8
LAYER_1
  6
AIGENLINE009
 40
0.1058
 41
0.1058
 66
1
 10
0
 20
0
 30
0
 70
128
  0
VERTEX
  8
LAYER_1
 10
64.6685
 20
96.526
  0
VERTEX
  8
LAYER_1
 10
64.6835
 20
96.526
  0
SEQEND
  0
POLYLINE
  8
LAYER_1
 40
0.1058
 41
0.1058
 66
1
 10
0
 20
0
 30
0
  0
VERTEX
  8
LAYER_1
 10
64.6887
 20
96.526
  0
VERTEX
  8
LAYER_1
 10
65.4739
 20
96.526
  0
SEQEND
  0
POLYLINE
  8
LAYER_1
 40
0.1058
 41
0.1058
 66
1
 10
0
 20
0
 30
0
  0
VERTEX
  8
LAYER_1
 10
64.6695
 20
95.73
  0
VERTEX
  8
LAYER_1
 10
64.6695
 20
96.5152
  0
SEQEND
  0
POLYLINE
  8
LAYER_1
  6
AIGENLINE009
 40
0.1058
 41
0.1058
 66
1
 10
0
 20
0
 30
0
 70
128
  0
VERTEX
  8
LAYER_1
 10
64.6695
 20
96.5249
  0
VERTEX
  8
LAYER_1
 10
64.6695
 20
96.5399
  0
SEQEND
  0
POLYLINE
  8
LAYER_1
 40
0.1058
 41
0.1058
 66
1
 10
0
 20
0
 30
0
  0
VERTEX
  8
LAYER_1
 10
64.6695
 20
96.5454
  0
VERTEX
  8
LAYER_1
 10
64.6695
 20
97.3306
  0
SEQEND
  0
POLYLINE
  8
LAYER_1
 40
0.1058
 41
0.1058
 66
1
 10
0
 20
0
 30
0
  0
VERTEX
  8
LAYER_1
 10
71.4612
 20
141.9873
  0
VERTEX
  8
LAYER_1
 10
72.2465
 20
141.9873
  0
SEQEND
  0
POLYLINE
  8
LAYER_1
  6
AIGENLINE010
 40
0.1058
 41
0.1058
 66
1
 10
0
 20
0
 30
0
 70
128
  0
VERTEX
  8
LAYER_1
 10
72.3558
 20
141.9873
  0
VERTEX
  8
LAYER_1
 10
72.5191
 20
141.9873
  0
SEQEND
  0
POLYLINE
  8
LAYER_1
 40
0.1058
 41
0.1058
 66
1
 10
0
 20
0
 30
0
  0
VERTEX
  8
LAYER_1
 10
72.5736
 20
141.9873
  0
VERTEX
  8
LAYER_1
 10
73.3588
 20
141.9873
  0
SEQEND
  0
POLYLINE
  8
LAYER_1
 40
0.1058
 41
0.1058
 66
1
 10
0
 20
0
 30
0
  0
VERTEX
  8
LAYER_1
 10
72.4141
 20
141.0426
  0
VERTEX
  8
LAYER_1
 10
72.4141
 20
141.8279
  0
SEQEND
  0
POLYLINE
  8
LAYER_1
  6
AIGENLINE010
 40
0.1058
 41
0.1058
 66
1
 10
0
 20
0
 30
0
 70
128
  0
VERTEX
  8
LAYER_1
 10
72.4141
 20
141.9367
  0
VERTEX
  8
LAYER_1
 10
72.4141
 20
142.1
  0
SEQEND
  0
POLYLINE
  8
LAYER_1
 40
0.1058
 41
0.1058
 66
1
 10
0
 20
0
 30
0
  0
VERTEX
  8
LAYER_1
 10
72.4141
 20
142.1548
  0
VERTEX
  8
LAYER_1
 10
72.4141
 20
142.94
  0
SEQEND
  0
POLYLINE
  8
LAYER_1
 40
0.1058
 41
0.1058
 66
1
 10
0
 20
0
 30
0
  0
VERTEX
  8
LAYER_1
 10
63.7248
 20
141.9873
  0
VERTEX
  8
LAYER_1
 10
64.51
 20
141.9873
  0
SEQEND
  0
POLYLINE
  8
LAYER_1
  6
AIGENLINE010
 40
0.1058
 41
0.1058
 66
1
 10
0
 20
0
 30
0
 70
128
  0
VERTEX
  8
LAYER_1
 10
64.6191
 20
141.9873
  0
VERTEX
  8
LAYER_1
 10
64.7824
 20
141.9873
  0
SEQEND
  0
POLYLINE
  8
LAYER_1
 40
0.1058
 41
0.1058
 66
1
 10
0
 20
0
 30
0
  0
VERTEX
  8
LAYER_1
 10
64.8369
 20
141.9873
  0
VERTEX
  8
LAYER_1
 10
65.6222
 20
141.9873
  0
SEQEND
  0
POLYLINE
  8
LAYER_1
 40
0.1058
 41
0.1058
 66
1
 10
0
 20
0
 30
0
  0
VERTEX
  8
LAYER_1
 10
64.6695
 20
141.0426
  0
VERTEX
  8
LAYER_1
 10
64.6695
 20
141.8279
  0
SEQEND
  0
POLYLINE
  8
LAYER_1
  6
AIGENLINE010
 40
0.1058
 41
0.1058
 66
1
 10
0
 20
0
 30
0
 70
128
  0
VERTEX
  8
LAYER_1
 10
64.6695
 20
141.9367
  0
VERTEX
  8
LAYER_1
 10
64.6695
 20
142.1
  0
SEQEND
  0
POLYLINE
  8
LAYER_1
 40
0.1058
 41
0.1058
 66
1
 10
0
 20
0
 30
0
  0
VERTEX
  8
LAYER_1
 10
64.6695
 20
142.1548
  0
VERTEX
  8
LAYER_1
 10
64.6695
 20
142.94
  0
SEQEND
  0
POLYLINE
  8
LAYER_1
 40
0.1058
 41
0.1058
 66
1
 10
0
 20
0
 30
0
  0
VERTEX
  8
LAYER_1
 10
54.7415
 20
85.8912
  0
VERTEX
  8
LAYER_1
 10
54.7415
 20
80.5473
  0
SEQEND
  0
POLYLINE
  8
LAYER_1
 40
0.1058
 41
0.1058
 66
1
 10
0
 20
0
 30
0
  0
VERTEX
  8
LAYER_1
 10
58.9163
 20
153.8498
  0
VERTEX
  8
LAYER_1
 10
51.5396
 20
153.8498
  0
SEQEND
  0
POLYLINE
  8
LAYER_1
 40
0.05
 41
0.05
 66
1
 10
0
 20
0
 30
0
 70
1
  0
VERTEX
  8
LAYER_1
 10
58.605
 20
154.306
  0
VERTEX
  8
LAYER_1
 10
60.3076
 20
153.8498
  0
VERTEX
  8
LAYER_1
 10
58.605
 20
153.3936
  0
SEQEND
  0
POLYLINE
  8
LAYER_1
 40
0.1058
 41
0.1058
 66
1
 10
0
 20
0
 30
0
  0
VERTEX
  8
LAYER_1
 10
62.7374
 20
90.2385
  0
VERTEX
  8
LAYER_1
 10
53.7752
 20
90.2385
  0
SEQEND
  0
POLYLINE
  8
LAYER_1
 40
0.1058
 41
0.1058
 66
1
 10
0
 20
0
 30
0
  0
VERTEX
  8
LAYER_1
 10
60.4532
 20
87.8236
  0
VERTEX
  8
LAYER_1
 10
53.7757
 20
87.8236
  0
SEQEND
  0
POLYLINE
  8
LAYER_1
 40
0.1058
 41
0.1058
 66
1
 10
0
 20
0
 30
0
  0
VERTEX
  8
LAYER_1
 10
54.7415
 20
90.2912
  0
VERTEX
  8
LAYER_1
 10
54.7415
 20
92.2231
  0
SEQEND
  0
POLYLINE
  8
LAYER_1
 40
0.1058
 41
0.1058
 66
1
 10
0
 20
0
 30
0
  0
VERTEX
  8
LAYER_1
 10
54.7415
 20
90.2385
  0
VERTEX
  8
LAYER_1
 10
54.7415
 20
87.8237
  0
SEQEND
  0
POLYLINE
  8
LAYER_1
 40
0.1058
 41
0.1058
 66
1
 10
0
 20
0
 30
0
  0
VERTEX
  8
LAYER_1
 10
54.7415
 20
86.4321
  0
VERTEX
  8
LAYER_1
 10
54.7415
 20
85.8912
  0
SEQEND
  0
POLYLINE
  8
LAYER_1
 40
0.05
 41
0.05
 66
1
 10
0
 20
0
 30
0
 70
1
  0
VERTEX
  8
LAYER_1
 10
54.2852
 20
86.1208
  0
VERTEX
  8
LAYER_1
 10
54.7414
 20
87.8239
  0
VERTEX
  8
LAYER_1
 10
55.1976
 20
86.1208
  0
SEQEND
  0
POLYLINE
  8
LAYER_1
 40
0.1058
 41
0.1058
 66
1
 10
0
 20
0
 30
0
  0
VERTEX
  8
LAYER_1
 10
62.7374
 20
90.2385
  0
VERTEX
  8
LAYER_1
 10
53.7752
 20
90.2385
  0
SEQEND
  0
POLYLINE
  8
LAYER_1
 40
0.1058
 41
0.1058
 66
1
 10
0
 20
0
 30
0
  0
VERTEX
  8
LAYER_1
 10
62.7374
 20
148.2747
  0
VERTEX
  8
LAYER_1
 10
53.7752
 20
148.2747
  0
SEQEND
  0
POLYLINE
  8
LAYER_1
 40
0.1058
 41
0.1058
 66
1
 10
0
 20
0
 30
0
  0
VERTEX
  8
LAYER_1
 10
85.2726
 20
148.2747
  0
VERTEX
  8
LAYER_1
 10
76.4177
 20
148.2747
  0
SEQEND
  0
POLYLINE
  8
LAYER_1
 40
0.1058
 41
0.1058
 66
1
 10
0
 20
0
 30
0
  0
VERTEX
  8
LAYER_1
 10
54.7415
 20
91.6828
  0
VERTEX
  8
LAYER_1
 10
54.7415
 20
146.8384
  0
SEQEND
  0
POLYLINE
  8
LAYER_1
 40
0.05
 41
0.05
 66
1
 10
0
 20
0
 30
0
 70
1
  0
VERTEX
  8
LAYER_1
 10
55.1978
 20
91.9942
  0
VERTEX
  8
LAYER_1
 10
54.7416
 20
90.2916
  0
VERTEX
  8
LAYER_1
 10
54.2854
 20
91.9942
  0
SEQEND
  0
POLYLINE
  8
LAYER_1
 40
0.05
 41
0.05
 66
1
 10
0
 20
0
 30
0
 70
1
  0
VERTEX
  8
LAYER_1
 10
55.1978
 20
146.5274
  0
VERTEX
  8
LAYER_1
 10
54.7416
 20
148.23
  0
VERTEX
  8
LAYER_1
 10
54.2854
 20
146.5274
  0
SEQEND
  0
POLYLINE
  8
LAYER_1
 40
0.1058
 41
0.1058
 66
1
 10
0
 20
0
 30
0
  0
VERTEX
  8
LAYER_1
 10
60.4532
 20
150.6979
  0
VERTEX
  8
LAYER_1
 10
60.4532
 20
160.2433
  0
SEQEND
  0
POLYLINE
  8
LAYER_1
 40
0.1058
 41
0.1058
 66
1
 10
0
 20
0
 30
0
  0
VERTEX
  8
LAYER_1
 10
74.9732
 20
159.2775
  0
VERTEX
  8
LAYER_1
 10
61.8974
 20
159.2775
  0
SEQEND
  0
POLYLINE
  8
LAYER_1
 40
0.05
 41
0.05
 66
1
 10
0
 20
0
 30
0
 70
1
  0
VERTEX
  8
LAYER_1
 10
74.6619
 20
159.7338
  0
VERTEX
  8
LAYER_1
 10
76.3651
 20
159.2776
  0
VERTEX
  8
LAYER_1
 10
74.6619
 20
158.8215
  0
SEQEND
  0
POLYLINE
  8
LAYER_1
 40
0.05
 41
0.05
 66
1
 10
0
 20
0
 30
0
 70
1
  0
VERTEX
  8
LAYER_1
 10
62.2088
 20
159.7338
  0
VERTEX
  8
LAYER_1
 10
60.5063
 20
159.2776
  0
VERTEX
  8
LAYER_1
 10
62.2088
 20
158.8215
  0
SEQEND
  0
POLYLINE
  8
LAYER_1
 40
0.1058
 41
0.1058
 66
1
 10
0
 20
0
 30
0
  0
VERTEX
  8
LAYER_1
 10
70.9326
 20
151.1342
  0
VERTEX
  8
LAYER_1
 10
66.1478
 20
151.1342
  0
SEQEND
  0
POLYLINE
  8
LAYER_1
 40
0.05
 41
0.05
 66
1
 10
0
 20
0
 30
0
 70
1
  0
VERTEX
  8
LAYER_1
 10
70.6218
 20
151.5905
  0
VERTEX
  8
LAYER_1
 10
72.3244
 20
151.1343
  0
VERTEX
  8
LAYER_1
 10
70.6218
 20
150.6781
  0
SEQEND
  0
POLYLINE
  8
LAYER_1
 40
0.05
 41
0.05
 66
1
 10
0
 20
0
 30
0
 70
1
  0
VERTEX
  8
LAYER_1
 10
66.459
 20
151.5905
  0
VERTEX
  8
LAYER_1
 10
64.7564
 20
151.1343
  0
VERTEX
  8
LAYER_1
 10
66.459
 20
150.6781
  0
SEQEND
  0
POLYLINE
  8
LAYER_1
 40
0.1058
 41
0.1058
 66
1
 10
0
 20
0
 30
0
  0
VERTEX
  8
LAYER_1
 10
74.8935
 20
151.1342
  0
VERTEX
  8
LAYER_1
 10
73.8745
 20
151.1342
  0
SEQEND
  0
POLYLINE
  8
LAYER_1
 40
0.05
 41
0.05
 66
1
 10
0
 20
0
 30
0
 70
1
  0
VERTEX
  8
LAYER_1
 10
74.5822
 20
151.5905
  0
VERTEX
  8
LAYER_1
 10
76.2847
 20
151.1343
  0
VERTEX
  8
LAYER_1
 10
74.5822
 20
150.6781
  0
SEQEND
  0
POLYLINE
  8
LAYER_1
 40
0.05
 41
0.05
 66
1
 10
0
 20
0
 30
0
 70
1
  0
VERTEX
  8
LAYER_1
 10
74.186
 20
151.5905
  0
VERTEX
  8
LAYER_1
 10
72.4834
 20
151.1343
  0
VERTEX
  8
LAYER_1
 10
74.186
 20
150.6781
  0
SEQEND
  0
POLYLINE
  8
LAYER_1
 40
0.1058
 41
0.1058
 66
1
 10
0
 20
0
 30
0
  0
VERTEX
  8
LAYER_1
 10
62.3936
 20
150.6979
  0
VERTEX
  8
LAYER_1
 10
62.3936
 20
154.8159
  0
SEQEND
  0
POLYLINE
  8
LAYER_1
 40
0.1058
 41
0.1058
 66
1
 10
0
 20
0
 30
0
  0
VERTEX
  8
LAYER_1
 10
64.6772
 20
143.6656
  0
VERTEX
  8
LAYER_1
 10
64.6772
 20
152.0999
  0
SEQEND
  0
POLYLINE
  8
LAYER_1
 40
0.1058
 41
0.1058
 66
1
 10
0
 20
0
 30
0
  0
VERTEX
  8
LAYER_1
 10
72.41
 20
143.6656
  0
VERTEX
  8
LAYER_1
 10
72.41
 20
152.0999
  0
SEQEND
  0
POLYLINE
  8
LAYER_1
 40
0.1058
 41
0.1058
 66
1
 10
0
 20
0
 30
0
  0
VERTEX
  8
LAYER_1
 10
60.4532
 20
150.6979
  0
VERTEX
  8
LAYER_1
 10
60.4532
 20
154.8159
  0
SEQEND
  0
POLYLINE
  8
LAYER_1
 40
0.1058
 41
0.1058
 66
1
 10
0
 20
0
 30
0
  0
VERTEX
  8
LAYER_1
 10
63.8838
 20
153.8498
  0
VERTEX
  8
LAYER_1
 10
66.2575
 20
153.8498
  0
SEQEND
  0
POLYLINE
  8
LAYER_1
 40
0.05
 41
0.05
 66
1
 10
0
 20
0
 30
0
 70
1
  0
VERTEX
  8
LAYER_1
 10
64.1948
 20
153.3935
  0
VERTEX
  8
LAYER_1
 10
62.4923
 20
153.8496
  0
VERTEX
  8
LAYER_1
 10
64.1948
 20
154.3058
  0
SEQEND
  0
POLYLINE
  8
LAYER_1
 40
0.1058
 41
0.1058
 66
1
 10
0
 20
0
 30
0
  0
VERTEX
  8
LAYER_1
 10
62.3936
 20
153.8498
  0
VERTEX
  8
LAYER_1
 10
60.453
 20
153.8498
  0
SEQEND
  0
POLYLINE
  8
LAYER_1
 40
0.1058
 41
0.1058
 66
1
 10
0
 20
0
 30
0
  0
VERTEX
  8
LAYER_1
 10
74.3843
 20
153.0852
  0
VERTEX
  8
LAYER_1
 10
74.3843
 20
153.9988
  0
VERTEX
  8
LAYER_1
 10
80.0996
 20
153.9988
  0
SEQEND
  0
POLYLINE
  8
LAYER_1
 40
0.05
 41
0.05
 66
1
 10
0
 20
0
 30
0
 70
1
  0
VERTEX
  8
LAYER_1
 10
74.8403
 20
153.3966
  0
VERTEX
  8
LAYER_1
 10
74.3841
 20
151.694
  0
VERTEX
  8
LAYER_1
 10
73.928
 20
153.3966
  0
SEQEND
  0
POLYLINE
  8
LAYER_1
 40
0.1058
 41
0.1058
 66
1
 10
0
 20
0
 30
0
  0
VERTEX
  8
LAYER_1
 10
68.5401
 20
153.0852
  0
VERTEX
  8
LAYER_1
 10
68.5401
 20
157.4257
  0
VERTEX
  8
LAYER_1
 10
87.4827
 20
157.4257
  0
SEQEND
  0
POLYLINE
  8
LAYER_1
 40
0.05
 41
0.05
 66
1
 10
0
 20
0
 30
0
 70
1
  0
VERTEX
  8
LAYER_1
 10
68.9967
 20
153.3966
  0
VERTEX
  8
LAYER_1
 10
68.5405
 20
151.694
  0
VERTEX
  8
LAYER_1
 10
68.0843
 20
153.3966
  0
SEQEND
  0
POLYLINE
  8
LAYER_1
 40
0.1058
 41
0.1058
 66
1
 10
0
 20
0
 30
0
  0
VERTEX
  8
LAYER_1
 10
85.2726
 20
96.526
  0
VERTEX
  8
LAYER_1
 10
73.7647
 20
96.526
  0
SEQEND
  0
POLYLINE
  8
LAYER_1
 40
0.1058
 41
0.1058
 66
1
 10
0
 20
0
 30
0
  0
VERTEX
  8
LAYER_1
 10
85.2726
 20
141.9871
  0
VERTEX
  8
LAYER_1
 10
73.7647
 20
141.9871
  0
SEQEND
  0
POLYLINE
  8
LAYER_1
 40
0.1058
 41
0.1058
 66
1
 10
0
 20
0
 30
0
  0
VERTEX
  8
LAYER_1
 10
84.307
 20
146.7999
  0
VERTEX
  8
LAYER_1
 10
84.307
 20
143.4628
  0
SEQEND
  0
POLYLINE
  8
LAYER_1
 40
0.05
 41
0.05
 66
1
 10
0
 20
0
 30
0
 70
1
  0
VERTEX
  8
LAYER_1
 10
83.8505
 20
146.4888
  0
VERTEX
  8
LAYER_1
 10
84.3067
 20
148.1914
  0
VERTEX
  8
LAYER_1
 10
84.7628
 20
146.4888
  0
SEQEND
  0
POLYLINE
  8
LAYER_1
 40
0.05
 41
0.05
 66
1
 10
0
 20
0
 30
0
 70
1
  0
VERTEX
  8
LAYER_1
 10
83.8505
 20
143.774
  0
VERTEX
  8
LAYER_1
 10
84.3067
 20
142.0714
  0
VERTEX
  8
LAYER_1
 10
84.7628
 20
143.774
  0
SEQEND
  0
POLYLINE
  8
LAYER_1
 40
0.1058
 41
0.1058
 66
1
 10
0
 20
0
 30
0
  0
VERTEX
  8
LAYER_1
 10
84.307
 20
140.5114
  0
VERTEX
  8
LAYER_1
 10
84.307
 20
98.0054
  0
SEQEND
  0
POLYLINE
  8
LAYER_1
 40
0.05
 41
0.05
 66
1
 10
0
 20
0
 30
0
 70
1
  0
VERTEX
  8
LAYER_1
 10
83.8505
 20
140.2004
  0
VERTEX
  8
LAYER_1
 10
84.3067
 20
141.9029
  0
VERTEX
  8
LAYER_1
 10
84.7628
 20
140.2004
  0
SEQEND
  0
POLYLINE
  8
LAYER_1
 40
0.05
 41
0.05
 66
1
 10
0
 20
0
 30
0
 70
1
  0
VERTEX
  8
LAYER_1
 10
83.8505
 20
98.3168
  0
VERTEX
  8
LAYER_1
 10
84.3067
 20
96.6136
  0
VERTEX
  8
LAYER_1
 10
84.7628
 20
98.3168
  0
SEQEND
  0
TEXT
  8
LAYER_1
 10
53.5952
 20
115.0202
 11
53.5952
 21
115.0202
 40
4.6993
 41
0.5
 50
89.99999999
  1
560
  0
TEXT
  8
LAYER_1
 10
88.8113
 20
113.5967
 11
88.8113
 21
113.5967
 40
4.6993
 41
0.5
 50
89.99999999
  1
P350
  0
TEXT
  8
LAYER_1
 10
88.8113
 20
140.9825
 11
88.8113
 21
140.9825
 40
4.6993
 41
0.5
 50
89.99999999
  1
105
  0
TEXT
  8
LAYER_1
 10
53.5952
 20
80.9159
 11
53.5952
 21
80.9159
 40
4.6993
 41
0.5
 50
89.99999999
  1
20
  0
TEXT
  8
LAYER_1
 10
52.2361
 20
154.6778
 11
52.2361
 21
154.6778
 40
4.6993
 41
0.5
  1
20
  0
TEXT
  8
LAYER_1
 10
64.1568
 20
160.1065
 11
64.1568
 21
160.1065
 40
4.6993
 41
0.5
  1
173
  0
TEXT
  8
LAYER_1
 10
87.9218
 20
155.8129
 11
87.9218
 21
155.8129
 40
4.6993
 41
0.5
  1
P70
  0
TEXT
  8
LAYER_1
 10
80.6271
 20
152.3761
 11
80.6271
 21
152.3761
 40
4.6993
 41
0.5
  1
55
  0
TEXT
  8
LAYER_2
 10
-26.2556
 20
43.1712
 11
-26.2556
 21
43.1712
 40
3.2995
 41
0.5
  1
仕様
  0
POLYLINE
  8
LAYER_2
 40
0.3528
 41
0.3528
 66
1
 10
0
 20
0
 30
0
  0
VERTEX
  8
LAYER_2
 10
250.6748
 20
51.9507
  0
VERTEX
  8
LAYER_2
 10
-29.3178
 20
51.9507
  0
SEQEND
  0
INSERT
  8
LAYER_2
  2
AIGNBL02010002
 10
0
 20
0
 30
0
  0
POLYLINE
  8
LAYER_2
 40
0.3528
 41
0.3528
 66
1
 10
0
 20
0
 30
0
  0
VERTEX
  8
LAYER_2
 10
-29.3178
 20
229.3369
  0
VERTEX
  8
LAYER_2
 10
-29.3178
 20
34.3283
  0
VERTEX
  8
LAYER_2
 10
250.6748
 20
34.3283
  0
VERTEX
  8
LAYER_2
 10
250.6748
 20
229.3369
  0
VERTEX
  8
LAYER_2
 10
-29.3178
 20
229.3369
  0
SEQEND
  0
POLYLINE
  8
LAYER_2
 40
0.3528
 41
0.3528
 66
1
 10
0
 20
0
 30
0
  0
VERTEX
  8
LAYER_2
 10
250.6748
 20
60.4597
  0
VERTEX
  8
LAYER_2
 10
-29.3178
 20
60.4597
  0
SEQEND
  0
POLYLINE
  8
LAYER_2
 40
0.3528
 41
0.3528
 66
1
 10
0
 20
0
 30
0
  0
VERTEX
  8
LAYER_2
 10
250.6748
 20
43.4416
  0
VERTEX
  8
LAYER_2
 10
143.5341
 20
43.4416
  0
SEQEND
  0
TEXT
  8
LAYER_2
 10
182.8808
 20
49.4743
 11
182.8808
 21
49.4743
 40
2.1997
 41
0.5
  1
縮尺
  0
POLYLINE
  8
LAYER_2
 40
0.3528
 41
0.3528
 66
1
 10
0
 20
0
 30
0
  0
VERTEX
  8
LAYER_2
 10
181.3526
 20
43.4416
  0
VERTEX
  8
LAYER_2
 10
181.3526
 20
51.9507
  0
SEQEND
  0
TEXT
  8
LAYER_2
 10
144.2327
 20
57.9834
 11
144.2327
 21
57.9834
 40
2.1997
 41
0.5
  1
品番
  0
TEXT
  8
LAYER_2
 10
-28.1609
 20
57.9834
 11
-28.1609
 21
57.9834
 40
2.1997
 41
0.5
  1
品名
  0
TEXT
  8
LAYER_2
 10
144.2327
 20
49.4743
 11
144.2327
 21
49.4743
 40
2.1997
 41
0.5
  1
重量
  0
TEXT
  8
LAYER_2
 10
150.2547
 20
54.1514
 11
150.2547
 21
54.1514
 40
5.9385
 41
0.5
  1
TYU-3060/
  0
TEXT
  8
LAYER_2
 10
149.5454
 20
45.7175
 11
149.5454
 21
45.7175
 40
3.7615
 41
0.5
  1
-
  0
POLYLINE
  8
LAYER_2
 40
0.3528
 41
0.3528
 66
1
 10
0
 20
0
 30
0
  0
VERTEX
  8
LAYER_2
 10
143.5341
 20
34.9539
  0
VERTEX
  8
LAYER_2
 10
143.5341
 20
60.4597
  0
SEQEND
  0
TEXT
  8
LAYER_2
 10
-15.3736
 20
54.891
 11
-15.3736
 21
54.891
 40
3.6373
 41
0.5
  1
ミラーキャビネット
  0
TEXT
  8
LAYER_2
 10
-15.8845
 20
47.0531
 11
-15.8845
 21
47.0531
 40
3.5541
 41
0.5
  1
●サイズ：W300×H600×D173mm　●重量：9.5kg　●ミラー：3mm厚（防湿加工）・上下アルミフレーム　
  0
TEXT
  8
LAYER_2
 10
-15.8845
 20
42.303
 11
-15.8845
 21
42.303
 40
3.1177
 41
0.5
  1
●キャビネット／扉／棚板：メラミン化粧板　●設置方法：壁付け（取付用・連結用ビス同梱）　
  0
TEXT
  8
LAYER_2
 10
-15.8845
 20
37.5533
 11
-15.8845
 21
37.5533
 40
3.5541
 41
0.5
  1
●可動棚2段　●左右開き兼用　●Ｆ☆☆☆☆対応　
  0
TEXT
  8
LAYER_2
 10
237.263
 20
63.2582
 11
237.263
 21
63.2582
 40
2.9618
 41
0.5
  1
単位：mm
  0
TEXT
  8
LAYER_2
 10
176.0254
 20
39.5359
 11
176.0254
 21
39.5359
 40
3.3853
 41
0.5
  1
●TEL 0120-65-1232●FAX 06-6532-1580
  0
TEXT
  8
LAYER_2
 10
176.0254
 20
36.0212
 11
176.0254
 21
36.0212
 40
3.3853
 41
0.5
  1
hits@hiratatile.co.jp
  0
TEXT
  8
LAYER_2
 10
240.3591
 20
225.8432
 11
240.3591
 21
225.8432
 40
2.0732
 41
0.5
  1
200409RT
  0
INSERT
  8
LAYER_2
  2
AIGNBL02010003
 10
0
 20
0
 30
0
  0
ENDSEC
  0
EOF
