  0
SECTION
  2
HEADER
  9
$ACADVER
  1
AC1009
  9
$INSBASE
 10
0.0
 20
0.0
 30
0.0
  9
$EXTMIN
 10
0.238402
 20
0.4485540000000001
 30
0.0
  9
$EXTMAX
 10
210.24000000000001
 20
297.45100000000002
 30
0.0
  9
$LIMMIN
 10
0.0
 20
0.0
  9
$LIMMAX
 10
12.0
 20
9.0
  9
$ORTHOMODE
 70
     0
  9
$REGENMODE
 70
     1
  9
$FILLMODE
 70
     1
  9
$QTEXTMODE
 70
     0
  9
$MIRRTEXT
 70
     1
  9
$DRAGMODE
 70
     2
  9
$LTSCALE
 40
1.0
  9
$OSMODE
 70
    37
  9
$ATTMODE
 70
     1
  9
$TEXTSIZE
 40
0.0
  9
$TRACEWID
 40
0.05
  9
$TEXTSTYLE
  7
STANDARD
  9
$CLAYER
  8
0
  9
$CELTYPE
  6
CONTINUOUS
  9
$CECOLOR
 62
   256
  9
$DIMSCALE
 40
1.0
  9
$DIMASZ
 40
0.18
  9
$DIMEXO
 40
0.0625
  9
$DIMDLI
 40
0.38
  9
$DIMRND
 40
0.0
  9
$DIMDLE
 40
0.0
  9
$DIMEXE
 40
0.18
  9
$DIMTP
 40
0.0
  9
$DIMTM
 40
0.0
  9
$DIMTXT
 40
0.18
  9
$DIMCEN
 40
0.09
  9
$DIMTSZ
 40
0.0
  9
$DIMTOL
 70
     0
  9
$DIMLIM
 70
     0
  9
$DIMTIH
 70
     1
  9
$DIMTOH
 70
     1
  9
$DIMSE1
 70
     0
  9
$DIMSE2
 70
     0
  9
$DIMTAD
 70
     0
  9
$DIMZIN
 70
     0
  9
$DIMBLK
  1

  9
$DIMASO
 70
     1
  9
$DIMSHO
 70
     1
  9
$DIMPOST
  1

  9
$DIMAPOST
  1

  9
$DIMALT
 70
     0
  9
$DIMALTD
 70
     2
  9
$DIMALTF
 40
25.399999999999999
  9
$DIMLFAC
 40
1.0
  9
$DIMTOFL
 70
     0
  9
$DIMTVP
 40
0.0
  9
$DIMTIX
 70
     0
  9
$DIMSOXD
 70
     0
  9
$DIMSAH
 70
     0
  9
$DIMBLK1
  1

  9
$DIMBLK2
  1

  9
$DIMSTYLE
  2
STANDARD
  9
$DIMCLRD
 70
     0
  9
$DIMCLRE
 70
     0
  9
$DIMCLRT
 70
     0
  9
$DIMTFAC
 40
1.0
  9
$DIMGAP
 40
0.09
  9
$LUNITS
 70
     2
  9
$LUPREC
 70
     4
  9
$SKETCHINC
 40
0.1
  9
$FILLETRAD
 40
0.0
  9
$AUNITS
 70
     0
  9
$AUPREC
 70
     0
  9
$MENU
  1
.
  9
$ELEVATION
 40
0.0
  9
$PELEVATION
 40
0.0
  9
$THICKNESS
 40
0.0
  9
$LIMCHECK
 70
     0
  9
$BLIPMODE
 70
     0
  9
$CHAMFERA
 40
0.0
  9
$CHAMFERB
 40
0.0
  9
$SKPOLY
 70
     0
  9
$TDCREATE
 40
2444972.375
  9
$TDUPDATE
 40
2457436.2613801961
  9
$TDINDWG
 40
0.0000289236
  9
$TDUSRTIMER
 40
0.0000289236
  9
$USRTIMER
 70
     1
  9
$ANGBASE
 50
0.0
  9
$ANGDIR
 70
     0
  9
$PDMODE
 70
     0
  9
$PDSIZE
 40
0.0
  9
$PLINEWID
 40
0.0
  9
$COORDS
 70
     1
  9
$SPLFRAME
 70
     0
  9
$SPLINETYPE
 70
     6
  9
$SPLINESEGS
 70
     8
  9
$ATTDIA
 70
     1
  9
$ATTREQ
 70
     1
  9
$HANDLING
 70
     1
  9
$HANDSEED
  5
2B2
  9
$SURFTAB1
 70
     6
  9
$SURFTAB2
 70
     6
  9
$SURFTYPE
 70
     6
  9
$SURFU
 70
     6
  9
$SURFV
 70
     6
  9
$UCSNAME
  2

  9
$UCSORG
 10
0.0
 20
0.0
 30
0.0
  9
$UCSXDIR
 10
1.0
 20
0.0
 30
0.0
  9
$UCSYDIR
 10
0.0
 20
1.0
 30
0.0
  9
$PUCSNAME
  2

  9
$PUCSORG
 10
0.0
 20
0.0
 30
0.0
  9
$PUCSXDIR
 10
1.0
 20
0.0
 30
0.0
  9
$PUCSYDIR
 10
0.0
 20
1.0
 30
0.0
  9
$USERI1
 70
     0
  9
$USERI2
 70
     0
  9
$USERI3
 70
     0
  9
$USERI4
 70
     0
  9
$USERI5
 70
     0
  9
$USERR1
 40
0.0
  9
$USERR2
 40
0.0
  9
$USERR3
 40
0.0
  9
$USERR4
 40
0.0
  9
$USERR5
 40
0.0
  9
$WORLDVIEW
 70
     1
  9
$SHADEDGE
 70
     3
  9
$SHADEDIF
 70
    70
  9
$TILEMODE
 70
     1
  9
$MAXACTVP
 70
    48
  9
$PLIMCHECK
 70
     0
  9
$PEXTMIN
 10
1.0000000000000000E+020
 20
1.0000000000000000E+020
 30
1.0000000000000000E+020
  9
$PEXTMAX
 10
-1.0000000000000000E+020
 20
-1.0000000000000000E+020
 30
-1.0000000000000000E+020
  9
$PLIMMIN
 10
0.0
 20
0.0
  9
$PLIMMAX
 10
12.0
 20
9.0
  9
$UNITMODE
 70
     0
  9
$VISRETAIN
 70
     1
  9
$PLINEGEN
 70
     0
  9
$PSLTSCALE
 70
     1
  0
ENDSEC
  0
SECTION
  2
TABLES
  0
TABLE
  2
VPORT
 70
     1
  0
VPORT
  2
*ACTIVE
 70
     0
 10
0.0
 20
0.0
 11
1.0
 21
1.0
 12
170.64664076348581
 22
148.72550000000001
 13
0.0
 23
0.0
 14
1.0
 24
1.0
 15
0.0
 25
0.0
 16
0.0
 26
0.0
 36
1.0
 17
0.0
 27
0.0
 37
0.0
 40
283.95706667814062
 41
2.1001926782273599
 42
50.0
 43
0.0
 44
0.0
 50
0.0
 51
0.0
 71
     0
 72
   100
 73
     1
 74
     1
 75
     0
 76
     0
 77
     0
 78
     0
  0
ENDTAB
  0
TABLE
  2
LTYPE
 70
     4
  0
LTYPE
  2
CONTINUOUS
 70
     0
  3
Solid line
 72
    65
 73
     0
 40
0.0
  0
LTYPE
  2
AIGENLINE001
 70
     0
  3
generate AI->DXF Converter
 72
    65
 73
     2
 40
1.5522299999999991
 49
0.776115
 49
-0.776115
  0
LTYPE
  2
AIGENLINE002
 70
     0
  3
generate AI->DXF Converter
 72
    65
 73
     4
 40
5.8561449999999988
 49
3.5278
 49
-0.776115
 49
0.776115
 49
-0.776115
  0
LTYPE
  2
AIGENLINE003
 70
     0
  3
generate AI->DXF Converter
 72
    65
 73
     6
 40
7.4083750000000004
 49
3.5278
 49
-0.776115
 49
0.776115
 49
-0.776115
 49
0.776115
 49
-0.776115
  0
ENDTAB
  0
TABLE
  2
LAYER
 70
     2
  0
LAYER
  2
0
 70
     0
 62
     7
  6
CONTINUOUS
  0
LAYER
  2
_________2
 70
     0
 62
     7
  6
CONTINUOUS
  0
ENDTAB
  0
TABLE
  2
STYLE
 70
     1
  0
STYLE
  2
STANDARD
 70
     0
 40
0.0
 41
0.0
 50
0.0
 71
     0
 42
0.0
  3
TXT
  4
EXTFONT.SHX
  0
ENDTAB
  0
TABLE
  2
VIEW
 70
     0
  0
ENDTAB
  0
TABLE
  2
UCS
 70
     0
  0
ENDTAB
  0
TABLE
  2
APPID
 70
     3
  0
APPID
  2
ACAD
 70
     0
  0
APPID
  2
ACAD_NAV_VCDISPLAY
 70
     0
  0
APPID
  2
ACAD_MLEADERVER
 70
     0
  0
ENDTAB
  0
TABLE
  2
DIMSTYLE
 70
     1
  0
DIMSTYLE
  2
STANDARD
 70
     0
  3

  4

  5

  6

  7

 40
1.0
 41
0.18
 42
0.0625
 43
0.38
 44
0.18
 45
0.0
 46
0.0
 47
0.0
 48
0.0
140
0.18
141
0.09
142
0.0
143
25.399999999999999
144
1.0
145
0.0
146
1.0
147
0.09
 71
     0
 72
     0
 73
     1
 74
     1
 75
     0
 76
     0
 77
     0
 78
     0
170
     0
171
     2
172
     0
173
     0
174
     0
175
     0
176
     0
177
     0
178
     0
  0
ENDTAB
  0
ENDSEC
  0
SECTION
  2
BLOCKS
  0
BLOCK
  8
0
  2
$MODEL_SPACE
 70
     0
 10
0.0
 20
0.0
 30
0.0
  3
$MODEL_SPACE
  1

  0
ENDBLK
  5
1A
  8
0
  0
BLOCK
 67
     1
  8
0
  2
$PAPER_SPACE
 70
     0
 10
0.0
 20
0.0
 30
0.0
  3
$PAPER_SPACE
  1

  0
ENDBLK
  5
17
 67
     1
  8
0
  0
ENDSEC
  0
SECTION
  2
ENTITIES
  0
TEXT
  5
24
  8
0
 62
     7
 10
87.743999999999986
 20
224.408525
 30
0.0
 40
3.0923400000000001
  1
65
 50
90.0
 41
0.5
 72
     1
 11
87.743999999999986
 21
225.697
 31
0.0
  0
TEXT
  5
25
  8
0
 62
     7
 10
87.743999999999986
 20
231.2873725
 30
0.0
 40
3.0923400000000001
  1
70
 50
90.0
 41
0.5
 72
     1
 11
87.743999999999986
 21
232.447
 31
0.0
  0
TEXT
  5
26
  8
0
 62
     7
 10
71.713679999999997
 20
203.999
 30
0.0
 40
3.0923400000000001
  1
%%c46
 41
0.5
 72
     2
 11
75.836799999999997
 21
203.999
 31
0.0
  0
TEXT
  5
27
  8
0
 62
     7
 10
45.927399999999999
 20
242.33000000000001
 30
0.0
 40
3.0923400000000001
  1
%%c35
 41
0.5
  0
TEXT
  5
28
  8
0
 62
     7
 10
67.763729999999995
 20
245.30799999999999
 30
0.0
 40
3.0923400000000001
  1
100
 41
0.5
 72
     1
 11
69.309899999999999
 21
245.30799999999999
 31
0.0
  0
TEXT
  5
29
  8
0
 62
     7
 10
143.298
 20
117.3559825
 30
0.0
 40
3.0923400000000001
  1
120
 50
90.0
 41
0.5
 72
     1
 11
143.298
 21
119.03100000000001
 31
0.0
  0
TEXT
  5
2A
  8
0
 62
     7
 10
28.1693
 20
114.477135
 30
0.0
 40
3.0923400000000001
  1
175
 50
90.0
 41
0.5
 72
     1
 11
28.1693
 21
116.28100000000001
 31
0.0
  0
TEXT
  5
2B
  8
0
 62
     7
 10
62.377287500000001
 20
132.774
 30
0.0
 40
3.0923400000000001
  1
280
 41
0.5
 72
     1
 11
64.310000000000002
 21
132.774
 31
0.0
  0
TEXT
  5
2C
  8
0
 62
     7
 10
57.763629999999999
 20
245.30799999999999
 30
0.0
 40
3.0923400000000001
  1
100
 41
0.5
 72
     1
 11
59.309800000000003
 21
245.30799999999999
 31
0.0
  0
TEXT
  5
2D
  8
0
 62
     7
 10
89.271724999999989
 20
176.51599999999999
 30
0.0
 40
3.0923400000000001
  1
75
 41
0.5
 72
     1
 11
90.560199999999995
 21
176.51599999999999
 31
0.0
  0
TEXT
  5
2E
  8
0
 62
     7
 10
157.10128750000001
 20
100.301
 30
0.0
 40
3.0923400000000001
  1
270
 41
0.5
 72
     1
 11
159.03399999999999
 21
100.301
 31
0.0
  0
TEXT
  5
2F
  8
0
 62
     7
 10
36.771425000000001
 20
176.51599999999999
 30
0.0
 40
3.0923400000000001
  1
75
 41
0.5
 72
     1
 11
38.059899999999999
 21
176.51599999999999
 31
0.0
  0
TEXT
  5
30
  8
0
 62
     7
 10
62.377487499999987
 20
176.51599999999999
 30
0.0
 40
3.0923400000000001
  1
450
 41
0.5
 72
     1
 11
64.310199999999995
 21
176.51599999999999
 31
0.0
  0
TEXT
  5
31
  8
0
 62
     7
 10
62.505934999999987
 20
169.238
 30
0.0
 40
3.0923400000000001
  1
600
 41
0.5
 72
     1
 11
64.309799999999996
 21
169.238
 31
0.0
  0
TEXT
  5
32
  8
0
 62
     7
 10
101.83
 20
187.908525
 30
0.0
 40
3.0923400000000001
  1
55
 50
90.0
 41
0.5
 72
     1
 11
101.83
 21
189.197
 31
0.0
  0
TEXT
  5
33
  8
0
 62
     7
 10
42.311399999999992
 20
128.322745
 30
0.0
 40
3.0923400000000001
  1
40
 50
90.0
 41
0.5
 72
     2
 11
42.311399999999992
 21
130.642
 31
0.0
  0
TEXT
  5
34
  8
0
 62
     7
 10
101.83
 20
227.393135
 30
0.0
 40
3.0923400000000001
  1
135
 50
90.0
 41
0.5
 72
     1
 11
101.83
 21
229.197
 31
0.0
  0
TEXT
  5
35
  8
0
 62
     7
 10
101.83
 20
205.643135
 30
0.0
 40
3.0923400000000001
  1
300
 50
90.0
 41
0.5
 72
     1
 11
101.83
 21
207.447
 31
0.0
  0
TEXT
  5
36
  8
0
 62
     7
 10
100.574
 20
128.52843999999999
 30
0.0
 40
3.0923400000000001
  1
15
 50
90.0
 41
0.5
 72
     2
 11
100.574
 21
130.59
 31
0.0
  0
TEXT
  5
37
  8
0
 62
     7
 10
108.19
 20
209.143135
 30
0.0
 40
3.0923400000000001
  1
500
 50
90.0
 41
0.5
 72
     1
 11
108.19
 21
210.947
 31
0.0
  0
TEXT
  5
38
  8
0
 62
     7
 10
143.60128750000001
 20
178.821
 30
0.0
 40
3.0923400000000001
  1
550
 41
0.5
 72
     1
 11
145.53399999999999
 21
178.821
 31
0.0
  0
TEXT
  5
39
  8
0
 62
     7
 10
184.464
 20
210.51428749999999
 30
0.0
 40
3.0923400000000001
  1
470
 50
90.0
 41
0.5
 72
     1
 11
184.464
 21
212.447
 31
0.0
  0
TEXT
  5
3A
  8
0
 62
     7
 10
178.10900000000001
 20
220.51428749999999
 30
0.0
 40
3.0923400000000001
  1
270
 50
90.0
 41
0.5
 72
     1
 11
178.10900000000001
 21
222.447
 31
0.0
  0
TEXT
  5
3B
  8
0
 62
     7
 10
139.78775999999999
 20
170.83000000000001
 30
0.0
 40
3.0923400000000001
  1
カウンター切込寸法
 41
0.5
 72
     1
 11
148.03399999999999
 21
170.83000000000001
 31
0.0
  0
TEXT
  5
3C
  8
0
 62
     7
 10
154.10864599999999
 20
239.65100000000001
 30
0.0
 40
3.0923400000000001
  1
洗面器後端
 41
0.5
 72
     1
 11
158.541
 21
239.65100000000001
 31
0.0
  0
TEXT
  5
3D
  8
0
 62
     7
 10
156.68617800000001
 20
217.072
 30
0.0
 40
3.0923400000000001
  1
排水口
 41
0.5
 72
     2
 11
161.73699999999999
 21
217.072
 31
0.0
  0
TEXT
  5
3E
  8
0
 62
     7
 10
124.995965
 20
194.715
 30
0.0
 40
3.0923400000000001
  1
R10
 41
0.5
 72
     2
 11
128.346
 21
194.715
 31
0.0
  0
TEXT
  5
3F
  8
0
 62
     7
 10
163.20099999999999
 20
194.715
 30
0.0
 40
3.0923400000000001
  1
R10
 41
0.5
  0
ARC
  5
40
  8
0
 62
     7
 10
126.628697
 20
122.497478
 30
0.0
 40
1.034162
 50
9.2131410000000002
 51
88.375546000000014
  0
ARC
  5
41
  8
0
 62
     7
 10
128.98638600000001
 20
116.548114
 30
0.0
 40
0.5171160000000001
 50
189.2551729999999
 51
268.37864400000001
  0
ARC
  5
42
  8
0
  6
AIGENLINE001
 62
     7
 10
159.572114
 20
124.21016299999999
 30
0.0
 40
0.821178
 50
90.947171000000026
 51
156.111052
  0
ARC
  5
43
  8
0
  6
AIGENLINE001
 62
     7
 10
127.694496
 20
124.519068
 30
0.0
 40
0.5122200000000001
 50
24.545085000000011
 51
89.135029000000003
  0
ARC
  5
44
  8
0
 62
     7
 10
132.48894899999999
 20
115.511309
 30
0.0
 40
0.519898
 50
80.202929999999995
 51
89.818325999999999
  0
LINE
  5
45
  8
0
 62
     7
 10
42.311399999999992
 20
121.03100000000001
 30
0.0
 11
46.960900000000002
 21
121.03100000000001
 31
0.0
  0
ARC
  5
46
  8
0
 62
     7
 10
78.013458999999997
 20
112.559629
 30
0.0
 40
1.6521429999999999
 50
99.599537999999995
 51
118.441389
  0
ARC
  5
47
  8
0
 62
     7
 10
77.932659000000001
 20
112.84733799999999
 30
0.0
 40
1.3553599999999999
 50
69.977854000000008
 51
98.259780000000006
  0
ARC
  5
48
  8
0
 62
     7
 10
77.801944999999989
 20
112.40995599999999
 30
0.0
 40
1.811261
 50
63.626249000000001
 51
70.830016999999998
  0
ARC
  5
49
  8
0
 62
     7
 10
86.647752999999994
 20
112.179635
 30
0.0
 40
4.2263400000000004
 50
214.46458799999999
 51
219.57140000000001
  0
ARC
  5
4A
  8
0
 62
     7
 10
84.557075999999995
 20
110.478272
 30
0.0
 40
1.531080999999999
 50
220.33403200000001
 51
236.65257500000001
  0
ARC
  5
4B
  8
0
 62
     7
 10
84.310766999999998
 20
110.163749
 30
0.0
 40
1.133421
 50
238.31376299999999
 51
272.0747859999999
  0
ARC
  5
4C
  8
0
 62
     7
 10
64.315519999999992
 20
149.38398000000001
 30
0.0
 40
38.35301900000001
 50
269.991512
 51
275.22718300000003
  0
ARC
  5
4D
  8
0
 62
     7
 10
65.086468000000011
 20
139.59447800000001
 30
0.0
 40
28.534261000000001
 50
275.47642999999999
 51
281.99292300000008
  0
ARC
  5
4E
  8
0
 62
     7
 10
66.176893000000007
 20
134.03028599999999
 30
0.0
 40
22.865112
 50
282.217354
 51
298.89832200000001
  0
ARC
  5
4F
  8
0
 62
     7
 10
65.011774000000003
 20
93.048805999999999
 30
0.0
 40
25.002829999999999
 50
53.538542999999997
 51
57.062103999999998
  0
ARC
  5
50
  8
0
 62
     7
 10
70.611085000000003
 20
100.732483
 30
0.0
 40
15.495737999999999
 50
43.142229999999998
 51
53.305654000000011
  0
ARC
  5
51
  8
0
 62
     7
 10
70.770548000000005
 20
101.043036
 30
0.0
 40
15.167481
 50
35.208789000000003
 51
42.698159999999987
  0
ARC
  5
52
  8
0
 62
     7
 10
85.060030999999995
 20
110.781105
 30
0.0
 40
1.7500340000000001
 50
270.00283999999999
 51
0.00281
  0
LINE
  5
53
  8
0
 62
     7
 10
128.97200000000001
 20
116.03100000000001
 30
0.0
 11
132.49100000000001
 21
116.03100000000001
 31
0.0
  0
LINE
  5
54
  8
0
 62
     7
 10
64.309799999999996
 20
116.03100000000001
 30
0.0
 11
89.310000000000002
 21
116.03100000000001
 31
0.0
  0
LINE
  5
55
  8
0
 62
     7
 10
84.351799999999997
 20
109.03100000000001
 30
0.0
 11
85.060100000000006
 21
109.03100000000001
 31
0.0
  0
LINE
  5
56
  8
0
 62
     7
 10
149.98400000000001
 20
107.831
 30
0.0
 11
149.98400000000001
 21
109.89
 31
0.0
  0
ARC
  5
57
  8
0
 62
     7
 10
142.595057
 20
107.84208
 30
0.0
 40
0.311218
 50
182.01502400000001
 51
267.91918700000002
  0
ARC
  5
58
  8
0
  6
AIGENLINE001
 62
     7
 10
140.60079500000001
 20
132.20890800000001
 30
0.0
 40
20.950044999999999
 50
293.73714200000001
 51
299.15824800000001
  0
ARC
  5
59
  8
0
  6
AIGENLINE001
 62
     7
 10
143.47751199999999
 20
126.91126199999999
 30
0.0
 40
14.922287000000001
 50
299.423047
 51
309.70701100000002
  0
ARC
  5
5A
  8
0
  6
AIGENLINE001
 62
     7
 10
144.4183139999999
 20
125.61903100000001
 30
0.0
 40
13.327491999999999
 50
310.14456300000001
 51
323.104648
  0
ARC
  5
5B
  8
0
  6
AIGENLINE001
 62
     7
 10
140.94658699999999
 20
128.35980499999999
 30
0.0
 40
17.749711999999999
 50
322.75725699999998
 51
328.65885500000002
  0
ARC
  5
5C
  8
0
  6
AIGENLINE001
 62
     7
 10
134.08309700000001
 20
132.66810899999999
 30
0.0
 40
25.852841999999999
 50
328.41565900000001
 51
332.25857999999999
  0
ARC
  5
5D
  8
0
  6
AIGENLINE001
 62
     7
 10
122.17857600000001
 20
139.07629
 30
0.0
 40
39.372134000000003
 50
332.06901099999999
 51
334.22058800000002
  0
ARC
  5
5E
  8
0
  6
AIGENLINE001
 62
     7
 10
101.181524
 20
149.30955299999999
 30
0.0
 40
62.730035000000001
 50
334.14475900000002
 51
335.74519299999997
  0
ARC
  5
5F
  8
0
  6
AIGENLINE001
 62
     7
 10
61.802565999999999
 20
167.21235899999999
 30
0.0
 40
105.987407
 50
335.666382
 51
336.25970599999999
  0
ARC
  5
60
  8
0
  6
AIGENLINE001
 62
     7
 10
144.043958
 20
139.61385000000001
 30
0.0
 40
26.658512999999999
 50
261.98551400000002
 51
265.67657100000002
  0
ARC
  5
61
  8
0
  6
AIGENLINE001
 62
     7
 10
142.92978500000001
 20
131.251957
 30
0.0
 40
18.223058000000002
 50
256.714201
 51
261.78883200000001
  0
ARC
  5
62
  8
0
  6
AIGENLINE001
 62
     7
 10
141.82660100000001
 20
126.407669
 30
0.0
 40
13.254961
 50
246.06707800000001
 51
256.54301800000007
  0
ARC
  5
63
  8
0
  6
AIGENLINE001
 62
     7
 10
141.0464649999999
 20
124.413369
 30
0.0
 40
11.116068
 50
225.52748199999999
 51
245.57245499999999
  0
ARC
  5
64
  8
0
  6
AIGENLINE001
 62
     7
 10
143.15524099999999
 20
126.704375
 30
0.0
 40
14.228590000000001
 50
217.09502800000001
 51
225.93101300000001
  0
ARC
  5
65
  8
0
  6
AIGENLINE001
 62
     7
 10
147.30323799999999
 20
130.003793
 30
0.0
 40
19.527622999999998
 50
211.698511
 51
217.47622400000009
  0
ARC
  5
66
  8
0
  6
AIGENLINE001
 62
     7
 10
153.05819500000001
 20
133.69282100000001
 30
0.0
 40
26.362731
 50
208.40003200000001
 51
211.947968
  0
ARC
  5
67
  8
0
  6
AIGENLINE001
 62
     7
 10
161.34116900000001
 20
138.23638
 30
0.0
 40
35.809909000000012
 50
204.62269000000001
 51
208.49147099999999
  0
ARC
  5
68
  8
0
  6
AIGENLINE001
 62
     7
 10
173.51626300000001
 20
143.97488799999999
 30
0.0
 40
49.269043000000003
 50
202.98567299999999
 51
204.79023799999999
  0
ARC
  5
69
  8
0
 62
     7
 10
146.044174
 20
131.061173
 30
0.0
 40
20.383239
 50
236.3751399999999
 51
258.56356
  0
ARC
  5
6A
  8
0
 62
     7
 10
142.674576
 20
125.769975
 30
0.0
 40
14.111981999999999
 50
230.280261
 51
235.8708
  0
ARC
  5
6B
  8
0
 62
     7
 10
140.05471700000001
 20
122.565461
 30
0.0
 40
9.9730119999999989
 50
223.83132000000001
 51
230.092691
  0
ARC
  5
6C
  8
0
 62
     7
 10
137.98274499999999
 20
120.52247
 30
0.0
 40
7.0635880000000002
 50
219.52167600000001
 51
223.51611800000001
  0
ARC
  5
6D
  8
0
 62
     7
 10
155.228229
 20
113.63346
 30
0.0
 40
4.3686930000000004
 50
314.96185700000001
 51
329.289177
  0
ARC
  5
6E
  8
0
 62
     7
 10
154.077224
 20
114.69663
 30
0.0
 40
5.9346449999999988
 50
305.1538220000001
 51
315.57155499999999
  0
ARC
  5
6F
  8
0
 62
     7
 10
152.89460399999999
 20
116.293769
 30
0.0
 40
7.921542999999998
 50
293.46293300000002
 51
305.49616900000001
  0
ARC
  5
70
  8
0
 62
     7
 10
151.72435899999999
 20
118.75798399999999
 30
0.0
 40
10.648351999999999
 50
281.86984600000011
 51
293.95982600000002
  0
ARC
  5
71
  8
0
 62
     7
 10
151.06851700000001
 20
121.394431
 30
0.0
 40
13.363695
 50
269.67304100000001
 51
282.29657600000002
  0
ARC
  5
72
  8
0
 62
     7
 10
141.850311
 20
110.67641999999999
 30
0.0
 40
0.433814
 50
1.18825
 51
69.453468999999998
  0
ARC
  5
73
  8
0
 62
     7
 10
149.67287400000001
 20
107.842394
 30
0.0
 40
0.3115429999999999
 50
272.13655799999998
 51
357.92927100000003
  0
LINE
  5
74
  8
0
 62
     7
 10
149.98400000000001
 20
108.03100000000001
 30
0.0
 11
150.99199999999999
 21
108.03100000000001
 31
0.0
  0
LINE
  5
75
  8
0
 62
     7
 10
149.684
 20
107.53100000000001
 30
0.0
 11
142.584
 21
107.53100000000001
 31
0.0
  0
LINE
  5
76
  8
0
 62
     7
 10
142.28399999999999
 20
107.831
 30
0.0
 11
142.28399999999999
 21
110.69799999999999
 31
0.0
  0
LINE
  5
77
  8
0
 62
     7
 10
67.559799999999996
 20
107.831
 30
0.0
 11
67.559799999999996
 21
111.167
 31
0.0
  0
LINE
  5
78
  8
0
 62
     7
 10
86.810100000000006
 20
116.03100000000001
 30
0.0
 11
86.810100000000006
 21
110.78100000000001
 31
0.0
  0
LINE
  5
79
  8
0
 62
     7
 10
172.53399999999999
 20
109.03100000000001
 30
0.0
 11
172.53399999999999
 21
125.03100000000001
 31
0.0
  0
LINE
  5
7A
  8
0
 62
     7
 10
128.476
 20
116.465
 30
0.0
 11
127.65000000000001
 21
122.663
 31
0.0
  0
LINE
  5
7B
  8
0
 62
     7
 10
89.310000000000002
 20
116.03100000000001
 30
0.0
 11
89.310000000000002
 21
123.532
 31
0.0
  0
ARC
  5
7C
  8
0
 62
     7
 10
50.606203999999998
 20
112.559629
 30
0.0
 40
1.6521429999999999
 50
61.558591
 51
80.400441999999998
  0
ARC
  5
7D
  8
0
 62
     7
 10
50.687003999999988
 20
112.84733799999999
 30
0.0
 40
1.3553599999999999
 50
81.740200000000002
 51
110.022126
  0
ARC
  5
7E
  8
0
 62
     7
 10
50.81771899999999
 20
112.40995599999999
 30
0.0
 40
1.811261
 50
109.16996399999999
 51
116.37373100000001
  0
ARC
  5
7F
  8
0
 62
     7
 10
41.971910000000001
 20
112.179635
 30
0.0
 40
4.2263400000000004
 50
320.42862000000002
 51
325.5354319999999
  0
ARC
  5
80
  8
0
 62
     7
 10
44.062518999999988
 20
110.47833300000001
 30
0.0
 40
1.531172999999999
 50
303.34848299999999
 51
319.66588999999999
  0
ARC
  5
81
  8
0
 62
     7
 10
44.308900999999999
 20
110.16374999999999
 30
0.0
 40
1.133421999999999
 50
267.92499900000001
 51
301.68625200000002
  0
ARC
  5
82
  8
0
 62
     7
 10
64.304143999999994
 20
149.38398000000001
 30
0.0
 40
38.35301900000001
 50
264.77283699999998
 51
270.00850800000001
  0
ARC
  5
83
  8
0
 62
     7
 10
63.533194999999992
 20
139.59447800000001
 30
0.0
 40
28.534261000000001
 50
258.00709699999999
 51
264.52359000000001
  0
ARC
  5
84
  8
0
 62
     7
 10
62.442770999999993
 20
134.03028599999999
 30
0.0
 40
22.865112
 50
241.101698
 51
257.78266600000001
  0
ARC
  5
85
  8
0
 62
     7
 10
63.607889999999998
 20
93.048805999999999
 30
0.0
 40
25.002829999999999
 50
122.937876
 51
126.461437
  0
ARC
  5
86
  8
0
 62
     7
 10
58.008578
 20
100.732483
 30
0.0
 40
15.495737999999999
 50
126.694326
 51
136.85775000000001
  0
ARC
  5
87
  8
0
 62
     7
 10
57.849114999999998
 20
101.043036
 30
0.0
 40
15.167481
 50
137.30181999999999
 51
144.791191
  0
ARC
  5
88
  8
0
 62
     7
 10
43.559632000000001
 20
110.781104
 30
0.0
 40
1.7500329999999999
 50
179.99715
 51
269.99720000000002
  0
ARC
  5
89
  8
0
 62
     7
 10
61.359949999999998
 20
107.831137
 30
0.0
 40
0.30007
 50
179.99996999999999
 51
270.00002000000001
  0
ARC
  5
8A
  8
0
 62
     7
 10
67.259713000000005
 20
107.831137
 30
0.0
 40
0.30007
 50
270.00002000000001
 51
359.99999000000003
  0
ARC
  5
8B
  8
0
  6
AIGENLINE001
 62
     7
 10
77.848856999999995
 20
121.069914
 30
0.0
 40
1.0393019999999991
 50
182.12108000000001
 51
267.86908099999999
  0
ARC
  5
8C
  8
0
  6
AIGENLINE001
 62
     7
 10
77.848282999999995
 20
120.993199
 30
0.0
 40
1.0387200000000001
 50
92.100432999999981
 51
177.88966600000001
  0
LINE
  5
8D
  8
0
  6
AIGENLINE001
 62
     7
 10
77.810199999999995
 20
122.03100000000001
 30
0.0
 11
78.810199999999995
 21
122.03100000000001
 31
0.0
  0
ARC
  5
8E
  8
0
  6
AIGENLINE001
 62
     7
 10
78.771538000000007
 20
120.992649
 30
0.0
 40
1.03929
 50
2.1394820000000001
 51
87.870378999999986
  0
ARC
  5
8F
  8
0
  6
AIGENLINE001
 62
     7
 10
78.771748000000002
 20
121.06967899999999
 30
0.0
 40
1.039058
 50
272.11847299999999
 51
357.89140600000002
  0
LINE
  5
90
  8
0
  6
AIGENLINE001
 62
     7
 10
78.810199999999995
 20
120.03100000000001
 30
0.0
 11
77.810199999999995
 21
120.03100000000001
 31
0.0
  0
LINE
  5
91
  8
0
  6
AIGENLINE002
 62
     7
 10
176.50999999999999
 20
121.03100000000001
 30
0.0
 11
168.66200000000001
 21
121.03100000000001
 31
0.0
  0
LINE
  5
92
  8
0
  6
AIGENLINE002
 62
     7
 10
81.081000000000003
 20
121.03100000000001
 30
0.0
 11
75.311099999999996
 21
121.03100000000001
 31
0.0
  0
LINE
  5
93
  8
0
  6
AIGENLINE002
 62
     7
 10
165.53399999999999
 20
128.345
 30
0.0
 11
165.53399999999999
 21
120.872
 31
0.0
  0
LINE
  5
94
  8
0
  6
AIGENLINE002
 62
     7
 10
78.310100000000006
 20
123.178
 30
0.0
 11
78.310100000000006
 21
118.592
 31
0.0
  0
ARC
  5
95
  8
0
  6
AIGENLINE001
 62
     7
 10
49.848666999999999
 20
121.069914
 30
0.0
 40
1.0393019999999991
 50
182.12108000000001
 51
267.86908099999999
  0
ARC
  5
96
  8
0
  6
AIGENLINE001
 62
     7
 10
49.848092999999999
 20
120.993199
 30
0.0
 40
1.0387200000000001
 50
92.100432999999981
 51
177.88966600000001
  0
LINE
  5
97
  8
0
  6
AIGENLINE001
 62
     7
 10
49.810000000000002
 20
122.03100000000001
 30
0.0
 11
50.810000000000002
 21
122.03100000000001
 31
0.0
  0
ARC
  5
98
  8
0
  6
AIGENLINE001
 62
     7
 10
50.771346999999999
 20
120.992649
 30
0.0
 40
1.03929
 50
2.1394820000000001
 51
87.870378999999986
  0
ARC
  5
99
  8
0
  6
AIGENLINE001
 62
     7
 10
50.771557999999992
 20
121.06967899999999
 30
0.0
 40
1.039058
 50
272.11847299999999
 51
357.89140600000002
  0
LINE
  5
9A
  8
0
  6
AIGENLINE001
 62
     7
 10
50.810000000000002
 20
120.03100000000001
 30
0.0
 11
49.810000000000002
 21
120.03100000000001
 31
0.0
  0
LINE
  5
9B
  8
0
  6
AIGENLINE002
 62
     7
 10
53.080800000000004
 20
121.03100000000001
 30
0.0
 11
47.310899999999997
 21
121.03100000000001
 31
0.0
  0
ARC
  5
9C
  8
0
  6
AIGENLINE001
 62
     7
 10
64.30991800000001
 20
122.031308
 30
0.0
 40
1.2499750000000001
 50
269.99607200000003
 51
359.99604199999999
  0
ARC
  5
9D
  8
0
  6
AIGENLINE001
 62
     7
 10
64.309744999999992
 20
122.031307
 30
0.0
 40
1.249973999999999
 50
180.00395800000001
 51
270.0039680000001
  0
ARC
  5
9E
  8
0
  6
AIGENLINE001
 62
     7
 10
64.309745999999976
 20
122.03113500000001
 30
0.0
 40
1.2499750000000001
 50
89.996052000000006
 51
179.99602200000001
  0
ARC
  5
9F
  8
0
  6
AIGENLINE001
 62
     7
 10
64.30991800000001
 20
122.03113500000001
 30
0.0
 40
1.2499750000000001
 50
0.003958
 51
90.003928000000016
  0
LINE
  5
A0
  8
0
  6
AIGENLINE002
 62
     7
 10
160.13399999999999
 20
122.03100000000001
 30
0.0
 11
154.364
 21
122.03100000000001
 31
0.0
  0
LINE
  5
A1
  8
0
  6
AIGENLINE002
 62
     7
 10
67.080699999999993
 20
122.03100000000001
 30
0.0
 11
61.310899999999997
 21
122.03100000000001
 31
0.0
  0
LINE
  5
A2
  8
0
 62
     7
 10
64.309799999999996
 20
116.03100000000001
 30
0.0
 11
39.30960000000001
 21
116.03100000000001
 31
0.0
  0
LINE
  5
A3
  8
0
  6
AIGENLINE001
 62
     7
 10
147.834
 20
112.03100000000001
 30
0.0
 11
149.03399999999999
 21
113.03100000000001
 31
0.0
  0
LINE
  5
A4
  8
0
  6
AIGENLINE001
 62
     7
 10
147.834
 20
107.53100000000001
 30
0.0
 11
147.834
 21
112.03100000000001
 31
0.0
  0
LINE
  5
A5
  8
0
  6
AIGENLINE001
 62
     7
 10
143.23400000000001
 20
107.53100000000001
 30
0.0
 11
143.23400000000001
 21
112.03100000000001
 31
0.0
  0
LINE
  5
A6
  8
0
  6
AIGENLINE001
 62
     7
 10
143.23400000000001
 20
112.03100000000001
 30
0.0
 11
142.03399999999999
 21
113.03100000000001
 31
0.0
  0
LINE
  5
A7
  8
0
  6
AIGENLINE001
 62
     7
 10
147.834
 20
112.03100000000001
 30
0.0
 11
143.23400000000001
 21
112.03100000000001
 31
0.0
  0
LINE
  5
A8
  8
0
  6
AIGENLINE001
 62
     7
 10
149.03399999999999
 20
113.03100000000001
 30
0.0
 11
142.03399999999999
 21
113.03100000000001
 31
0.0
  0
LINE
  5
A9
  8
0
 62
     7
 10
67.259699999999995
 20
107.53100000000001
 30
0.0
 11
61.359999999999999
 21
107.53100000000001
 31
0.0
  0
LINE
  5
AA
  8
0
 62
     7
 10
172.53399999999999
 20
109.03100000000001
 30
0.0
 11
132.577
 21
116.024
 31
0.0
  0
LINE
  5
AB
  8
0
 62
     7
 10
172.53399999999999
 20
123.53100000000001
 30
0.0
 11
122.53400000000001
 21
123.53100000000001
 31
0.0
  0
LINE
  5
AC
  8
0
 62
     7
 10
172.53399999999999
 20
125.03100000000001
 30
0.0
 11
123.03400000000001
 21
125.03100000000001
 31
0.0
  0
LINE
  5
AD
  8
0
 62
     7
 10
122.53400000000001
 20
124.53100000000001
 30
0.0
 11
122.53400000000001
 21
123.532
 31
0.0
  0
ARC
  5
AE
  8
0
 62
     7
 10
123.053076
 20
124.512004
 30
0.0
 40
0.519573
 50
92.093641000000005
 51
177.86685600000001
  0
LINE
  5
AF
  8
0
 62
     7
 10
94.310100000000006
 20
123.53100000000001
 30
0.0
 11
34.30960000000001
 21
123.53100000000001
 31
0.0
  0
LINE
  5
B0
  8
0
 62
     7
 10
44.26789999999999
 20
109.03100000000001
 30
0.0
 11
43.559499999999993
 21
109.03100000000001
 31
0.0
  0
LINE
  5
B1
  8
0
 62
     7
 10
93.809899999999999
 20
125.03100000000001
 30
0.0
 11
34.80980000000001
 21
125.03100000000001
 31
0.0
  0
LINE
  5
B2
  8
0
 62
     7
 10
61.059899999999999
 20
107.831
 30
0.0
 11
61.059899999999999
 21
111.167
 31
0.0
  0
LINE
  5
B3
  8
0
 62
     7
 10
41.809600000000003
 20
116.03100000000001
 30
0.0
 11
41.809600000000003
 21
110.78100000000001
 31
0.0
  0
LINE
  5
B4
  8
0
 62
     7
 10
39.30960000000001
 20
116.03100000000001
 30
0.0
 11
39.30960000000001
 21
123.532
 31
0.0
  0
LINE
  5
B5
  8
0
 62
     7
 10
34.30960000000001
 20
124.53100000000001
 30
0.0
 11
34.30960000000001
 21
123.532
 31
0.0
  0
ARC
  5
B6
  8
0
 62
     7
 10
34.828791000000002
 20
124.512004
 30
0.0
 40
0.519573
 50
92.093641000000005
 51
177.86685600000001
  0
LINE
  5
B7
  8
0
 62
     7
 10
94.310100000000006
 20
124.53100000000001
 30
0.0
 11
94.310100000000006
 21
123.532
 31
0.0
  0
ARC
  5
B8
  8
0
 62
     7
 10
93.790873000000005
 20
124.512004
 30
0.0
 40
0.519573
 50
2.133124
 51
87.906339000000017
  0
LINE
  5
B9
  8
0
 62
     7
 10
88.026399999999995
 20
224.65799999999999
 30
0.0
 11
88.618899999999996
 21
222.447
 31
0.0
  0
LINE
  5
BA
  8
0
 62
     7
 10
88.618899999999996
 20
222.447
 30
0.0
 11
89.211500000000001
 21
224.65799999999999
 31
0.0
  0
LINE
  5
BB
  8
0
 62
     7
 10
89.211500000000001
 20
224.65799999999999
 30
0.0
 11
88.026399999999995
 21
224.65799999999999
 31
0.0
  0
LINE
  5
BC
  8
0
 62
     7
 10
89.211500000000001
 20
226.73400000000001
 30
0.0
 11
88.618899999999996
 21
228.94499999999999
 31
0.0
  0
LINE
  5
BD
  8
0
 62
     7
 10
88.618899999999996
 20
228.94499999999999
 30
0.0
 11
88.026399999999995
 21
226.73400000000001
 31
0.0
  0
LINE
  5
BE
  8
0
 62
     7
 10
88.026399999999995
 20
226.73400000000001
 30
0.0
 11
89.211500000000001
 21
226.73400000000001
 31
0.0
  0
LINE
  5
BF
  8
0
 62
     7
 10
88.618899999999996
 20
222.447
 30
0.0
 11
88.618899999999996
 21
228.94499999999999
 31
0.0
  0
LINE
  5
C0
  8
0
 62
     7
 10
88.026399999999995
 20
231.15700000000001
 30
0.0
 11
88.618899999999996
 21
228.94499999999999
 31
0.0
  0
LINE
  5
C1
  8
0
 62
     7
 10
88.618899999999996
 20
228.94499999999999
 30
0.0
 11
89.211500000000001
 21
231.15700000000001
 31
0.0
  0
LINE
  5
C2
  8
0
 62
     7
 10
89.211500000000001
 20
231.15700000000001
 30
0.0
 11
88.026399999999995
 21
231.15700000000001
 31
0.0
  0
LINE
  5
C3
  8
0
 62
     7
 10
89.211500000000001
 20
233.73500000000001
 30
0.0
 11
88.618899999999996
 21
235.947
 31
0.0
  0
LINE
  5
C4
  8
0
 62
     7
 10
88.618899999999996
 20
235.947
 30
0.0
 11
88.026399999999995
 21
233.73500000000001
 31
0.0
  0
LINE
  5
C5
  8
0
 62
     7
 10
88.026399999999995
 20
233.73500000000001
 30
0.0
 11
89.211500000000001
 21
233.73500000000001
 31
0.0
  0
LINE
  5
C6
  8
0
 62
     7
 10
88.618899999999996
 20
228.947
 30
0.0
 11
88.618899999999996
 21
235.947
 31
0.0
  0
LINE
  5
C7
  8
0
 62
     7
 10
89.319000000000003
 20
228.947
 30
0.0
 11
78.706299999999999
 21
228.947
 31
0.0
  0
ARC
  5
C8
  8
0
 62
     7
 10
93.790883999999977
 20
235.42757800000001
 30
0.0
 40
0.5195610000000001
 50
2.130487
 51
87.869502999999995
  0
ARC
  5
C9
  8
0
 62
     7
 10
34.828785000000003
 20
235.427573
 30
0.0
 40
0.5195660000000001
 50
92.131023999999996
 51
177.86894599999999
  0
LINE
  5
CA
  8
0
 62
     7
 10
45.927399999999999
 20
241.63
 30
0.0
 11
51.627000000000002
 21
241.63
 31
0.0
  0
LINE
  5
CB
  8
0
 62
     7
 10
61.090000000000003
 20
231.32900000000001
 30
0.0
 11
63.072299999999998
 21
230.184
 31
0.0
  0
LINE
  5
CC
  8
0
 62
     7
 10
63.072299999999998
 20
230.184
 30
0.0
 11
61.927900000000001
 21
232.167
 31
0.0
  0
LINE
  5
CD
  8
0
 62
     7
 10
61.927900000000001
 20
232.167
 30
0.0
 11
61.090000000000003
 21
231.32900000000001
 31
0.0
  0
LINE
  5
CE
  8
0
 62
     7
 10
67.530000000000001
 20
226.56399999999999
 30
0.0
 11
65.547300000000007
 21
227.709
 31
0.0
  0
LINE
  5
CF
  8
0
 62
     7
 10
65.547300000000007
 20
227.709
 30
0.0
 11
66.691800000000001
 21
225.726
 31
0.0
  0
LINE
  5
D0
  8
0
 62
     7
 10
66.691800000000001
 20
225.726
 30
0.0
 11
67.530000000000001
 21
226.56399999999999
 31
0.0
  0
LINE
  5
D1
  8
0
 62
     7
 10
67.934399999999997
 20
225.322
 30
0.0
 11
51.627000000000002
 21
241.63
 31
0.0
  0
LINE
  5
D2
  8
0
 62
     7
 10
75.836799999999997
 20
203.29900000000001
 30
0.0
 11
69.958100000000002
 21
203.29900000000001
 31
0.0
  0
LINE
  5
D3
  8
0
 62
     7
 10
67.918599999999984
 20
206.17599999999999
 30
0.0
 11
65.935900000000004
 21
207.321
 31
0.0
  0
LINE
  5
D4
  8
0
 62
     7
 10
65.935900000000004
 20
207.321
 30
0.0
 11
67.080699999999993
 21
205.33799999999999
 31
0.0
  0
LINE
  5
D5
  8
0
 62
     7
 10
67.080699999999993
 20
205.33799999999999
 30
0.0
 11
67.918599999999984
 21
206.17599999999999
 31
0.0
  0
LINE
  5
D6
  8
0
 62
     7
 10
60.700400000000002
 20
211.71799999999999
 30
0.0
 11
62.683399999999999
 21
210.57300000000001
 31
0.0
  0
LINE
  5
D7
  8
0
 62
     7
 10
62.683399999999999
 20
210.57300000000001
 30
0.0
 11
61.538200000000003
 21
212.55600000000001
 31
0.0
  0
LINE
  5
D8
  8
0
 62
     7
 10
61.538200000000003
 20
212.55600000000001
 30
0.0
 11
60.700400000000002
 21
211.71799999999999
 31
0.0
  0
LINE
  5
D9
  8
0
 62
     7
 10
58.984699999999989
 20
214.27199999999999
 30
0.0
 11
69.958100000000002
 21
203.29900000000001
 31
0.0
  0
ARC
  5
DA
  8
0
  6
AIGENLINE001
 62
     7
 10
54.309862000000003
 20
228.94681800000001
 30
0.0
 40
1.7499480000000001
 50
270.00002000000001
 51
359.99999000000003
  0
ARC
  5
DB
  8
0
  6
AIGENLINE001
 62
     7
 10
54.309862000000003
 20
228.94681800000001
 30
0.0
 40
1.7499469999999999
 50
179.99996999999999
 51
270.00002000000001
  0
ARC
  5
DC
  8
0
  6
AIGENLINE001
 62
     7
 10
54.309862000000003
 20
228.94681800000001
 30
0.0
 40
1.7499480000000001
 50
90.0
 51
179.99996999999999
  0
ARC
  5
DD
  8
0
  6
AIGENLINE001
 62
     7
 10
54.309862000000003
 20
228.94681800000001
 30
0.0
 40
1.7499480000000001
 50
0.00001
 51
89.999980000000008
  0
LINE
  5
DE
  8
0
  6
AIGENLINE002
 62
     7
 10
50.309899999999999
 20
123.178
 30
0.0
 11
50.309899999999999
 21
118.592
 31
0.0
  0
LINE
  5
DF
  8
0
  6
AIGENLINE002
 62
     7
 10
50.309899999999999
 20
239.39400000000001
 30
0.0
 11
50.309899999999999
 21
231.785
 31
0.0
  0
LINE
  5
E0
  8
0
  6
AIGENLINE002
 62
     7
 10
78.309899999999985
 20
239.39400000000001
 30
0.0
 11
78.309899999999985
 21
231.785
 31
0.0
  0
LINE
  5
E1
  8
0
  6
AIGENLINE002
 62
     7
 10
54.309899999999999
 20
232.13499999999999
 30
0.0
 11
54.309899999999999
 21
225.57599999999999
 31
0.0
  0
ARC
  5
E2
  8
0
  6
AIGENLINE001
 62
     7
 10
74.309972999999999
 20
228.94681800000001
 30
0.0
 40
1.7499480000000001
 50
270.00002000000001
 51
359.99999000000003
  0
ARC
  5
E3
  8
0
  6
AIGENLINE001
 62
     7
 10
74.309972999999999
 20
228.94681800000001
 30
0.0
 40
1.7499469999999999
 50
179.99996999999999
 51
270.00002000000001
  0
ARC
  5
E4
  8
0
  6
AIGENLINE001
 62
     7
 10
74.309973999999997
 20
228.94681800000001
 30
0.0
 40
1.7499480000000001
 50
90.0
 51
179.99996999999999
  0
ARC
  5
E5
  8
0
  6
AIGENLINE001
 62
     7
 10
74.309972999999999
 20
228.94681800000001
 30
0.0
 40
1.7499480000000001
 50
0.00001
 51
89.999980000000008
  0
LINE
  5
E6
  8
0
  6
AIGENLINE002
 62
     7
 10
74.310000000000002
 20
232.13499999999999
 30
0.0
 11
74.310000000000002
 21
225.57599999999999
 31
0.0
  0
ARC
  5
E7
  8
0
 62
     7
 10
64.309831000000003
 20
228.94681800000001
 30
0.0
 40
1.7499480000000001
 50
270.00002000000001
 51
359.99999000000003
  0
ARC
  5
E8
  8
0
 62
     7
 10
64.309831000000003
 20
228.94681800000001
 30
0.0
 40
1.7499469999999999
 50
179.99996999999999
 51
270.00002000000001
  0
ARC
  5
E9
  8
0
 62
     7
 10
64.309832
 20
228.94681800000001
 30
0.0
 40
1.7499480000000001
 50
90.0
 51
179.99996999999999
  0
ARC
  5
EA
  8
0
 62
     7
 10
64.309831000000003
 20
228.94681800000001
 30
0.0
 40
1.7499480000000001
 50
0.00001
 51
89.999980000000008
  0
LINE
  5
EB
  8
0
  6
AIGENLINE002
 62
     7
 10
50.778799999999997
 20
228.947
 30
0.0
 11
78.006200000000007
 21
228.947
 31
0.0
  0
ARC
  5
EC
  8
0
 62
     7
 10
64.309831000000003
 20
208.946707
 30
0.0
 40
3.4998949999999991
 50
270.00002000000001
 51
359.99999000000003
  0
ARC
  5
ED
  8
0
 62
     7
 10
64.309831000000003
 20
208.94670600000001
 30
0.0
 40
3.4998939999999998
 50
179.99996999999999
 51
270.00002000000001
  0
ARC
  5
EE
  8
0
 62
     7
 10
64.309832
 20
208.94670600000001
 30
0.0
 40
3.4998949999999991
 50
90.0
 51
179.99996999999999
  0
ARC
  5
EF
  8
0
 62
     7
 10
64.309831000000003
 20
208.94670600000001
 30
0.0
 40
3.4998949999999991
 50
0.00001
 51
89.999980000000008
  0
ARC
  5
F0
  8
0
 62
     7
 10
64.309831000000003
 20
208.946707
 30
0.0
 40
2.2999610000000001
 50
270.00002000000001
 51
359.99999000000003
  0
ARC
  5
F1
  8
0
 62
     7
 10
64.309831000000003
 20
208.94670600000001
 30
0.0
 40
2.29996
 50
179.99996999999999
 51
270.00002000000001
  0
ARC
  5
F2
  8
0
 62
     7
 10
64.309832
 20
208.94670600000001
 30
0.0
 40
2.2999610000000001
 50
90.0
 51
179.99996999999999
  0
ARC
  5
F3
  8
0
 62
     7
 10
64.309831000000003
 20
208.94670600000001
 30
0.0
 40
2.2999610000000001
 50
0.00001
 51
89.999980000000008
  0
ARC
  5
F4
  8
0
 62
     7
 10
93.271332999999984
 20
186.98532499999999
 30
0.0
 40
1.0394699999999999
 50
272.14903099999998
 51
357.87071900000001
  0
ARC
  5
F5
  8
0
 62
     7
 10
84.733848999999992
 20
220.37067300000001
 30
0.0
 40
2.077453999999999
 50
2.110990999999999
 51
87.908738999999997
  0
ARC
  5
F6
  8
0
 62
     7
 10
84.733032999999992
 20
194.523323
 30
0.0
 40
2.0782720000000001
 50
272.13195200000001
 51
357.88779799999998
  0
LINE
  5
F7
  8
0
 62
     7
 10
86.809899999999985
 20
220.447
 30
0.0
 11
86.809899999999985
 21
194.447
 31
0.0
  0
ARC
  5
F8
  8
0
 62
     7
 10
43.886206000000001
 20
220.370282
 30
0.0
 40
2.0778590000000001
 50
92.101630999999998
 51
177.87859900000001
  0
ARC
  5
F9
  8
0
 62
     7
 10
43.886629999999997
 20
194.52332200000001
 30
0.0
 40
2.0782709999999991
 50
182.11220499999999
 51
267.86808500000001
  0
LINE
  5
FA
  8
0
 62
     7
 10
43.8093
 20
192.446
 30
0.0
 11
84.810299999999998
 21
192.446
 31
0.0
  0
LINE
  5
FB
  8
0
 62
     7
 10
41.809800000000003
 20
220.447
 30
0.0
 11
41.809800000000003
 21
194.447
 31
0.0
  0
ARC
  5
FC
  8
0
 62
     7
 10
35.348010000000002
 20
186.985006
 30
0.0
 40
1.039137999999999
 50
182.11234200000001
 51
267.86794800000001
  0
LINE
  5
FD
  8
0
 62
     7
 10
35.309399999999997
 20
185.947
 30
0.0
 11
93.310299999999998
 21
185.947
 31
0.0
  0
LINE
  5
FE
  8
0
  6
AIGENLINE002
 62
     7
 10
57.525399999999991
 20
208.947
 30
0.0
 11
71.046800000000005
 21
208.947
 31
0.0
  0
LINE
  5
FF
  8
0
 62
     7
 10
60.329300000000003
 20
107.53100000000001
 30
0.0
 11
28.1693
 21
107.53100000000001
 31
0.0
  0
LINE
  5
100
  8
0
 62
     7
 10
33.759700000000009
 20
125.03100000000001
 30
0.0
 11
28.1693
 21
125.03100000000001
 31
0.0
  0
LINE
  5
101
  8
0
 62
     7
 10
144.59
 20
122.81999999999999
 30
0.0
 11
143.99799999999999
 21
125.03100000000001
 31
0.0
  0
LINE
  5
102
  8
0
 62
     7
 10
143.99799999999999
 20
125.03100000000001
 30
0.0
 11
143.405
 21
122.81999999999999
 31
0.0
  0
LINE
  5
103
  8
0
 62
     7
 10
143.405
 20
122.81999999999999
 30
0.0
 11
144.59
 21
122.81999999999999
 31
0.0
  0
LINE
  5
104
  8
0
 62
     7
 10
143.405
 20
115.24299999999999
 30
0.0
 11
143.99799999999999
 21
113.03100000000001
 31
0.0
  0
LINE
  5
105
  8
0
 62
     7
 10
143.99799999999999
 20
113.03100000000001
 30
0.0
 11
144.59
 21
115.24299999999999
 31
0.0
  0
LINE
  5
106
  8
0
 62
     7
 10
144.59
 20
115.24299999999999
 30
0.0
 11
143.405
 21
115.24299999999999
 31
0.0
  0
LINE
  5
107
  8
0
 62
     7
 10
143.99799999999999
 20
125.03100000000001
 30
0.0
 11
143.99799999999999
 21
113.03100000000001
 31
0.0
  0
LINE
  5
108
  8
0
 62
     7
 10
29.462
 20
122.81999999999999
 30
0.0
 11
28.869399999999999
 21
125.03100000000001
 31
0.0
  0
LINE
  5
109
  8
0
 62
     7
 10
28.869399999999999
 20
125.03100000000001
 30
0.0
 11
28.276800000000001
 21
122.81999999999999
 31
0.0
  0
LINE
  5
10A
  8
0
 62
     7
 10
28.276800000000001
 20
122.81999999999999
 30
0.0
 11
29.462
 21
122.81999999999999
 31
0.0
  0
LINE
  5
10B
  8
0
 62
     7
 10
28.276800000000001
 20
109.74299999999999
 30
0.0
 11
28.869399999999999
 21
107.53100000000001
 31
0.0
  0
LINE
  5
10C
  8
0
 62
     7
 10
28.869399999999999
 20
107.53100000000001
 30
0.0
 11
29.462
 21
109.74299999999999
 31
0.0
  0
LINE
  5
10D
  8
0
 62
     7
 10
29.462
 20
109.74299999999999
 30
0.0
 11
28.276800000000001
 21
109.74299999999999
 31
0.0
  0
LINE
  5
10E
  8
0
 62
     7
 10
28.869399999999999
 20
125.03100000000001
 30
0.0
 11
28.869399999999999
 21
107.53100000000001
 31
0.0
  0
LINE
  5
10F
  8
0
 62
     7
 10
42.418900000000001
 20
127.24299999999999
 30
0.0
 11
43.011400000000002
 21
125.03100000000001
 31
0.0
  0
LINE
  5
110
  8
0
 62
     7
 10
43.011400000000002
 20
125.03100000000001
 30
0.0
 11
43.603999999999999
 21
127.24299999999999
 31
0.0
  0
LINE
  5
111
  8
0
 62
     7
 10
43.603999999999999
 20
127.24299999999999
 30
0.0
 11
42.418900000000001
 21
127.24299999999999
 31
0.0
  0
LINE
  5
112
  8
0
 62
     7
 10
43.603999999999999
 20
118.81999999999999
 30
0.0
 11
43.011400000000002
 21
121.03100000000001
 31
0.0
  0
LINE
  5
113
  8
0
 62
     7
 10
43.011400000000002
 20
121.03100000000001
 30
0.0
 11
42.418900000000001
 21
118.81999999999999
 31
0.0
  0
LINE
  5
114
  8
0
 62
     7
 10
42.418900000000001
 20
118.81999999999999
 30
0.0
 11
43.603999999999999
 21
118.81999999999999
 31
0.0
  0
LINE
  5
115
  8
0
 62
     7
 10
43.011400000000002
 20
118.21899999999999
 30
0.0
 11
43.011400000000002
 21
130.642
 31
0.0
  0
LINE
  5
116
  8
0
 62
     7
 10
50.309899999999999
 20
124.15900000000001
 30
0.0
 11
50.309899999999999
 21
132.774
 31
0.0
  0
LINE
  5
117
  8
0
 62
     7
 10
78.310100000000006
 20
124.15900000000001
 30
0.0
 11
78.310100000000006
 21
132.774
 31
0.0
  0
LINE
  5
118
  8
0
 62
     7
 10
76.098699999999994
 20
131.48099999999999
 30
0.0
 11
78.310100000000006
 21
132.07400000000001
 31
0.0
  0
LINE
  5
119
  8
0
 62
     7
 10
78.310100000000006
 20
132.07400000000001
 30
0.0
 11
76.098699999999994
 21
132.666
 31
0.0
  0
LINE
  5
11A
  8
0
 62
     7
 10
76.098699999999994
 20
132.666
 30
0.0
 11
76.098699999999994
 21
131.48099999999999
 31
0.0
  0
LINE
  5
11B
  8
0
 62
     7
 10
52.521299999999997
 20
132.666
 30
0.0
 11
50.309899999999999
 21
132.07400000000001
 31
0.0
  0
LINE
  5
11C
  8
0
 62
     7
 10
50.309899999999999
 20
132.07400000000001
 30
0.0
 11
52.521299999999997
 21
131.48099999999999
 31
0.0
  0
LINE
  5
11D
  8
0
 62
     7
 10
52.521299999999997
 20
131.48099999999999
 30
0.0
 11
52.521299999999997
 21
132.666
 31
0.0
  0
LINE
  5
11E
  8
0
 62
     7
 10
78.310100000000006
 20
132.07400000000001
 30
0.0
 11
50.309899999999999
 21
132.07400000000001
 31
0.0
  0
LINE
  5
11F
  8
0
 62
     7
 10
54.309699999999999
 20
232.65700000000001
 30
0.0
 11
54.309699999999999
 21
245.30799999999999
 31
0.0
  0
LINE
  5
120
  8
0
 62
     7
 10
74.310000000000002
 20
232.65700000000001
 30
0.0
 11
74.310000000000002
 21
245.30799999999999
 31
0.0
  0
LINE
  5
121
  8
0
 62
     7
 10
72.098600000000005
 20
244.01499999999999
 30
0.0
 11
74.310000000000002
 21
244.608
 31
0.0
  0
LINE
  5
122
  8
0
 62
     7
 10
74.310000000000002
 20
244.608
 30
0.0
 11
72.098600000000005
 21
245.20099999999999
 31
0.0
  0
LINE
  5
123
  8
0
 62
     7
 10
72.098600000000005
 20
245.20099999999999
 30
0.0
 11
72.098600000000005
 21
244.01499999999999
 31
0.0
  0
LINE
  5
124
  8
0
 62
     7
 10
66.521299999999997
 20
245.20099999999999
 30
0.0
 11
64.309799999999996
 21
244.608
 31
0.0
  0
LINE
  5
125
  8
0
 62
     7
 10
64.309799999999996
 20
244.608
 30
0.0
 11
66.521299999999997
 21
244.01499999999999
 31
0.0
  0
LINE
  5
126
  8
0
 62
     7
 10
66.521299999999997
 20
244.01499999999999
 30
0.0
 11
66.521299999999997
 21
245.20099999999999
 31
0.0
  0
LINE
  5
127
  8
0
 62
     7
 10
64.309799999999996
 20
239.79599999999999
 30
0.0
 11
64.309799999999996
 21
245.30799999999999
 31
0.0
  0
LINE
  5
128
  8
0
 62
     7
 10
62.098399999999991
 20
244.01499999999999
 30
0.0
 11
64.309799999999996
 21
244.608
 31
0.0
  0
LINE
  5
129
  8
0
 62
     7
 10
64.309799999999996
 20
244.608
 30
0.0
 11
62.098399999999991
 21
245.20099999999999
 31
0.0
  0
LINE
  5
12A
  8
0
 62
     7
 10
62.098399999999991
 20
245.20099999999999
 30
0.0
 11
62.098399999999991
 21
244.01499999999999
 31
0.0
  0
LINE
  5
12B
  8
0
 62
     7
 10
56.521099999999997
 20
245.20099999999999
 30
0.0
 11
54.309699999999999
 21
244.608
 31
0.0
  0
LINE
  5
12C
  8
0
 62
     7
 10
54.309699999999999
 20
244.608
 30
0.0
 11
56.521099999999997
 21
244.01499999999999
 31
0.0
  0
LINE
  5
12D
  8
0
 62
     7
 10
56.521099999999997
 20
244.01499999999999
 30
0.0
 11
56.521099999999997
 21
245.20099999999999
 31
0.0
  0
LINE
  5
12E
  8
0
 62
     7
 10
74.310000000000002
 20
244.608
 30
0.0
 11
54.309699999999999
 21
244.608
 31
0.0
  0
LINE
  5
12F
  8
0
 62
     7
 10
86.810199999999995
 20
175.11600000000001
 30
0.0
 11
86.810199999999995
 21
192.08099999999999
 31
0.0
  0
LINE
  5
130
  8
0
 62
     7
 10
145.53399999999999
 20
98.900700000000015
 30
0.0
 11
145.53399999999999
 21
104.839
 31
0.0
  0
LINE
  5
131
  8
0
 62
     7
 10
172.53399999999999
 20
98.900700000000015
 30
0.0
 11
172.53399999999999
 21
108.331
 31
0.0
  0
LINE
  5
132
  8
0
 62
     7
 10
147.74600000000001
 20
100.193
 30
0.0
 11
145.53399999999999
 21
99.600800000000007
 31
0.0
  0
LINE
  5
133
  8
0
 62
     7
 10
145.53399999999999
 20
99.600800000000007
 30
0.0
 11
147.74600000000001
 21
99.008200000000016
 31
0.0
  0
LINE
  5
134
  8
0
 62
     7
 10
147.74600000000001
 20
99.008200000000016
 30
0.0
 11
147.74600000000001
 21
100.193
 31
0.0
  0
LINE
  5
135
  8
0
 62
     7
 10
170.32300000000001
 20
99.008200000000016
 30
0.0
 11
172.53399999999999
 21
99.600800000000007
 31
0.0
  0
LINE
  5
136
  8
0
 62
     7
 10
172.53399999999999
 20
99.600800000000007
 30
0.0
 11
170.32300000000001
 21
100.193
 31
0.0
  0
LINE
  5
137
  8
0
 62
     7
 10
170.32300000000001
 20
100.193
 30
0.0
 11
170.32300000000001
 21
99.008200000000016
 31
0.0
  0
LINE
  5
138
  8
0
 62
     7
 10
172.53399999999999
 20
99.600800000000007
 30
0.0
 11
145.53399999999999
 21
99.600800000000007
 31
0.0
  0
LINE
  5
139
  8
0
 62
     7
 10
41.809899999999999
 20
175.11600000000001
 30
0.0
 11
41.809899999999999
 21
192.08099999999999
 31
0.0
  0
LINE
  5
13A
  8
0
 62
     7
 10
34.309899999999999
 20
167.83799999999999
 30
0.0
 11
34.309899999999999
 21
185.24700000000001
 31
0.0
  0
LINE
  5
13B
  8
0
 62
     7
 10
94.310100000000006
 20
167.83799999999999
 30
0.0
 11
94.310100000000006
 21
185.24700000000001
 31
0.0
  0
LINE
  5
13C
  8
0
 62
     7
 10
39.598700000000001
 20
175.22399999999999
 30
0.0
 11
41.809899999999999
 21
175.81599999999989
 31
0.0
  0
LINE
  5
13D
  8
0
 62
     7
 10
41.809899999999999
 20
175.81599999999989
 30
0.0
 11
39.598700000000001
 21
176.40899999999999
 31
0.0
  0
LINE
  5
13E
  8
0
 62
     7
 10
39.598700000000001
 20
176.40899999999999
 30
0.0
 11
39.598700000000001
 21
175.22399999999999
 31
0.0
  0
LINE
  5
13F
  8
0
 62
     7
 10
36.521299999999997
 20
176.40899999999999
 30
0.0
 11
34.309899999999999
 21
175.81599999999989
 31
0.0
  0
LINE
  5
140
  8
0
 62
     7
 10
34.309899999999999
 20
175.81599999999989
 30
0.0
 11
36.521299999999997
 21
175.22399999999999
 31
0.0
  0
LINE
  5
141
  8
0
 62
     7
 10
36.521299999999997
 20
175.22399999999999
 30
0.0
 11
36.521299999999997
 21
176.40899999999999
 31
0.0
  0
LINE
  5
142
  8
0
 62
     7
 10
44.0214
 20
176.40899999999999
 30
0.0
 11
41.809899999999999
 21
175.81599999999989
 31
0.0
  0
LINE
  5
143
  8
0
 62
     7
 10
41.809899999999999
 20
175.81599999999989
 30
0.0
 11
44.0214
 21
175.22399999999999
 31
0.0
  0
LINE
  5
144
  8
0
 62
     7
 10
44.0214
 20
175.22399999999999
 30
0.0
 11
44.0214
 21
176.40899999999999
 31
0.0
  0
LINE
  5
145
  8
0
 62
     7
 10
84.59899999999999
 20
175.22399999999999
 30
0.0
 11
86.810199999999995
 21
175.81599999999989
 31
0.0
  0
LINE
  5
146
  8
0
 62
     7
 10
86.810199999999995
 20
175.81599999999989
 30
0.0
 11
84.59899999999999
 21
176.40899999999999
 31
0.0
  0
LINE
  5
147
  8
0
 62
     7
 10
84.59899999999999
 20
176.40899999999999
 30
0.0
 11
84.59899999999999
 21
175.22399999999999
 31
0.0
  0
LINE
  5
148
  8
0
 62
     7
 10
92.098799999999997
 20
175.22399999999999
 30
0.0
 11
94.310100000000006
 21
175.81599999999989
 31
0.0
  0
LINE
  5
149
  8
0
 62
     7
 10
94.310100000000006
 20
175.81599999999989
 30
0.0
 11
92.098799999999997
 21
176.40899999999999
 31
0.0
  0
LINE
  5
14A
  8
0
 62
     7
 10
92.098799999999997
 20
176.40899999999999
 30
0.0
 11
92.098799999999997
 21
175.22399999999999
 31
0.0
  0
LINE
  5
14B
  8
0
 62
     7
 10
89.021699999999996
 20
176.40899999999999
 30
0.0
 11
86.810199999999995
 21
175.81599999999989
 31
0.0
  0
LINE
  5
14C
  8
0
 62
     7
 10
86.810199999999995
 20
175.81599999999989
 30
0.0
 11
89.021699999999996
 21
175.22399999999999
 31
0.0
  0
LINE
  5
14D
  8
0
 62
     7
 10
89.021699999999996
 20
175.22399999999999
 30
0.0
 11
89.021699999999996
 21
176.40899999999999
 31
0.0
  0
LINE
  5
14E
  8
0
 62
     7
 10
94.310100000000006
 20
175.81599999999989
 30
0.0
 11
34.309899999999999
 21
175.81599999999989
 31
0.0
  0
LINE
  5
14F
  8
0
 62
     7
 10
92.098699999999994
 20
167.946
 30
0.0
 11
94.310100000000006
 21
168.53800000000001
 31
0.0
  0
LINE
  5
150
  8
0
 62
     7
 10
94.310100000000006
 20
168.53800000000001
 30
0.0
 11
92.098699999999994
 21
169.13099999999989
 31
0.0
  0
LINE
  5
151
  8
0
 62
     7
 10
92.098699999999994
 20
169.13099999999989
 30
0.0
 11
92.098699999999994
 21
167.946
 31
0.0
  0
LINE
  5
152
  8
0
 62
     7
 10
36.521299999999997
 20
169.13099999999989
 30
0.0
 11
34.309899999999999
 21
168.53800000000001
 31
0.0
  0
LINE
  5
153
  8
0
 62
     7
 10
34.309899999999999
 20
168.53800000000001
 30
0.0
 11
36.521299999999997
 21
167.946
 31
0.0
  0
LINE
  5
154
  8
0
 62
     7
 10
36.521299999999997
 20
167.946
 30
0.0
 11
36.521299999999997
 21
169.13099999999989
 31
0.0
  0
LINE
  5
155
  8
0
 62
     7
 10
94.310100000000006
 20
168.53800000000001
 30
0.0
 11
34.309899999999999
 21
168.53800000000001
 31
0.0
  0
LINE
  5
156
  8
0
 62
     7
 10
103.23
 20
192.447
 30
0.0
 11
87.596100000000007
 21
192.447
 31
0.0
  0
LINE
  5
157
  8
0
 62
     7
 10
103.23
 20
222.447
 30
0.0
 11
86.406099999999995
 21
222.447
 31
0.0
  0
LINE
  5
158
  8
0
 62
     7
 10
103.123
 20
233.73500000000001
 30
0.0
 11
102.53
 21
235.947
 31
0.0
  0
LINE
  5
159
  8
0
 62
     7
 10
102.53
 20
235.947
 30
0.0
 11
101.938
 21
233.73500000000001
 31
0.0
  0
LINE
  5
15A
  8
0
 62
     7
 10
101.938
 20
233.73500000000001
 30
0.0
 11
103.123
 21
233.73500000000001
 31
0.0
  0
LINE
  5
15B
  8
0
 62
     7
 10
103.123
 20
190.23500000000001
 30
0.0
 11
102.53
 21
192.447
 31
0.0
  0
LINE
  5
15C
  8
0
 62
     7
 10
102.53
 20
192.447
 30
0.0
 11
101.938
 21
190.23500000000001
 31
0.0
  0
LINE
  5
15D
  8
0
 62
     7
 10
101.938
 20
190.23500000000001
 30
0.0
 11
103.123
 21
190.23500000000001
 31
0.0
  0
LINE
  5
15E
  8
0
 62
     7
 10
103.123
 20
220.23500000000001
 30
0.0
 11
102.53
 21
222.447
 31
0.0
  0
LINE
  5
15F
  8
0
 62
     7
 10
102.53
 20
222.447
 30
0.0
 11
101.938
 21
220.23500000000001
 31
0.0
  0
LINE
  5
160
  8
0
 62
     7
 10
101.938
 20
220.23500000000001
 30
0.0
 11
103.123
 21
220.23500000000001
 31
0.0
  0
LINE
  5
161
  8
0
 62
     7
 10
101.938
 20
188.1579999999999
 30
0.0
 11
102.53
 21
185.947
 31
0.0
  0
LINE
  5
162
  8
0
 62
     7
 10
102.53
 20
185.947
 30
0.0
 11
103.123
 21
188.1579999999999
 31
0.0
  0
LINE
  5
163
  8
0
 62
     7
 10
103.123
 20
188.1579999999999
 30
0.0
 11
101.938
 21
188.1579999999999
 31
0.0
  0
LINE
  5
164
  8
0
 62
     7
 10
101.938
 20
224.65799999999999
 30
0.0
 11
102.53
 21
222.447
 31
0.0
  0
LINE
  5
165
  8
0
 62
     7
 10
102.53
 20
222.447
 30
0.0
 11
103.123
 21
224.65799999999999
 31
0.0
  0
LINE
  5
166
  8
0
 62
     7
 10
103.123
 20
224.65799999999999
 30
0.0
 11
101.938
 21
224.65799999999999
 31
0.0
  0
LINE
  5
167
  8
0
 62
     7
 10
101.938
 20
194.65799999999999
 30
0.0
 11
102.53
 21
192.447
 31
0.0
  0
LINE
  5
168
  8
0
 62
     7
 10
102.53
 20
192.447
 30
0.0
 11
103.123
 21
194.65799999999999
 31
0.0
  0
LINE
  5
169
  8
0
 62
     7
 10
103.123
 20
194.65799999999999
 30
0.0
 11
101.938
 21
194.65799999999999
 31
0.0
  0
LINE
  5
16A
  8
0
 62
     7
 10
102.53
 20
235.947
 30
0.0
 11
102.53
 21
185.947
 31
0.0
  0
LINE
  5
16B
  8
0
 62
     7
 10
101.974
 20
123.53100000000001
 30
0.0
 11
95.010099999999994
 21
123.53100000000001
 31
0.0
  0
LINE
  5
16C
  8
0
 62
     7
 10
101.867
 20
121.319
 30
0.0
 11
101.274
 21
123.53100000000001
 31
0.0
  0
LINE
  5
16D
  8
0
 62
     7
 10
101.274
 20
123.53100000000001
 30
0.0
 11
100.682
 21
121.319
 31
0.0
  0
LINE
  5
16E
  8
0
 62
     7
 10
100.682
 20
121.319
 30
0.0
 11
101.867
 21
121.319
 31
0.0
  0
LINE
  5
16F
  8
0
 62
     7
 10
100.682
 20
127.24299999999999
 30
0.0
 11
101.274
 21
125.03100000000001
 31
0.0
  0
LINE
  5
170
  8
0
 62
     7
 10
101.274
 20
125.03100000000001
 30
0.0
 11
101.867
 21
127.24299999999999
 31
0.0
  0
LINE
  5
171
  8
0
 62
     7
 10
101.867
 20
127.24299999999999
 30
0.0
 11
100.682
 21
127.24299999999999
 31
0.0
  0
LINE
  5
172
  8
0
 62
     7
 10
101.274
 20
130.59
 30
0.0
 11
101.274
 21
119.724
 31
0.0
  0
LINE
  5
173
  8
0
 62
     7
 10
101.974
 20
125.03100000000001
 30
0.0
 11
94.999799999999979
 21
125.03100000000001
 31
0.0
  0
LINE
  5
174
  8
0
 62
     7
 10
109.59
 20
185.947
 30
0.0
 11
95.010099999999994
 21
185.947
 31
0.0
  0
LINE
  5
175
  8
0
 62
     7
 10
109.59
 20
235.947
 30
0.0
 11
95.010099999999994
 21
235.947
 31
0.0
  0
LINE
  5
176
  8
0
 62
     7
 10
43.810000000000002
 20
222.447
 30
0.0
 11
84.809700000000007
 21
222.447
 31
0.0
  0
LINE
  5
177
  8
0
 62
     7
 10
34.8095
 20
235.947
 30
0.0
 11
93.810199999999995
 21
235.947
 31
0.0
  0
LINE
  5
178
  8
0
 62
     7
 10
94.310100000000006
 20
235.447
 30
0.0
 11
94.310100000000006
 21
186.947
 31
0.0
  0
LINE
  5
179
  8
0
  6
AIGENLINE002
 62
     7
 10
145.53399999999999
 20
128.47
 30
0.0
 11
145.53399999999999
 21
105.539
 31
0.0
  0
LINE
  5
17A
  8
0
  6
AIGENLINE002
 62
     7
 10
64.309799999999996
 20
128.47
 30
0.0
 11
64.309799999999996
 21
105.539
 31
0.0
  0
LINE
  5
17B
  8
0
  6
AIGENLINE002
 62
     7
 10
64.309799999999996
 20
239.096
 30
0.0
 11
64.309799999999996
 21
182.26599999999999
 31
0.0
  0
LINE
  5
17C
  8
0
 62
     7
 10
109.482
 20
233.73500000000001
 30
0.0
 11
108.89
 21
235.947
 31
0.0
  0
LINE
  5
17D
  8
0
 62
     7
 10
108.89
 20
235.947
 30
0.0
 11
108.297
 21
233.73500000000001
 31
0.0
  0
LINE
  5
17E
  8
0
 62
     7
 10
108.297
 20
233.73500000000001
 30
0.0
 11
109.482
 21
233.73500000000001
 31
0.0
  0
LINE
  5
17F
  8
0
 62
     7
 10
108.297
 20
188.1579999999999
 30
0.0
 11
108.89
 21
185.947
 31
0.0
  0
LINE
  5
180
  8
0
 62
     7
 10
108.89
 20
185.947
 30
0.0
 11
109.482
 21
188.1579999999999
 31
0.0
  0
LINE
  5
181
  8
0
 62
     7
 10
109.482
 20
188.1579999999999
 30
0.0
 11
108.297
 21
188.1579999999999
 31
0.0
  0
LINE
  5
182
  8
0
 62
     7
 10
108.89
 20
235.947
 30
0.0
 11
108.89
 21
185.947
 31
0.0
  0
LINE
  5
183
  8
0
 62
     7
 10
34.30960000000001
 20
235.447
 30
0.0
 11
34.30960000000001
 21
186.947
 31
0.0
  0
ARC
  5
184
  8
0
  6
AIGENLINE001
 62
     7
 10
145.534155
 20
208.946707
 30
0.0
 40
3.4998949999999991
 50
270.00002000000001
 51
359.99999000000003
  0
ARC
  5
185
  8
0
  6
AIGENLINE001
 62
     7
 10
145.534155
 20
208.94670600000001
 30
0.0
 40
3.4998939999999998
 50
179.99996999999999
 51
270.00002000000001
  0
ARC
  5
186
  8
0
  6
AIGENLINE001
 62
     7
 10
145.534156
 20
208.94670600000001
 30
0.0
 40
3.4998949999999991
 50
90.0
 51
179.99996999999999
  0
ARC
  5
187
  8
0
  6
AIGENLINE001
 62
     7
 10
145.534155
 20
208.94670600000001
 30
0.0
 40
3.4998949999999991
 50
0.00001
 51
89.999980000000008
  0
LINE
  5
188
  8
0
 62
     7
 10
160.05699999999999
 20
238.572
 30
0.0
 11
158.541
 21
235.947
 31
0.0
  0
LINE
  5
189
  8
0
 62
     7
 10
158.541
 20
235.947
 30
0.0
 11
157.02500000000001
 21
238.572
 31
0.0
  0
LINE
  5
18A
  8
0
 62
     7
 10
157.02500000000001
 20
238.572
 30
0.0
 11
160.05699999999999
 21
238.572
 31
0.0
  0
ARC
  5
18B
  8
0
  6
AIGENLINE001
 62
     7
 10
145.534155
 20
208.946707
 30
0.0
 40
2.2999610000000001
 50
270.00002000000001
 51
359.99999000000003
  0
ARC
  5
18C
  8
0
  6
AIGENLINE001
 62
     7
 10
145.534155
 20
208.94670600000001
 30
0.0
 40
2.29996
 50
179.99996999999999
 51
270.00002000000001
  0
ARC
  5
18D
  8
0
  6
AIGENLINE001
 62
     7
 10
145.534156
 20
208.94670600000001
 30
0.0
 40
2.2999610000000001
 50
90.0
 51
179.99996999999999
  0
ARC
  5
18E
  8
0
  6
AIGENLINE001
 62
     7
 10
145.534155
 20
208.94670600000001
 30
0.0
 40
2.2999610000000001
 50
0.00001
 51
89.999980000000008
  0
ARC
  5
18F
  8
0
 62
     7
 10
171.99570800000001
 20
189.98533399999999
 30
0.0
 40
1.0394699999999999
 50
272.14903099999998
 51
357.87071900000001
  0
ARC
  5
190
  8
0
 62
     7
 10
119.072278
 20
189.98500899999999
 30
0.0
 40
1.0391330000000001
 50
182.11206799999999
 51
267.86822100000001
  0
LINE
  5
191
  8
0
 62
     7
 10
119.03400000000001
 20
188.947
 30
0.0
 11
172.035
 21
188.947
 31
0.0
  0
LINE
  5
192
  8
0
  6
AIGENLINE002
 62
     7
 10
138.75
 20
208.947
 30
0.0
 11
152.27099999999999
 21
208.947
 31
0.0
  0
LINE
  5
193
  8
0
 62
     7
 10
118.03400000000001
 20
177.42099999999999
 30
0.0
 11
118.03400000000001
 21
188.24700000000001
 31
0.0
  0
LINE
  5
194
  8
0
 62
     7
 10
173.03399999999999
 20
177.42099999999999
 30
0.0
 11
173.03399999999999
 21
188.24700000000001
 31
0.0
  0
LINE
  5
195
  8
0
 62
     7
 10
170.82300000000001
 20
177.529
 30
0.0
 11
173.03399999999999
 21
178.1209999999999
 31
0.0
  0
LINE
  5
196
  8
0
 62
     7
 10
173.03399999999999
 20
178.1209999999999
 30
0.0
 11
170.82300000000001
 21
178.714
 31
0.0
  0
LINE
  5
197
  8
0
 62
     7
 10
170.82300000000001
 20
178.714
 30
0.0
 11
170.82300000000001
 21
177.529
 31
0.0
  0
LINE
  5
198
  8
0
 62
     7
 10
120.246
 20
178.714
 30
0.0
 11
118.03400000000001
 21
178.1209999999999
 31
0.0
  0
LINE
  5
199
  8
0
 62
     7
 10
118.03400000000001
 20
178.1209999999999
 30
0.0
 11
120.246
 21
177.529
 31
0.0
  0
LINE
  5
19A
  8
0
 62
     7
 10
120.246
 20
177.529
 30
0.0
 11
120.246
 21
178.714
 31
0.0
  0
LINE
  5
19B
  8
0
 62
     7
 10
173.03399999999999
 20
178.1209999999999
 30
0.0
 11
118.03400000000001
 21
178.1209999999999
 31
0.0
  0
LINE
  5
19C
  8
0
 62
     7
 10
185.864
 20
188.946
 30
0.0
 11
173.73500000000001
 21
188.946
 31
0.0
  0
LINE
  5
19D
  8
0
 62
     7
 10
170.75899999999999
 20
190.38499999999999
 30
0.0
 11
172.74199999999999
 21
189.24000000000001
 31
0.0
  0
LINE
  5
19E
  8
0
 62
     7
 10
172.74199999999999
 20
189.24000000000001
 30
0.0
 11
171.59700000000001
 21
191.22300000000001
 31
0.0
  0
LINE
  5
19F
  8
0
 62
     7
 10
171.59700000000001
 20
191.22300000000001
 30
0.0
 11
170.75899999999999
 21
190.38499999999999
 31
0.0
  0
LINE
  5
1A0
  8
0
 62
     7
 10
167.96600000000001
 20
194.01499999999999
 30
0.0
 11
172.74199999999999
 21
189.24000000000001
 31
0.0
  0
LINE
  5
1A1
  8
0
 62
     7
 10
163.20099999999999
 20
194.01499999999999
 30
0.0
 11
167.96600000000001
 21
194.01499999999999
 31
0.0
  0
LINE
  5
1A2
  8
0
 62
     7
 10
148.964
 20
213.58000000000001
 30
0.0
 11
147.81899999999999
 21
211.59700000000001
 31
0.0
  0
LINE
  5
1A3
  8
0
 62
     7
 10
147.81899999999999
 20
211.59700000000001
 30
0.0
 11
149.80199999999999
 21
212.74199999999999
 31
0.0
  0
LINE
  5
1A4
  8
0
 62
     7
 10
149.80199999999999
 20
212.74199999999999
 30
0.0
 11
148.964
 21
213.58000000000001
 31
0.0
  0
LINE
  5
1A5
  8
0
 62
     7
 10
152.595
 20
216.37200000000001
 30
0.0
 11
147.81899999999999
 21
211.59700000000001
 31
0.0
  0
LINE
  5
1A6
  8
0
 62
     7
 10
161.73699999999999
 20
216.37200000000001
 30
0.0
 11
152.595
 21
216.37200000000001
 31
0.0
  0
LINE
  5
1A7
  8
0
 62
     7
 10
119.47199999999999
 20
191.22200000000001
 30
0.0
 11
118.327
 21
189.24000000000001
 31
0.0
  0
LINE
  5
1A8
  8
0
 62
     7
 10
118.327
 20
189.24000000000001
 30
0.0
 11
120.31
 21
190.38399999999999
 31
0.0
  0
LINE
  5
1A9
  8
0
 62
     7
 10
120.31
 20
190.38399999999999
 30
0.0
 11
119.47199999999999
 21
191.22200000000001
 31
0.0
  0
LINE
  5
1AA
  8
0
 62
     7
 10
123.102
 20
194.01499999999999
 30
0.0
 11
118.327
 21
189.24000000000001
 31
0.0
  0
LINE
  5
1AB
  8
0
 62
     7
 10
128.346
 20
194.01499999999999
 30
0.0
 11
123.102
 21
194.01499999999999
 31
0.0
  0
LINE
  5
1AC
  8
0
 62
     7
 10
179.50899999999999
 20
208.947
 30
0.0
 11
152.971
 21
208.947
 31
0.0
  0
LINE
  5
1AD
  8
0
 62
     7
 10
185.864
 20
235.947
 30
0.0
 11
178.22499999999999
 21
235.947
 31
0.0
  0
LINE
  5
1AE
  8
0
 62
     7
 10
118.03400000000001
 20
235.947
 30
0.0
 11
113.544
 21
235.947
 31
0.0
  0
LINE
  5
1AF
  8
0
 62
     7
 10
177.524
 20
235.947
 30
0.0
 11
173.03399999999999
 21
235.947
 31
0.0
  0
LINE
  5
1B0
  8
0
  6
AIGENLINE003
 62
     7
 10
118.03400000000001
 20
235.947
 30
0.0
 11
173.03399999999999
 21
235.947
 31
0.0
  0
LINE
  5
1B1
  8
0
 62
     7
 10
173.03399999999999
 20
235.947
 30
0.0
 11
173.03399999999999
 21
189.947
 31
0.0
  0
LINE
  5
1B2
  8
0
  6
AIGENLINE002
 62
     7
 10
145.53399999999999
 20
239.096
 30
0.0
 11
145.53399999999999
 21
185.26599999999999
 31
0.0
  0
LINE
  5
1B3
  8
0
 62
     7
 10
179.40199999999999
 20
233.73500000000001
 30
0.0
 11
178.809
 21
235.947
 31
0.0
  0
LINE
  5
1B4
  8
0
 62
     7
 10
178.809
 20
235.947
 30
0.0
 11
178.21700000000001
 21
233.73500000000001
 31
0.0
  0
LINE
  5
1B5
  8
0
 62
     7
 10
178.21700000000001
 20
233.73500000000001
 30
0.0
 11
179.40199999999999
 21
233.73500000000001
 31
0.0
  0
LINE
  5
1B6
  8
0
 62
     7
 10
178.21700000000001
 20
211.15799999999999
 30
0.0
 11
178.809
 21
208.947
 31
0.0
  0
LINE
  5
1B7
  8
0
 62
     7
 10
178.809
 20
208.947
 30
0.0
 11
179.40199999999999
 21
211.15799999999999
 31
0.0
  0
LINE
  5
1B8
  8
0
 62
     7
 10
179.40199999999999
 20
211.15799999999999
 30
0.0
 11
178.21700000000001
 21
211.15799999999999
 31
0.0
  0
LINE
  5
1B9
  8
0
 62
     7
 10
178.809
 20
235.947
 30
0.0
 11
178.809
 21
208.947
 31
0.0
  0
LINE
  5
1BA
  8
0
 62
     7
 10
185.75700000000001
 20
233.73500000000001
 30
0.0
 11
185.16399999999999
 21
235.947
 31
0.0
  0
LINE
  5
1BB
  8
0
 62
     7
 10
185.16399999999999
 20
235.947
 30
0.0
 11
184.571
 21
233.73500000000001
 31
0.0
  0
LINE
  5
1BC
  8
0
 62
     7
 10
184.571
 20
233.73500000000001
 30
0.0
 11
185.75700000000001
 21
233.73500000000001
 31
0.0
  0
LINE
  5
1BD
  8
0
 62
     7
 10
184.571
 20
191.15799999999999
 30
0.0
 11
185.16399999999999
 21
188.947
 31
0.0
  0
LINE
  5
1BE
  8
0
 62
     7
 10
185.16399999999999
 20
188.947
 30
0.0
 11
185.75700000000001
 21
191.15799999999999
 31
0.0
  0
LINE
  5
1BF
  8
0
 62
     7
 10
185.75700000000001
 20
191.15799999999999
 30
0.0
 11
184.571
 21
191.15799999999999
 31
0.0
  0
LINE
  5
1C0
  8
0
 62
     7
 10
185.16399999999999
 20
235.947
 30
0.0
 11
185.16399999999999
 21
188.947
 31
0.0
  0
LINE
  5
1C1
  8
0
 62
     7
 10
118.03400000000001
 20
235.947
 30
0.0
 11
118.03400000000001
 21
189.947
 31
0.0
  0
TEXT
  5
1C2
  8
_________2
 62
     7
 10
25.525700000000001
 20
73.673100000000005
 30
0.0
 40
4.2168199999999993
  1
※壁取付部には厚さ30mm以上の補強材を入れてください。
 41
0.5
  0
TEXT
  5
1C3
  8
_________2
 62
     7
 10
25.525700000000001
 20
68.402100000000004
 30
0.0
 40
4.2168199999999993
  1
　カウンターを設ける場合も壁固定が必要です。
 41
0.5
  0
TEXT
  5
1C4
  8
_________2
 62
     7
 10
25.525700000000001
 20
63.131100000000004
 30
0.0
 40
4.2168199999999993
  1
※毎分10L以上吐水させないでください。
 41
0.5
  0
TEXT
  5
1C5
  8
_________2
 62
     7
 10
29.525700000000001
 20
22.2272
 30
0.0
 40
3.9357000000000002
  1
実容量：4.2L、重量17.5kg、オーバーフロー付
 41
0.5
  0
LINE
  5
1C6
  8
_________2
 62
     7
 10
105.239
 20
17.4285
 30
0.0
 11
105.239
 21
0.4485540000000001
 31
0.0
  0
LINE
  5
1C7
  8
_________2
 62
     7
 10
81.679900000000004
 20
51.324300000000001
 30
0.0
 11
79.493700000000004
 21
51.324300000000001
 31
0.0
  0
LINE
  5
1C8
  8
_________2
 62
     7
 10
82.172600000000017
 20
51.324300000000001
 30
0.0
 11
81.920400000000001
 21
51.324300000000001
 31
0.0
  0
LINE
  5
1C9
  8
_________2
 62
     7
 10
82.665199999999984
 20
51.324300000000001
 30
0.0
 11
85.590100000000007
 21
51.324300000000001
 31
0.0
  0
LINE
  5
1CA
  8
_________2
 62
     7
 10
82.172600000000017
 20
51.324300000000001
 30
0.0
 11
82.424800000000005
 21
51.324300000000001
 31
0.0
  0
LINE
  5
1CB
  8
_________2
 62
     7
 10
75.776399999999995
 20
51.324300000000001
 30
0.0
 11
73.589399999999998
 21
51.324300000000001
 31
0.0
  0
LINE
  5
1CC
  8
_________2
 62
     7
 10
76.2684
 20
51.324300000000001
 30
0.0
 11
76.016900000000007
 21
51.324300000000001
 31
0.0
  0
LINE
  5
1CD
  8
_________2
 62
     7
 10
76.2684
 20
51.817
 30
0.0
 11
76.2684
 21
54.003900000000002
 31
0.0
  0
LINE
  5
1CE
  8
_________2
 62
     7
 10
76.2684
 20
51.324300000000001
 30
0.0
 11
76.2684
 21
51.576900000000002
 31
0.0
  0
LINE
  5
1CF
  8
_________2
 62
     7
 10
76.76100000000001
 20
51.324300000000001
 30
0.0
 11
78.947999999999993
 21
51.324300000000001
 31
0.0
  0
LINE
  5
1D0
  8
_________2
 62
     7
 10
76.2684
 20
51.324300000000001
 30
0.0
 11
76.520499999999998
 21
51.324300000000001
 31
0.0
  0
LINE
  5
1D1
  8
_________2
 62
     7
 10
76.2684
 20
50.832399999999993
 30
0.0
 11
76.2684
 21
48.645699999999998
 31
0.0
  0
LINE
  5
1D2
  8
_________2
 62
     7
 10
76.2684
 20
51.324300000000001
 30
0.0
 11
76.2684
 21
51.072800000000001
 31
0.0
  0
LINE
  5
1D3
  8
_________2
 62
     7
 10
79.979399999999984
 20
50.104799999999997
 30
0.0
 11
85.157399999999996
 21
49.240000000000002
 31
0.0
  0
LINE
  5
1D4
  8
_________2
 62
     7
 10
79.979399999999984
 20
52.544199999999989
 30
0.0
 11
85.157399999999996
 21
53.409700000000001
 31
0.0
  0
LINE
  5
1D5
  8
_________2
 62
     7
 10
85.157399999999996
 20
49.240000000000002
 30
0.0
 11
85.157399999999996
 21
53.409700000000001
 31
0.0
  0
LINE
  5
1D6
  8
_________2
 62
     7
 10
79.979399999999984
 20
50.104799999999997
 30
0.0
 11
79.979399999999984
 21
52.544199999999989
 31
0.0
  0
ARC
  5
1D7
  8
_________2
 62
     7
 10
76.221766000000002
 20
51.277380999999998
 30
0.0
 40
1.267714
 50
2.1220840000000001
 51
87.894083999999992
  0
ARC
  5
1D8
  8
_________2
 62
     7
 10
76.315297000000001
 20
51.277734999999993
 30
0.0
 40
1.267374999999999
 50
92.122849999999985
 51
177.893304
  0
ARC
  5
1D9
  8
_________2
 62
     7
 10
76.315273000000005
 20
51.371245999999992
 30
0.0
 40
1.267363
 50
182.121815
 51
267.87821400000001
  0
ARC
  5
1DA
  8
_________2
 62
     7
 10
76.221461000000005
 20
51.371928999999987
 30
0.0
 40
1.2680439999999991
 50
272.11916400000001
 51
357.84848499999998
  0
ARC
  5
1DB
  8
_________2
 62
     7
 10
76.187981999999991
 20
51.244312999999998
 30
0.0
 40
2.1668310000000002
 50
2.1161439999999989
 51
87.874379000000005
  0
ARC
  5
1DC
  8
_________2
 62
     7
 10
76.348411999999996
 20
51.245334999999997
 30
0.0
 40
2.1657980000000001
 50
92.118487999999999
 51
177.909886
  0
ARC
  5
1DD
  8
_________2
 62
     7
 10
76.348354
 20
51.404327000000002
 30
0.0
 40
2.1657779999999991
 50
182.11700400000001
 51
267.88302499999998
  0
ARC
  5
1DE
  8
_________2
 62
     7
 10
76.188378999999983
 20
51.405009999999997
 30
0.0
 40
2.1664590000000001
 50
272.11546800000002
 51
357.86560400000002
  0
TEXT
  5
1DF
  8
_________2
 62
     7
 10
109.544
 20
23.199100000000001
 30
0.0
 40
3.0923400000000001
  1
図番
 41
0.5
  0
LINE
  5
1E0
  8
_________2
 62
     7
 10
108.489
 20
27.4283
 30
0.0
 11
188.49000000000001
 21
27.4283
 31
0.0
  0
TEXT
  5
1E1
  8
_________2
 62
     7
 10
109.544
 20
33.198900000000002
 30
0.0
 40
3.0923400000000001
  1
品番
 41
0.5
  0
TEXT
  5
1E2
  8
_________2
 62
     7
 10
109.544
 20
53.338000000000001
 30
0.0
 40
3.0923400000000001
  1
名称
 41
0.5
  0
TEXT
  5
1E3
  8
_________2
 62
     7
 10
96.784058333333334
 20
48.341900000000003
 30
0.0
 40
3.6545800000000002
  1
mm
 41
0.5
 72
     1
 11
98.306799999999996
 21
48.341900000000003
 31
0.0
  0
TEXT
  5
1E4
  8
_________2
 62
     7
 10
90.582099999999997
 20
53.338000000000001
 30
0.0
 40
3.0923400000000001
  1
単位
 41
0.5
  0
TEXT
  5
1E5
  8
_________2
 62
     7
 10
90.582099999999997
 20
40.930399999999999
 30
0.0
 40
3.0923400000000001
  1
尺度
 41
0.5
  0
TEXT
  5
1E6
  8
_________2
 62
     7
 10
95.030836166666674
 20
34.7378
 30
0.0
 40
3.6545800000000002
  1
1 ： 10
 41
0.5
 72
     1
 11
98.898600000000002
 21
34.7378
 31
0.0
  0
TEXT
  5
1E7
  8
_________2
 62
     7
 10
140.94557499999999
 20
30.627800000000001
 30
0.0
 40
3.9357000000000002
  1
VB4124G6
 41
0.5
 72
     1
 11
148.489
 21
30.627800000000001
 31
0.0
  0
TEXT
  5
1E8
  8
_________2
 62
     7
 10
140.94557499999999
 20
20.626999999999999
 30
0.0
 40
3.9357000000000002
  1
VB4124G6
 41
0.5
 72
     1
 11
148.489
 21
20.626999999999999
 31
0.0
  0
TEXT
  5
1E9
  8
_________2
 62
     7
 10
114.11799999999999
 20
45.745600000000003
 30
0.0
 40
3.9357000000000002
  1
ヴェンティチェッロ 洗面器
 41
0.5
  0
TEXT
  5
1EA
  8
_________2
 62
     7
 10
44.364200333333329
 20
35.123000000000012
 30
0.0
 40
3.6545800000000002
  1
早川
 41
0.5
 72
     1
 11
46.252400000000002
 21
35.123000000000012
 31
0.0
  0
TEXT
  5
1EB
  8
_________2
 62
     7
 10
25.729290666666671
 20
35.123000000000012
 30
0.0
 40
3.6545800000000002
  1
鈴木
 41
0.5
 72
     1
 11
27.6784
 21
35.123000000000012
 31
0.0
  0
TEXT
  5
1EC
  8
_________2
 62
     7
 10
72.724699999999999
 20
34.7378
 30
0.0
 40
3.6545800000000002
  1
15.12.11
 41
0.5
  0
TEXT
  5
1ED
  8
_________2
 62
     7
 10
71.531999999999996
 20
40.930399999999999
 30
0.0
 40
3.0923400000000001
  1
日付
 41
0.5
  0
TEXT
  5
1EE
  8
_________2
 62
     7
 10
34.578299999999999
 20
40.930399999999999
 30
0.0
 40
3.0923400000000001
  1
検図
 41
0.5
  0
TEXT
  5
1EF
  8
_________2
 62
     7
 10
22.9602
 20
26.731000000000002
 30
0.0
 40
3.0923400000000001
  1
備考
 41
0.5
  0
TEXT
  5
1F0
  8
_________2
 62
     7
 10
22.9602
 20
40.930399999999999
 30
0.0
 40
3.0923400000000001
  1
製図
 41
0.5
  0
TEXT
  5
1F1
  8
_________2
 62
     7
 10
28.727365333333339
 20
49.456400000000002
 30
0.0
 40
4.4979399999999989
  1
セラトレーディング株式会社
 41
0.5
 72
     1
 11
46.119399999999992
 21
49.456400000000002
 31
0.0
  0
LINE
  5
1F2
  8
_________2
 62
     7
 10
188.49000000000001
 20
17.4285
 30
0.0
 11
21.988499999999998
 21
17.4285
 31
0.0
  0
LINE
  5
1F3
  8
_________2
 62
     7
 10
21.988499999999998
 20
17.4285
 30
0.0
 11
21.988499999999998
 21
280.43000000000001
 31
0.0
  0
LINE
  5
1F4
  8
_________2
 62
     7
 10
21.988499999999998
 20
280.43000000000001
 30
0.0
 11
188.49000000000001
 21
280.43000000000001
 31
0.0
  0
LINE
  5
1F5
  8
_________2
 62
     7
 10
188.49000000000001
 20
280.43000000000001
 30
0.0
 11
188.49000000000001
 21
17.4285
 31
0.0
  0
LINE
  5
1F6
  8
_________2
 62
     7
 10
70.488799999999998
 20
30.928899999999999
 30
0.0
 11
70.488799999999998
 21
57.428699999999992
 31
0.0
  0
LINE
  5
1F7
  8
_________2
 62
     7
 10
89.488600000000005
 20
30.928899999999999
 30
0.0
 11
89.488600000000005
 21
57.428699999999992
 31
0.0
  0
LINE
  5
1F8
  8
_________2
 62
     7
 10
108.489
 20
17.4285
 30
0.0
 11
108.489
 21
57.428699999999992
 31
0.0
  0
LINE
  5
1F9
  8
_________2
 62
     7
 10
33.488300000000002
 20
30.928899999999999
 30
0.0
 11
33.488300000000002
 21
44.928800000000003
 31
0.0
  0
LINE
  5
1FA
  8
_________2
 62
     7
 10
21.988499999999998
 20
30.928899999999999
 30
0.0
 11
108.489
 21
30.928899999999999
 31
0.0
  0
LINE
  5
1FB
  8
_________2
 62
     7
 10
21.988499999999998
 20
44.928800000000003
 30
0.0
 11
108.489
 21
44.928800000000003
 31
0.0
  0
LINE
  5
1FC
  8
_________2
 62
     7
 10
108.489
 20
37.428100000000001
 30
0.0
 11
188.49000000000001
 21
37.428100000000001
 31
0.0
  0
LINE
  5
1FD
  8
_________2
 62
     7
 10
21.988499999999998
 20
57.428699999999992
 30
0.0
 11
188.49000000000001
 21
57.428699999999992
 31
0.0
  0
LINE
  5
1FE
  8
_________2
 62
     7
 10
210.24000000000001
 20
148.93100000000001
 30
0.0
 11
188.489
 21
148.93100000000001
 31
0.0
  0
LINE
  5
1FF
  8
_________2
 62
     7
 10
105.239
 20
297.45100000000002
 30
0.0
 11
105.239
 21
280.43000000000001
 31
0.0
  0
LINE
  5
200
  8
_________2
 62
     7
 10
21.988499999999998
 20
148.93100000000001
 30
0.0
 11
0.238402
 21
148.93100000000001
 31
0.0
  0
ENDSEC
  0
EOF
