  0
SECTION
  2
HEADER
  9
$ACADVER
  1
AC1009
  9
$INSBASE
 10
0.0
 20
0.0
 30
0.0
  9
$EXTMIN
 10
0.238402
 20
0.4485540000000001
 30
0.0
  9
$EXTMAX
 10
210.24000000000001
 20
297.45099999999991
 30
0.0
  9
$LIMMIN
 10
0.0
 20
0.0
  9
$LIMMAX
 10
12.0
 20
9.0
  9
$ORTHOMODE
 70
     0
  9
$REGENMODE
 70
     1
  9
$FILLMODE
 70
     1
  9
$QTEXTMODE
 70
     0
  9
$MIRRTEXT
 70
     1
  9
$DRAGMODE
 70
     2
  9
$LTSCALE
 40
1.0
  9
$OSMODE
 70
    37
  9
$ATTMODE
 70
     1
  9
$TEXTSIZE
 40
0.0
  9
$TRACEWID
 40
0.05
  9
$TEXTSTYLE
  7
STANDARD
  9
$CLAYER
  8
0
  9
$CELTYPE
  6
CONTINUOUS
  9
$CECOLOR
 62
   256
  9
$DIMSCALE
 40
1.0
  9
$DIMASZ
 40
0.18
  9
$DIMEXO
 40
0.0625
  9
$DIMDLI
 40
0.38
  9
$DIMRND
 40
0.0
  9
$DIMDLE
 40
0.0
  9
$DIMEXE
 40
0.18
  9
$DIMTP
 40
0.0
  9
$DIMTM
 40
0.0
  9
$DIMTXT
 40
0.18
  9
$DIMCEN
 40
0.09
  9
$DIMTSZ
 40
0.0
  9
$DIMTOL
 70
     0
  9
$DIMLIM
 70
     0
  9
$DIMTIH
 70
     1
  9
$DIMTOH
 70
     1
  9
$DIMSE1
 70
     0
  9
$DIMSE2
 70
     0
  9
$DIMTAD
 70
     0
  9
$DIMZIN
 70
     0
  9
$DIMBLK
  1

  9
$DIMASO
 70
     1
  9
$DIMSHO
 70
     1
  9
$DIMPOST
  1

  9
$DIMAPOST
  1

  9
$DIMALT
 70
     0
  9
$DIMALTD
 70
     2
  9
$DIMALTF
 40
25.399999999999999
  9
$DIMLFAC
 40
1.0
  9
$DIMTOFL
 70
     0
  9
$DIMTVP
 40
0.0
  9
$DIMTIX
 70
     0
  9
$DIMSOXD
 70
     0
  9
$DIMSAH
 70
     0
  9
$DIMBLK1
  1

  9
$DIMBLK2
  1

  9
$DIMSTYLE
  2
STANDARD
  9
$DIMCLRD
 70
     0
  9
$DIMCLRE
 70
     0
  9
$DIMCLRT
 70
     0
  9
$DIMTFAC
 40
1.0
  9
$DIMGAP
 40
0.09
  9
$LUNITS
 70
     2
  9
$LUPREC
 70
     4
  9
$SKETCHINC
 40
0.1
  9
$FILLETRAD
 40
0.0
  9
$AUNITS
 70
     0
  9
$AUPREC
 70
     0
  9
$MENU
  1
.
  9
$ELEVATION
 40
0.0
  9
$PELEVATION
 40
0.0
  9
$THICKNESS
 40
0.0
  9
$LIMCHECK
 70
     0
  9
$BLIPMODE
 70
     0
  9
$CHAMFERA
 40
0.0
  9
$CHAMFERB
 40
0.0
  9
$SKPOLY
 70
     0
  9
$TDCREATE
 40
2444972.375
  9
$TDUPDATE
 40
2456571.2485025232
  9
$TDINDWG
 40
0.0000068403
  9
$TDUSRTIMER
 40
0.0000068403
  9
$USRTIMER
 70
     1
  9
$ANGBASE
 50
0.0
  9
$ANGDIR
 70
     0
  9
$PDMODE
 70
     0
  9
$PDSIZE
 40
0.0
  9
$PLINEWID
 40
0.0
  9
$COORDS
 70
     1
  9
$SPLFRAME
 70
     0
  9
$SPLINETYPE
 70
     6
  9
$SPLINESEGS
 70
     8
  9
$ATTDIA
 70
     0
  9
$ATTREQ
 70
     1
  9
$HANDLING
 70
     1
  9
$HANDSEED
  5
2C9
  9
$SURFTAB1
 70
     6
  9
$SURFTAB2
 70
     6
  9
$SURFTYPE
 70
     6
  9
$SURFU
 70
     6
  9
$SURFV
 70
     6
  9
$UCSNAME
  2

  9
$UCSORG
 10
0.0
 20
0.0
 30
0.0
  9
$UCSXDIR
 10
1.0
 20
0.0
 30
0.0
  9
$UCSYDIR
 10
0.0
 20
1.0
 30
0.0
  9
$PUCSNAME
  2

  9
$PUCSORG
 10
0.0
 20
0.0
 30
0.0
  9
$PUCSXDIR
 10
1.0
 20
0.0
 30
0.0
  9
$PUCSYDIR
 10
0.0
 20
1.0
 30
0.0
  9
$USERI1
 70
     0
  9
$USERI2
 70
     0
  9
$USERI3
 70
     0
  9
$USERI4
 70
     0
  9
$USERI5
 70
     0
  9
$USERR1
 40
0.0
  9
$USERR2
 40
0.0
  9
$USERR3
 40
0.0
  9
$USERR4
 40
0.0
  9
$USERR5
 40
0.0
  9
$WORLDVIEW
 70
     1
  9
$SHADEDGE
 70
     3
  9
$SHADEDIF
 70
    70
  9
$TILEMODE
 70
     1
  9
$MAXACTVP
 70
    48
  9
$PLIMCHECK
 70
     0
  9
$PEXTMIN
 10
1.0000000000000000E+020
 20
1.0000000000000000E+020
 30
1.0000000000000000E+020
  9
$PEXTMAX
 10
-1.0000000000000000E+020
 20
-1.0000000000000000E+020
 30
-1.0000000000000000E+020
  9
$PLIMMIN
 10
0.0
 20
0.0
  9
$PLIMMAX
 10
12.0
 20
9.0
  9
$UNITMODE
 70
     0
  9
$VISRETAIN
 70
     1
  9
$PLINEGEN
 70
     0
  9
$PSLTSCALE
 70
     1
  0
ENDSEC
  0
SECTION
  2
TABLES
  0
TABLE
  2
VPORT
 70
     2
  0
VPORT
  2
*ACTIVE
 70
     0
 10
0.0
 20
0.0
 11
1.0
 21
1.0
 12
206.98016390466589
 22
148.7254999999999
 13
0.0
 23
0.0
 14
1.0
 24
1.0
 15
0.0
 25
0.0
 16
0.0
 26
0.0
 36
1.0
 17
0.0
 27
0.0
 37
0.0
 40
299.90589133425021
 41
2.2894736842105261
 42
50.0
 43
0.0
 44
0.0
 50
0.0
 51
0.0
 71
     0
 72
   100
 73
     1
 74
     1
 75
     0
 76
     0
 77
     0
 78
     0
  0
ENDTAB
  0
TABLE
  2
LTYPE
 70
     4
  0
LTYPE
  2
CONTINUOUS
 70
     0
  3
Solid line
 72
    65
 73
     0
 40
0.0
  0
LTYPE
  2
AIGENLINE001
 70
     0
  3
generate AI->DXF Converter
 72
    65
 73
     2
 40
1.5522299999999991
 49
0.776115
 49
-0.776115
  0
LTYPE
  2
AIGENLINE002
 70
     0
  3
generate AI->DXF Converter
 72
    65
 73
     4
 40
5.8561449999999988
 49
3.5278
 49
-0.776115
 49
0.776115
 49
-0.776115
  0
LTYPE
  2
AIGENLINE003
 70
     0
  3
generate AI->DXF Converter
 72
    65
 73
     6
 40
7.4083750000000004
 49
3.5278
 49
-0.776115
 49
0.776115
 49
-0.776115
 49
0.776115
 49
-0.776115
  0
ENDTAB
  0
TABLE
  2
LAYER
 70
     2
  0
LAYER
  2
0
 70
     0
 62
     7
  6
CONTINUOUS
  0
LAYER
  2
_________2
 70
     0
 62
     7
  6
CONTINUOUS
  0
ENDTAB
  0
TABLE
  2
STYLE
 70
     1
  0
STYLE
  2
STANDARD
 70
     0
 40
0.0
 41
0.0
 50
0.0
 71
     0
 42
0.0
  3
TXT
  4
EXTFONT.SHX
  0
ENDTAB
  0
TABLE
  2
VIEW
 70
     0
  0
ENDTAB
  0
TABLE
  2
UCS
 70
     0
  0
ENDTAB
  0
TABLE
  2
APPID
 70
     1
  0
APPID
  2
ACAD
 70
     0
  0
ENDTAB
  0
TABLE
  2
DIMSTYLE
 70
     1
  0
DIMSTYLE
  2
STANDARD
 70
     0
  3

  4

  5

  6

  7

 40
1.0
 41
0.18
 42
0.0625
 43
0.38
 44
0.18
 45
0.0
 46
0.0
 47
0.0
 48
0.0
140
0.18
141
0.09
142
0.0
143
25.399999999999999
144
1.0
145
0.0
146
1.0
147
0.09
 71
     0
 72
     0
 73
     1
 74
     1
 75
     0
 76
     0
 77
     0
 78
     0
170
     0
171
     2
172
     0
173
     0
174
     0
175
     0
176
     0
177
     0
178
     0
  0
ENDTAB
  0
ENDSEC
  0
SECTION
  2
BLOCKS
  0
BLOCK
  8
0
  2
$MODEL_SPACE
 70
     0
 10
0.0
 20
0.0
 30
0.0
  3
$MODEL_SPACE
  1

  0
ENDBLK
  5
1A
  8
0
  0
BLOCK
 67
     1
  8
0
  2
$PAPER_SPACE
 70
     0
 10
0.0
 20
0.0
 30
0.0
  3
$PAPER_SPACE
  1

  0
ENDBLK
  5
17
 67
     1
  8
0
  0
ENDSEC
  0
SECTION
  2
ENTITIES
  0
TEXT
  5
24
  8
0
 62
     7
 10
25.747399999999999
 20
61.194600000000001
 30
0.0
 40
4.2168199999999993
  1
※150mm以上のエプロン付カウンターをご用意ください。
 41
0.5
  0
TEXT
  5
25
  8
0
 62
     7
 10
120.6339999999999
 20
177.45400000000001
 30
0.0
 40
3.0923400000000001
  1
〈注記〉：カウンター厚さは21～40mmとしてください。
 41
0.5
  0
TEXT
  5
26
  8
0
 62
     7
 10
120.6339999999999
 20
173.589
 30
0.0
 40
3.0923400000000001
  1
：カウンター厚さ21mm未満の場合はA部に補強木
 41
0.5
  0
TEXT
  5
27
  8
0
 62
     7
 10
120.6339999999999
 20
169.72399999999999
 30
0.0
 40
3.0923400000000001
  1
  を入れ、21～40mmになるようにしてください。
 41
0.5
  0
TEXT
  5
28
  8
0
 62
     7
 10
120.6339999999999
 20
165.858
 30
0.0
 40
3.0923400000000001
  1
：カウンターエプロンの厚さは20mm以下としてください。
 41
0.5
  0
ARC
  5
29
  8
0
 62
     7
 10
82.911529999999985
 20
112.60740800000001
 30
0.0
 40
0.3119619999999999
 50
182.14453499999991
 51
267.85549500000002
  0
ARC
  5
2A
  8
0
 62
     7
 10
82.888575000000003
 20
112.6070149999999
 30
0.0
 40
0.311555
 50
272.07514199999991
 51
357.924868
  0
ARC
  5
2B
  8
0
 62
     7
 10
82.888182999999998
 20
112.58405999999999
 30
0.0
 40
0.3119619999999999
 50
2.1445150000000002
 51
87.855474999999984
  0
ARC
  5
2C
  8
0
 62
     7
 10
82.911137999999994
 20
112.5844529999999
 30
0.0
 40
0.311555
 50
92.075104999999994
 51
177.9248649999999
  0
TEXT
  5
2D
  8
0
 62
     7
 10
86.849649999999997
 20
113.29600000000001
 30
0.0
 40
3.0923400000000001
  1
1.5
 41
0.5
 72
     2
 11
89.426599999999993
 21
113.29600000000001
 31
0.0
  0
TEXT
  5
2E
  8
0
 62
     7
 10
79.240272500000003
 20
113.29600000000001
 30
0.0
 40
3.0923400000000001
  1
20
 41
0.5
 72
     1
 11
80.399900000000017
 21
113.29600000000001
 31
0.0
  0
TEXT
  5
2F
  8
0
 62
     7
 10
58.925472499999991
 20
113.29600000000001
 30
0.0
 40
3.0923400000000001
  1
20
 41
0.5
 72
     1
 11
60.085099999999997
 21
113.29600000000001
 31
0.0
  0
TEXT
  5
30
  8
0
 62
     7
 10
176.59161
 20
234.5079999999999
 30
0.0
 40
3.0923400000000001
  1
A
 41
0.5
 72
     1
 11
177.10699999999991
 21
234.5079999999999
 31
0.0
  0
TEXT
  5
31
  8
0
 62
     7
 10
172.96574499999991
 20
125.76600000000001
 30
0.0
 40
3.0923400000000001
  1
20
 41
0.5
 72
     2
 11
175.285
 21
125.76600000000001
 31
0.0
  0
TEXT
  5
32
  8
0
 62
     7
 10
145.69543999999999
 20
153.68799999999999
 30
0.0
 40
3.0923400000000001
  1
425
 41
0.5
 72
     1
 11
147.75700000000001
 21
153.68799999999999
 31
0.0
  0
TEXT
  5
33
  8
0
 62
     7
 10
153.57328749999991
 20
113.02499999999991
 30
0.0
 40
3.0923400000000001
  1
270
 41
0.5
 72
     1
 11
155.506
 21
113.02499999999991
 31
0.0
  0
TEXT
  5
34
  8
0
 62
     7
 10
156.82428749999991
 20
119.95699999999999
 30
0.0
 40
3.0923400000000001
  1
205
 41
0.5
 72
     1
 11
158.75700000000001
 21
119.95699999999999
 31
0.0
  0
TEXT
  5
35
  8
0
 62
     7
 10
31.931799999999988
 20
149.39074500000001
 30
0.0
 40
3.0923400000000001
  1
20
 50
90.0
 41
0.5
 72
     2
 11
31.931799999999988
 21
151.71000000000001
 31
0.0
  0
TEXT
  5
36
  8
0
 62
     7
 10
31.931799999999988
 20
132.9890394999999
 30
0.0
 40
3.0923400000000001
  1
150以上
 50
90.0
 41
0.5
 72
     1
 11
31.931799999999988
 21
136.57099999999991
 31
0.0
  0
TEXT
  5
37
  8
0
 62
     7
 10
175.15499999999989
 20
149.39074500000001
 30
0.0
 40
3.0923400000000001
  1
20
 50
90.0
 41
0.5
 72
     2
 11
175.15499999999989
 21
151.71000000000001
 31
0.0
  0
TEXT
  5
38
  8
0
 62
     7
 10
146.58000000000001
 20
140.5983724999999
 30
0.0
 40
3.0923400000000001
  1
90
 50
90.0
 41
0.5
 72
     1
 11
146.58000000000001
 21
141.7579999999999
 31
0.0
  0
TEXT
  5
39
  8
0
 62
     7
 10
181.84200000000001
 20
136.70413499999989
 30
0.0
 40
3.0923400000000001
  1
155
 50
90.0
 41
0.5
 72
     1
 11
181.84200000000001
 21
138.5079999999999
 31
0.0
  0
TEXT
  5
3A
  8
0
 62
     7
 10
74.159980000000004
 20
224.96100000000001
 30
0.0
 40
3.0923400000000001
  1
%%c46
 41
0.5
 72
     2
 11
78.283100000000005
 21
224.96100000000001
 31
0.0
  0
TEXT
  5
3B
  8
0
 62
     7
 10
58.697400000000002
 20
79.908799999999999
 30
0.0
 40
3.0923400000000001
  1
〈付属品〉
 41
0.5
  0
TEXT
  5
3C
  8
0
 62
     7
 10
58.697400000000002
 20
76.043400000000005
 30
0.0
 40
3.0923400000000001
  1
固定金具：2個
 41
0.5
  0
TEXT
  5
3D
  8
0
 62
     7
 10
58.697400000000002
 20
72.177999999999997
 30
0.0
 40
3.0923400000000001
  1
（尺度1：4）
 41
0.5
  0
TEXT
  5
3E
  8
0
 62
     7
 10
137.01380299999991
 20
182.76400000000001
 30
0.0
 40
3.0923400000000001
  1
カウンター切込寸法（正面）
 41
0.5
 72
     1
 11
148.50700000000001
 21
182.76400000000001
 31
0.0
  0
TEXT
  5
3F
  8
0
 62
     7
 10
119.39161
 20
234.5079999999999
 30
0.0
 40
3.0923400000000001
  1
A
 41
0.5
 72
     1
 11
119.907
 21
234.5079999999999
 31
0.0
  0
TEXT
  5
40
  8
0
 62
     7
 10
137.01380299999991
 20
215.892
 30
0.0
 40
3.0923400000000001
  1
カウンター切込寸法（平面）
 41
0.5
 72
     1
 11
148.50700000000001
 21
215.892
 31
0.0
  0
TEXT
  5
41
  8
0
 62
     7
 10
116.7994294999999
 20
261.61399999999998
 30
0.0
 40
3.0923400000000001
  1
（50）
 41
0.5
 72
     1
 11
119.866
 21
261.61399999999998
 31
0.0
  0
TEXT
  5
42
  8
0
 62
     7
 10
146.44543999999999
 20
260.91399999999999
 30
0.0
 40
3.0923400000000001
  1
522
 41
0.5
 72
     1
 11
148.50700000000001
 21
260.91399999999999
 31
0.0
  0
TEXT
  5
43
  8
0
 62
     7
 10
160.91399999999999
 20
202.65599999999989
 30
0.0
 40
3.0923400000000001
  1
R10以下
 41
0.5
  0
TEXT
  5
44
  8
0
 62
     7
 10
103.0629999999999
 20
186.82599999999999
 30
0.0
 40
3.0923400000000001
  1
カウンターエプロン
 41
0.5
  0
TEXT
  5
45
  8
0
 62
     7
 10
157.62700000000001
 20
242.61799999999999
 30
0.0
 40
3.0923400000000001
  1
R10以下
 41
0.5
  0
TEXT
  5
46
  8
0
 62
     7
 10
48.373199999999997
 20
255.99199999999999
 30
0.0
 40
3.0923400000000001
  1
%%c35
 41
0.5
  0
TEXT
  5
47
  8
0
 62
     7
 10
64.822987500000011
 20
192.108
 30
0.0
 40
3.0923400000000001
  1
550
 41
0.5
 72
     1
 11
66.755700000000004
 21
192.108
 31
0.0
  0
TEXT
  5
48
  8
0
 62
     7
 10
64.951835000000003
 20
199.16
 30
0.0
 40
3.0923400000000001
  1
500
 41
0.5
 72
     1
 11
66.755700000000004
 21
199.16
 31
0.0
  0
TEXT
  5
49
  8
0
 62
     7
 10
70.209429999999983
 20
260.03399999999999
 30
0.0
 40
3.0923400000000001
  1
100
 41
0.5
 72
     1
 11
71.755600000000001
 21
260.03399999999999
 31
0.0
  0
TEXT
  5
4A
  8
0
 62
     7
 10
60.209229999999998
 20
260.03399999999999
 30
0.0
 40
3.0923400000000001
  1
100
 41
0.5
 72
     1
 11
61.755400000000002
 21
260.03399999999999
 31
0.0
  0
TEXT
  5
4B
  8
0
 62
     7
 10
85.867999999999995
 20
238.26352499999999
 30
0.0
 40
3.0923400000000001
  1
62
 50
90.0
 41
0.5
 72
     1
 11
85.867999999999995
 21
239.55199999999999
 31
0.0
  0
TEXT
  5
4C
  8
0
 62
     7
 10
85.867999999999995
 20
245.12052499999999
 30
0.0
 40
3.0923400000000001
  1
78
 50
90.0
 41
0.5
 72
     1
 11
85.867999999999995
 21
246.40899999999999
 31
0.0
  0
TEXT
  5
4D
  8
0
 62
     7
 10
101.1429999999999
 20
137.70413499999989
 30
0.0
 40
3.0923400000000001
  1
135
 50
90.0
 41
0.5
 72
     1
 11
101.1429999999999
 21
139.5079999999999
 31
0.0
  0
TEXT
  5
4E
  8
0
 62
     7
 10
50.802199999999999
 20
96.962872500000003
 30
0.0
 40
3.0923400000000001
  1
70
 50
90.0
 41
0.5
 72
     1
 11
50.802199999999999
 21
98.122500000000002
 31
0.0
  0
TEXT
  5
4F
  8
0
 62
     7
 10
107.971
 20
137.5829824999999
 30
0.0
 40
3.0923400000000001
  1
140
 50
90.0
 41
0.5
 72
     1
 11
107.971
 21
139.2579999999999
 31
0.0
  0
TEXT
  5
50
  8
0
 62
     7
 10
111.9169999999999
 20
239.946887
 30
0.0
 40
3.0923400000000001
  1
（100）
 50
90.0
 41
0.5
 72
     1
 11
111.9169999999999
 21
243.40000000000001
 31
0.0
  0
TEXT
  5
51
  8
0
 62
     7
 10
27.848299999999991
 20
234.69819200000001
 30
0.0
 40
3.0923400000000001
  1
300以上
 50
90.0
 41
0.5
 72
     1
 11
27.848299999999991
 21
238.40899999999999
 31
0.0
  0
TEXT
  5
52
  8
0
 62
     7
 10
27.848299999999991
 20
213.85513499999999
 30
0.0
 40
3.0923400000000001
  1
155
 50
90.0
 41
0.5
 72
     1
 11
27.848299999999991
 21
215.65899999999999
 31
0.0
  0
TEXT
  5
53
  8
0
 62
     7
 10
33.681899999999999
 20
238.22628750000001
 30
0.0
 40
3.0923400000000001
  1
205
 50
90.0
 41
0.5
 72
     1
 11
33.681899999999999
 21
240.15899999999999
 31
0.0
  0
TEXT
  5
54
  8
0
 62
     7
 10
184.60299999999989
 20
182.0209999999999
 30
0.0
 40
3.0923400000000001
  1
50以上
 50
90.0
 41
0.5
  0
TEXT
  5
55
  8
0
 62
     7
 10
184.25299999999999
 20
258.39316400000001
 30
0.0
 40
3.0923400000000001
  1
48以上
 50
90.0
 41
0.5
 72
     2
 11
184.25299999999999
 21
264.78399999999988
 31
0.0
  0
TEXT
  5
56
  8
0
 62
     7
 10
184.60299999999989
 20
202.00583
 30
0.0
 40
3.0923400000000001
  1
100
 50
90.0
 41
0.5
 72
     1
 11
184.60299999999989
 21
203.55199999999999
 31
0.0
  0
TEXT
  5
57
  8
0
 62
     7
 10
184.25299999999999
 20
233.94744
 30
0.0
 40
3.0923400000000001
  1
252
 50
90.0
 41
0.5
 72
     1
 11
184.25299999999999
 21
236.00899999999999
 31
0.0
  0
TEXT
  5
58
  8
0
 62
     7
 10
105.976
 20
259.01485899999989
 30
0.0
 40
3.0923400000000001
  1
30以上
 50
90.0
 41
0.5
 72
     2
 11
105.976
 21
265.14799999999991
 31
0.0
  0
TEXT
  5
59
  8
0
 62
     7
 10
105.976
 20
227.09744000000001
 30
0.0
 40
3.0923400000000001
  1
425
 50
90.0
 41
0.5
 72
     1
 11
105.976
 21
229.15899999999999
 31
0.0
  0
TEXT
  5
5A
  8
0
 62
     7
 10
100.13499999999991
 20
241.7339825
 30
0.0
 40
3.0923400000000001
  1
140
 50
90.0
 41
0.5
 72
     1
 11
100.13499999999991
 21
243.40899999999999
 31
0.0
  0
TEXT
  5
5B
  8
0
 62
     7
 10
100.13499999999991
 20
221.47628750000001
 30
0.0
 40
3.0923400000000001
  1
260
 50
90.0
 41
0.5
 72
     1
 11
100.13499999999991
 21
223.40899999999999
 31
0.0
  0
ARC
  5
5C
  8
0
 62
     7
 10
83.715078000000005
 20
98.365617
 30
0.0
 40
0.756614
 50
45.193379999999998
 51
89.773222000000004
  0
ARC
  5
5D
  8
0
 62
     7
 10
84.021191000000002
 20
99.103370999999996
 30
0.0
 40
1.5188769999999989
 50
45.299380999999997
 51
89.712153999999998
  0
ARC
  5
5E
  8
0
 62
     7
 10
81.539742000000004
 20
98.732563999999996
 30
0.0
 40
0.38993
 50
92.129244000000014
 51
177.87072599999999
  0
ARC
  5
5F
  8
0
 62
     7
 10
78.405045999999999
 20
94.501998
 30
0.0
 40
0.130005
 50
182.135141
 51
267.70683199999991
  0
ARC
  5
60
  8
0
 62
     7
 10
78.405045999999999
 20
101.7422159999999
 30
0.0
 40
0.130005
 50
92.293168000000009
 51
177.86485899999991
  0
ARC
  5
61
  8
0
 62
     7
 10
81.991398000000004
 20
103.155737
 30
0.0
 40
0.9090719999999999
 50
272.12725499999999
 51
357.89531699999998
  0
ARC
  5
62
  8
0
 62
     7
 10
81.992080000000001
 20
93.088789000000006
 30
0.0
 40
0.908736
 50
2.107572999999999
 51
87.914979000000017
  0
ARC
  5
63
  8
0
 62
     7
 10
82.024968999999984
 20
93.122035999999994
 30
0.0
 40
1.2500610000000001
 50
359.99211500000001
 51
89.992084999999989
  0
ARC
  5
64
  8
0
 62
     7
 10
81.976899999999986
 20
103.17023399999999
 30
0.0
 40
1.2990129999999991
 50
272.128287
 51
357.88751300000001
  0
ARC
  5
65
  8
0
 62
     7
 10
78.400188999999997
 20
94.497155000000006
 30
0.0
 40
0.5002310000000002
 50
179.99996999999991
 51
270.00002000000001
  0
ARC
  5
66
  8
0
 62
     7
 10
78.400188999999997
 20
101.74706
 30
0.0
 40
0.5002310000000002
 50
90.0
 51
179.99996999999991
  0
LINE
  5
67
  8
0
 62
     7
 10
85.089600000000004
 20
100.18299999999989
 30
0.0
 11
86.350499999999997
 21
98.9221
 31
0.0
  0
LINE
  5
68
  8
0
 62
     7
 10
84.2483
 20
98.9024
 30
0.0
 11
85.289699999999996
 21
97.861000000000004
 31
0.0
  0
LINE
  5
69
  8
0
 62
     7
 10
85.289699999999996
 20
97.861000000000004
 30
0.0
 11
86.350499999999997
 21
98.9221
 31
0.0
  0
LINE
  5
6A
  8
0
 62
     7
 10
80.900000000000006
 20
100.622
 30
0.0
 11
79.650099999999995
 21
99.372000000000014
 31
0.0
  0
LINE
  5
6B
  8
0
 62
     7
 10
82.900199999999998
 20
89.372200000000007
 30
0.0
 11
83.275000000000006
 21
89.372200000000007
 31
0.0
  0
LINE
  5
6C
  8
0
 62
     7
 10
82.899900000000017
 20
106.872
 30
0.0
 11
83.275000000000006
 21
106.872
 31
0.0
  0
LINE
  5
6D
  8
0
 62
     7
 10
83.718100000000007
 20
99.122200000000007
 30
0.0
 11
81.525300000000001
 21
99.122200000000007
 31
0.0
  0
LINE
  5
6E
  8
0
 62
     7
 10
84.028800000000004
 20
100.622
 30
0.0
 11
80.900000000000006
 21
100.622
 31
0.0
  0
LINE
  5
6F
  8
0
 62
     7
 10
81.150099999999995
 20
96.872200000000007
 30
0.0
 11
79.650099999999995
 21
96.872200000000007
 31
0.0
  0
LINE
  5
70
  8
0
 62
     7
 10
82.025099999999995
 20
94.372100000000003
 30
0.0
 11
78.399799999999999
 21
94.372100000000003
 31
0.0
  0
LINE
  5
71
  8
0
 62
     7
 10
83.275000000000006
 20
93.121899999999997
 30
0.0
 11
83.275000000000006
 21
89.372200000000007
 31
0.0
  0
LINE
  5
72
  8
0
 62
     7
 10
78.275099999999995
 20
101.747
 30
0.0
 11
78.275099999999995
 21
94.497200000000007
 31
0.0
  0
LINE
  5
73
  8
0
 62
     7
 10
83.275000000000006
 20
106.872
 30
0.0
 11
83.275000000000006
 21
103.122
 31
0.0
  0
LINE
  5
74
  8
0
 62
     7
 10
82.025099999999995
 20
101.872
 30
0.0
 11
78.399799999999999
 21
101.872
 31
0.0
  0
LINE
  5
75
  8
0
 62
     7
 10
82.025099999999995
 20
93.996899999999997
 30
0.0
 11
78.400199999999984
 21
93.996899999999997
 31
0.0
  0
LINE
  5
76
  8
0
  6
AIGENLINE002
 62
     7
 10
80.400099999999995
 20
97.812000000000012
 30
0.0
 11
80.400099999999995
 21
86.122100000000003
 31
0.0
  0
LINE
  5
77
  8
0
 62
     7
 10
81.150099999999995
 20
98.747100000000003
 30
0.0
 11
81.150099999999995
 21
94.372100000000003
 31
0.0
  0
LINE
  5
78
  8
0
 62
     7
 10
81.150099999999995
 20
93.996899999999997
 30
0.0
 11
81.150099999999995
 21
92.747000000000014
 31
0.0
  0
LINE
  5
79
  8
0
 62
     7
 10
81.150099999999995
 20
92.747000000000014
 30
0.0
 11
81.150099999999995
 21
86.872100000000003
 31
0.0
  0
LINE
  5
7A
  8
0
 62
     7
 10
81.150099999999995
 20
86.872100000000003
 30
0.0
 11
80.400099999999995
 21
86.872100000000003
 31
0.0
  0
LINE
  5
7B
  8
0
 62
     7
 10
81.900099999999995
 20
93.996899999999997
 30
0.0
 11
81.900099999999995
 21
92.747000000000014
 31
0.0
  0
LINE
  5
7C
  8
0
 62
     7
 10
80.400099999999995
 20
92.747000000000014
 30
0.0
 11
81.900099999999995
 21
92.747000000000014
 31
0.0
  0
LINE
  5
7D
  8
0
 62
     7
 10
79.650099999999995
 20
99.372000000000014
 30
0.0
 11
79.650099999999995
 21
94.372100000000003
 31
0.0
  0
LINE
  5
7E
  8
0
 62
     7
 10
79.650099999999995
 20
93.996899999999997
 30
0.0
 11
79.650099999999995
 21
92.747000000000014
 31
0.0
  0
LINE
  5
7F
  8
0
 62
     7
 10
79.650099999999995
 20
92.747000000000014
 30
0.0
 11
79.650099999999995
 21
86.872100000000003
 31
0.0
  0
LINE
  5
80
  8
0
 62
     7
 10
79.650099999999995
 20
86.872100000000003
 30
0.0
 11
80.400099999999995
 21
86.872100000000003
 31
0.0
  0
LINE
  5
81
  8
0
 62
     7
 10
78.900099999999995
 20
93.996899999999997
 30
0.0
 11
78.900099999999995
 21
92.747000000000014
 31
0.0
  0
LINE
  5
82
  8
0
 62
     7
 10
80.400099999999995
 20
92.747000000000014
 30
0.0
 11
78.900099999999995
 21
92.747000000000014
 31
0.0
  0
LINE
  5
83
  8
0
  6
AIGENLINE002
 62
     7
 10
60.084899999999998
 20
94.747600000000006
 30
0.0
 11
60.084899999999998
 21
86.122399999999985
 31
0.0
  0
LINE
  5
84
  8
0
 62
     7
 10
60.835099999999997
 20
92.747399999999985
 30
0.0
 11
60.835099999999997
 21
86.872399999999999
 31
0.0
  0
LINE
  5
85
  8
0
 62
     7
 10
60.835099999999997
 20
86.872399999999999
 30
0.0
 11
60.085099999999997
 21
86.872399999999999
 31
0.0
  0
LINE
  5
86
  8
0
 62
     7
 10
61.384099999999997
 20
93.997299999999996
 30
0.0
 11
61.384099999999997
 21
92.747399999999985
 31
0.0
  0
LINE
  5
87
  8
0
 62
     7
 10
82.900199999999998
 20
93.121899999999997
 30
0.0
 11
82.900199999999998
 21
89.372200000000007
 31
0.0
  0
LINE
  5
88
  8
0
 62
     7
 10
62.585000000000001
 20
93.997299999999996
 30
0.0
 11
62.585000000000001
 21
89.372500000000002
 31
0.0
  0
LINE
  5
89
  8
0
 62
     7
 10
77.900000000000006
 20
101.747
 30
0.0
 11
77.900000000000006
 21
94.497200000000007
 31
0.0
  0
LINE
  5
8A
  8
0
 62
     7
 10
62.585000000000001
 20
102.24799999999991
 30
0.0
 11
62.585000000000001
 21
93.997299999999996
 31
0.0
  0
LINE
  5
8B
  8
0
 62
     7
 10
82.899900000000017
 20
106.872
 30
0.0
 11
82.899900000000017
 21
103.122
 31
0.0
  0
LINE
  5
8C
  8
0
 62
     7
 10
82.025099999999995
 20
102.247
 30
0.0
 11
78.400199999999984
 21
102.247
 31
0.0
  0
LINE
  5
8D
  8
0
 62
     7
 10
62.585000000000001
 20
106.872
 30
0.0
 11
62.585000000000001
 21
102.24799999999991
 31
0.0
  0
LINE
  5
8E
  8
0
 62
     7
 10
60.835099999999997
 20
89.372500000000002
 30
0.0
 11
62.585000000000001
 21
89.372500000000002
 31
0.0
  0
LINE
  5
8F
  8
0
 62
     7
 10
60.085099999999997
 20
92.747399999999985
 30
0.0
 11
61.384099999999997
 21
92.747399999999985
 31
0.0
  0
LINE
  5
90
  8
0
 62
     7
 10
60.085099999999997
 20
93.997299999999996
 30
0.0
 11
62.585000000000001
 21
93.997299999999996
 31
0.0
  0
LINE
  5
91
  8
0
 62
     7
 10
60.085099999999997
 20
102.24799999999991
 30
0.0
 11
62.585000000000001
 21
102.24799999999991
 31
0.0
  0
LINE
  5
92
  8
0
 62
     7
 10
60.085099999999997
 20
106.872
 30
0.0
 11
62.585000000000001
 21
106.872
 31
0.0
  0
LINE
  5
93
  8
0
 62
     7
 10
60.084899999999998
 20
93.997299999999996
 30
0.0
 11
60.084899999999998
 21
92.747399999999985
 31
0.0
  0
LINE
  5
94
  8
0
 62
     7
 10
59.33489999999999
 20
92.747399999999985
 30
0.0
 11
59.33489999999999
 21
86.872399999999999
 31
0.0
  0
LINE
  5
95
  8
0
 62
     7
 10
59.33489999999999
 20
86.872399999999999
 30
0.0
 11
60.084899999999998
 21
86.872399999999999
 31
0.0
  0
LINE
  5
96
  8
0
 62
     7
 10
58.785899999999991
 20
93.997299999999996
 30
0.0
 11
58.785899999999991
 21
92.747399999999985
 31
0.0
  0
LINE
  5
97
  8
0
 62
     7
 10
57.585099999999997
 20
93.997299999999996
 30
0.0
 11
57.585099999999997
 21
89.372500000000002
 31
0.0
  0
LINE
  5
98
  8
0
 62
     7
 10
57.585099999999997
 20
102.24799999999991
 30
0.0
 11
57.585099999999997
 21
93.997299999999996
 31
0.0
  0
LINE
  5
99
  8
0
 62
     7
 10
57.585099999999997
 20
106.872
 30
0.0
 11
57.585099999999997
 21
102.24799999999991
 31
0.0
  0
LINE
  5
9A
  8
0
 62
     7
 10
59.33489999999999
 20
89.372500000000002
 30
0.0
 11
57.585099999999997
 21
89.372500000000002
 31
0.0
  0
LINE
  5
9B
  8
0
 62
     7
 10
60.084899999999998
 20
92.747399999999985
 30
0.0
 11
58.785899999999991
 21
92.747399999999985
 31
0.0
  0
LINE
  5
9C
  8
0
 62
     7
 10
60.084899999999998
 20
93.997299999999996
 30
0.0
 11
57.585099999999997
 21
93.997299999999996
 31
0.0
  0
LINE
  5
9D
  8
0
 62
     7
 10
60.084899999999998
 20
102.24799999999991
 30
0.0
 11
57.585099999999997
 21
102.24799999999991
 31
0.0
  0
LINE
  5
9E
  8
0
 62
     7
 10
60.084899999999998
 20
106.872
 30
0.0
 11
57.585099999999997
 21
106.872
 31
0.0
  0
LINE
  5
9F
  8
0
 62
     7
 10
75.688900000000004
 20
112.0029999999999
 30
0.0
 11
77.900000000000006
 21
112.596
 31
0.0
  0
LINE
  5
A0
  8
0
 62
     7
 10
77.900000000000006
 20
112.596
 30
0.0
 11
75.688900000000004
 21
113.1879999999999
 31
0.0
  0
LINE
  5
A1
  8
0
 62
     7
 10
75.688900000000004
 20
113.1879999999999
 30
0.0
 11
75.688900000000004
 21
112.0029999999999
 31
0.0
  0
LINE
  5
A2
  8
0
 62
     7
 10
85.486800000000002
 20
113.1879999999999
 30
0.0
 11
83.275000000000006
 21
112.596
 31
0.0
  0
LINE
  5
A3
  8
0
 62
     7
 10
83.275000000000006
 20
112.596
 30
0.0
 11
85.486800000000002
 21
112.0029999999999
 31
0.0
  0
LINE
  5
A4
  8
0
 62
     7
 10
85.486800000000002
 20
112.0029999999999
 30
0.0
 11
85.486800000000002
 21
113.1879999999999
 31
0.0
  0
LINE
  5
A5
  8
0
 62
     7
 10
89.426599999999993
 20
112.596
 30
0.0
 11
74.176500000000004
 21
112.596
 31
0.0
  0
LINE
  5
A6
  8
0
 62
     7
 10
83.275000000000006
 20
107.572
 30
0.0
 11
83.275000000000006
 21
113.29600000000001
 31
0.0
  0
LINE
  5
A7
  8
0
 62
     7
 10
82.899900000000017
 20
107.572
 30
0.0
 11
82.899900000000017
 21
113.29600000000001
 31
0.0
  0
LINE
  5
A8
  8
0
 62
     7
 10
77.900000000000006
 20
102.947
 30
0.0
 11
77.900000000000006
 21
113.29600000000001
 31
0.0
  0
LINE
  5
A9
  8
0
 62
     7
 10
55.374099999999999
 20
112.0029999999999
 30
0.0
 11
57.585099999999997
 21
112.596
 31
0.0
  0
LINE
  5
AA
  8
0
 62
     7
 10
57.585099999999997
 20
112.596
 30
0.0
 11
55.374099999999999
 21
113.1879999999999
 31
0.0
  0
LINE
  5
AB
  8
0
 62
     7
 10
55.374099999999999
 20
113.1879999999999
 30
0.0
 11
55.374099999999999
 21
112.0029999999999
 31
0.0
  0
LINE
  5
AC
  8
0
 62
     7
 10
64.796800000000005
 20
113.1879999999999
 30
0.0
 11
62.585000000000001
 21
112.596
 31
0.0
  0
LINE
  5
AD
  8
0
 62
     7
 10
62.585000000000001
 20
112.596
 30
0.0
 11
64.796800000000005
 21
112.0029999999999
 31
0.0
  0
LINE
  5
AE
  8
0
 62
     7
 10
64.796800000000005
 20
112.0029999999999
 30
0.0
 11
64.796800000000005
 21
113.1879999999999
 31
0.0
  0
LINE
  5
AF
  8
0
 62
     7
 10
66.308899999999994
 20
112.596
 30
0.0
 11
53.861699999999992
 21
112.596
 31
0.0
  0
LINE
  5
B0
  8
0
 62
     7
 10
50.795000000000002
 20
89.372200000000007
 30
0.0
 11
56.885100000000001
 21
89.372200000000007
 31
0.0
  0
LINE
  5
B1
  8
0
 62
     7
 10
62.585000000000001
 20
107.572
 30
0.0
 11
62.585000000000001
 21
113.29600000000001
 31
0.0
  0
LINE
  5
B2
  8
0
 62
     7
 10
57.585099999999997
 20
107.572
 30
0.0
 11
57.585099999999997
 21
113.29600000000001
 31
0.0
  0
LINE
  5
B3
  8
0
 62
     7
 10
50.795000000000002
 20
106.872
 30
0.0
 11
56.885100000000001
 21
106.872
 31
0.0
  0
LINE
  5
B4
  8
0
 62
     7
 10
29.133600000000001
 20
251.19799999999989
 30
0.0
 11
28.5411
 21
253.40899999999999
 31
0.0
  0
LINE
  5
B5
  8
0
 62
     7
 10
28.5411
 20
253.40899999999999
 30
0.0
 11
27.948499999999999
 21
251.19799999999989
 31
0.0
  0
LINE
  5
B6
  8
0
 62
     7
 10
27.948499999999999
 20
251.19799999999989
 30
0.0
 11
29.133600000000001
 21
251.19799999999989
 31
0.0
  0
LINE
  5
B7
  8
0
 62
     7
 10
27.963000000000001
 20
225.62
 30
0.0
 11
28.555499999999999
 21
223.40899999999999
 31
0.0
  0
LINE
  5
B8
  8
0
 62
     7
 10
28.555499999999999
 20
223.40899999999999
 30
0.0
 11
29.148099999999999
 21
225.62
 31
0.0
  0
LINE
  5
B9
  8
0
 62
     7
 10
29.148099999999999
 20
225.62
 30
0.0
 11
27.963000000000001
 21
225.62
 31
0.0
  0
LINE
  5
BA
  8
0
 62
     7
 10
28.548300000000001
 20
253.40899999999999
 30
0.0
 11
28.548300000000001
 21
223.41
 31
0.0
  0
LINE
  5
BB
  8
0
 62
     7
 10
29.133600000000001
 20
221.19699999999989
 30
0.0
 11
28.5411
 21
223.40899999999999
 31
0.0
  0
LINE
  5
BC
  8
0
 62
     7
 10
28.5411
 20
223.40899999999999
 30
0.0
 11
27.948499999999999
 21
221.19699999999989
 31
0.0
  0
LINE
  5
BD
  8
0
 62
     7
 10
27.948499999999999
 20
221.19699999999989
 30
0.0
 11
29.133600000000001
 21
221.19699999999989
 31
0.0
  0
LINE
  5
BE
  8
0
 62
     7
 10
27.963000000000001
 20
210.11999999999989
 30
0.0
 11
28.555499999999999
 21
207.90899999999999
 31
0.0
  0
LINE
  5
BF
  8
0
 62
     7
 10
28.555499999999999
 20
207.90899999999999
 30
0.0
 11
29.148099999999999
 21
210.11999999999989
 31
0.0
  0
LINE
  5
C0
  8
0
 62
     7
 10
29.148099999999999
 20
210.11999999999989
 30
0.0
 11
27.963000000000001
 21
210.11999999999989
 31
0.0
  0
LINE
  5
C1
  8
0
 62
     7
 10
28.548300000000001
 20
223.40799999999999
 30
0.0
 11
28.548300000000001
 21
207.90999999999991
 31
0.0
  0
LINE
  5
C2
  8
0
 62
     7
 10
27.841000000000001
 20
207.90899999999999
 30
0.0
 11
38.075800000000001
 21
207.90899999999999
 31
0.0
  0
LINE
  5
C3
  8
0
  6
AIGENLINE003
 62
     7
 10
31.931799999999988
 20
129.2579999999999
 30
0.0
 11
99.256200000000021
 21
129.2579999999999
 31
0.0
  0
LINE
  5
C4
  8
0
  6
AIGENLINE003
 62
     7
 10
31.931799999999988
 20
144.2579999999999
 30
0.0
 11
99.256200000000021
 21
144.2579999999999
 31
0.0
  0
LINE
  5
C5
  8
0
  6
AIGENLINE003
 62
     7
 10
27.841000000000001
 20
253.40899999999999
 30
0.0
 11
107.376
 21
253.40899999999999
 31
0.0
  0
LINE
  5
C6
  8
0
  6
AIGENLINE003
 62
     7
 10
179.607
 20
238.60900000000001
 30
0.0
 11
174.608
 21
238.60900000000001
 31
0.0
  0
LINE
  5
C7
  8
0
  6
AIGENLINE003
 62
     7
 10
174.608
 20
238.60900000000001
 30
0.0
 11
174.608
 21
248.60900000000001
 31
0.0
  0
LINE
  5
C8
  8
0
  6
AIGENLINE003
 62
     7
 10
174.608
 20
248.60900000000001
 30
0.0
 11
179.607
 21
248.60900000000001
 31
0.0
  0
LINE
  5
C9
  8
0
  6
AIGENLINE003
 62
     7
 10
179.607
 20
248.60900000000001
 30
0.0
 11
179.607
 21
238.60900000000001
 31
0.0
  0
LINE
  5
CA
  8
0
  6
AIGENLINE003
 62
     7
 10
179.607
 20
248.60900000000001
 30
0.0
 11
174.608
 21
238.60900000000001
 31
0.0
  0
LINE
  5
CB
  8
0
  6
AIGENLINE003
 62
     7
 10
174.608
 20
248.60900000000001
 30
0.0
 11
179.607
 21
238.60900000000001
 31
0.0
  0
LINE
  5
CC
  8
0
  6
AIGENLINE003
 62
     7
 10
122.407
 20
238.60900000000001
 30
0.0
 11
117.407
 21
238.60900000000001
 31
0.0
  0
LINE
  5
CD
  8
0
  6
AIGENLINE003
 62
     7
 10
117.407
 20
238.60900000000001
 30
0.0
 11
117.407
 21
248.60900000000001
 31
0.0
  0
LINE
  5
CE
  8
0
  6
AIGENLINE003
 62
     7
 10
117.407
 20
248.60900000000001
 30
0.0
 11
122.407
 21
248.60900000000001
 31
0.0
  0
LINE
  5
CF
  8
0
  6
AIGENLINE003
 62
     7
 10
122.407
 20
248.60900000000001
 30
0.0
 11
122.407
 21
238.60900000000001
 31
0.0
  0
ARC
  5
D0
  8
0
 62
     7
 10
163.48698999999991
 20
139.27748099999991
 30
0.0
 40
0.519898
 50
272.16646700000001
 51
357.873017
  0
ARC
  5
D1
  8
0
 62
     7
 10
163.506643
 20
139.258185
 30
0.0
 40
0.5002310000000002
 50
179.99996999999991
 51
270.00002000000001
  0
ARC
  5
D2
  8
0
 62
     7
 10
163.52528699999999
 20
139.23882699999999
 30
0.0
 40
0.5192350000000001
 50
92.057652999999988
 51
177.86334299999999
  0
ARC
  5
D3
  8
0
 62
     7
 10
163.48735300000001
 20
139.23853700000001
 30
0.0
 40
0.519549
 50
2.1673520000000002
 51
87.872139000000004
  0
ARC
  5
D4
  8
0
 62
     7
 10
161.987684
 20
140.47708899999989
 30
0.0
 40
0.5192020000000001
 50
272.09231999999997
 51
357.86818899999997
  0
ARC
  5
D5
  8
0
 62
     7
 10
162.02591100000001
 20
140.4777629999999
 30
0.0
 40
0.519887
 50
182.2033429999999
 51
267.87566099999992
  0
ARC
  5
D6
  8
0
 62
     7
 10
162.00663899999989
 20
140.457775
 30
0.0
 40
0.5002310000000002
 50
90.0
 51
179.99996999999991
  0
ARC
  5
D7
  8
0
 62
     7
 10
161.9873
 20
140.438794
 30
0.0
 40
0.519573
 50
2.093650999999999
 51
87.866866000000016
  0
ARC
  5
D8
  8
0
  6
AIGENLINE001
 62
     7
 10
134.382272
 20
148.94202999999999
 30
0.0
 40
6.8015869999999987
 50
208.58095399999999
 51
210.386112
  0
ARC
  5
D9
  8
0
  6
AIGENLINE001
 62
     7
 10
147.41317799999999
 20
156.47021199999989
 30
0.0
 40
21.85067699999999
 50
210.13106400000001
 51
212.912847
  0
ARC
  5
DA
  8
0
  6
AIGENLINE001
 62
     7
 10
157.81680199999991
 20
163.098916
 30
0.0
 40
34.186402999999999
 50
212.7651029999999
 51
218.48316299999991
  0
ARC
  5
DB
  8
0
  6
AIGENLINE001
 62
     7
 10
161.98027699999989
 20
166.22371499999991
 30
0.0
 40
39.390315000000001
 50
218.27253999999991
 51
224.26730499999999
  0
ARC
  5
DC
  8
0
  6
AIGENLINE001
 62
     7
 10
127.49205599999991
 20
145.2346629999999
 30
0.0
 40
1.0234149999999991
 50
26.302754999999991
 51
89.188721999999999
  0
ARC
  5
DD
  8
0
  6
AIGENLINE001
 62
     7
 10
135.1781169999999
 20
140.17075299999991
 30
0.0
 40
2.0130469999999998
 50
225.74135799999999
 51
264.56000499999999
  0
ARC
  5
DE
  8
0
  6
AIGENLINE001
 62
     7
 10
153.00644199999991
 20
139.25801399999989
 30
0.0
 40
2.000062999999999
 50
270.004954
 51
0.004925
  0
ARC
  5
DF
  8
0
  6
AIGENLINE001
 62
     7
 10
156.04491999999991
 20
145.219548
 30
0.0
 40
1.0391330000000001
 50
92.11205600000001
 51
177.86817400000001
  0
LINE
  5
E0
  8
0
 62
     7
 10
126.511
 20
145.167
 30
0.0
 11
128.221
 21
132.96600000000001
 31
0.0
  0
LINE
  5
E1
  8
0
 62
     7
 10
33.224400000000003
 20
142.04699999999991
 30
0.0
 11
32.631799999999998
 21
144.2579999999999
 31
0.0
  0
LINE
  5
E2
  8
0
 62
     7
 10
32.631799999999998
 20
144.2579999999999
 30
0.0
 11
32.039200000000001
 21
142.04699999999991
 31
0.0
  0
LINE
  5
E3
  8
0
 62
     7
 10
32.039200000000001
 20
142.04699999999991
 30
0.0
 11
33.224400000000003
 21
142.04699999999991
 31
0.0
  0
LINE
  5
E4
  8
0
 62
     7
 10
32.039200000000001
 20
131.46999999999991
 30
0.0
 11
32.631799999999998
 21
129.2579999999999
 31
0.0
  0
LINE
  5
E5
  8
0
 62
     7
 10
32.631799999999998
 20
129.2579999999999
 30
0.0
 11
33.224400000000003
 21
131.46999999999991
 31
0.0
  0
LINE
  5
E6
  8
0
 62
     7
 10
33.224400000000003
 20
131.46999999999991
 30
0.0
 11
32.039200000000001
 21
131.46999999999991
 31
0.0
  0
LINE
  5
E7
  8
0
 62
     7
 10
32.039200000000001
 20
148.46999999999991
 30
0.0
 11
32.631799999999998
 21
146.2579999999999
 31
0.0
  0
LINE
  5
E8
  8
0
 62
     7
 10
32.631799999999998
 20
146.2579999999999
 30
0.0
 11
33.224400000000003
 21
148.46999999999991
 31
0.0
  0
LINE
  5
E9
  8
0
 62
     7
 10
33.224400000000003
 20
148.46999999999991
 30
0.0
 11
32.039200000000001
 21
148.46999999999991
 31
0.0
  0
LINE
  5
EA
  8
0
 62
     7
 10
32.631799999999998
 20
151.71000000000001
 30
0.0
 11
32.631799999999998
 21
129.2579999999999
 31
0.0
  0
LINE
  5
EB
  8
0
 62
     7
 10
176.44799999999989
 20
142.04699999999991
 30
0.0
 11
175.8549999999999
 21
144.2579999999999
 31
0.0
  0
LINE
  5
EC
  8
0
 62
     7
 10
175.8549999999999
 20
144.2579999999999
 30
0.0
 11
175.26300000000001
 21
142.04699999999991
 31
0.0
  0
LINE
  5
ED
  8
0
 62
     7
 10
175.26300000000001
 20
142.04699999999991
 30
0.0
 11
176.44799999999989
 21
142.04699999999991
 31
0.0
  0
LINE
  5
EE
  8
0
 62
     7
 10
175.26300000000001
 20
148.46999999999991
 30
0.0
 11
175.8549999999999
 21
146.2579999999999
 31
0.0
  0
LINE
  5
EF
  8
0
 62
     7
 10
175.8549999999999
 20
146.2579999999999
 30
0.0
 11
176.44799999999989
 21
148.46999999999991
 31
0.0
  0
LINE
  5
F0
  8
0
 62
     7
 10
176.44799999999989
 20
148.46999999999991
 30
0.0
 11
175.26300000000001
 21
148.46999999999991
 31
0.0
  0
LINE
  5
F1
  8
0
 62
     7
 10
175.8549999999999
 20
151.71000000000001
 30
0.0
 11
175.8549999999999
 21
140.53399999999991
 31
0.0
  0
LINE
  5
F2
  8
0
 62
     7
 10
147.86600000000001
 20
144.04699999999991
 30
0.0
 11
147.273
 21
146.2579999999999
 31
0.0
  0
LINE
  5
F3
  8
0
 62
     7
 10
147.273
 20
146.2579999999999
 30
0.0
 11
146.68100000000001
 21
144.04699999999991
 31
0.0
  0
LINE
  5
F4
  8
0
 62
     7
 10
146.68100000000001
 20
144.04699999999991
 30
0.0
 11
147.86600000000001
 21
144.04699999999991
 31
0.0
  0
LINE
  5
F5
  8
0
 62
     7
 10
146.69499999999991
 20
139.46899999999991
 30
0.0
 11
147.28700000000001
 21
137.2579999999999
 31
0.0
  0
LINE
  5
F6
  8
0
 62
     7
 10
147.28700000000001
 20
137.2579999999999
 30
0.0
 11
147.87999999999991
 21
139.46899999999991
 31
0.0
  0
LINE
  5
F7
  8
0
 62
     7
 10
147.87999999999991
 20
139.46899999999991
 30
0.0
 11
146.69499999999991
 21
139.46899999999991
 31
0.0
  0
LINE
  5
F8
  8
0
 62
     7
 10
147.28
 20
146.25700000000001
 30
0.0
 11
147.28
 21
137.2589999999999
 31
0.0
  0
LINE
  5
F9
  8
0
 62
     7
 10
183.12700000000001
 20
144.04799999999989
 30
0.0
 11
182.53399999999999
 21
146.2589999999999
 31
0.0
  0
LINE
  5
FA
  8
0
 62
     7
 10
182.53399999999999
 20
146.2589999999999
 30
0.0
 11
181.94200000000001
 21
144.04799999999989
 31
0.0
  0
LINE
  5
FB
  8
0
 62
     7
 10
181.94200000000001
 20
144.04799999999989
 30
0.0
 11
183.12700000000001
 21
144.04799999999989
 31
0.0
  0
LINE
  5
FC
  8
0
 62
     7
 10
181.9559999999999
 20
132.9679999999999
 30
0.0
 11
182.54900000000001
 21
130.7579999999999
 31
0.0
  0
LINE
  5
FD
  8
0
 62
     7
 10
182.54900000000001
 20
130.7579999999999
 30
0.0
 11
183.14099999999991
 21
132.9679999999999
 31
0.0
  0
LINE
  5
FE
  8
0
 62
     7
 10
183.14099999999991
 20
132.9679999999999
 30
0.0
 11
181.9559999999999
 21
132.9679999999999
 31
0.0
  0
LINE
  5
FF
  8
0
 62
     7
 10
182.542
 20
146.2579999999999
 30
0.0
 11
182.542
 21
130.7579999999999
 31
0.0
  0
LINE
  5
100
  8
0
 62
     7
 10
167.94900000000001
 20
130.7579999999999
 30
0.0
 11
183.24199999999999
 21
130.7579999999999
 31
0.0
  0
LINE
  5
101
  8
0
 62
     7
 10
31.931799999999988
 20
146.2579999999999
 30
0.0
 11
38.505400000000002
 21
146.2579999999999
 31
0.0
  0
LINE
  5
102
  8
0
 62
     7
 10
169.70699999999999
 20
146.2579999999999
 30
0.0
 11
183.24199999999999
 21
146.2579999999999
 31
0.0
  0
LINE
  5
103
  8
0
 62
     7
 10
169.70699999999999
 20
144.2579999999999
 30
0.0
 11
176.55500000000001
 21
144.2579999999999
 31
0.0
  0
LINE
  5
104
  8
0
 62
     7
 10
166.79599999999991
 20
152.40299999999991
 30
0.0
 11
169.0079999999999
 21
152.99600000000001
 31
0.0
  0
LINE
  5
105
  8
0
 62
     7
 10
169.0079999999999
 20
152.99600000000001
 30
0.0
 11
166.79599999999991
 21
153.58799999999991
 31
0.0
  0
LINE
  5
106
  8
0
 62
     7
 10
166.79599999999991
 20
153.58799999999991
 30
0.0
 11
166.79599999999991
 21
152.40299999999991
 31
0.0
  0
LINE
  5
107
  8
0
 62
     7
 10
128.71700000000001
 20
153.5739999999999
 30
0.0
 11
126.505
 21
152.98099999999991
 31
0.0
  0
LINE
  5
108
  8
0
 62
     7
 10
126.505
 20
152.98099999999991
 30
0.0
 11
128.71700000000001
 21
152.38900000000001
 31
0.0
  0
LINE
  5
109
  8
0
 62
     7
 10
128.71700000000001
 20
152.38900000000001
 30
0.0
 11
128.71700000000001
 21
153.5739999999999
 31
0.0
  0
LINE
  5
10A
  8
0
  6
AIGENLINE001
 62
     7
 10
144.75699999999989
 20
137.2579999999999
 30
0.0
 11
134.98699999999991
 21
138.16699999999989
 31
0.0
  0
LINE
  5
10B
  8
0
 62
     7
 10
169.00700000000001
 20
152.988
 30
0.0
 11
126.506
 21
152.988
 31
0.0
  0
LINE
  5
10C
  8
0
 62
     7
 10
126.506
 20
146.9199999999999
 30
0.0
 11
126.506
 21
153.68799999999999
 31
0.0
  0
LINE
  5
10D
  8
0
  6
AIGENLINE001
 62
     7
 10
155.00700000000001
 20
139.2579999999999
 30
0.0
 11
155.00700000000001
 21
145.2579999999999
 31
0.0
  0
LINE
  5
10E
  8
0
 62
     7
 10
169.00700000000001
 20
146.9199999999999
 30
0.0
 11
169.00700000000001
 21
153.68799999999999
 31
0.0
  0
LINE
  5
10F
  8
0
 62
     7
 10
164.7949999999999
 20
124.4739999999999
 30
0.0
 11
167.00700000000001
 21
125.066
 31
0.0
  0
LINE
  5
110
  8
0
 62
     7
 10
167.00700000000001
 20
125.066
 30
0.0
 11
164.7949999999999
 21
125.65899999999991
 31
0.0
  0
LINE
  5
111
  8
0
 62
     7
 10
164.7949999999999
 20
125.65899999999991
 30
0.0
 11
164.7949999999999
 21
124.4739999999999
 31
0.0
  0
LINE
  5
112
  8
0
 62
     7
 10
171.21799999999999
 20
125.65899999999991
 30
0.0
 11
169.00700000000001
 21
125.066
 31
0.0
  0
LINE
  5
113
  8
0
 62
     7
 10
169.00700000000001
 20
125.066
 30
0.0
 11
171.21799999999999
 21
124.4739999999999
 31
0.0
  0
LINE
  5
114
  8
0
 62
     7
 10
171.21799999999999
 20
124.4739999999999
 30
0.0
 11
171.21799999999999
 21
125.65899999999991
 31
0.0
  0
LINE
  5
115
  8
0
 62
     7
 10
175.285
 20
125.066
 30
0.0
 11
163.2289999999999
 21
125.066
 31
0.0
  0
LINE
  5
116
  8
0
 62
     7
 10
167.00700000000001
 20
129.76300000000001
 30
0.0
 11
167.00700000000001
 21
124.3659999999999
 31
0.0
  0
LINE
  5
117
  8
0
 62
     7
 10
144.21700000000001
 20
112.911
 30
0.0
 11
142.006
 21
112.318
 31
0.0
  0
LINE
  5
118
  8
0
 62
     7
 10
142.006
 20
112.318
 30
0.0
 11
144.21700000000001
 21
111.72499999999999
 31
0.0
  0
LINE
  5
119
  8
0
 62
     7
 10
144.21700000000001
 20
111.72499999999999
 30
0.0
 11
144.21700000000001
 21
112.911
 31
0.0
  0
LINE
  5
11A
  8
0
 62
     7
 10
166.79599999999991
 20
111.741
 30
0.0
 11
169.0079999999999
 21
112.3329999999999
 31
0.0
  0
LINE
  5
11B
  8
0
 62
     7
 10
169.0079999999999
 20
112.3329999999999
 30
0.0
 11
166.79599999999991
 21
112.926
 31
0.0
  0
LINE
  5
11C
  8
0
 62
     7
 10
166.79599999999991
 20
112.926
 30
0.0
 11
166.79599999999991
 21
111.741
 31
0.0
  0
LINE
  5
11D
  8
0
 62
     7
 10
142.006
 20
112.325
 30
0.0
 11
169.00700000000001
 21
112.325
 31
0.0
  0
LINE
  5
11E
  8
0
 62
     7
 10
150.71700000000001
 20
119.842
 30
0.0
 11
148.506
 21
119.25
 31
0.0
  0
LINE
  5
11F
  8
0
 62
     7
 10
148.506
 20
119.25
 30
0.0
 11
150.71700000000001
 21
118.657
 31
0.0
  0
LINE
  5
120
  8
0
 62
     7
 10
150.71700000000001
 20
118.657
 30
0.0
 11
150.71700000000001
 21
119.842
 31
0.0
  0
LINE
  5
121
  8
0
 62
     7
 10
166.79599999999991
 20
118.672
 30
0.0
 11
169.0079999999999
 21
119.2649999999999
 31
0.0
  0
LINE
  5
122
  8
0
 62
     7
 10
169.0079999999999
 20
119.2649999999999
 30
0.0
 11
166.79599999999991
 21
119.857
 31
0.0
  0
LINE
  5
123
  8
0
 62
     7
 10
166.79599999999991
 20
119.857
 30
0.0
 11
166.79599999999991
 21
118.672
 31
0.0
  0
LINE
  5
124
  8
0
 62
     7
 10
148.50700000000001
 20
119.25700000000001
 30
0.0
 11
169.00700000000001
 21
119.25700000000001
 31
0.0
  0
LINE
  5
125
  8
0
 62
     7
 10
142.006
 20
131.572
 30
0.0
 11
142.006
 21
111.6249999999999
 31
0.0
  0
LINE
  5
126
  8
0
 62
     7
 10
148.50700000000001
 20
130.55799999999991
 30
0.0
 11
148.50700000000001
 21
118.5559999999999
 31
0.0
  0
LINE
  5
127
  8
0
  6
AIGENLINE002
 62
     7
 10
148.50700000000001
 20
138.86500000000001
 30
0.0
 11
148.50700000000001
 21
131.2579999999999
 31
0.0
  0
LINE
  5
128
  8
0
 62
     7
 10
169.00700000000001
 20
143.55799999999991
 30
0.0
 11
169.00700000000001
 21
111.6249999999999
 31
0.0
  0
LINE
  5
129
  8
0
  6
AIGENLINE002
 62
     7
 10
161.20699999999991
 20
147.77699999999999
 30
0.0
 11
161.20699999999991
 21
142.7529999999999
 31
0.0
  0
LINE
  5
12A
  8
0
  6
AIGENLINE001
 62
     7
 10
146.20699999999991
 20
136.2579999999999
 30
0.0
 11
146.20699999999991
 21
133.2579999999999
 31
0.0
  0
LINE
  5
12B
  8
0
  6
AIGENLINE001
 62
     7
 10
150.80699999999999
 20
136.2579999999999
 30
0.0
 11
150.80699999999999
 21
133.2579999999999
 31
0.0
  0
LINE
  5
12C
  8
0
  6
AIGENLINE001
 62
     7
 10
152.25699999999989
 20
135.25700000000001
 30
0.0
 11
152.25699999999989
 21
133.7579999999999
 31
0.0
  0
ARC
  5
12D
  8
0
  6
AIGENLINE001
 62
     7
 10
151.7373979999999
 20
133.77668299999999
 30
0.0
 40
0.519562
 50
272.13204200000001
 51
357.90744100000001
  0
LINE
  5
12E
  8
0
 62
     7
 10
144.75699999999989
 20
135.2579999999999
 30
0.0
 11
144.75699999999989
 21
133.7579999999999
 31
0.0
  0
ARC
  5
12F
  8
0
 62
     7
 10
145.27580800000001
 20
133.77737099999999
 30
0.0
 40
0.519562
 50
182.09256099999999
 51
267.86799500000001
  0
LINE
  5
130
  8
0
 62
     7
 10
142.006
 20
143.7579999999999
 30
0.0
 11
142.006
 21
132.7589999999999
 31
0.0
  0
LINE
  5
131
  8
0
  6
AIGENLINE001
 62
     7
 10
153.2939999999999
 20
135.2579999999999
 30
0.0
 11
152.25699999999989
 21
135.2579999999999
 31
0.0
  0
LINE
  5
132
  8
0
 62
     7
 10
145.61600000000001
 20
135.2579999999999
 30
0.0
 11
142.50700000000001
 21
135.2579999999999
 31
0.0
  0
ARC
  5
133
  8
0
 62
     7
 10
142.52585799999989
 20
134.73818600000001
 30
0.0
 40
0.519887
 50
92.124339000000006
 51
177.79665700000001
  0
LINE
  5
134
  8
0
 62
     7
 10
146.34
 20
133.922
 30
0.0
 11
146.10099999999991
 21
134.87899999999991
 31
0.0
  0
ARC
  5
135
  8
0
 62
     7
 10
145.6054739999999
 20
134.74387699999991
 30
0.0
 40
0.5139490000000001
 50
15.293862000000001
 51
88.809809999999999
  0
LINE
  5
136
  8
0
 62
     7
 10
166.44499999999991
 20
130.762
 30
0.0
 11
147.18600000000001
 21
133.173
 31
0.0
  0
ARC
  5
137
  8
0
 62
     7
 10
147.33099499999989
 20
134.18822
 30
0.0
 40
1.0257279999999991
 50
195.02051299999999
 51
261.89804900000001
  0
LINE
  5
138
  8
0
 62
     7
 10
167.00700000000001
 20
144.2579999999999
 30
0.0
 11
167.00700000000001
 21
131.2579999999999
 31
0.0
  0
ARC
  5
139
  8
0
 62
     7
 10
166.49023899999989
 20
131.27903599999999
 30
0.0
 40
0.519205
 50
264.96143999999993
 51
350.78853900000001
  0
ARC
  5
13A
  8
0
 62
     7
 10
166.57680400000001
 20
131.25307399999991
 30
0.0
 40
0.4297620000000001
 50
352.35789399999999
 51
0.647987
  0
LINE
  5
13B
  8
0
 62
     7
 10
141.50599999999989
 20
132.2579999999999
 30
0.0
 11
129.17699999999999
 21
132.2579999999999
 31
0.0
  0
ARC
  5
13C
  8
0
 62
     7
 10
129.19932600000001
 20
133.28753599999999
 30
0.0
 40
1.0300689999999999
 50
198.18749800000001
 51
268.76271700000001
  0
ARC
  5
13D
  8
0
 62
     7
 10
141.48709099999991
 20
132.77693300000001
 30
0.0
 40
0.5195870000000001
 50
272.137317
 51
357.98103199999991
  0
LINE
  5
13E
  8
0
  6
AIGENLINE001
 62
     7
 10
150.80699999999999
 20
136.2579999999999
 30
0.0
 11
146.20699999999991
 21
136.2579999999999
 31
0.0
  0
LINE
  5
13F
  8
0
  6
AIGENLINE001
 62
     7
 10
152.25699999999989
 20
137.2579999999999
 30
0.0
 11
150.80699999999999
 21
136.2579999999999
 31
0.0
  0
LINE
  5
140
  8
0
  6
AIGENLINE001
 62
     7
 10
146.20699999999991
 20
136.2579999999999
 30
0.0
 11
144.75699999999989
 21
137.2579999999999
 31
0.0
  0
LINE
  5
141
  8
0
  6
AIGENLINE001
 62
     7
 10
153.00700000000001
 20
137.2579999999999
 30
0.0
 11
152.25699999999989
 21
137.2579999999999
 31
0.0
  0
LINE
  5
142
  8
0
  6
AIGENLINE001
 62
     7
 10
151.75700000000001
 20
133.2579999999999
 30
0.0
 11
146.8899999999999
 21
133.2579999999999
 31
0.0
  0
LINE
  5
143
  8
0
 62
     7
 10
146.8899999999999
 20
133.2579999999999
 30
0.0
 11
145.256
 21
133.2579999999999
 31
0.0
  0
LINE
  5
144
  8
0
  6
AIGENLINE001
 62
     7
 10
152.25699999999989
 20
137.2579999999999
 30
0.0
 11
144.75699999999989
 21
137.2579999999999
 31
0.0
  0
LINE
  5
145
  8
0
 62
     7
 10
169.00700000000001
 20
144.2579999999999
 30
0.0
 11
142.50700000000001
 21
144.2579999999999
 31
0.0
  0
ARC
  5
146
  8
0
 62
     7
 10
142.52585799999989
 20
143.73821000000001
 30
0.0
 40
0.519887
 50
92.124339000000006
 51
177.79665700000001
  0
LINE
  5
147
  8
0
 62
     7
 10
168.00700000000001
 20
146.2579999999999
 30
0.0
 11
127.50700000000001
 21
146.2579999999999
 31
0.0
  0
ARC
  5
148
  8
0
 62
     7
 10
127.54516700000001
 20
145.219223
 30
0.0
 40
1.0394699999999999
 50
92.129270999999989
 51
177.85095899999999
  0
ARC
  5
149
  8
0
 62
     7
 10
127.4778669999999
 20
145.256789
 30
0.0
 40
0.9714399999999999
 50
179.91663
 51
185.28849399999999
  0
LINE
  5
14A
  8
0
 62
     7
 10
169.00700000000001
 20
145.2579999999999
 30
0.0
 11
169.00700000000001
 21
144.2579999999999
 31
0.0
  0
ARC
  5
14B
  8
0
 62
     7
 10
167.96835899999999
 20
145.219548
 30
0.0
 40
1.0391330000000001
 50
2.1318060000000001
 51
87.887923999999998
  0
LINE
  5
14C
  8
0
 62
     7
 10
173.24299999999991
 20
200.75399999999999
 30
0.0
 11
174.38800000000001
 21
198.7709999999999
 31
0.0
  0
LINE
  5
14D
  8
0
 62
     7
 10
174.38800000000001
 20
198.7709999999999
 30
0.0
 11
172.405
 21
199.916
 31
0.0
  0
LINE
  5
14E
  8
0
 62
     7
 10
172.405
 20
199.916
 30
0.0
 11
173.24299999999991
 21
200.75399999999999
 31
0.0
  0
LINE
  5
14F
  8
0
 62
     7
 10
174.38800000000001
 20
198.7709999999999
 30
0.0
 11
171.203
 21
201.9559999999999
 31
0.0
  0
LINE
  5
150
  8
0
 62
     7
 10
185.8959999999999
 20
200.76300000000001
 30
0.0
 11
185.303
 21
198.55199999999999
 31
0.0
  0
LINE
  5
151
  8
0
 62
     7
 10
185.303
 20
198.55199999999999
 30
0.0
 11
184.7109999999999
 21
200.76300000000001
 31
0.0
  0
LINE
  5
152
  8
0
 62
     7
 10
184.7109999999999
 20
200.76300000000001
 30
0.0
 11
185.8959999999999
 21
200.76300000000001
 31
0.0
  0
LINE
  5
153
  8
0
 62
     7
 10
184.66099999999989
 20
191.34
 30
0.0
 11
185.25399999999999
 21
193.55199999999999
 31
0.0
  0
LINE
  5
154
  8
0
 62
     7
 10
185.25399999999999
 20
193.55199999999999
 30
0.0
 11
185.84599999999989
 21
191.34
 31
0.0
  0
LINE
  5
155
  8
0
 62
     7
 10
185.84599999999989
 20
191.34
 30
0.0
 11
184.66099999999989
 21
191.34
 31
0.0
  0
LINE
  5
156
  8
0
 62
     7
 10
184.7109999999999
 20
206.34
 30
0.0
 11
185.303
 21
208.55199999999999
 31
0.0
  0
LINE
  5
157
  8
0
 62
     7
 10
185.303
 20
208.55199999999999
 30
0.0
 11
185.8959999999999
 21
206.34
 31
0.0
  0
LINE
  5
158
  8
0
 62
     7
 10
185.8959999999999
 20
206.34
 30
0.0
 11
184.7109999999999
 21
206.34
 31
0.0
  0
LINE
  5
159
  8
0
 62
     7
 10
185.303
 20
182.0209999999999
 30
0.0
 11
185.303
 21
208.55199999999999
 31
0.0
  0
LINE
  5
15A
  8
0
 62
     7
 10
186.0029999999999
 20
193.55199999999999
 30
0.0
 11
181.00699999999989
 21
193.55199999999999
 31
0.0
  0
LINE
  5
15B
  8
0
 62
     7
 10
186.0029999999999
 20
198.55199999999999
 30
0.0
 11
175.30799999999991
 21
198.55199999999999
 31
0.0
  0
LINE
  5
15C
  8
0
 62
     7
 10
186.0029999999999
 20
208.55199999999999
 30
0.0
 11
181.70699999999999
 21
208.55199999999999
 31
0.0
  0
LINE
  5
15D
  8
0
  6
AIGENLINE002
 62
     7
 10
148.50700000000001
 20
191.059
 30
0.0
 11
148.50700000000001
 21
211.44699999999989
 31
0.0
  0
LINE
  5
15E
  8
0
  6
AIGENLINE003
 62
     7
 10
122.407
 20
206.5509999999999
 30
0.0
 11
174.608
 21
206.5509999999999
 31
0.0
  0
LINE
  5
15F
  8
0
 62
     7
 10
116.00700000000001
 20
193.55199999999999
 30
0.0
 11
181.00699999999989
 21
193.55199999999999
 31
0.0
  0
LINE
  5
160
  8
0
 62
     7
 10
174.608
 20
199.30199999999999
 30
0.0
 11
174.608
 21
208.55199999999999
 31
0.0
  0
LINE
  5
161
  8
0
 62
     7
 10
123.157
 20
198.55199999999999
 30
0.0
 11
173.85699999999991
 21
198.55199999999999
 31
0.0
  0
ARC
  5
162
  8
0
 62
     7
 10
173.828507
 20
199.33058799999989
 30
0.0
 40
0.779533
 50
272.1060159999999
 51
357.867681
  0
LINE
  5
163
  8
0
 62
     7
 10
122.407
 20
199.30199999999999
 30
0.0
 11
122.407
 21
208.55199999999999
 31
0.0
  0
ARC
  5
164
  8
0
 62
     7
 10
123.18573000000001
 20
199.3302149999999
 30
0.0
 40
0.779172
 50
182.10584900000001
 51
267.86785600000002
  0
LINE
  5
165
  8
0
 62
     7
 10
116.00700000000001
 20
208.55199999999999
 30
0.0
 11
181.00699999999989
 21
208.55199999999999
 31
0.0
  0
LINE
  5
166
  8
0
 62
     7
 10
160.91399999999999
 20
201.9559999999999
 30
0.0
 11
171.203
 21
201.9559999999999
 31
0.0
  0
LINE
  5
167
  8
0
 62
     7
 10
103.0629999999999
 20
186.12599999999989
 30
0.0
 11
120.66799999999991
 21
186.12599999999989
 31
0.0
  0
LINE
  5
168
  8
0
 62
     7
 10
126.94799999999989
 20
191.56899999999999
 30
0.0
 11
128.0929999999999
 21
193.55199999999999
 31
0.0
  0
LINE
  5
169
  8
0
 62
     7
 10
128.0929999999999
 20
193.55199999999999
 30
0.0
 11
126.11
 21
192.40700000000001
 31
0.0
  0
LINE
  5
16A
  8
0
 62
     7
 10
126.11
 20
192.40700000000001
 30
0.0
 11
126.94799999999989
 21
191.56899999999999
 31
0.0
  0
LINE
  5
16B
  8
0
 62
     7
 10
128.0929999999999
 20
193.55199999999999
 30
0.0
 11
120.66799999999991
 21
186.12599999999989
 31
0.0
  0
LINE
  5
16C
  8
0
 62
     7
 10
157.62700000000001
 20
241.91800000000001
 30
0.0
 11
167.91599999999991
 21
241.91800000000001
 31
0.0
  0
LINE
  5
16D
  8
0
 62
     7
 10
173.24299999999991
 20
246.4069999999999
 30
0.0
 11
174.38800000000001
 21
248.3899999999999
 31
0.0
  0
LINE
  5
16E
  8
0
 62
     7
 10
174.38800000000001
 20
248.3899999999999
 30
0.0
 11
172.405
 21
247.245
 31
0.0
  0
LINE
  5
16F
  8
0
 62
     7
 10
172.405
 20
247.245
 30
0.0
 11
173.24299999999991
 21
246.4069999999999
 31
0.0
  0
LINE
  5
170
  8
0
 62
     7
 10
174.38800000000001
 20
248.3899999999999
 30
0.0
 11
167.91599999999991
 21
241.91800000000001
 31
0.0
  0
LINE
  5
171
  8
0
 62
     7
 10
185.54599999999991
 20
246.39799999999991
 30
0.0
 11
184.953
 21
248.60900000000001
 31
0.0
  0
LINE
  5
172
  8
0
 62
     7
 10
184.953
 20
248.60900000000001
 30
0.0
 11
184.3609999999999
 21
246.39799999999991
 31
0.0
  0
LINE
  5
173
  8
0
 62
     7
 10
184.3609999999999
 20
246.39799999999991
 30
0.0
 11
185.54599999999991
 21
246.39799999999991
 31
0.0
  0
LINE
  5
174
  8
0
 62
     7
 10
184.3609999999999
 20
255.6209999999999
 30
0.0
 11
184.953
 21
253.40899999999999
 31
0.0
  0
LINE
  5
175
  8
0
 62
     7
 10
184.953
 20
253.40899999999999
 30
0.0
 11
185.54599999999991
 21
255.6209999999999
 31
0.0
  0
LINE
  5
176
  8
0
 62
     7
 10
185.54599999999991
 20
255.6209999999999
 30
0.0
 11
184.3609999999999
 21
255.6209999999999
 31
0.0
  0
LINE
  5
177
  8
0
 62
     7
 10
184.3609999999999
 20
225.6209999999999
 30
0.0
 11
184.953
 21
223.40899999999999
 31
0.0
  0
LINE
  5
178
  8
0
 62
     7
 10
184.953
 20
223.40899999999999
 30
0.0
 11
185.54599999999991
 21
225.6209999999999
 31
0.0
  0
LINE
  5
179
  8
0
 62
     7
 10
185.54599999999991
 20
225.6209999999999
 30
0.0
 11
184.3609999999999
 21
225.6209999999999
 31
0.0
  0
LINE
  5
17A
  8
0
 62
     7
 10
184.953
 20
264.78399999999988
 30
0.0
 11
184.953
 21
223.40899999999999
 31
0.0
  0
LINE
  5
17B
  8
0
 62
     7
 10
185.65299999999999
 20
253.40899999999999
 30
0.0
 11
181.70699999999999
 21
253.40899999999999
 31
0.0
  0
LINE
  5
17C
  8
0
 62
     7
 10
185.65299999999999
 20
248.60900000000001
 30
0.0
 11
180.30699999999999
 21
248.60900000000001
 31
0.0
  0
LINE
  5
17D
  8
0
 62
     7
 10
185.65299999999999
 20
223.40899999999999
 30
0.0
 11
181.70699999999999
 21
223.40899999999999
 31
0.0
  0
LINE
  5
17E
  8
0
 62
     7
 10
124.619
 20
260.80599999999998
 30
0.0
 11
122.407
 21
260.21399999999988
 31
0.0
  0
LINE
  5
17F
  8
0
 62
     7
 10
122.407
 20
260.21399999999988
 30
0.0
 11
124.619
 21
259.62099999999992
 31
0.0
  0
LINE
  5
180
  8
0
 62
     7
 10
124.619
 20
259.62099999999992
 30
0.0
 11
124.619
 21
260.80599999999998
 31
0.0
  0
LINE
  5
181
  8
0
 62
     7
 10
115.196
 20
259.62099999999992
 30
0.0
 11
117.407
 21
260.21399999999988
 31
0.0
  0
LINE
  5
182
  8
0
 62
     7
 10
117.407
 20
260.21399999999988
 30
0.0
 11
115.196
 21
260.80599999999998
 31
0.0
  0
LINE
  5
183
  8
0
 62
     7
 10
115.196
 20
260.80599999999998
 30
0.0
 11
115.196
 21
259.62099999999992
 31
0.0
  0
LINE
  5
184
  8
0
 62
     7
 10
172.3959999999999
 20
259.62099999999992
 30
0.0
 11
174.608
 21
260.21399999999988
 31
0.0
  0
LINE
  5
185
  8
0
 62
     7
 10
174.608
 20
260.21399999999988
 30
0.0
 11
172.3959999999999
 21
260.80599999999998
 31
0.0
  0
LINE
  5
186
  8
0
 62
     7
 10
172.3959999999999
 20
260.80599999999998
 30
0.0
 11
172.3959999999999
 21
259.62099999999992
 31
0.0
  0
LINE
  5
187
  8
0
 62
     7
 10
113.56699999999999
 20
260.21399999999988
 30
0.0
 11
174.608
 21
260.21399999999988
 31
0.0
  0
LINE
  5
188
  8
0
 62
     7
 10
174.608
 20
249.35900000000001
 30
0.0
 11
174.608
 21
260.91399999999999
 31
0.0
  0
LINE
  5
189
  8
0
 62
     7
 10
117.407
 20
249.35900000000001
 30
0.0
 11
117.407
 21
260.91399999999999
 31
0.0
  0
LINE
  5
18A
  8
0
 62
     7
 10
122.407
 20
249.35900000000001
 30
0.0
 11
122.407
 21
260.91399999999999
 31
0.0
  0
LINE
  5
18B
  8
0
  6
AIGENLINE002
 62
     7
 10
148.50700000000001
 20
255.90199999999999
 30
0.0
 11
148.50700000000001
 21
220.51400000000001
 31
0.0
  0
LINE
  5
18C
  8
0
  6
AIGENLINE003
 62
     7
 10
122.407
 20
224.90899999999999
 30
0.0
 11
174.608
 21
224.90899999999999
 31
0.0
  0
LINE
  5
18D
  8
0
  6
AIGENLINE003
 62
     7
 10
122.407
 20
248.60900000000001
 30
0.0
 11
117.407
 21
238.60900000000001
 31
0.0
  0
LINE
  5
18E
  8
0
  6
AIGENLINE003
 62
     7
 10
117.407
 20
248.60900000000001
 30
0.0
 11
122.407
 21
238.60900000000001
 31
0.0
  0
LINE
  5
18F
  8
0
 62
     7
 10
116.00700000000001
 20
253.40899999999999
 30
0.0
 11
181.00699999999989
 21
253.40899999999999
 31
0.0
  0
LINE
  5
190
  8
0
 62
     7
 10
174.608
 20
247.85900000000001
 30
0.0
 11
174.608
 21
223.40899999999999
 31
0.0
  0
LINE
  5
191
  8
0
 62
     7
 10
123.157
 20
248.60900000000001
 30
0.0
 11
173.85699999999991
 21
248.60900000000001
 31
0.0
  0
ARC
  5
192
  8
0
 62
     7
 10
173.828507
 20
247.83047400000001
 30
0.0
 40
0.779533
 50
2.132318999999999
 51
87.893984000000003
  0
LINE
  5
193
  8
0
 62
     7
 10
122.407
 20
247.85900000000001
 30
0.0
 11
122.407
 21
223.40899999999999
 31
0.0
  0
ARC
  5
194
  8
0
 62
     7
 10
123.18573000000001
 20
247.83084700000001
 30
0.0
 40
0.779172
 50
92.132143999999997
 51
177.89415099999991
  0
LINE
  5
195
  8
0
 62
     7
 10
133.00700000000001
 20
181.7059999999999
 30
0.0
 11
164.00700000000001
 21
181.7059999999999
 31
0.0
  0
LINE
  5
196
  8
0
 62
     7
 10
133.00700000000001
 20
214.834
 30
0.0
 11
164.00700000000001
 21
214.834
 31
0.0
  0
LINE
  5
197
  8
0
 62
     7
 10
116.00700000000001
 20
223.40899999999999
 30
0.0
 11
181.00699999999989
 21
223.40899999999999
 31
0.0
  0
LINE
  5
198
  8
0
 62
     7
 10
101.54299999999991
 20
210.40899999999999
 30
0.0
 11
92.455899999999986
 21
210.40899999999999
 31
0.0
  0
LINE
  5
199
  8
0
 62
     7
 10
52.087600000000002
 20
104.661
 30
0.0
 11
51.49499999999999
 21
106.872
 31
0.0
  0
LINE
  5
19A
  8
0
 62
     7
 10
51.49499999999999
 20
106.872
 30
0.0
 11
50.902500000000011
 21
104.661
 31
0.0
  0
LINE
  5
19B
  8
0
 62
     7
 10
50.902500000000011
 20
104.661
 30
0.0
 11
52.087600000000002
 21
104.661
 31
0.0
  0
LINE
  5
19C
  8
0
 62
     7
 10
50.916899999999991
 20
91.583299999999994
 30
0.0
 11
51.509500000000003
 21
89.372200000000007
 31
0.0
  0
LINE
  5
19D
  8
0
 62
     7
 10
51.509500000000003
 20
89.372200000000007
 30
0.0
 11
52.1021
 21
91.583299999999994
 31
0.0
  0
LINE
  5
19E
  8
0
 62
     7
 10
52.1021
 20
91.583299999999994
 30
0.0
 11
50.916899999999991
 21
91.583299999999994
 31
0.0
  0
LINE
  5
19F
  8
0
 62
     7
 10
51.502299999999998
 20
106.872
 30
0.0
 11
51.502299999999998
 21
89.372900000000001
 31
0.0
  0
LINE
  5
1A0
  8
0
 62
     7
 10
109.2559999999999
 20
144.04799999999989
 30
0.0
 11
108.6629999999999
 21
146.2589999999999
 31
0.0
  0
LINE
  5
1A1
  8
0
 62
     7
 10
108.6629999999999
 20
146.2589999999999
 30
0.0
 11
108.071
 21
144.04799999999989
 31
0.0
  0
LINE
  5
1A2
  8
0
 62
     7
 10
108.071
 20
144.04799999999989
 30
0.0
 11
109.2559999999999
 21
144.04799999999989
 31
0.0
  0
LINE
  5
1A3
  8
0
 62
     7
 10
108.08499999999989
 20
134.4679999999999
 30
0.0
 11
108.678
 21
132.25700000000001
 31
0.0
  0
LINE
  5
1A4
  8
0
 62
     7
 10
108.678
 20
132.25700000000001
 30
0.0
 11
109.271
 21
134.4679999999999
 31
0.0
  0
LINE
  5
1A5
  8
0
 62
     7
 10
109.271
 20
134.4679999999999
 30
0.0
 11
108.08499999999989
 21
134.4679999999999
 31
0.0
  0
LINE
  5
1A6
  8
0
 62
     7
 10
108.67100000000001
 20
146.2579999999999
 30
0.0
 11
108.67100000000001
 21
132.2579999999999
 31
0.0
  0
LINE
  5
1A7
  8
0
 62
     7
 10
101.258
 20
134.9679999999999
 30
0.0
 11
101.851
 21
132.75700000000001
 31
0.0
  0
LINE
  5
1A8
  8
0
 62
     7
 10
101.851
 20
132.75700000000001
 30
0.0
 11
102.4429999999999
 21
134.9679999999999
 31
0.0
  0
LINE
  5
1A9
  8
0
 62
     7
 10
102.4429999999999
 20
134.9679999999999
 30
0.0
 11
101.258
 21
134.9679999999999
 31
0.0
  0
LINE
  5
1AA
  8
0
 62
     7
 10
102.429
 20
144.04799999999989
 30
0.0
 11
101.8359999999999
 21
146.2589999999999
 31
0.0
  0
LINE
  5
1AB
  8
0
 62
     7
 10
101.8359999999999
 20
146.2589999999999
 30
0.0
 11
101.244
 21
144.04799999999989
 31
0.0
  0
LINE
  5
1AC
  8
0
 62
     7
 10
101.244
 20
144.04799999999989
 30
0.0
 11
102.429
 21
144.04799999999989
 31
0.0
  0
LINE
  5
1AD
  8
0
 62
     7
 10
101.84399999999999
 20
132.7579999999999
 30
0.0
 11
101.84399999999999
 21
146.2579999999999
 31
0.0
  0
LINE
  5
1AE
  8
0
 62
     7
 10
102.5439999999999
 20
132.7579999999999
 30
0.0
 11
71.205799999999996
 21
132.7579999999999
 31
0.0
  0
LINE
  5
1AF
  8
0
 62
     7
 10
109.371
 20
146.2579999999999
 30
0.0
 11
95.036299999999983
 21
146.2579999999999
 31
0.0
  0
LINE
  5
1B0
  8
0
 62
     7
 10
109.371
 20
132.2579999999999
 30
0.0
 11
94.270799999999994
 21
132.2579999999999
 31
0.0
  0
LINE
  5
1B1
  8
0
  6
AIGENLINE001
 62
     7
 10
70.505700000000004
 20
135.7579999999999
 30
0.0
 11
70.505700000000004
 21
132.7579999999999
 31
0.0
  0
LINE
  5
1B2
  8
0
  6
AIGENLINE001
 62
     7
 10
63.005699999999997
 20
135.7579999999999
 30
0.0
 11
63.005699999999997
 21
132.7579999999999
 31
0.0
  0
LINE
  5
1B3
  8
0
  6
AIGENLINE001
 62
     7
 10
63.005699999999997
 20
132.7579999999999
 30
0.0
 11
70.505700000000004
 21
132.7579999999999
 31
0.0
  0
LINE
  5
1B4
  8
0
 62
     7
 10
90.255899999999997
 20
132.2579999999999
 30
0.0
 11
90.255899999999997
 21
131.7579999999999
 31
0.0
  0
LINE
  5
1B5
  8
0
 62
     7
 10
84.255899999999997
 20
130.7579999999999
 30
0.0
 11
89.255799999999994
 21
130.7579999999999
 31
0.0
  0
ARC
  5
1B6
  8
0
 62
     7
 10
89.217093999999989
 20
131.79646699999989
 30
0.0
 40
1.039482999999999
 50
272.13137999999992
 51
357.88836299999991
  0
LINE
  5
1B7
  8
0
 62
     7
 10
83.255700000000004
 20
132.2579999999999
 30
0.0
 11
83.255700000000004
 21
131.7579999999999
 31
0.0
  0
ARC
  5
1B8
  8
0
 62
     7
 10
84.256027000000003
 20
131.75799299999991
 30
0.0
 40
1.000289999999999
 50
179.99010399999989
 51
269.99015299999991
  0
LINE
  5
1B9
  8
0
 62
     7
 10
50.255600000000001
 20
132.2579999999999
 30
0.0
 11
50.255600000000001
 21
131.7579999999999
 31
0.0
  0
LINE
  5
1BA
  8
0
 62
     7
 10
44.255599999999987
 20
130.7579999999999
 30
0.0
 11
49.255499999999998
 21
130.7579999999999
 31
0.0
  0
ARC
  5
1BB
  8
0
 62
     7
 10
49.255358000000001
 20
131.75799299999991
 30
0.0
 40
1.000289999999999
 50
270.00988699999999
 51
0.009857
  0
LINE
  5
1BC
  8
0
 62
     7
 10
43.255499999999991
 20
132.2579999999999
 30
0.0
 11
43.255499999999991
 21
131.7579999999999
 31
0.0
  0
ARC
  5
1BD
  8
0
 62
     7
 10
44.255803999999998
 20
131.75799299999991
 30
0.0
 40
1.000289999999999
 50
179.99010399999989
 51
269.99015299999991
  0
LINE
  5
1BE
  8
0
  6
AIGENLINE002
 62
     7
 10
64.418199999999985
 20
142.2579999999999
 30
0.0
 11
69.1387
 21
142.2579999999999
 31
0.0
  0
ARC
  5
1BF
  8
0
  6
AIGENLINE001
 62
     7
 10
66.755865
 20
142.2580209999999
 30
0.0
 40
1.2500610000000001
 50
0.007905
 51
90.007875000000013
  0
ARC
  5
1C0
  8
0
  6
AIGENLINE001
 62
     7
 10
66.755693000000008
 20
142.25819299999989
 30
0.0
 40
1.249889
 50
90.0
 51
179.99996999999991
  0
ARC
  5
1C1
  8
0
  6
AIGENLINE001
 62
     7
 10
66.755693000000008
 20
142.25819299999989
 30
0.0
 40
1.249887999999999
 50
179.99996999999991
 51
270.00002000000001
  0
ARC
  5
1C2
  8
0
  6
AIGENLINE001
 62
     7
 10
66.755865
 20
142.25836599999991
 30
0.0
 40
1.2500610000000001
 50
269.99212499999999
 51
359.99209500000001
  0
LINE
  5
1C3
  8
0
  6
AIGENLINE002
 62
     7
 10
66.755700000000004
 20
148.09200000000001
 30
0.0
 11
66.755700000000004
 21
129.976
 31
0.0
  0
LINE
  5
1C4
  8
0
 62
     7
 10
94.254300000000001
 20
145.1999999999999
 30
0.0
 11
93.560400000000001
 21
133.1999999999999
 31
0.0
  0
LINE
  5
1C5
  8
0
 62
     7
 10
40.949399999999997
 20
132.2579999999999
 30
0.0
 11
92.562000000000012
 21
132.2579999999999
 31
0.0
  0
ARC
  5
1C6
  8
0
 62
     7
 10
92.527633999999992
 20
133.2941899999999
 30
0.0
 40
1.037053
 50
271.90082499999988
 51
354.80512799999991
  0
LINE
  5
1C7
  8
0
 62
     7
 10
39.257100000000001
 20
145.1999999999999
 30
0.0
 11
39.951000000000001
 21
133.1999999999999
 31
0.0
  0
ARC
  5
1C8
  8
0
 62
     7
 10
40.984403999999998
 20
133.29488099999989
 30
0.0
 40
1.0377659999999991
 50
185.22964899999999
 51
268.06443799999988
  0
LINE
  5
1C9
  8
0
 62
     7
 10
40.255499999999991
 20
146.2579999999999
 30
0.0
 11
93.255899999999997
 21
146.2579999999999
 31
0.0
  0
ARC
  5
1CA
  8
0
 62
     7
 10
92.96635400000001
 20
145.267619
 30
0.0
 40
1.2896769999999991
 50
357.008938
 51
359.58160499999991
  0
ARC
  5
1CB
  8
0
 62
     7
 10
93.217582999999991
 20
145.219548
 30
0.0
 40
1.0391330000000001
 50
2.1318060000000001
 51
87.887923999999998
  0
ARC
  5
1CC
  8
0
 62
     7
 10
40.294121999999987
 20
145.21922799999999
 30
0.0
 40
1.0394639999999991
 50
92.128997999999996
 51
177.85123200000001
  0
ARC
  5
1CD
  8
0
 62
     7
 10
40.231260999999989
 20
145.25828100000001
 30
0.0
 40
0.9758729999999999
 50
180.00467
 51
183.40482499999999
  0
LINE
  5
1CE
  8
0
 62
     7
 10
64.543899999999994
 20
258.74099999999987
 30
0.0
 11
66.755700000000004
 21
259.33399999999989
 31
0.0
  0
LINE
  5
1CF
  8
0
 62
     7
 10
66.755700000000004
 20
259.33399999999989
 30
0.0
 11
64.543899999999994
 21
259.92599999999999
 31
0.0
  0
LINE
  5
1D0
  8
0
 62
     7
 10
64.543899999999994
 20
259.92599999999999
 30
0.0
 11
64.543899999999994
 21
258.74099999999987
 31
0.0
  0
LINE
  5
1D1
  8
0
 62
     7
 10
68.967100000000002
 20
259.92599999999999
 30
0.0
 11
66.755700000000004
 21
259.33399999999989
 31
0.0
  0
LINE
  5
1D2
  8
0
 62
     7
 10
66.755700000000004
 20
259.33399999999989
 30
0.0
 11
68.967100000000002
 21
258.74099999999987
 31
0.0
  0
LINE
  5
1D3
  8
0
 62
     7
 10
68.967100000000002
 20
258.74099999999987
 30
0.0
 11
68.967100000000002
 21
259.92599999999999
 31
0.0
  0
LINE
  5
1D4
  8
0
 62
     7
 10
100.2429999999999
 20
238.6209999999999
 30
0.0
 11
100.83499999999989
 21
236.40899999999999
 31
0.0
  0
LINE
  5
1D5
  8
0
 62
     7
 10
100.83499999999989
 20
236.40899999999999
 30
0.0
 11
101.428
 21
238.6209999999999
 31
0.0
  0
LINE
  5
1D6
  8
0
 62
     7
 10
101.428
 20
238.6209999999999
 30
0.0
 11
100.2429999999999
 21
238.6209999999999
 31
0.0
  0
LINE
  5
1D7
  8
0
 62
     7
 10
101.428
 20
234.19799999999989
 30
0.0
 11
100.83499999999989
 21
236.40899999999999
 31
0.0
  0
LINE
  5
1D8
  8
0
 62
     7
 10
100.83499999999989
 20
236.40899999999999
 30
0.0
 11
100.2429999999999
 21
234.19799999999989
 31
0.0
  0
LINE
  5
1D9
  8
0
 62
     7
 10
100.2429999999999
 20
234.19799999999989
 30
0.0
 11
101.428
 21
234.19799999999989
 31
0.0
  0
LINE
  5
1DA
  8
0
 62
     7
 10
100.2499999999999
 20
212.61999999999989
 30
0.0
 11
100.8429999999999
 21
210.4079999999999
 31
0.0
  0
LINE
  5
1DB
  8
0
 62
     7
 10
100.8429999999999
 20
210.4079999999999
 30
0.0
 11
101.435
 21
212.61999999999989
 31
0.0
  0
LINE
  5
1DC
  8
0
 62
     7
 10
101.435
 20
212.61999999999989
 30
0.0
 11
100.2499999999999
 21
212.61999999999989
 31
0.0
  0
LINE
  5
1DD
  8
0
 62
     7
 10
101.42100000000001
 20
248.19799999999989
 30
0.0
 11
100.8279999999999
 21
250.41
 31
0.0
  0
LINE
  5
1DE
  8
0
 62
     7
 10
100.8279999999999
 20
250.41
 30
0.0
 11
100.236
 21
248.19799999999989
 31
0.0
  0
LINE
  5
1DF
  8
0
 62
     7
 10
100.236
 20
248.19799999999989
 30
0.0
 11
101.42100000000001
 21
248.19799999999989
 31
0.0
  0
LINE
  5
1E0
  8
0
 62
     7
 10
100.83499999999989
 20
210.40899999999999
 30
0.0
 11
100.83499999999989
 21
250.40899999999999
 31
0.0
  0
LINE
  5
1E1
  8
0
 62
     7
 10
107.262
 20
248.19799999999989
 30
0.0
 11
106.6689999999999
 21
250.41
 31
0.0
  0
LINE
  5
1E2
  8
0
 62
     7
 10
106.6689999999999
 20
250.41
 30
0.0
 11
106.077
 21
248.19799999999989
 31
0.0
  0
LINE
  5
1E3
  8
0
 62
     7
 10
106.077
 20
248.19799999999989
 30
0.0
 11
107.262
 21
248.19799999999989
 31
0.0
  0
LINE
  5
1E4
  8
0
 62
     7
 10
106.084
 20
255.6209999999999
 30
0.0
 11
106.676
 21
253.40899999999999
 31
0.0
  0
LINE
  5
1E5
  8
0
 62
     7
 10
106.676
 20
253.40899999999999
 30
0.0
 11
107.26899999999991
 21
255.6209999999999
 31
0.0
  0
LINE
  5
1E6
  8
0
 62
     7
 10
107.26899999999991
 20
255.6209999999999
 30
0.0
 11
106.084
 21
255.6209999999999
 31
0.0
  0
LINE
  5
1E7
  8
0
 62
     7
 10
106.09099999999999
 20
210.11999999999989
 30
0.0
 11
106.684
 21
207.9079999999999
 31
0.0
  0
LINE
  5
1E8
  8
0
 62
     7
 10
106.684
 20
207.9079999999999
 30
0.0
 11
107.276
 21
210.11999999999989
 31
0.0
  0
LINE
  5
1E9
  8
0
 62
     7
 10
107.276
 20
210.11999999999989
 30
0.0
 11
106.09099999999999
 21
210.11999999999989
 31
0.0
  0
LINE
  5
1EA
  8
0
 62
     7
 10
106.676
 20
265.14799999999991
 30
0.0
 11
106.676
 21
207.90899999999999
 31
0.0
  0
LINE
  5
1EB
  8
0
 62
     7
 10
107.376
 20
250.40899999999999
 30
0.0
 11
94.663200000000003
 21
250.40899999999999
 31
0.0
  0
LINE
  5
1EC
  8
0
 62
     7
 10
101.536
 20
236.40899999999999
 30
0.0
 11
92.455899999999986
 21
236.40899999999999
 31
0.0
  0
LINE
  5
1ED
  8
0
 62
     7
 10
107.376
 20
207.90899999999999
 30
0.0
 11
95.435599999999994
 21
207.90899999999999
 31
0.0
  0
LINE
  5
1EE
  8
0
 62
     7
 10
94.256000000000014
 20
206.84899999999999
 30
0.0
 11
94.256000000000014
 21
190.708
 31
0.0
  0
LINE
  5
1EF
  8
0
 62
     7
 10
39.255400000000002
 20
206.84899999999999
 30
0.0
 11
39.255400000000002
 21
190.708
 31
0.0
  0
LINE
  5
1F0
  8
0
 62
     7
 10
92.045299999999997
 20
190.82299999999989
 30
0.0
 11
94.256699999999995
 21
191.416
 31
0.0
  0
LINE
  5
1F1
  8
0
 62
     7
 10
94.256699999999995
 20
191.416
 30
0.0
 11
92.045299999999997
 21
192.0079999999999
 31
0.0
  0
LINE
  5
1F2
  8
0
 62
     7
 10
92.045299999999997
 20
192.0079999999999
 30
0.0
 11
92.045299999999997
 21
190.82299999999989
 31
0.0
  0
LINE
  5
1F3
  8
0
 62
     7
 10
41.46609999999999
 20
191.994
 30
0.0
 11
39.2547
 21
191.4009999999999
 31
0.0
  0
LINE
  5
1F4
  8
0
 62
     7
 10
39.2547
 20
191.4009999999999
 30
0.0
 11
41.46609999999999
 21
190.809
 31
0.0
  0
LINE
  5
1F5
  8
0
 62
     7
 10
41.46609999999999
 20
190.809
 30
0.0
 11
41.46609999999999
 21
191.994
 31
0.0
  0
LINE
  5
1F6
  8
0
 62
     7
 10
94.256000000000014
 20
191.40799999999999
 30
0.0
 11
39.255400000000002
 21
191.40799999999999
 31
0.0
  0
LINE
  5
1F7
  8
0
 62
     7
 10
89.545100000000005
 20
197.87499999999989
 30
0.0
 11
91.756900000000016
 21
198.46700000000001
 31
0.0
  0
LINE
  5
1F8
  8
0
 62
     7
 10
91.756900000000016
 20
198.46700000000001
 30
0.0
 11
89.545100000000005
 21
199.06
 31
0.0
  0
LINE
  5
1F9
  8
0
 62
     7
 10
89.545100000000005
 20
199.06
 30
0.0
 11
89.545100000000005
 21
197.87499999999989
 31
0.0
  0
LINE
  5
1FA
  8
0
 62
     7
 10
43.966200000000001
 20
199.0449999999999
 30
0.0
 11
41.7545
 21
198.453
 31
0.0
  0
LINE
  5
1FB
  8
0
 62
     7
 10
41.7545
 20
198.453
 30
0.0
 11
43.966200000000001
 21
197.86000000000001
 31
0.0
  0
LINE
  5
1FC
  8
0
 62
     7
 10
43.966200000000001
 20
197.86000000000001
 30
0.0
 11
43.966200000000001
 21
199.0449999999999
 31
0.0
  0
LINE
  5
1FD
  8
0
 62
     7
 10
91.755899999999997
 20
198.46000000000001
 30
0.0
 11
41.755499999999998
 21
198.46000000000001
 31
0.0
  0
LINE
  5
1FE
  8
0
 62
     7
 10
91.755899999999997
 20
197.75999999999991
 30
0.0
 11
91.755899999999997
 21
210.0449999999999
 31
0.0
  0
LINE
  5
1FF
  8
0
 62
     7
 10
41.755499999999998
 20
197.75999999999991
 30
0.0
 11
41.755499999999998
 21
210.0449999999999
 31
0.0
  0
LINE
  5
200
  8
0
 62
     7
 10
86.752499999999998
 20
215.68599999999989
 30
0.0
 11
89.756
 21
212.40899999999999
 31
0.0
  0
LINE
  5
201
  8
0
 62
     7
 10
46.75889999999999
 20
215.68599999999989
 30
0.0
 11
43.755399999999987
 21
212.40899999999999
 31
0.0
  0
LINE
  5
202
  8
0
 62
     7
 10
86.255700000000004
 20
218.40899999999999
 30
0.0
 11
86.255700000000004
 21
234.40899999999999
 31
0.0
  0
LINE
  5
203
  8
0
 62
     7
 10
49.255499999999998
 20
216.40899999999999
 30
0.0
 11
84.255899999999997
 21
216.40899999999999
 31
0.0
  0
ARC
  5
204
  8
0
 62
     7
 10
84.255855000000025
 20
218.408894
 30
0.0
 40
1.9998910000000001
 50
270.00002000000001
 51
359.99998999999991
  0
LINE
  5
205
  8
0
 62
     7
 10
47.255600000000001
 20
218.40899999999999
 30
0.0
 11
47.255600000000001
 21
234.40899999999999
 31
0.0
  0
ARC
  5
206
  8
0
 62
     7
 10
49.25553
 20
218.40889300000001
 30
0.0
 40
1.9998899999999999
 50
179.99996999999991
 51
270.00002000000001
  0
LINE
  5
207
  8
0
 62
     7
 10
43.755399999999987
 20
236.40899999999999
 30
0.0
 11
89.756
 21
236.40899999999999
 31
0.0
  0
ARC
  5
208
  8
0
 62
     7
 10
84.255767999999989
 20
234.40913699999999
 30
0.0
 40
1.9999769999999999
 50
359.99754300000001
 51
89.997512999999984
  0
ARC
  5
209
  8
0
 62
     7
 10
49.255617000000001
 20
234.40913699999999
 30
0.0
 40
1.9999769999999999
 50
90.00246700000001
 51
180.002477
  0
LINE
  5
20A
  8
0
 62
     7
 10
48.373199999999997
 20
255.29199999999989
 30
0.0
 11
54.072800000000001
 21
255.29199999999989
 31
0.0
  0
LINE
  5
20B
  8
0
 62
     7
 10
63.535899999999998
 20
244.99100000000001
 30
0.0
 11
65.518199999999993
 21
243.84599999999989
 31
0.0
  0
LINE
  5
20C
  8
0
 62
     7
 10
65.518199999999993
 20
243.84599999999989
 30
0.0
 11
64.373699999999999
 21
245.82900000000001
 31
0.0
  0
LINE
  5
20D
  8
0
 62
     7
 10
64.373699999999999
 20
245.82900000000001
 30
0.0
 11
63.535899999999998
 21
244.99100000000001
 31
0.0
  0
LINE
  5
20E
  8
0
 62
     7
 10
69.975800000000007
 20
240.227
 30
0.0
 11
67.993200000000002
 21
241.37200000000001
 31
0.0
  0
LINE
  5
20F
  8
0
 62
     7
 10
67.993200000000002
 20
241.37200000000001
 30
0.0
 11
69.137600000000006
 21
239.38900000000001
 31
0.0
  0
LINE
  5
210
  8
0
 62
     7
 10
69.137600000000006
 20
239.38900000000001
 30
0.0
 11
69.975800000000007
 21
240.227
 31
0.0
  0
LINE
  5
211
  8
0
 62
     7
 10
70.380300000000005
 20
238.98500000000001
 30
0.0
 11
54.072800000000001
 21
255.29199999999989
 31
0.0
  0
LINE
  5
212
  8
0
 62
     7
 10
113.69499999999989
 20
246.39899999999989
 30
0.0
 11
113.10299999999989
 21
248.6099999999999
 31
0.0
  0
LINE
  5
213
  8
0
 62
     7
 10
113.10299999999989
 20
248.6099999999999
 30
0.0
 11
112.50999999999991
 21
246.39899999999989
 31
0.0
  0
LINE
  5
214
  8
0
 62
     7
 10
112.50999999999991
 20
246.39899999999989
 30
0.0
 11
113.69499999999989
 21
246.39899999999989
 31
0.0
  0
LINE
  5
215
  8
0
 62
     7
 10
112.524
 20
240.81999999999991
 30
0.0
 11
113.117
 21
238.608
 31
0.0
  0
LINE
  5
216
  8
0
 62
     7
 10
113.117
 20
238.608
 30
0.0
 11
113.70999999999989
 21
240.81999999999991
 31
0.0
  0
LINE
  5
217
  8
0
 62
     7
 10
113.70999999999989
 20
240.81999999999991
 30
0.0
 11
112.524
 21
240.81999999999991
 31
0.0
  0
LINE
  5
218
  8
0
 62
     7
 10
113.1089999999999
 20
248.60900000000001
 30
0.0
 11
113.1089999999999
 21
238.60900000000001
 31
0.0
  0
LINE
  5
219
  8
0
 62
     7
 10
116.70699999999999
 20
248.60900000000001
 30
0.0
 11
112.40900000000001
 21
248.60900000000001
 31
0.0
  0
LINE
  5
21A
  8
0
 62
     7
 10
116.70699999999999
 20
238.60900000000001
 30
0.0
 11
112.40900000000001
 21
238.60900000000001
 31
0.0
  0
LINE
  5
21B
  8
0
 62
     7
 10
34.967300000000002
 20
248.19799999999989
 30
0.0
 11
34.37469999999999
 21
250.41
 31
0.0
  0
LINE
  5
21C
  8
0
 62
     7
 10
34.37469999999999
 20
250.41
 30
0.0
 11
33.7821
 21
248.19799999999989
 31
0.0
  0
LINE
  5
21D
  8
0
 62
     7
 10
33.7821
 20
248.19799999999989
 30
0.0
 11
34.967300000000002
 21
248.19799999999989
 31
0.0
  0
LINE
  5
21E
  8
0
 62
     7
 10
33.796599999999991
 20
232.12
 30
0.0
 11
34.389200000000002
 21
229.90799999999999
 31
0.0
  0
LINE
  5
21F
  8
0
 62
     7
 10
34.389200000000002
 20
229.90799999999999
 30
0.0
 11
34.981699999999996
 21
232.12
 31
0.0
  0
LINE
  5
220
  8
0
 62
     7
 10
34.981699999999996
 20
232.12
 30
0.0
 11
33.796599999999991
 21
232.12
 31
0.0
  0
LINE
  5
221
  8
0
 62
     7
 10
34.381900000000002
 20
250.40899999999999
 30
0.0
 11
34.381900000000002
 21
229.90899999999999
 31
0.0
  0
LINE
  5
222
  8
0
 62
     7
 10
38.463700000000003
 20
250.40899999999999
 30
0.0
 11
33.681899999999999
 21
250.40899999999999
 31
0.0
  0
LINE
  5
223
  8
0
 62
     7
 10
59.930199999999999
 20
229.90899999999999
 30
0.0
 11
33.681899999999999
 21
229.90899999999999
 31
0.0
  0
LINE
  5
224
  8
0
 62
     7
 10
86.157599999999988
 20
238.6209999999999
 30
0.0
 11
86.750100000000003
 21
236.40899999999999
 31
0.0
  0
LINE
  5
225
  8
0
 62
     7
 10
86.750100000000003
 20
236.40899999999999
 30
0.0
 11
87.342699999999994
 21
238.6209999999999
 31
0.0
  0
LINE
  5
226
  8
0
 62
     7
 10
87.342699999999994
 20
238.6209999999999
 30
0.0
 11
86.157599999999988
 21
238.6209999999999
 31
0.0
  0
LINE
  5
227
  8
0
 62
     7
 10
87.328199999999995
 20
240.39699999999999
 30
0.0
 11
86.735699999999994
 21
242.608
 31
0.0
  0
LINE
  5
228
  8
0
 62
     7
 10
86.735699999999994
 20
242.608
 30
0.0
 11
86.143100000000004
 21
240.39699999999999
 31
0.0
  0
LINE
  5
229
  8
0
 62
     7
 10
86.143100000000004
 20
240.39699999999999
 30
0.0
 11
87.328199999999995
 21
240.39699999999999
 31
0.0
  0
LINE
  5
22A
  8
0
 62
     7
 10
86.742900000000006
 20
236.40899999999999
 30
0.0
 11
86.742900000000006
 21
242.607
 31
0.0
  0
LINE
  5
22B
  8
0
 62
     7
 10
86.157599999999988
 20
244.81999999999991
 30
0.0
 11
86.750100000000003
 21
242.608
 31
0.0
  0
LINE
  5
22C
  8
0
 62
     7
 10
86.750100000000003
 20
242.608
 30
0.0
 11
87.342699999999994
 21
244.81999999999991
 31
0.0
  0
LINE
  5
22D
  8
0
 62
     7
 10
87.342699999999994
 20
244.81999999999991
 30
0.0
 11
86.157599999999988
 21
244.81999999999991
 31
0.0
  0
LINE
  5
22E
  8
0
 62
     7
 10
87.328199999999995
 20
248.19799999999989
 30
0.0
 11
86.735699999999994
 21
250.41
 31
0.0
  0
LINE
  5
22F
  8
0
 62
     7
 10
86.735699999999994
 20
250.41
 30
0.0
 11
86.143100000000004
 21
248.19799999999989
 31
0.0
  0
LINE
  5
230
  8
0
 62
     7
 10
86.143100000000004
 20
248.19799999999989
 30
0.0
 11
87.328199999999995
 21
248.19799999999989
 31
0.0
  0
LINE
  5
231
  8
0
 62
     7
 10
86.742900000000006
 20
242.60900000000001
 30
0.0
 11
86.742900000000006
 21
250.40899999999999
 31
0.0
  0
LINE
  5
232
  8
0
 62
     7
 10
87.442899999999995
 20
242.60900000000001
 30
0.0
 11
80.695700000000002
 21
242.60900000000001
 31
0.0
  0
LINE
  5
233
  8
0
 62
     7
 10
58.966299999999997
 20
259.91899999999998
 30
0.0
 11
56.7545
 21
259.32599999999991
 31
0.0
  0
LINE
  5
234
  8
0
 62
     7
 10
56.7545
 20
259.32599999999991
 30
0.0
 11
58.966299999999997
 21
258.73399999999998
 31
0.0
  0
LINE
  5
235
  8
0
 62
     7
 10
58.966299999999997
 20
258.73399999999998
 30
0.0
 11
58.966299999999997
 21
259.91899999999998
 31
0.0
  0
LINE
  5
236
  8
0
 62
     7
 10
74.545100000000005
 20
258.74799999999988
 30
0.0
 11
76.756900000000002
 21
259.34099999999989
 31
0.0
  0
LINE
  5
237
  8
0
 62
     7
 10
76.756900000000002
 20
259.34099999999989
 30
0.0
 11
74.545100000000005
 21
259.93299999999999
 31
0.0
  0
LINE
  5
238
  8
0
 62
     7
 10
74.545100000000005
 20
259.93299999999999
 30
0.0
 11
74.545100000000005
 21
258.74799999999988
 31
0.0
  0
LINE
  5
239
  8
0
 62
     7
 10
56.755600000000001
 20
259.33399999999989
 30
0.0
 11
76.755799999999994
 21
259.33399999999989
 31
0.0
  0
LINE
  5
23A
  8
0
 62
     7
 10
66.755700000000004
 20
253.53299999999999
 30
0.0
 11
66.755700000000004
 21
260.03399999999999
 31
0.0
  0
LINE
  5
23B
  8
0
 62
     7
 10
56.755600000000001
 20
246.4609999999999
 30
0.0
 11
56.755600000000001
 21
260.03399999999999
 31
0.0
  0
LINE
  5
23C
  8
0
  6
AIGENLINE002
 62
     7
 10
53.825499999999998
 20
242.60900000000001
 30
0.0
 11
59.995699999999999
 21
242.60900000000001
 31
0.0
  0
ARC
  5
23D
  8
0
  6
AIGENLINE001
 62
     7
 10
56.755550999999997
 20
242.60911899999999
 30
0.0
 40
1.7501199999999999
 50
0.00001
 51
89.999980000000008
  0
ARC
  5
23E
  8
0
  6
AIGENLINE001
 62
     7
 10
56.755722999999989
 20
242.6092919999999
 30
0.0
 40
1.7499480000000001
 50
90.005639999999985
 51
180.00565
  0
ARC
  5
23F
  8
0
  6
AIGENLINE001
 62
     7
 10
56.755637
 20
242.60903300000001
 30
0.0
 40
1.7498610000000001
 50
179.99715
 51
269.99720000000002
  0
ARC
  5
240
  8
0
  6
AIGENLINE001
 62
     7
 10
56.755637
 20
242.609206
 30
0.0
 40
1.7500340000000001
 50
269.99720000000002
 51
359.99716999999998
  0
LINE
  5
241
  8
0
  6
AIGENLINE002
 62
     7
 10
56.755600000000001
 20
245.76099999999991
 30
0.0
 11
56.755600000000001
 21
239.37100000000001
 31
0.0
  0
LINE
  5
242
  8
0
 62
     7
 10
76.755799999999994
 20
246.4609999999999
 30
0.0
 11
76.755799999999994
 21
260.03399999999999
 31
0.0
  0
LINE
  5
243
  8
0
  6
AIGENLINE002
 62
     7
 10
73.825800000000001
 20
242.60900000000001
 30
0.0
 11
79.995599999999996
 21
242.60900000000001
 31
0.0
  0
ARC
  5
244
  8
0
  6
AIGENLINE001
 62
     7
 10
76.688602000000003
 20
242.541887
 30
0.0
 40
1.818595999999999
 50
2.1186869999999991
 51
87.881303000000003
  0
ARC
  5
245
  8
0
  6
AIGENLINE001
 62
     7
 10
76.82345500000001
 20
242.54150000000001
 30
0.0
 40
1.818997
 50
92.130417000000008
 51
177.86955399999999
  0
ARC
  5
246
  8
0
  6
AIGENLINE001
 62
     7
 10
76.822892999999993
 20
242.67635599999991
 30
0.0
 40
1.818420999999999
 50
182.119035
 51
267.8866339999999
  0
ARC
  5
247
  8
0
  6
AIGENLINE001
 62
     7
 10
76.688226999999983
 20
242.67690699999989
 30
0.0
 40
1.818991
 50
272.13006000000001
 51
357.86430999999988
  0
LINE
  5
248
  8
0
  6
AIGENLINE002
 62
     7
 10
76.755799999999994
 20
245.76099999999991
 30
0.0
 11
76.755799999999994
 21
239.37100000000001
 31
0.0
  0
LINE
  5
249
  8
0
  6
AIGENLINE002
 62
     7
 10
63.825600000000001
 20
242.60900000000001
 30
0.0
 11
69.995500000000007
 21
242.60900000000001
 31
0.0
  0
ARC
  5
24A
  8
0
 62
     7
 10
66.75569200000001
 20
242.60911899999999
 30
0.0
 40
1.7501199999999999
 50
0.00001
 51
89.999980000000008
  0
ARC
  5
24B
  8
0
 62
     7
 10
66.755865
 20
242.6092919999999
 30
0.0
 40
1.7499480000000001
 50
90.005639999999985
 51
180.00565
  0
ARC
  5
24C
  8
0
 62
     7
 10
66.755779000000004
 20
242.60903300000001
 30
0.0
 40
1.7498610000000001
 50
179.99715
 51
269.99720000000002
  0
ARC
  5
24D
  8
0
 62
     7
 10
66.755779000000004
 20
242.609206
 30
0.0
 40
1.7500340000000001
 50
269.99720000000002
 51
359.99716999999998
  0
LINE
  5
24E
  8
0
 62
     7
 10
78.283100000000005
 20
224.26099999999991
 30
0.0
 11
72.404300000000006
 21
224.26099999999991
 31
0.0
  0
LINE
  5
24F
  8
0
 62
     7
 10
70.364800000000002
 20
227.13800000000001
 30
0.0
 11
68.382099999999994
 21
228.28299999999999
 31
0.0
  0
LINE
  5
250
  8
0
 62
     7
 10
68.382099999999994
 20
228.28299999999999
 30
0.0
 11
69.526899999999998
 21
226.30000000000001
 31
0.0
  0
LINE
  5
251
  8
0
 62
     7
 10
69.526899999999998
 20
226.30000000000001
 30
0.0
 11
70.364800000000002
 21
227.13800000000001
 31
0.0
  0
LINE
  5
252
  8
0
 62
     7
 10
63.146599999999992
 20
232.67999999999989
 30
0.0
 11
65.129599999999996
 21
231.535
 31
0.0
  0
LINE
  5
253
  8
0
 62
     7
 10
65.129599999999996
 20
231.535
 30
0.0
 11
63.984400000000001
 21
233.518
 31
0.0
  0
LINE
  5
254
  8
0
 62
     7
 10
63.984400000000001
 20
233.518
 30
0.0
 11
63.146599999999992
 21
232.67999999999989
 31
0.0
  0
LINE
  5
255
  8
0
 62
     7
 10
61.430900000000001
 20
235.23400000000001
 30
0.0
 11
72.404300000000006
 21
224.26099999999991
 31
0.0
  0
ARC
  5
256
  8
0
  6
AIGENLINE001
 62
     7
 10
148.4188509999999
 20
229.82163199999991
 30
0.0
 40
2.3893239999999998
 50
2.1047569999999989
 51
87.89523299999999
  0
ARC
  5
257
  8
0
  6
AIGENLINE001
 62
     7
 10
148.59515899999991
 20
229.82082799999989
 30
0.0
 40
2.390158
 50
92.123304000000005
 51
177.876666
  0
ARC
  5
258
  8
0
  6
AIGENLINE001
 62
     7
 10
148.59435400000001
 20
229.99713499999999
 30
0.0
 40
2.3893230000000001
 50
182.10476
 51
267.89526999999998
  0
ARC
  5
259
  8
0
  6
AIGENLINE001
 62
     7
 10
148.41806699999989
 20
229.99791999999999
 30
0.0
 40
2.390136
 50
272.12285400000002
 51
357.8771549999999
  0
ARC
  5
25A
  8
0
  6
AIGENLINE001
 62
     7
 10
148.50677400000001
 20
229.909211
 30
0.0
 40
3.7501829999999998
 50
0.002642
 51
90.002611999999985
  0
ARC
  5
25B
  8
0
  6
AIGENLINE001
 62
     7
 10
148.50677599999989
 20
229.90955500000001
 30
0.0
 40
3.7498390000000001
 50
90.002631999999991
 51
180.0026419999999
  0
ARC
  5
25C
  8
0
  6
AIGENLINE001
 62
     7
 10
148.50677400000001
 20
229.909211
 30
0.0
 40
3.7498369999999999
 50
179.9973379999999
 51
269.99738799999989
  0
ARC
  5
25D
  8
0
  6
AIGENLINE001
 62
     7
 10
148.50677400000001
 20
229.90955699999989
 30
0.0
 40
3.7501829999999998
 50
269.99738799999989
 51
359.99735800000002
  0
LINE
  5
25E
  8
0
  6
AIGENLINE002
 62
     7
 10
142.381
 20
229.90899999999999
 30
0.0
 11
154.346
 21
229.90899999999999
 31
0.0
  0
ARC
  5
25F
  8
0
 62
     7
 10
66.75569200000001
 20
229.90903899999989
 30
0.0
 40
2.2999610000000001
 50
0.00001
 51
89.999980000000008
  0
ARC
  5
260
  8
0
 62
     7
 10
66.755693000000008
 20
229.90903899999989
 30
0.0
 40
2.2999610000000001
 50
90.0
 51
179.99996999999991
  0
ARC
  5
261
  8
0
 62
     7
 10
66.75569200000001
 20
229.90903899999989
 30
0.0
 40
2.29996
 50
179.99996999999991
 51
270.00002000000001
  0
ARC
  5
262
  8
0
 62
     7
 10
66.75569200000001
 20
229.90904
 30
0.0
 40
2.2999610000000001
 50
270.00002000000001
 51
359.99998999999991
  0
ARC
  5
263
  8
0
 62
     7
 10
66.75569200000001
 20
229.90903899999989
 30
0.0
 40
3.7500110000000002
 50
0.00001
 51
89.999980000000008
  0
ARC
  5
264
  8
0
 62
     7
 10
66.755693000000008
 20
229.90903899999989
 30
0.0
 40
3.7500110000000002
 50
90.0
 51
179.99996999999991
  0
ARC
  5
265
  8
0
 62
     7
 10
66.75569200000001
 20
229.90903899999989
 30
0.0
 40
3.750008999999999
 50
179.99996999999991
 51
270.00002000000001
  0
ARC
  5
266
  8
0
 62
     7
 10
66.75569200000001
 20
229.90904
 30
0.0
 40
3.7500110000000002
 50
270.00002000000001
 51
359.99998999999991
  0
LINE
  5
267
  8
0
  6
AIGENLINE002
 62
     7
 10
60.630299999999998
 20
229.90899999999999
 30
0.0
 11
72.595200000000006
 21
229.90899999999999
 31
0.0
  0
LINE
  5
268
  8
0
 62
     7
 10
91.755899999999997
 20
234.40899999999999
 30
0.0
 11
91.755899999999997
 21
212.40899999999999
 31
0.0
  0
LINE
  5
269
  8
0
 62
     7
 10
43.755399999999987
 20
210.40899999999999
 30
0.0
 11
89.756
 21
210.40899999999999
 31
0.0
  0
ARC
  5
26A
  8
0
 62
     7
 10
89.755983999999998
 20
212.40887799999999
 30
0.0
 40
1.9998910000000001
 50
270.00002000000001
 51
359.99998999999991
  0
ARC
  5
26B
  8
0
 62
     7
 10
89.755897999999988
 20
234.40913699999999
 30
0.0
 40
1.9999769999999999
 50
359.99754300000001
 51
89.997512999999984
  0
LINE
  5
26C
  8
0
 62
     7
 10
41.755499999999998
 20
234.40899999999999
 30
0.0
 11
41.755499999999998
 21
212.40899999999999
 31
0.0
  0
ARC
  5
26D
  8
0
 62
     7
 10
43.755399999999987
 20
212.4088769999999
 30
0.0
 40
1.9998899999999999
 50
179.99996999999991
 51
270.00002000000001
  0
ARC
  5
26E
  8
0
 62
     7
 10
43.755487000000002
 20
234.40913699999999
 30
0.0
 40
1.9999769999999999
 50
90.00246700000001
 51
180.002477
  0
LINE
  5
26F
  8
0
  6
AIGENLINE002
 62
     7
 10
66.755700000000004
 20
252.83299999999991
 30
0.0
 11
66.755700000000004
 21
206.00700000000001
 31
0.0
  0
LINE
  5
270
  8
0
 62
     7
 10
94.256000000000014
 20
249.40899999999999
 30
0.0
 11
94.256000000000014
 21
208.90899999999999
 31
0.0
  0
LINE
  5
271
  8
0
 62
     7
 10
40.255499999999991
 20
250.40899999999999
 30
0.0
 11
93.255899999999997
 21
250.40899999999999
 31
0.0
  0
ARC
  5
272
  8
0
 62
     7
 10
93.255878999999993
 20
249.40909199999999
 30
0.0
 40
1.0001180000000001
 50
0.00001
 51
89.999980000000008
  0
LINE
  5
273
  8
0
 62
     7
 10
39.255400000000002
 20
249.40899999999999
 30
0.0
 11
39.255400000000002
 21
208.90899999999999
 31
0.0
  0
ARC
  5
274
  8
0
 62
     7
 10
40.25550599999999
 20
249.40909199999999
 30
0.0
 40
1.0001180000000001
 50
90.0
 51
179.99996999999991
  0
LINE
  5
275
  8
0
  6
AIGENLINE003
 62
     7
 10
27.841000000000001
 20
223.40899999999999
 30
0.0
 11
95.656099999999995
 21
223.40899999999999
 31
0.0
  0
LINE
  5
276
  8
0
 62
     7
 10
40.255499999999991
 20
207.90899999999999
 30
0.0
 11
93.255899999999997
 21
207.90899999999999
 31
0.0
  0
ARC
  5
277
  8
0
 62
     7
 10
93.255878999999993
 20
208.90898300000001
 30
0.0
 40
1.0001180000000001
 50
270.00002000000001
 51
359.99998999999991
  0
ARC
  5
278
  8
0
 62
     7
 10
40.25550599999999
 20
208.90898200000001
 30
0.0
 40
1.000116999999999
 50
179.99996999999991
 51
270.00002000000001
  0
TEXT
  5
279
  8
_________2
 62
     7
 10
29.525700000000001
 20
22.2272
 30
0.0
 40
3.9357000000000002
  1
実容量：3.7L、重量16kg、オーバーフロー付
 41
0.5
  0
LINE
  5
27A
  8
_________2
 62
     7
 10
105.2389999999999
 20
17.428499999999989
 30
0.0
 11
105.2389999999999
 21
0.4485540000000001
 31
0.0
  0
LINE
  5
27B
  8
_________2
 62
     7
 10
81.679900000000004
 20
51.324300000000001
 30
0.0
 11
79.493700000000004
 21
51.324300000000001
 31
0.0
  0
LINE
  5
27C
  8
_________2
 62
     7
 10
82.172600000000017
 20
51.324300000000001
 30
0.0
 11
81.920400000000001
 21
51.324300000000001
 31
0.0
  0
LINE
  5
27D
  8
_________2
 62
     7
 10
82.665199999999984
 20
51.324300000000001
 30
0.0
 11
85.590100000000007
 21
51.324300000000001
 31
0.0
  0
LINE
  5
27E
  8
_________2
 62
     7
 10
82.172600000000017
 20
51.324300000000001
 30
0.0
 11
82.424800000000005
 21
51.324300000000001
 31
0.0
  0
LINE
  5
27F
  8
_________2
 62
     7
 10
75.776399999999995
 20
51.324300000000001
 30
0.0
 11
73.589399999999998
 21
51.324300000000001
 31
0.0
  0
LINE
  5
280
  8
_________2
 62
     7
 10
76.2684
 20
51.324300000000001
 30
0.0
 11
76.016900000000007
 21
51.324300000000001
 31
0.0
  0
LINE
  5
281
  8
_________2
 62
     7
 10
76.2684
 20
51.817
 30
0.0
 11
76.2684
 21
54.003900000000002
 31
0.0
  0
LINE
  5
282
  8
_________2
 62
     7
 10
76.2684
 20
51.324300000000001
 30
0.0
 11
76.2684
 21
51.576900000000002
 31
0.0
  0
LINE
  5
283
  8
_________2
 62
     7
 10
76.76100000000001
 20
51.324300000000001
 30
0.0
 11
78.947999999999993
 21
51.324300000000001
 31
0.0
  0
LINE
  5
284
  8
_________2
 62
     7
 10
76.2684
 20
51.324300000000001
 30
0.0
 11
76.520499999999998
 21
51.324300000000001
 31
0.0
  0
LINE
  5
285
  8
_________2
 62
     7
 10
76.2684
 20
50.832399999999993
 30
0.0
 11
76.2684
 21
48.645699999999998
 31
0.0
  0
LINE
  5
286
  8
_________2
 62
     7
 10
76.2684
 20
51.324300000000001
 30
0.0
 11
76.2684
 21
51.072800000000001
 31
0.0
  0
LINE
  5
287
  8
_________2
 62
     7
 10
79.979399999999984
 20
50.104799999999997
 30
0.0
 11
85.157399999999996
 21
49.240000000000002
 31
0.0
  0
LINE
  5
288
  8
_________2
 62
     7
 10
79.979399999999984
 20
52.544199999999989
 30
0.0
 11
85.157399999999996
 21
53.409700000000001
 31
0.0
  0
LINE
  5
289
  8
_________2
 62
     7
 10
85.157399999999996
 20
49.240000000000002
 30
0.0
 11
85.157399999999996
 21
53.409700000000001
 31
0.0
  0
LINE
  5
28A
  8
_________2
 62
     7
 10
79.979399999999984
 20
50.104799999999997
 30
0.0
 11
79.979399999999984
 21
52.544199999999989
 31
0.0
  0
ARC
  5
28B
  8
_________2
 62
     7
 10
76.221766000000002
 20
51.277380999999998
 30
0.0
 40
1.267714
 50
2.1220840000000001
 51
87.894083999999992
  0
ARC
  5
28C
  8
_________2
 62
     7
 10
76.315297000000001
 20
51.277734999999993
 30
0.0
 40
1.267374999999999
 50
92.122849999999985
 51
177.893304
  0
ARC
  5
28D
  8
_________2
 62
     7
 10
76.315273000000005
 20
51.371245999999992
 30
0.0
 40
1.267363
 50
182.12181499999991
 51
267.87821400000001
  0
ARC
  5
28E
  8
_________2
 62
     7
 10
76.221461000000005
 20
51.371928999999987
 30
0.0
 40
1.2680439999999991
 50
272.11916400000001
 51
357.84848499999993
  0
ARC
  5
28F
  8
_________2
 62
     7
 10
76.187981999999991
 20
51.244312999999998
 30
0.0
 40
2.1668310000000002
 50
2.1161439999999989
 51
87.874379000000005
  0
ARC
  5
290
  8
_________2
 62
     7
 10
76.348411999999996
 20
51.245334999999997
 30
0.0
 40
2.1657980000000001
 50
92.118487999999999
 51
177.90988599999989
  0
ARC
  5
291
  8
_________2
 62
     7
 10
76.348354
 20
51.404327000000002
 30
0.0
 40
2.1657779999999991
 50
182.11700400000001
 51
267.88302499999992
  0
ARC
  5
292
  8
_________2
 62
     7
 10
76.188378999999983
 20
51.405009999999997
 30
0.0
 40
2.1664590000000001
 50
272.11546800000002
 51
357.86560400000002
  0
TEXT
  5
293
  8
_________2
 62
     7
 10
109.5439999999999
 20
23.199100000000001
 30
0.0
 40
3.0923400000000001
  1
図番
 41
0.5
  0
LINE
  5
294
  8
_________2
 62
     7
 10
108.4889999999999
 20
27.4283
 30
0.0
 11
188.49000000000001
 21
27.4283
 31
0.0
  0
TEXT
  5
295
  8
_________2
 62
     7
 10
109.5439999999999
 20
33.198900000000002
 30
0.0
 40
3.0923400000000001
  1
品番
 41
0.5
  0
TEXT
  5
296
  8
_________2
 62
     7
 10
109.5439999999999
 20
53.338000000000001
 30
0.0
 40
3.0923400000000001
  1
名称
 41
0.5
  0
TEXT
  5
297
  8
_________2
 62
     7
 10
96.784058333333334
 20
48.341900000000003
 30
0.0
 40
3.6545800000000002
  1
mm
 41
0.5
 72
     1
 11
98.306799999999996
 21
48.341900000000003
 31
0.0
  0
TEXT
  5
298
  8
_________2
 62
     7
 10
90.582099999999997
 20
53.338000000000001
 30
0.0
 40
3.0923400000000001
  1
単位
 41
0.5
  0
TEXT
  5
299
  8
_________2
 62
     7
 10
90.582099999999997
 20
40.930399999999999
 30
0.0
 40
3.0923400000000001
  1
尺度
 41
0.5
  0
TEXT
  5
29A
  8
_________2
 62
     7
 10
95.030836166666674
 20
34.7378
 30
0.0
 40
3.6545800000000002
  1
1 ： 10
 41
0.5
 72
     1
 11
98.898600000000002
 21
34.7378
 31
0.0
  0
TEXT
  5
29B
  8
_________2
 62
     7
 10
140.94557499999999
 20
30.627800000000001
 30
0.0
 40
3.9357000000000002
  1
VB413355
 41
0.5
 72
     1
 11
148.489
 21
30.627800000000001
 31
0.0
  0
TEXT
  5
29C
  8
_________2
 62
     7
 10
140.94557499999999
 20
20.626999999999988
 30
0.0
 40
3.9357000000000002
  1
VB413355
 41
0.5
 72
     1
 11
148.489
 21
20.626999999999988
 31
0.0
  0
TEXT
  5
29D
  8
_________2
 62
     7
 10
114.11799999999999
 20
45.745600000000003
 30
0.0
 40
3.9357000000000002
  1
メメント 洗面器
 41
0.5
  0
TEXT
  5
29E
  8
_________2
 62
     7
 10
44.364200333333329
 20
35.122999999999998
 30
0.0
 40
3.6545800000000002
  1
早川
 41
0.5
 72
     1
 11
46.252400000000002
 21
35.122999999999998
 31
0.0
  0
TEXT
  5
29F
  8
_________2
 62
     7
 10
25.72929066666666
 20
35.122999999999998
 30
0.0
 40
3.6545800000000002
  1
石原
 41
0.5
 72
     1
 11
27.6784
 21
35.122999999999998
 31
0.0
  0
TEXT
  5
2A0
  8
_________2
 62
     7
 10
72.724699999999999
 20
34.7378
 30
0.0
 40
3.6545800000000002
  1
13.09.17
 41
0.5
  0
TEXT
  5
2A1
  8
_________2
 62
     7
 10
71.531999999999996
 20
40.930399999999999
 30
0.0
 40
3.0923400000000001
  1
日付
 41
0.5
  0
TEXT
  5
2A2
  8
_________2
 62
     7
 10
34.578299999999992
 20
40.930399999999999
 30
0.0
 40
3.0923400000000001
  1
検図
 41
0.5
  0
TEXT
  5
2A3
  8
_________2
 62
     7
 10
22.96019999999999
 20
26.730999999999991
 30
0.0
 40
3.0923400000000001
  1
備考
 41
0.5
  0
TEXT
  5
2A4
  8
_________2
 62
     7
 10
22.96019999999999
 20
40.930399999999999
 30
0.0
 40
3.0923400000000001
  1
製図
 41
0.5
  0
TEXT
  5
2A5
  8
_________2
 62
     7
 10
28.727365333333339
 20
49.456400000000002
 30
0.0
 40
4.4979399999999989
  1
セラトレーディング株式会社
 41
0.5
 72
     1
 11
46.119399999999992
 21
49.456400000000002
 31
0.0
  0
LINE
  5
2A6
  8
_________2
 62
     7
 10
188.49000000000001
 20
17.428499999999989
 30
0.0
 11
21.988499999999991
 21
17.428499999999989
 31
0.0
  0
LINE
  5
2A7
  8
_________2
 62
     7
 10
21.988499999999991
 20
17.428499999999989
 30
0.0
 11
21.988499999999991
 21
280.42999999999989
 31
0.0
  0
LINE
  5
2A8
  8
_________2
 62
     7
 10
21.988499999999991
 20
280.42999999999989
 30
0.0
 11
188.49000000000001
 21
280.42999999999989
 31
0.0
  0
LINE
  5
2A9
  8
_________2
 62
     7
 10
188.49000000000001
 20
280.42999999999989
 30
0.0
 11
188.49000000000001
 21
17.428499999999989
 31
0.0
  0
LINE
  5
2AA
  8
_________2
 62
     7
 10
70.488799999999998
 20
30.928899999999999
 30
0.0
 11
70.488799999999998
 21
57.428699999999992
 31
0.0
  0
LINE
  5
2AB
  8
_________2
 62
     7
 10
89.488600000000005
 20
30.928899999999999
 30
0.0
 11
89.488600000000005
 21
57.428699999999992
 31
0.0
  0
LINE
  5
2AC
  8
_________2
 62
     7
 10
108.4889999999999
 20
17.428499999999989
 30
0.0
 11
108.4889999999999
 21
57.428699999999992
 31
0.0
  0
LINE
  5
2AD
  8
_________2
 62
     7
 10
33.488300000000002
 20
30.928899999999999
 30
0.0
 11
33.488300000000002
 21
44.928800000000003
 31
0.0
  0
LINE
  5
2AE
  8
_________2
 62
     7
 10
21.988499999999991
 20
30.928899999999999
 30
0.0
 11
108.4889999999999
 21
30.928899999999999
 31
0.0
  0
LINE
  5
2AF
  8
_________2
 62
     7
 10
21.988499999999991
 20
44.928800000000003
 30
0.0
 11
108.4889999999999
 21
44.928800000000003
 31
0.0
  0
LINE
  5
2B0
  8
_________2
 62
     7
 10
108.4889999999999
 20
37.428100000000001
 30
0.0
 11
188.49000000000001
 21
37.428100000000001
 31
0.0
  0
LINE
  5
2B1
  8
_________2
 62
     7
 10
21.988499999999991
 20
57.428699999999992
 30
0.0
 11
188.49000000000001
 21
57.428699999999992
 31
0.0
  0
LINE
  5
2B2
  8
_________2
 62
     7
 10
210.24000000000001
 20
148.93100000000001
 30
0.0
 11
188.489
 21
148.93100000000001
 31
0.0
  0
LINE
  5
2B3
  8
_________2
 62
     7
 10
105.2389999999999
 20
297.45099999999991
 30
0.0
 11
105.2389999999999
 21
280.42999999999989
 31
0.0
  0
LINE
  5
2B4
  8
_________2
 62
     7
 10
21.988499999999991
 20
148.93100000000001
 30
0.0
 11
0.238402
 21
148.93100000000001
 31
0.0
  0
ENDSEC
  0
EOF
