  0
SECTION
  2
HEADER
  9
$ACADVER
  1
AC1009
  9
$INSBASE
 10
0.0
 20
0.0
 30
0.0
  9
$EXTMIN
 10
-4.7010300000000003
 20
-21.071000000000002
 30
0.0
  9
$EXTMAX
 10
205.30099999999999
 20
275.93099999999998
 30
0.0
  9
$LIMMIN
 10
0.0
 20
0.0
  9
$LIMMAX
 10
12.0
 20
9.0
  9
$ORTHOMODE
 70
     0
  9
$REGENMODE
 70
     1
  9
$FILLMODE
 70
     1
  9
$QTEXTMODE
 70
     0
  9
$MIRRTEXT
 70
     1
  9
$DRAGMODE
 70
     2
  9
$LTSCALE
 40
1.0
  9
$OSMODE
 70
    37
  9
$ATTMODE
 70
     1
  9
$TEXTSIZE
 40
0.0
  9
$TRACEWID
 40
0.05
  9
$TEXTSTYLE
  7
STANDARD
  9
$CLAYER
  8
0
  9
$CELTYPE
  6
CONTINUOUS
  9
$CECOLOR
 62
   256
  9
$DIMSCALE
 40
1.0
  9
$DIMASZ
 40
0.18
  9
$DIMEXO
 40
0.0625
  9
$DIMDLI
 40
0.38
  9
$DIMRND
 40
0.0
  9
$DIMDLE
 40
0.0
  9
$DIMEXE
 40
0.18
  9
$DIMTP
 40
0.0
  9
$DIMTM
 40
0.0
  9
$DIMTXT
 40
0.18
  9
$DIMCEN
 40
0.09
  9
$DIMTSZ
 40
0.0
  9
$DIMTOL
 70
     0
  9
$DIMLIM
 70
     0
  9
$DIMTIH
 70
     1
  9
$DIMTOH
 70
     1
  9
$DIMSE1
 70
     0
  9
$DIMSE2
 70
     0
  9
$DIMTAD
 70
     0
  9
$DIMZIN
 70
     0
  9
$DIMBLK
  1

  9
$DIMASO
 70
     1
  9
$DIMSHO
 70
     1
  9
$DIMPOST
  1

  9
$DIMAPOST
  1

  9
$DIMALT
 70
     0
  9
$DIMALTD
 70
     2
  9
$DIMALTF
 40
25.399999999999999
  9
$DIMLFAC
 40
1.0
  9
$DIMTOFL
 70
     0
  9
$DIMTVP
 40
0.0
  9
$DIMTIX
 70
     0
  9
$DIMSOXD
 70
     0
  9
$DIMSAH
 70
     0
  9
$DIMBLK1
  1

  9
$DIMBLK2
  1

  9
$DIMSTYLE
  2
STANDARD
  9
$DIMCLRD
 70
     0
  9
$DIMCLRE
 70
     0
  9
$DIMCLRT
 70
     0
  9
$DIMTFAC
 40
1.0
  9
$DIMGAP
 40
0.09
  9
$LUNITS
 70
     2
  9
$LUPREC
 70
     4
  9
$SKETCHINC
 40
0.1
  9
$FILLETRAD
 40
0.0
  9
$AUNITS
 70
     0
  9
$AUPREC
 70
     0
  9
$MENU
  1
.
  9
$ELEVATION
 40
0.0
  9
$PELEVATION
 40
0.0
  9
$THICKNESS
 40
0.0
  9
$LIMCHECK
 70
     0
  9
$BLIPMODE
 70
     0
  9
$CHAMFERA
 40
0.0
  9
$CHAMFERB
 40
0.0
  9
$SKPOLY
 70
     0
  9
$TDCREATE
 40
2444972.375
  9
$TDUPDATE
 40
2457640.246709039
  9
$TDINDWG
 40
0.0000315972
  9
$TDUSRTIMER
 40
0.0000315972
  9
$USRTIMER
 70
     1
  9
$ANGBASE
 50
0.0
  9
$ANGDIR
 70
     0
  9
$PDMODE
 70
     0
  9
$PDSIZE
 40
0.0
  9
$PLINEWID
 40
0.0
  9
$COORDS
 70
     1
  9
$SPLFRAME
 70
     0
  9
$SPLINETYPE
 70
     6
  9
$SPLINESEGS
 70
     8
  9
$ATTDIA
 70
     1
  9
$ATTREQ
 70
     1
  9
$HANDLING
 70
     1
  9
$HANDSEED
  5
243
  9
$SURFTAB1
 70
     6
  9
$SURFTAB2
 70
     6
  9
$SURFTYPE
 70
     6
  9
$SURFU
 70
     6
  9
$SURFV
 70
     6
  9
$UCSNAME
  2

  9
$UCSORG
 10
0.0
 20
0.0
 30
0.0
  9
$UCSXDIR
 10
1.0
 20
0.0
 30
0.0
  9
$UCSYDIR
 10
0.0
 20
1.0
 30
0.0
  9
$PUCSNAME
  2

  9
$PUCSORG
 10
0.0
 20
0.0
 30
0.0
  9
$PUCSXDIR
 10
1.0
 20
0.0
 30
0.0
  9
$PUCSYDIR
 10
0.0
 20
1.0
 30
0.0
  9
$USERI1
 70
     0
  9
$USERI2
 70
     0
  9
$USERI3
 70
     0
  9
$USERI4
 70
     0
  9
$USERI5
 70
     0
  9
$USERR1
 40
0.0
  9
$USERR2
 40
0.0
  9
$USERR3
 40
0.0
  9
$USERR4
 40
0.0
  9
$USERR5
 40
0.0
  9
$WORLDVIEW
 70
     1
  9
$SHADEDGE
 70
     3
  9
$SHADEDIF
 70
    70
  9
$TILEMODE
 70
     1
  9
$MAXACTVP
 70
    48
  9
$PLIMCHECK
 70
     0
  9
$PEXTMIN
 10
1.0000000000000000E+020
 20
1.0000000000000000E+020
 30
1.0000000000000000E+020
  9
$PEXTMAX
 10
-1.0000000000000000E+020
 20
-1.0000000000000000E+020
 30
-1.0000000000000000E+020
  9
$PLIMMIN
 10
0.0
 20
0.0
  9
$PLIMMAX
 10
12.0
 20
9.0
  9
$UNITMODE
 70
     0
  9
$VISRETAIN
 70
     1
  9
$PLINEGEN
 70
     0
  9
$PSLTSCALE
 70
     1
  0
ENDSEC
  0
SECTION
  2
TABLES
  0
TABLE
  2
VPORT
 70
     1
  0
VPORT
  2
*ACTIVE
 70
     0
 10
0.0
 20
0.0
 11
1.0
 21
1.0
 12
156.29026955584439
 22
127.42999999999989
 13
0.0
 23
0.0
 14
1.0
 24
1.0
 15
0.0
 25
0.0
 16
0.0
 26
0.0
 36
1.0
 17
0.0
 27
0.0
 37
0.0
 40
283.03917694588029
 41
1.357429718875502
 42
50.0
 43
0.0
 44
0.0
 50
0.0
 51
0.0
 71
     0
 72
   100
 73
     1
 74
     1
 75
     0
 76
     0
 77
     0
 78
     0
  0
ENDTAB
  0
TABLE
  2
LTYPE
 70
     3
  0
LTYPE
  2
CONTINUOUS
 70
     0
  3
Solid line
 72
    65
 73
     0
 40
0.0
  0
LTYPE
  2
AIGENLINE001
 70
     0
  3
generate AI->DXF Converter
 72
    65
 73
     4
 40
5.8561449999999988
 49
3.5278
 49
-0.776115
 49
0.776115
 49
-0.776115
  0
LTYPE
  2
AIGENLINE002
 70
     0
  3
generate AI->DXF Converter
 72
    65
 73
     2
 40
1.5522299999999991
 49
0.776115
 49
-0.776115
  0
ENDTAB
  0
TABLE
  2
LAYER
 70
     2
  0
LAYER
  2
0
 70
     0
 62
     7
  6
CONTINUOUS
  0
LAYER
  2
_________2
 70
     0
 62
     7
  6
CONTINUOUS
  0
ENDTAB
  0
TABLE
  2
STYLE
 70
     1
  0
STYLE
  2
STANDARD
 70
     0
 40
0.0
 41
0.0
 50
0.0
 71
     0
 42
0.0
  3
TXT
  4
EXTFONT.SHX
  0
ENDTAB
  0
TABLE
  2
VIEW
 70
     0
  0
ENDTAB
  0
TABLE
  2
UCS
 70
     0
  0
ENDTAB
  0
TABLE
  2
APPID
 70
     3
  0
APPID
  2
ACAD
 70
     0
  0
APPID
  2
ACAD_NAV_VCDISPLAY
 70
     0
  0
APPID
  2
ACAD_MLEADERVER
 70
     0
  0
ENDTAB
  0
TABLE
  2
DIMSTYLE
 70
     1
  0
DIMSTYLE
  2
STANDARD
 70
     0
  3

  4

  5

  6

  7

 40
1.0
 41
0.18
 42
0.0625
 43
0.38
 44
0.18
 45
0.0
 46
0.0
 47
0.0
 48
0.0
140
0.18
141
0.09
142
0.0
143
25.399999999999999
144
1.0
145
0.0
146
1.0
147
0.09
 71
     0
 72
     0
 73
     1
 74
     1
 75
     0
 76
     0
 77
     0
 78
     0
170
     0
171
     2
172
     0
173
     0
174
     0
175
     0
176
     0
177
     0
178
     0
  0
ENDTAB
  0
ENDSEC
  0
SECTION
  2
BLOCKS
  0
BLOCK
  8
0
  2
$MODEL_SPACE
 70
     0
 10
0.0
 20
0.0
 30
0.0
  3
$MODEL_SPACE
  1

  0
ENDBLK
  5
1A
  8
0
  0
BLOCK
 67
     1
  8
0
  2
$PAPER_SPACE
 70
     0
 10
0.0
 20
0.0
 30
0.0
  3
$PAPER_SPACE
  1

  0
ENDBLK
  5
17
 67
     1
  8
0
  0
ENDSEC
  0
SECTION
  2
ENTITIES
  0
TEXT
  5
23
  8
0
 62
     7
 10
143.85300000000001
 20
103.2439825
 30
0.0
 40
3.0923400000000001
  1
120
 50
90.0
 41
0.5
 72
     1
 11
143.85300000000001
 21
104.919
 31
0.0
  0
TEXT
  5
24
  8
0
 62
     7
 10
138.34476000000001
 20
137.244
 30
0.0
 40
3.0923400000000001
  1
カウンター切込寸法
 41
0.5
 72
     1
 11
146.59100000000001
 21
137.244
 31
0.0
  0
TEXT
  5
25
  8
0
 62
     7
 10
129.262
 20
185.684
 30
0.0
 40
3.0923400000000001
  1
排水口
 41
0.5
  0
TEXT
  5
26
  8
0
 62
     7
 10
124.459575
 20
163.79599999999999
 30
0.0
 40
3.0923400000000001
  1
R60
 41
0.5
 72
     2
 11
128.32499999999999
 21
163.79599999999999
 31
0.0
  0
TEXT
  5
27
  8
0
 62
     7
 10
70.998679999999993
 20
181.87100000000001
 30
0.0
 40
3.0923400000000001
  1
%%c46
 41
0.5
 72
     2
 11
75.121799999999993
 21
181.87100000000001
 31
0.0
  0
TEXT
  5
28
  8
0
 62
     7
 10
160.48099999999999
 20
165.166135
 30
0.0
 40
3.0923400000000001
  1
194
 50
90.0
 41
0.5
 72
     1
 11
160.48099999999999
 21
166.97
 31
0.0
  0
TEXT
  5
29
  8
0
 62
     7
 10
160.48099999999999
 20
184.816135
 30
0.0
 40
3.0923400000000001
  1
199
 50
90.0
 41
0.5
 72
     1
 11
160.48099999999999
 21
186.62
 31
0.0
  0
TEXT
  5
2A
  8
0
 62
     7
 10
110.122
 20
174.85843999999989
 30
0.0
 40
3.0923400000000001
  1
393
 50
90.0
 41
0.5
 72
     1
 11
110.122
 21
176.91999999999999
 31
0.0
  0
TEXT
  5
2B
  8
0
 62
     7
 10
155.28713500000001
 20
87.686499999999995
 30
0.0
 40
3.0923400000000001
  1
215
 41
0.5
 72
     1
 11
157.09100000000001
 21
87.686499999999995
 31
0.0
  0
TEXT
  5
2C
  8
0
 62
     7
 10
144.52943999999999
 20
148.70099999999999
 30
0.0
 40
3.0923400000000001
  1
593
 41
0.5
 72
     1
 11
146.59100000000001
 21
148.70099999999999
 31
0.0
  0
TEXT
  5
2D
  8
0
 62
     7
 10
22.831099999999999
 20
174.85843999999989
 30
0.0
 40
3.0923400000000001
  1
425
 50
90.0
 41
0.5
 72
     1
 11
22.831099999999999
 21
176.91999999999999
 31
0.0
  0
TEXT
  5
2E
  8
0
 62
     7
 10
27.723199999999999
 20
174.98728750000001
 30
0.0
 40
3.0923400000000001
  1
340
 50
90.0
 41
0.5
 72
     1
 11
27.723199999999999
 21
176.91999999999999
 31
0.0
  0
TEXT
  5
2F
  8
0
 62
     7
 10
107.736
 20
101.5949825
 30
0.0
 40
3.0923400000000001
  1
170
 50
90.0
 41
0.5
 72
     1
 11
107.736
 21
103.27
 31
0.0
  0
TEXT
  5
30
  8
0
 62
     7
 10
101.07599999999999
 20
108.6103725
 30
0.0
 40
3.0923400000000001
  1
40
 50
90.0
 41
0.5
 72
     1
 11
101.07599999999999
 21
109.77
 31
0.0
  0
TEXT
  5
31
  8
0
 62
     7
 10
100.376
 20
185.6161349999999
 30
0.0
 40
3.0923400000000001
  1
215
 50
90.0
 41
0.5
 72
     1
 11
100.376
 21
187.41999999999999
 31
0.0
  0
TEXT
  5
32
  8
0
 62
     7
 10
61.947987500000004
 20
147.49100000000001
 30
0.0
 40
3.0923400000000001
  1
540
 41
0.5
 72
     1
 11
63.88069999999999
 21
147.49100000000001
 31
0.0
  0
TEXT
  5
33
  8
0
 62
     7
 10
61.947987500000004
 20
141.173
 30
0.0
 40
3.0923400000000001
  1
620
 41
0.5
 72
     1
 11
63.88069999999999
 21
141.173
 31
0.0
  0
ARC
  5
34
  8
0
 62
     7
 10
87.880720999999994
 20
162.920199
 30
0.0
 40
3.0000949999999991
 50
269.99837500000001
 51
359.99834499999997
  0
LINE
  5
35
  8
0
 62
     7
 10
87.880599999999987
 20
159.91999999999999
 30
0.0
 11
39.880499999999998
 21
159.91999999999999
 31
0.0
  0
ARC
  5
36
  8
0
 62
     7
 10
39.88041900000001
 20
162.920198
 30
0.0
 40
3.0000939999999989
 50
180.001655
 51
270.001665
  0
LINE
  5
37
  8
0
 62
     7
 10
36.880299999999998
 20
162.91999999999999
 30
0.0
 11
36.880299999999998
 21
190.91999999999999
 31
0.0
  0
ARC
  5
38
  8
0
 62
     7
 10
39.880420000000001
 20
190.9202159999999
 30
0.0
 40
3.0000949999999991
 50
89.998355000000004
 51
179.99832499999999
  0
LINE
  5
39
  8
0
 62
     7
 10
39.880499999999998
 20
193.9199999999999
 30
0.0
 11
87.880599999999987
 21
193.9199999999999
 31
0.0
  0
ARC
  5
3A
  8
0
 62
     7
 10
87.880720999999994
 20
190.9202159999999
 30
0.0
 40
3.0000949999999991
 50
0.001655
 51
90.001625000000004
  0
LINE
  5
3B
  8
0
 62
     7
 10
90.880799999999994
 20
190.91999999999999
 30
0.0
 11
90.880799999999994
 21
162.91999999999999
 31
0.0
  0
ARC
  5
3C
  8
0
 62
     7
 10
88.380692999999994
 20
162.17011099999999
 30
0.0
 40
6.5000759999999991
 50
270.00002000000001
 51
359.99999000000003
  0
LINE
  5
3D
  8
0
 62
     7
 10
88.380700000000004
 20
155.66999999999999
 30
0.0
 11
39.380400000000002
 21
155.66999999999999
 31
0.0
  0
ARC
  5
3E
  8
0
 62
     7
 10
39.380445000000002
 20
162.170109
 30
0.0
 40
6.5000739999999988
 50
179.99996999999999
 51
270.00002000000001
  0
LINE
  5
3F
  8
0
 62
     7
 10
32.880400000000002
 20
162.16999999999999
 30
0.0
 11
32.880400000000002
 21
191.66999999999999
 31
0.0
  0
ARC
  5
40
  8
0
 62
     7
 10
39.380448000000001
 20
191.67030399999999
 30
0.0
 40
6.5000759999999991
 50
90.0
 51
179.99996999999999
  0
LINE
  5
41
  8
0
 62
     7
 10
39.380400000000002
 20
198.16999999999999
 30
0.0
 11
88.380700000000004
 21
198.16999999999999
 31
0.0
  0
ARC
  5
42
  8
0
 62
     7
 10
88.380692999999994
 20
191.67030399999999
 30
0.0
 40
6.5000759999999991
 50
0.00001
 51
89.999980000000008
  0
LINE
  5
43
  8
0
 62
     7
 10
94.880799999999994
 20
191.66999999999999
 30
0.0
 11
94.880799999999994
 21
162.16999999999999
 31
0.0
  0
LINE
  5
44
  8
0
  6
AIGENLINE001
 62
     7
 10
128.952
 20
107.22799999999999
 30
0.0
 11
133.65600000000001
 21
108.514
 31
0.0
  0
LINE
  5
45
  8
0
  6
AIGENLINE001
 62
     7
 10
60.851100000000002
 20
107.77
 30
0.0
 11
66.766900000000007
 21
107.77
 31
0.0
  0
LINE
  5
46
  8
0
 62
     7
 10
109.029
 20
109.55800000000001
 30
0.0
 11
108.43600000000001
 21
111.77
 31
0.0
  0
LINE
  5
47
  8
0
 62
     7
 10
108.43600000000001
 20
111.77
 30
0.0
 11
107.84399999999999
 21
109.55800000000001
 31
0.0
  0
LINE
  5
48
  8
0
 62
     7
 10
107.84399999999999
 20
109.55800000000001
 30
0.0
 11
109.029
 21
109.55800000000001
 31
0.0
  0
LINE
  5
49
  8
0
 62
     7
 10
107.84399999999999
 20
96.981099999999984
 30
0.0
 11
108.43600000000001
 21
94.769999999999996
 31
0.0
  0
LINE
  5
4A
  8
0
 62
     7
 10
108.43600000000001
 20
94.769999999999996
 30
0.0
 11
109.029
 21
96.981099999999984
 31
0.0
  0
LINE
  5
4B
  8
0
 62
     7
 10
109.029
 20
96.981099999999984
 30
0.0
 11
107.84399999999999
 21
96.981099999999984
 31
0.0
  0
LINE
  5
4C
  8
0
 62
     7
 10
145.14500000000001
 20
109.55800000000001
 30
0.0
 11
144.553
 21
111.77
 31
0.0
  0
LINE
  5
4D
  8
0
 62
     7
 10
144.553
 20
111.77
 30
0.0
 11
143.96000000000001
 21
109.55800000000001
 31
0.0
  0
LINE
  5
4E
  8
0
 62
     7
 10
143.96000000000001
 20
109.55800000000001
 30
0.0
 11
145.14500000000001
 21
109.55800000000001
 31
0.0
  0
LINE
  5
4F
  8
0
 62
     7
 10
143.96000000000001
 20
101.98099999999999
 30
0.0
 11
144.553
 21
99.769900000000007
 31
0.0
  0
LINE
  5
50
  8
0
 62
     7
 10
144.553
 20
99.769900000000007
 30
0.0
 11
145.14500000000001
 21
101.98099999999999
 31
0.0
  0
LINE
  5
51
  8
0
 62
     7
 10
145.14500000000001
 20
101.98099999999999
 30
0.0
 11
143.96000000000001
 21
101.98099999999999
 31
0.0
  0
LINE
  5
52
  8
0
 62
     7
 10
144.553
 20
111.77
 30
0.0
 11
144.553
 21
99.769900000000007
 31
0.0
  0
LINE
  5
53
  8
0
 62
     7
 10
138.536
 20
184.70400000000001
 30
0.0
 11
129.262
 21
184.70400000000001
 31
0.0
  0
LINE
  5
54
  8
0
 62
     7
 10
128.32499999999999
 20
163.096
 30
0.0
 11
122.767
 21
163.096
 31
0.0
  0
LINE
  5
55
  8
0
 62
     7
 10
120.68000000000001
 20
160.172
 30
0.0
 11
118.69799999999999
 21
159.02699999999999
 31
0.0
  0
LINE
  5
56
  8
0
 62
     7
 10
118.69799999999999
 20
159.02699999999999
 30
0.0
 11
119.843
 21
161.00999999999999
 31
0.0
  0
LINE
  5
57
  8
0
 62
     7
 10
119.843
 20
161.00999999999999
 30
0.0
 11
120.68000000000001
 21
160.172
 31
0.0
  0
LINE
  5
58
  8
0
 62
     7
 10
122.767
 20
163.096
 30
0.0
 11
118.69799999999999
 21
159.02699999999999
 31
0.0
  0
LINE
  5
59
  8
0
 62
     7
 10
60.271299999999989
 20
173.90000000000001
 30
0.0
 11
62.254300000000001
 21
175.04499999999999
 31
0.0
  0
LINE
  5
5A
  8
0
 62
     7
 10
62.254300000000001
 20
175.04499999999999
 30
0.0
 11
61.10949999999999
 21
173.06200000000001
 31
0.0
  0
LINE
  5
5B
  8
0
 62
     7
 10
61.10949999999999
 20
173.06200000000001
 30
0.0
 11
60.271299999999989
 21
173.90000000000001
 31
0.0
  0
LINE
  5
5C
  8
0
 62
     7
 10
67.489500000000007
 20
179.44200000000001
 30
0.0
 11
65.506799999999984
 21
178.297
 31
0.0
  0
LINE
  5
5D
  8
0
 62
     7
 10
65.506799999999984
 20
178.297
 30
0.0
 11
66.651700000000005
 21
180.28
 31
0.0
  0
LINE
  5
5E
  8
0
 62
     7
 10
66.651700000000005
 20
180.28
 30
0.0
 11
67.489500000000007
 21
179.44200000000001
 31
0.0
  0
LINE
  5
5F
  8
0
 62
     7
 10
59.380400000000002
 20
172.17099999999999
 30
0.0
 11
68.380399999999995
 21
181.17099999999999
 31
0.0
  0
LINE
  5
60
  8
0
 62
     7
 10
68.380399999999995
 20
181.17099999999999
 30
0.0
 11
75.121799999999993
 21
181.17099999999999
 31
0.0
  0
LINE
  5
61
  8
0
 62
     7
 10
29.015799999999999
 20
191.709
 30
0.0
 11
28.423300000000001
 21
193.9199999999999
 31
0.0
  0
LINE
  5
62
  8
0
 62
     7
 10
28.423300000000001
 20
193.9199999999999
 30
0.0
 11
27.8307
 21
191.709
 31
0.0
  0
LINE
  5
63
  8
0
 62
     7
 10
27.8307
 20
191.709
 30
0.0
 11
29.015799999999999
 21
191.709
 31
0.0
  0
LINE
  5
64
  8
0
 62
     7
 10
27.8383
 20
162.131
 30
0.0
 11
28.430800000000001
 21
159.91999999999999
 31
0.0
  0
LINE
  5
65
  8
0
 62
     7
 10
28.430800000000001
 20
159.91999999999999
 30
0.0
 11
29.023399999999999
 21
162.131
 31
0.0
  0
LINE
  5
66
  8
0
 62
     7
 10
29.023399999999999
 20
162.131
 30
0.0
 11
27.8383
 21
162.131
 31
0.0
  0
LINE
  5
67
  8
0
 62
     7
 10
28.423300000000001
 20
192.3709999999999
 30
0.0
 11
28.423300000000001
 21
159.92099999999999
 31
0.0
  0
LINE
  5
68
  8
0
 62
     7
 10
24.123699999999999
 20
195.90100000000001
 30
0.0
 11
23.531199999999998
 21
198.11199999999999
 31
0.0
  0
LINE
  5
69
  8
0
 62
     7
 10
23.531199999999998
 20
198.11199999999999
 30
0.0
 11
22.938600000000001
 21
195.90100000000001
 31
0.0
  0
LINE
  5
6A
  8
0
 62
     7
 10
22.938600000000001
 20
195.90100000000001
 30
0.0
 11
24.123699999999999
 21
195.90100000000001
 31
0.0
  0
LINE
  5
6B
  8
0
 62
     7
 10
22.946200000000001
 20
157.881
 30
0.0
 11
23.538799999999998
 21
155.66999999999999
 31
0.0
  0
LINE
  5
6C
  8
0
 62
     7
 10
23.538799999999998
 20
155.66999999999999
 30
0.0
 11
24.1313
 21
157.881
 31
0.0
  0
LINE
  5
6D
  8
0
 62
     7
 10
24.1313
 20
157.881
 30
0.0
 11
22.946200000000001
 21
157.881
 31
0.0
  0
LINE
  5
6E
  8
0
 62
     7
 10
23.531199999999998
 20
196.56299999999999
 30
0.0
 11
23.531199999999998
 21
155.67099999999999
 31
0.0
  0
LINE
  5
6F
  8
0
 62
     7
 10
28.0732
 20
159.91999999999999
 30
0.0
 11
36.896500000000003
 21
159.91999999999999
 31
0.0
  0
LINE
  5
70
  8
0
 62
     7
 10
28.0732
 20
193.9199999999999
 30
0.0
 11
36.896500000000003
 21
193.9199999999999
 31
0.0
  0
LINE
  5
71
  8
0
 62
     7
 10
95.430800000000005
 20
107.77
 30
0.0
 11
102.476
 21
107.77
 31
0.0
  0
LINE
  5
72
  8
0
 62
     7
 10
90.591399999999993
 20
94.769999999999996
 30
0.0
 11
109.136
 21
94.769999999999996
 31
0.0
  0
LINE
  5
73
  8
0
 62
     7
 10
95.243399999999994
 20
111.77
 30
0.0
 11
109.136
 21
111.77
 31
0.0
  0
LINE
  5
74
  8
0
 62
     7
 10
102.36799999999999
 20
105.55800000000001
 30
0.0
 11
101.776
 21
107.77
 31
0.0
  0
LINE
  5
75
  8
0
 62
     7
 10
101.776
 20
107.77
 30
0.0
 11
101.18300000000001
 21
105.55800000000001
 31
0.0
  0
LINE
  5
76
  8
0
 62
     7
 10
101.18300000000001
 20
105.55800000000001
 30
0.0
 11
102.36799999999999
 21
105.55800000000001
 31
0.0
  0
LINE
  5
77
  8
0
 62
     7
 10
101.191
 20
113.98099999999999
 30
0.0
 11
101.783
 21
111.77
 31
0.0
  0
LINE
  5
78
  8
0
 62
     7
 10
101.783
 20
111.77
 30
0.0
 11
102.376
 21
113.98099999999999
 31
0.0
  0
LINE
  5
79
  8
0
 62
     7
 10
102.376
 20
113.98099999999999
 30
0.0
 11
101.191
 21
113.98099999999999
 31
0.0
  0
LINE
  5
7A
  8
0
 62
     7
 10
108.43600000000001
 20
111.77
 30
0.0
 11
108.43600000000001
 21
94.769999999999996
 31
0.0
  0
LINE
  5
7B
  8
0
 62
     7
 10
101.776
 20
115.73099999999999
 30
0.0
 11
101.776
 21
103.80800000000001
 31
0.0
  0
LINE
  5
7C
  8
0
 62
     7
 10
153.41999999999999
 20
176.66999999999999
 30
0.0
 11
161.88200000000001
 21
176.66999999999999
 31
0.0
  0
LINE
  5
7D
  8
0
 62
     7
 10
69.580699999999993
 20
176.66999999999999
 30
0.0
 11
101.776
 21
176.66999999999999
 31
0.0
  0
LINE
  5
7E
  8
0
 62
     7
 10
91.267200000000003
 20
198.17099999999991
 30
0.0
 11
101.776
 21
198.17099999999991
 31
0.0
  0
LINE
  5
7F
  8
0
 62
     7
 10
22.831099999999999
 20
198.16999999999999
 30
0.0
 11
35.909999999999997
 21
198.16999999999999
 31
0.0
  0
LINE
  5
80
  8
0
 62
     7
 10
22.831099999999999
 20
155.66999999999999
 30
0.0
 11
35.909999999999997
 21
155.66999999999999
 31
0.0
  0
LINE
  5
81
  8
0
 62
     7
 10
101.66800000000001
 20
195.959
 30
0.0
 11
101.07599999999999
 21
198.17099999999991
 31
0.0
  0
LINE
  5
82
  8
0
 62
     7
 10
101.07599999999999
 20
198.17099999999991
 30
0.0
 11
100.483
 21
195.959
 31
0.0
  0
LINE
  5
83
  8
0
 62
     7
 10
100.483
 20
195.959
 30
0.0
 11
101.66800000000001
 21
195.959
 31
0.0
  0
LINE
  5
84
  8
0
 62
     7
 10
100.491
 20
178.88099999999989
 30
0.0
 11
101.083
 21
176.66999999999999
 31
0.0
  0
LINE
  5
85
  8
0
 62
     7
 10
101.083
 20
176.66999999999999
 30
0.0
 11
101.676
 21
178.88099999999989
 31
0.0
  0
LINE
  5
86
  8
0
 62
     7
 10
101.676
 20
178.88099999999989
 30
0.0
 11
100.491
 21
178.88099999999989
 31
0.0
  0
LINE
  5
87
  8
0
 62
     7
 10
101.07599999999999
 20
196.62100000000001
 30
0.0
 11
101.07599999999999
 21
176.67099999999999
 31
0.0
  0
LINE
  5
88
  8
0
 62
     7
 10
161.774
 20
174.458
 30
0.0
 11
161.18199999999999
 21
176.66999999999999
 31
0.0
  0
LINE
  5
89
  8
0
 62
     7
 10
161.18199999999999
 20
176.66999999999999
 30
0.0
 11
160.589
 21
174.458
 31
0.0
  0
LINE
  5
8A
  8
0
 62
     7
 10
160.589
 20
174.458
 30
0.0
 11
161.774
 21
174.458
 31
0.0
  0
LINE
  5
8B
  8
0
 62
     7
 10
161.774
 20
194.35900000000001
 30
0.0
 11
161.18199999999999
 21
196.56999999999999
 31
0.0
  0
LINE
  5
8C
  8
0
 62
     7
 10
161.18199999999999
 20
196.56999999999999
 30
0.0
 11
160.589
 21
194.35900000000001
 31
0.0
  0
LINE
  5
8D
  8
0
 62
     7
 10
160.589
 20
194.35900000000001
 30
0.0
 11
161.774
 21
194.35900000000001
 31
0.0
  0
LINE
  5
8E
  8
0
 62
     7
 10
160.589
 20
178.88099999999989
 30
0.0
 11
161.18199999999999
 21
176.66999999999999
 31
0.0
  0
LINE
  5
8F
  8
0
 62
     7
 10
161.18199999999999
 20
176.66999999999999
 30
0.0
 11
161.774
 21
178.88099999999989
 31
0.0
  0
LINE
  5
90
  8
0
 62
     7
 10
161.774
 20
178.88099999999989
 30
0.0
 11
160.589
 21
178.88099999999989
 31
0.0
  0
LINE
  5
91
  8
0
 62
     7
 10
160.59700000000001
 20
159.48099999999999
 30
0.0
 11
161.18899999999999
 21
157.27000000000001
 31
0.0
  0
LINE
  5
92
  8
0
 62
     7
 10
161.18899999999999
 20
157.27000000000001
 30
0.0
 11
161.78200000000001
 21
159.48099999999999
 31
0.0
  0
LINE
  5
93
  8
0
 62
     7
 10
161.78200000000001
 20
159.48099999999999
 30
0.0
 11
160.59700000000001
 21
159.48099999999999
 31
0.0
  0
LINE
  5
94
  8
0
 62
     7
 10
168.09100000000001
 20
106.754
 30
0.0
 11
168.09100000000001
 21
86.293999999999997
 31
0.0
  0
LINE
  5
95
  8
0
 62
     7
 10
146.59100000000001
 20
92.899299999999997
 30
0.0
 11
146.59100000000001
 21
86.293999999999997
 31
0.0
  0
LINE
  5
96
  8
0
 62
     7
 10
161.18199999999999
 20
195.02099999999999
 30
0.0
 11
161.18199999999999
 21
157.27099999999999
 31
0.0
  0
LINE
  5
97
  8
0
 62
     7
 10
111.414
 20
194.35900000000001
 30
0.0
 11
110.822
 21
196.56999999999999
 31
0.0
  0
LINE
  5
98
  8
0
 62
     7
 10
110.822
 20
196.56999999999999
 30
0.0
 11
110.229
 21
194.35900000000001
 31
0.0
  0
LINE
  5
99
  8
0
 62
     7
 10
110.229
 20
194.35900000000001
 30
0.0
 11
111.414
 21
194.35900000000001
 31
0.0
  0
LINE
  5
9A
  8
0
 62
     7
 10
141.952
 20
180.46100000000001
 30
0.0
 11
143.934
 21
179.316
 31
0.0
  0
LINE
  5
9B
  8
0
 62
     7
 10
143.934
 20
179.316
 30
0.0
 11
142.78999999999999
 21
181.29900000000001
 31
0.0
  0
LINE
  5
9C
  8
0
 62
     7
 10
142.78999999999999
 20
181.29900000000001
 30
0.0
 11
141.952
 21
180.46100000000001
 31
0.0
  0
LINE
  5
9D
  8
0
 62
     7
 10
138.536
 20
184.70400000000001
 30
0.0
 11
143.928
 21
179.31099999999989
 31
0.0
  0
LINE
  5
9E
  8
0
 62
     7
 10
110.23699999999999
 20
159.48099999999999
 30
0.0
 11
110.82899999999999
 21
157.27000000000001
 31
0.0
  0
LINE
  5
9F
  8
0
 62
     7
 10
110.82899999999999
 20
157.27000000000001
 30
0.0
 11
111.422
 21
159.48099999999999
 31
0.0
  0
LINE
  5
A0
  8
0
 62
     7
 10
111.422
 20
159.48099999999999
 30
0.0
 11
110.23699999999999
 21
159.48099999999999
 31
0.0
  0
LINE
  5
A1
  8
0
 62
     7
 10
110.822
 20
195.02099999999999
 30
0.0
 11
110.822
 21
157.27099999999999
 31
0.0
  0
LINE
  5
A2
  8
0
 62
     7
 10
110.122
 20
196.56999999999999
 30
0.0
 11
119.87
 21
196.56999999999999
 31
0.0
  0
LINE
  5
A3
  8
0
 62
     7
 10
110.122
 20
157.27000000000001
 30
0.0
 11
119.87
 21
157.27000000000001
 31
0.0
  0
LINE
  5
A4
  8
0
  6
AIGENLINE002
 62
     7
 10
150.34100000000001
 20
99.769599999999997
 30
0.0
 11
150.416
 21
99.771600000000007
 31
0.0
  0
ARC
  5
A5
  8
0
  6
AIGENLINE002
 62
     7
 10
142.83936600000001
 20
101.035285
 30
0.0
 40
1.2657240000000001
 50
266.72411
 51
270.07883600000002
  0
LINE
  5
A6
  8
0
  6
AIGENLINE002
 62
     7
 10
67.630600000000001
 20
99.769599999999997
 30
0.0
 11
67.704800000000006
 21
99.771600000000007
 31
0.0
  0
ARC
  5
A7
  8
0
  6
AIGENLINE002
 62
     7
 10
60.128819
 20
101.04132
 30
0.0
 40
1.2717579999999991
 50
266.731897
 51
270.078463
  0
LINE
  5
A8
  8
0
 62
     7
 10
88.918999999999997
 20
147.3829999999999
 30
0.0
 11
91.130799999999994
 21
146.791
 31
0.0
  0
LINE
  5
A9
  8
0
 62
     7
 10
91.130799999999994
 20
146.791
 30
0.0
 11
88.918999999999997
 21
146.19800000000001
 31
0.0
  0
LINE
  5
AA
  8
0
 62
     7
 10
88.918999999999997
 20
146.19800000000001
 30
0.0
 11
88.918999999999997
 21
147.3829999999999
 31
0.0
  0
LINE
  5
AB
  8
0
 62
     7
 10
38.8416
 20
146.20599999999999
 30
0.0
 11
36.630600000000001
 21
146.79900000000001
 31
0.0
  0
LINE
  5
AC
  8
0
 62
     7
 10
36.630600000000001
 20
146.79900000000001
 30
0.0
 11
38.8416
 21
147.39099999999999
 31
0.0
  0
LINE
  5
AD
  8
0
 62
     7
 10
38.8416
 20
147.39099999999999
 30
0.0
 11
38.8416
 21
146.20599999999999
 31
0.0
  0
LINE
  5
AE
  8
0
 62
     7
 10
89.581100000000006
 20
146.791
 30
0.0
 11
36.6312
 21
146.791
 31
0.0
  0
LINE
  5
AF
  8
0
 62
     7
 10
92.668999999999997
 20
141.065
 30
0.0
 11
94.880799999999994
 21
140.4729999999999
 31
0.0
  0
LINE
  5
B0
  8
0
 62
     7
 10
94.880799999999994
 20
140.4729999999999
 30
0.0
 11
92.668999999999997
 21
139.88
 31
0.0
  0
LINE
  5
B1
  8
0
 62
     7
 10
92.668999999999997
 20
139.88
 30
0.0
 11
92.668999999999997
 21
141.065
 31
0.0
  0
LINE
  5
B2
  8
0
 62
     7
 10
35.0916
 20
139.88800000000001
 30
0.0
 11
32.880499999999998
 21
140.47999999999999
 31
0.0
  0
LINE
  5
B3
  8
0
 62
     7
 10
32.880499999999998
 20
140.47999999999999
 30
0.0
 11
35.0916
 21
141.07300000000001
 31
0.0
  0
LINE
  5
B4
  8
0
 62
     7
 10
35.0916
 20
141.07300000000001
 30
0.0
 11
35.0916
 21
139.88800000000001
 31
0.0
  0
LINE
  5
B5
  8
0
 62
     7
 10
93.331199999999995
 20
140.4729999999999
 30
0.0
 11
32.8812
 21
140.4729999999999
 31
0.0
  0
LINE
  5
B6
  8
0
 62
     7
 10
165.87899999999999
 20
87.578999999999994
 30
0.0
 11
168.09100000000001
 21
86.986500000000007
 31
0.0
  0
LINE
  5
B7
  8
0
 62
     7
 10
168.09100000000001
 20
86.986500000000007
 30
0.0
 11
165.87899999999999
 21
86.393900000000002
 31
0.0
  0
LINE
  5
B8
  8
0
 62
     7
 10
165.87899999999999
 20
86.393900000000002
 30
0.0
 11
165.87899999999999
 21
87.578999999999994
 31
0.0
  0
LINE
  5
B9
  8
0
 62
     7
 10
148.80199999999999
 20
86.401499999999999
 30
0.0
 11
146.59100000000001
 21
86.994
 31
0.0
  0
LINE
  5
BA
  8
0
 62
     7
 10
146.59100000000001
 20
86.994
 30
0.0
 11
148.80199999999999
 21
87.586600000000004
 31
0.0
  0
LINE
  5
BB
  8
0
 62
     7
 10
148.80199999999999
 20
87.586600000000004
 30
0.0
 11
148.80199999999999
 21
86.401499999999999
 31
0.0
  0
LINE
  5
BC
  8
0
 62
     7
 10
166.541
 20
86.986500000000007
 30
0.0
 11
146.59200000000001
 21
86.986500000000007
 31
0.0
  0
LINE
  5
BD
  8
0
 62
     7
 10
174.029
 20
148.59299999999999
 30
0.0
 11
176.24100000000001
 21
148.001
 31
0.0
  0
LINE
  5
BE
  8
0
 62
     7
 10
176.24100000000001
 20
148.001
 30
0.0
 11
174.029
 21
147.40799999999999
 31
0.0
  0
LINE
  5
BF
  8
0
 62
     7
 10
174.029
 20
147.40799999999999
 30
0.0
 11
174.029
 21
148.59299999999999
 31
0.0
  0
LINE
  5
C0
  8
0
 62
     7
 10
119.152
 20
147.416
 30
0.0
 11
116.941
 21
148.00800000000001
 31
0.0
  0
LINE
  5
C1
  8
0
 62
     7
 10
116.941
 20
148.00800000000001
 30
0.0
 11
119.152
 21
148.601
 31
0.0
  0
LINE
  5
C2
  8
0
 62
     7
 10
119.152
 20
148.601
 30
0.0
 11
119.152
 21
147.416
 31
0.0
  0
LINE
  5
C3
  8
0
 62
     7
 10
174.69200000000001
 20
148.001
 30
0.0
 11
116.94199999999999
 21
148.001
 31
0.0
  0
LINE
  5
C4
  8
0
 62
     7
 10
91.130799999999994
 20
146.09800000000001
 30
0.0
 11
91.130799999999994
 21
160.697
 31
0.0
  0
LINE
  5
C5
  8
0
 62
     7
 10
94.880799999999994
 20
139.78
 30
0.0
 11
94.880799999999994
 21
158.572
 31
0.0
  0
LINE
  5
C6
  8
0
 62
     7
 10
36.630600000000001
 20
146.09800000000001
 30
0.0
 11
36.630600000000001
 21
160.697
 31
0.0
  0
LINE
  5
C7
  8
0
 62
     7
 10
32.880499999999998
 20
139.78
 30
0.0
 11
32.880499999999998
 21
158.572
 31
0.0
  0
LINE
  5
C8
  8
0
 62
     7
 10
176.24100000000001
 20
147.30000000000001
 30
0.0
 11
176.24100000000001
 21
159.81899999999999
 31
0.0
  0
LINE
  5
C9
  8
0
 62
     7
 10
116.941
 20
147.30000000000001
 30
0.0
 11
116.941
 21
159.81899999999999
 31
0.0
  0
ARC
  5
CA
  8
0
 62
     7
 10
37.158421000000011
 20
95.645088999999984
 30
0.0
 40
0.9747610000000001
 50
21.346914000000002
 51
42.237613999999994
  0
LINE
  5
CB
  8
0
 62
     7
 10
38.066299999999998
 20
95.999899999999997
 30
0.0
 11
38.157299999999999
 21
95.043599999999998
 31
0.0
  0
ARC
  5
CC
  8
0
 62
     7
 10
38.468221999999997
 20
95.083257999999987
 30
0.0
 40
0.31349
 50
187.276735
 51
267.75628899999998
  0
LINE
  5
CD
  8
0
 62
     7
 10
38.4559
 20
94.769999999999996
 30
0.0
 11
63.880600000000001
 21
94.769999999999996
 31
0.0
  0
ARC
  5
CE
  8
0
 62
     7
 10
90.594902000000005
 20
95.649116000000006
 30
0.0
 40
0.9660139999999998
 50
137.61379400000001
 51
158.706749
  0
LINE
  5
CF
  8
0
 62
     7
 10
89.694800000000001
 20
95.999899999999997
 30
0.0
 11
89.603899999999996
 21
95.043599999999998
 31
0.0
  0
ARC
  5
D0
  8
0
 62
     7
 10
89.293346
 20
95.082789999999989
 30
0.0
 40
0.313006
 50
272.168678
 51
352.79833800000011
  0
LINE
  5
D1
  8
0
 62
     7
 10
89.305199999999985
 20
94.769999999999996
 30
0.0
 11
63.880600000000001
 21
94.769999999999996
 31
0.0
  0
ARC
  5
D2
  8
0
 62
     7
 10
130.12509700000001
 20
95.647497000000001
 30
0.0
 40
0.9684149999999998
 50
21.340644000000001
 51
42.386181000000001
  0
LINE
  5
D3
  8
0
 62
     7
 10
131.02699999999999
 20
95.999899999999997
 30
0.0
 11
131.11799999999999
 21
95.043599999999998
 31
0.0
  0
ARC
  5
D4
  8
0
 62
     7
 10
131.42859899999999
 20
95.082789999999989
 30
0.0
 40
0.313006
 50
187.20168200000001
 51
267.83134200000001
  0
LINE
  5
D5
  8
0
 62
     7
 10
131.417
 20
94.769999999999996
 30
0.0
 11
146.59100000000001
 21
94.769999999999996
 31
0.0
  0
ARC
  5
D6
  8
0
 62
     7
 10
137.999571
 20
103.45178199999999
 30
0.0
 40
10.118663
 50
180.28137100000001
 51
224.971813
  0
LINE
  5
D7
  8
0
 62
     7
 10
127.776
 20
107.76900000000001
 30
0.0
 11
127.881
 21
103.402
 31
0.0
  0
ARC
  5
D8
  8
0
 62
     7
 10
45.041316000000002
 20
103.45259900000001
 30
0.0
 40
10.121045000000001
 50
180.285933
 51
224.96488299999999
  0
LINE
  5
D9
  8
0
 62
     7
 10
34.8157
 20
107.76900000000001
 30
0.0
 11
34.920400000000001
 21
103.402
 31
0.0
  0
ARC
  5
DA
  8
0
 62
     7
 10
82.721959999999996
 20
103.45178
 30
0.0
 40
10.119076
 50
315.03055699999999
 51
359.7186670000001
  0
LINE
  5
DB
  8
0
 62
     7
 10
92.945499999999996
 20
107.76900000000001
 30
0.0
 11
92.840900000000005
 21
103.402
 31
0.0
  0
ARC
  5
DC
  8
0
 62
     7
 10
155.682076
 20
103.451776
 30
0.0
 40
10.119482
 50
315.03288800000001
 51
359.71870400000012
  0
ARC
  5
DD
  8
0
  6
AIGENLINE002
 62
     7
 10
160.03850199999999
 20
101.75744
 30
0.0
 40
1.0262919999999991
 50
273.88486799999998
 51
344.29962499999999
  0
LINE
  5
DE
  8
0
  6
AIGENLINE002
 62
     7
 10
150.416
 20
99.771600000000007
 30
0.0
 11
160.108
 21
100.73399999999999
 31
0.0
  0
LINE
  5
DF
  8
0
  6
AIGENLINE002
 62
     7
 10
148.89099999999999
 20
98.769800000000004
 30
0.0
 11
148.89099999999999
 21
94.769999999999996
 31
0.0
  0
ARC
  5
E0
  8
0
 62
     7
 10
167.57190299999999
 20
108.289688
 30
0.0
 40
0.519887
 50
272.12435900000003
 51
357.79667699999999
  0
ARC
  5
E1
  8
0
 62
     7
 10
167.60823300000001
 20
108.269809
 30
0.0
 40
0.4831720000000001
 50
359.987101
 51
3.7482559999999991
  0
ARC
  5
E2
  8
0
 62
     7
 10
167.387124
 20
111.252014
 30
0.0
 40
0.5181930000000001
 50
5.4692559999999988
 51
88.160223999999985
  0
LINE
  5
E3
  8
0
 62
     7
 10
167.90299999999999
 20
111.301
 30
0.0
 11
168.09
 21
108.301
 31
0.0
  0
LINE
  5
E4
  8
0
  6
AIGENLINE002
 62
     7
 10
161.02699999999999
 20
101.48
 30
0.0
 11
163.84200000000001
 21
111.77
 31
0.0
  0
LINE
  5
E5
  8
0
  6
AIGENLINE002
 62
     7
 10
146.59100000000001
 20
99.769599999999997
 30
0.0
 11
150.34100000000001
 21
99.769599999999997
 31
0.0
  0
LINE
  5
E6
  8
0
  6
AIGENLINE002
 62
     7
 10
148.89099999999999
 20
98.769800000000004
 30
0.0
 11
150.34100000000001
 21
99.769599999999997
 31
0.0
  0
LINE
  5
E7
  8
0
  6
AIGENLINE002
 62
     7
 10
146.59100000000001
 20
98.769800000000004
 30
0.0
 11
148.89099999999999
 21
98.769800000000004
 31
0.0
  0
LINE
  5
E8
  8
0
 62
     7
 10
146.59100000000001
 20
96.300299999999993
 30
0.0
 11
162.84200000000001
 21
96.300299999999993
 31
0.0
  0
LINE
  5
E9
  8
0
 62
     7
 10
165.90600000000001
 20
107.76900000000001
 30
0.0
 11
165.80099999999999
 21
103.402
 31
0.0
  0
ARC
  5
EA
  8
0
 62
     7
 10
163.55348499999999
 20
95.650726999999989
 30
0.0
 40
0.9636239999999999
 50
137.61379099999999
 51
158.75418500000001
  0
LINE
  5
EB
  8
0
 62
     7
 10
162.655
 20
95.999899999999997
 30
0.0
 11
162.56399999999999
 21
95.043599999999998
 31
0.0
  0
ARC
  5
EC
  8
0
 62
     7
 10
162.25386800000001
 20
95.082789999999989
 30
0.0
 40
0.313006
 50
272.168678
 51
352.79833800000011
  0
LINE
  5
ED
  8
0
 62
     7
 10
162.26599999999999
 20
94.769999999999996
 30
0.0
 11
146.59100000000001
 21
94.769999999999996
 31
0.0
  0
LINE
  5
EE
  8
0
 62
     7
 10
167.59100000000001
 20
107.77
 30
0.0
 11
146.59100000000001
 21
107.77
 31
0.0
  0
LINE
  5
EF
  8
0
 62
     7
 10
146.59100000000001
 20
111.77
 30
0.0
 11
167.404
 21
111.77
 31
0.0
  0
ARC
  5
F0
  8
0
  6
AIGENLINE002
 62
     7
 10
133.64396400000001
 20
101.75744
 30
0.0
 40
1.0262919999999991
 50
195.70039499999999
 51
266.11515200000008
  0
LINE
  5
F1
  8
0
  6
AIGENLINE002
 62
     7
 10
142.767
 20
99.771600000000007
 30
0.0
 11
133.57400000000001
 21
100.73399999999999
 31
0.0
  0
LINE
  5
F2
  8
0
  6
AIGENLINE002
 62
     7
 10
144.291
 20
98.769800000000004
 30
0.0
 11
144.291
 21
94.769999999999996
 31
0.0
  0
ARC
  5
F3
  8
0
 62
     7
 10
126.110572
 20
108.289338
 30
0.0
 40
0.5195380000000001
 50
182.166279
 51
267.87325099999998
  0
ARC
  5
F4
  8
0
 62
     7
 10
126.24400300000001
 20
108.271368
 30
0.0
 40
0.652599
 50
177.362796
 51
180.14647600000001
  0
ARC
  5
F5
  8
0
 62
     7
 10
126.295343
 20
111.252014
 30
0.0
 40
0.5181930000000001
 50
91.839756000000008
 51
174.53072399999999
  0
LINE
  5
F6
  8
0
 62
     7
 10
125.78
 20
111.301
 30
0.0
 11
125.592
 21
108.301
 31
0.0
  0
LINE
  5
F7
  8
0
  6
AIGENLINE002
 62
     7
 10
132.65600000000001
 20
101.48
 30
0.0
 11
129.84100000000001
 21
111.77
 31
0.0
  0
LINE
  5
F8
  8
0
  6
AIGENLINE002
 62
     7
 10
146.59100000000001
 20
99.769599999999997
 30
0.0
 11
142.84100000000001
 21
99.769599999999997
 31
0.0
  0
LINE
  5
F9
  8
0
  6
AIGENLINE002
 62
     7
 10
144.291
 20
98.769800000000004
 30
0.0
 11
142.84100000000001
 21
99.769599999999997
 31
0.0
  0
LINE
  5
FA
  8
0
  6
AIGENLINE002
 62
     7
 10
146.59100000000001
 20
98.769800000000004
 30
0.0
 11
144.291
 21
98.769800000000004
 31
0.0
  0
LINE
  5
FB
  8
0
 62
     7
 10
146.59100000000001
 20
96.300299999999993
 30
0.0
 11
130.84100000000001
 21
96.300299999999993
 31
0.0
  0
LINE
  5
FC
  8
0
 62
     7
 10
126.09099999999999
 20
107.77
 30
0.0
 11
146.59100000000001
 21
107.77
 31
0.0
  0
LINE
  5
FD
  8
0
 62
     7
 10
146.59100000000001
 20
111.77
 30
0.0
 11
126.279
 21
111.77
 31
0.0
  0
LINE
  5
FE
  8
0
  6
AIGENLINE001
 62
     7
 10
146.59100000000001
 20
112.59999999999999
 30
0.0
 11
146.59100000000001
 21
93.599399999999989
 31
0.0
  0
ARC
  5
FF
  8
0
  6
AIGENLINE002
 62
     7
 10
87.077840000000009
 20
101.757402
 30
0.0
 40
1.0262519999999991
 50
273.88328999999999
 51
344.30120299999999
  0
LINE
  5
100
  8
0
  6
AIGENLINE002
 62
     7
 10
67.704800000000006
 20
99.771600000000007
 30
0.0
 11
87.147300000000016
 21
100.73399999999999
 31
0.0
  0
LINE
  5
101
  8
0
  6
AIGENLINE002
 62
     7
 10
66.180499999999995
 20
98.769800000000004
 30
0.0
 11
66.180499999999995
 21
94.769999999999996
 31
0.0
  0
ARC
  5
102
  8
0
 62
     7
 10
94.361423999999985
 20
108.289523
 30
0.0
 40
0.5197230000000001
 50
272.12665500000003
 51
357.81411400000002
  0
ARC
  5
103
  8
0
 62
     7
 10
94.39759699999999
 20
108.269809
 30
0.0
 40
0.4831720000000001
 50
359.987101
 51
3.7482559999999991
  0
ARC
  5
104
  8
0
 62
     7
 10
94.17649200000001
 20
111.252025
 30
0.0
 40
0.518187
 50
5.4680269999999993
 51
88.141718999999995
  0
LINE
  5
105
  8
0
 62
     7
 10
94.692300000000003
 20
111.301
 30
0.0
 11
94.8797
 21
108.301
 31
0.0
  0
LINE
  5
106
  8
0
  6
AIGENLINE002
 62
     7
 10
88.065799999999996
 20
101.48
 30
0.0
 11
90.880799999999994
 21
111.77
 31
0.0
  0
LINE
  5
107
  8
0
  6
AIGENLINE002
 62
     7
 10
63.880600000000001
 20
99.769599999999997
 30
0.0
 11
67.630600000000001
 21
99.769599999999997
 31
0.0
  0
LINE
  5
108
  8
0
  6
AIGENLINE002
 62
     7
 10
66.180499999999995
 20
98.769800000000004
 30
0.0
 11
67.630600000000001
 21
99.769599999999997
 31
0.0
  0
LINE
  5
109
  8
0
  6
AIGENLINE002
 62
     7
 10
63.880600000000001
 20
98.769800000000004
 30
0.0
 11
66.180499999999995
 21
98.769800000000004
 31
0.0
  0
LINE
  5
10A
  8
0
 62
     7
 10
63.880600000000001
 20
96.300299999999993
 30
0.0
 11
89.881000000000014
 21
96.300299999999993
 31
0.0
  0
LINE
  5
10B
  8
0
 62
     7
 10
94.380700000000004
 20
107.77
 30
0.0
 11
63.880600000000001
 21
107.77
 31
0.0
  0
LINE
  5
10C
  8
0
 62
     7
 10
63.880600000000001
 20
111.77
 30
0.0
 11
94.193299999999994
 21
111.77
 31
0.0
  0
ARC
  5
10D
  8
0
  6
AIGENLINE002
 62
     7
 10
40.683300000000003
 20
101.757402
 30
0.0
 40
1.0262519999999991
 50
195.69881699999991
 51
266.11673000000002
  0
LINE
  5
10E
  8
0
  6
AIGENLINE002
 62
     7
 10
60.0563
 20
99.771600000000007
 30
0.0
 11
40.613799999999991
 21
100.73399999999999
 31
0.0
  0
LINE
  5
10F
  8
0
  6
AIGENLINE002
 62
     7
 10
61.58059999999999
 20
98.769800000000004
 30
0.0
 11
61.58059999999999
 21
94.769999999999996
 31
0.0
  0
ARC
  5
110
  8
0
  6
AIGENLINE002
 62
     7
 10
63.880656000000002
 20
107.770245
 30
0.0
 40
1.2499750000000001
 50
269.99607200000003
 51
359.99604199999999
  0
ARC
  5
111
  8
0
  6
AIGENLINE002
 62
     7
 10
63.880569999999992
 20
107.770158
 30
0.0
 40
1.249887999999999
 50
179.99996999999999
 51
270.00002000000001
  0
ARC
  5
112
  8
0
  6
AIGENLINE002
 62
     7
 10
63.880569999999992
 20
107.770158
 30
0.0
 40
1.249889
 50
90.0
 51
179.99996999999999
  0
ARC
  5
113
  8
0
  6
AIGENLINE002
 62
     7
 10
63.880656000000002
 20
107.770072
 30
0.0
 40
1.2499750000000001
 50
0.003958
 51
90.003928000000016
  0
ARC
  5
114
  8
0
 62
     7
 10
33.399721
 20
108.289349
 30
0.0
 40
0.519549
 50
182.167372
 51
267.87215900000001
  0
ARC
  5
115
  8
0
 62
     7
 10
33.435740000000003
 20
108.270473
 30
0.0
 40
0.5551970000000001
 50
176.80713700000001
 51
180.07972799999999
  0
ARC
  5
116
  8
0
 62
     7
 10
33.58465300000001
 20
111.252014
 30
0.0
 40
0.5181930000000001
 50
91.839756000000008
 51
174.53072399999999
  0
LINE
  5
117
  8
0
 62
     7
 10
33.068800000000003
 20
111.301
 30
0.0
 11
32.881399999999999
 21
108.301
 31
0.0
  0
LINE
  5
118
  8
0
  6
AIGENLINE002
 62
     7
 10
39.69530000000001
 20
101.48
 30
0.0
 11
36.880499999999998
 21
111.77
 31
0.0
  0
LINE
  5
119
  8
0
  6
AIGENLINE002
 62
     7
 10
63.880600000000001
 20
99.769599999999997
 30
0.0
 11
60.130600000000001
 21
99.769599999999997
 31
0.0
  0
LINE
  5
11A
  8
0
  6
AIGENLINE002
 62
     7
 10
61.58059999999999
 20
98.769800000000004
 30
0.0
 11
60.130600000000001
 21
99.769599999999997
 31
0.0
  0
LINE
  5
11B
  8
0
  6
AIGENLINE002
 62
     7
 10
63.880600000000001
 20
98.769800000000004
 30
0.0
 11
61.58059999999999
 21
98.769800000000004
 31
0.0
  0
LINE
  5
11C
  8
0
 62
     7
 10
63.880600000000001
 20
96.300299999999993
 30
0.0
 11
37.880299999999998
 21
96.300299999999993
 31
0.0
  0
LINE
  5
11D
  8
0
 62
     7
 10
33.380400000000002
 20
107.77
 30
0.0
 11
63.880600000000001
 21
107.77
 31
0.0
  0
LINE
  5
11E
  8
0
 62
     7
 10
63.880600000000001
 20
111.77
 30
0.0
 11
33.568000000000012
 21
111.77
 31
0.0
  0
ARC
  5
11F
  8
0
 62
     7
 10
65.067689000000001
 20
159.92087900000001
 30
0.0
 40
0.062947
 50
310.13580000000002
 51
359.29455899999999
  0
ARC
  5
120
  8
0
 62
     7
 10
64.970231000000013
 20
160.01049
 30
0.0
 40
0.194998
 50
300.69676500000003
 51
315.06209000000001
  0
ARC
  5
121
  8
0
 62
     7
 10
64.83386999999999
 20
160.236963
 30
0.0
 40
0.4593520000000001
 50
291.29617300000001
 51
300.90145100000001
  0
ARC
  5
122
  8
0
 62
     7
 10
64.630130000000008
 20
160.750281
 30
0.0
 40
1.0116199999999991
 50
284.95662299999998
 51
291.48852199999999
  0
ARC
  5
123
  8
0
 62
     7
 10
64.380052000000006
 20
161.67033900000001
 30
0.0
 40
1.9650540000000001
 50
280.32133800000003
 51
285.07763999999997
  0
ARC
  5
124
  8
0
 62
     7
 10
64.066357999999994
 20
163.39957000000001
 30
0.0
 40
3.7225089999999992
 50
273.31336299999998
 51
280.30278199999998
  0
ARC
  5
125
  8
0
 62
     7
 10
63.887619999999991
 20
165.58573999999999
 30
0.0
 40
5.9155829999999989
 50
269.93172800000002
 51
273.81784800000008
  0
ARC
  5
126
  8
0
 62
     7
 10
63.880206000000001
 20
165.369878
 30
0.0
 40
5.6997169999999988
 50
262.70958400000001
 51
270.0036740000001
  0
ARC
  5
127
  8
0
 62
     7
 10
63.463118000000009
 20
161.98264699999999
 30
0.0
 40
2.2869989999999998
 50
253.44526999999999
 51
262.30573299999998
  0
ARC
  5
128
  8
0
 62
     7
 10
63.019365000000001
 20
160.44266499999989
 30
0.0
 40
0.684545
 50
243.80787000000009
 51
252.32105899999999
  0
ARC
  5
129
  8
0
 62
     7
 10
62.835485999999989
 20
160.072215
 30
0.0
 40
0.270976
 50
230.333202
 51
244.12231199999999
  0
ARC
  5
12A
  8
0
 62
     7
 10
62.715837999999998
 20
159.93115299999999
 30
0.0
 40
0.086041
 50
187.37775899999991
 51
231.70424800000001
  0
ARC
  5
12B
  8
0
 62
     7
 10
62.693328000000001
 20
159.919332
 30
0.0
 40
0.062824
 50
130.083732
 51
179.29622800000001
  0
ARC
  5
12C
  8
0
 62
     7
 10
62.79054399999999
 20
159.830074
 30
0.0
 40
0.194449
 50
120.66735799999999
 51
135.071485
  0
ARC
  5
12D
  8
0
 62
     7
 10
62.927841000000001
 20
159.601878
 30
0.0
 40
0.4607630000000001
 50
111.303988
 51
120.87919100000001
  0
ARC
  5
12E
  8
0
 62
     7
 10
63.131009999999989
 20
159.08985200000001
 30
0.0
 40
1.0116199999999991
 50
104.956603
 51
111.488502
  0
ARC
  5
12F
  8
0
 62
     7
 10
63.382505000000002
 20
158.16408699999999
 30
0.0
 40
1.970933
 50
100.332071
 51
105.074248
  0
ARC
  5
130
  8
0
 62
     7
 10
63.694215999999997
 20
156.44902999999999
 30
0.0
 40
3.7140870000000001
 50
93.312107999999995
 51
100.317493
  0
ARC
  5
131
  8
0
 62
     7
 10
63.87390899999999
 20
154.247433
 30
0.0
 40
5.922617999999999
 50
89.935552999999999
 51
93.817057999999975
  0
ARC
  5
132
  8
0
 62
     7
 10
63.880943000000002
 20
154.47706299999999
 30
0.0
 40
5.692984
 50
82.700982999999994
 51
90.003745999999978
  0
ARC
  5
133
  8
0
 62
     7
 10
64.297530000000009
 20
157.855852
 30
0.0
 40
2.2887049999999989
 50
73.445090000000008
 51
82.299047000000002
  0
ARC
  5
134
  8
0
 62
     7
 10
64.741775000000004
 20
159.397468
 30
0.0
 40
0.684545
 50
63.807849999999988
 51
72.321039999999996
  0
ARC
  5
135
  8
0
 62
     7
 10
64.925717000000006
 20
159.76788999999999
 30
0.0
 40
0.270974
 50
50.350320000000011
 51
64.137050000000002
  0
ARC
  5
136
  8
0
 62
     7
 10
65.045365000000004
 20
159.90902700000001
 30
0.0
 40
0.085982
 50
7.4019969999999988
 51
51.726852999999998
  0
LINE
  5
137
  8
0
 62
     7
 10
176.24100000000001
 20
163.27000000000001
 30
0.0
 11
176.24100000000001
 21
190.56999999999999
 31
0.0
  0
LINE
  5
138
  8
0
 62
     7
 10
170.24100000000001
 20
157.27000000000001
 30
0.0
 11
146.59100000000001
 21
157.27000000000001
 31
0.0
  0
ARC
  5
139
  8
0
 62
     7
 10
170.24115800000001
 20
163.27013700000001
 30
0.0
 40
6.0000169999999988
 50
270.00002000000001
 51
359.99999000000003
  0
LINE
  5
13A
  8
0
 62
     7
 10
170.24100000000001
 20
196.56999999999999
 30
0.0
 11
146.59100000000001
 21
196.56999999999999
 31
0.0
  0
ARC
  5
13B
  8
0
 62
     7
 10
170.24107100000001
 20
190.57036400000001
 30
0.0
 40
6.0001030000000002
 50
359.99918700000001
 51
89.999157999999994
  0
LINE
  5
13C
  8
0
 62
     7
 10
116.941
 20
163.27000000000001
 30
0.0
 11
116.941
 21
190.56999999999999
 31
0.0
  0
LINE
  5
13D
  8
0
 62
     7
 10
122.941
 20
157.27000000000001
 30
0.0
 11
146.59100000000001
 21
157.27000000000001
 31
0.0
  0
ARC
  5
13E
  8
0
 62
     7
 10
122.941076
 20
163.27013500000001
 30
0.0
 40
6.0000150000000003
 50
179.99996999999999
 51
270.00002000000001
  0
LINE
  5
13F
  8
0
 62
     7
 10
122.941
 20
196.56999999999999
 30
0.0
 11
146.59100000000001
 21
196.56999999999999
 31
0.0
  0
ARC
  5
140
  8
0
 62
     7
 10
122.941164
 20
190.57036400000001
 30
0.0
 40
6.0001030000000002
 50
90.000821999999985
 51
180.000832
  0
LINE
  5
141
  8
0
  6
AIGENLINE001
 62
     7
 10
140.99100000000001
 20
176.66999999999999
 30
0.0
 11
152.38499999999999
 21
176.66999999999999
 31
0.0
  0
LINE
  5
142
  8
0
  6
AIGENLINE001
 62
     7
 10
146.59100000000001
 20
198.988
 30
0.0
 11
146.59100000000001
 21
153.68799999999999
 31
0.0
  0
LINE
  5
143
  8
0
  6
AIGENLINE001
 62
     7
 10
58.880499999999991
 20
176.66999999999999
 30
0.0
 11
68.880600000000001
 21
176.66999999999999
 31
0.0
  0
LINE
  5
144
  8
0
  6
AIGENLINE001
 62
     7
 10
63.880600000000001
 20
199.58799999999999
 30
0.0
 11
63.880600000000001
 21
153.58799999999999
 31
0.0
  0
ARC
  5
145
  8
0
  6
AIGENLINE002
 62
     7
 10
146.591117
 20
176.670264
 30
0.0
 40
3.7500110000000002
 50
0.00001
 51
89.999980000000008
  0
ARC
  5
146
  8
0
  6
AIGENLINE002
 62
     7
 10
146.59111799999999
 20
176.670264
 30
0.0
 40
3.7500110000000002
 50
90.0
 51
179.99996999999999
  0
ARC
  5
147
  8
0
  6
AIGENLINE002
 62
     7
 10
146.591117
 20
176.670264
 30
0.0
 40
3.750008999999999
 50
179.99996999999999
 51
270.00002000000001
  0
ARC
  5
148
  8
0
  6
AIGENLINE002
 62
     7
 10
146.591117
 20
176.670265
 30
0.0
 40
3.7500110000000002
 50
270.00002000000001
 51
359.99999000000003
  0
ARC
  5
149
  8
0
  6
AIGENLINE002
 62
     7
 10
146.59103099999999
 20
176.67035000000001
 30
0.0
 40
2.3000470000000002
 50
359.99786399999999
 51
89.997834999999995
  0
ARC
  5
14A
  8
0
  6
AIGENLINE002
 62
     7
 10
146.591204
 20
176.67035000000001
 30
0.0
 40
2.3000470000000002
 50
90.002145999999996
 51
180.00215499999999
  0
ARC
  5
14B
  8
0
  6
AIGENLINE002
 62
     7
 10
146.591117
 20
176.670264
 30
0.0
 40
2.29996
 50
179.99996999999999
 51
270.00002000000001
  0
ARC
  5
14C
  8
0
  6
AIGENLINE002
 62
     7
 10
146.591117
 20
176.670265
 30
0.0
 40
2.2999610000000001
 50
270.00002000000001
 51
359.99999000000003
  0
ARC
  5
14D
  8
0
 62
     7
 10
63.880482999999998
 20
176.670177
 30
0.0
 40
3.7500969999999998
 50
0.001326
 51
90.001295999999996
  0
ARC
  5
14E
  8
0
 62
     7
 10
63.880485
 20
176.67035000000001
 30
0.0
 40
3.7499250000000002
 50
90.001315999999989
 51
180.00132600000001
  0
ARC
  5
14F
  8
0
 62
     7
 10
63.880482999999998
 20
176.670177
 30
0.0
 40
3.7499229999999999
 50
179.99865399999999
 51
269.99870399999998
  0
ARC
  5
150
  8
0
 62
     7
 10
63.880482999999998
 20
176.67035100000001
 30
0.0
 40
3.7500969999999998
 50
269.99870399999998
 51
359.99867399999999
  0
ARC
  5
151
  8
0
 62
     7
 10
63.880483999999988
 20
176.67017799999999
 30
0.0
 40
2.3002189999999989
 50
0.002155
 51
90.002125000000007
  0
ARC
  5
152
  8
0
 62
     7
 10
63.880571000000003
 20
176.670436
 30
0.0
 40
2.2999610000000001
 50
90.004291000000009
 51
180.00430099999991
  0
ARC
  5
153
  8
0
 62
     7
 10
63.880483999999988
 20
176.67017799999999
 30
0.0
 40
2.2998739999999991
 50
179.99782500000001
 51
269.99787400000002
  0
ARC
  5
154
  8
0
 62
     7
 10
63.880569999999992
 20
176.67043699999999
 30
0.0
 40
2.3001330000000002
 50
269.99572899999998
 51
359.995699
  0
LINE
  5
155
  8
0
  6
AIGENLINE001
 62
     7
 10
63.880600000000001
 20
112.59999999999999
 30
0.0
 11
63.880600000000001
 21
93.599399999999989
 31
0.0
  0
TEXT
  5
156
  8
_________2
 62
     7
 10
135.18663749999999
 20
9.1082000000000001
 30
0.0
 40
3.9357000000000002
  1
VB416760R
 41
0.5
 72
     1
 11
143.55000000000001
 21
9.1082000000000001
 31
0.0
  0
TEXT
  5
157
  8
_________2
 62
     7
 10
135.18663749999999
 20
-0.8926299999999999
 30
0.0
 40
3.9357000000000002
  1
VB416760R
 41
0.5
 72
     1
 11
143.55000000000001
 21
-0.8926299999999999
 31
0.0
  0
TEXT
  5
158
  8
_________2
 62
     7
 10
24.586600000000001
 20
0.707627
 30
0.0
 40
3.9357000000000002
  1
実容量：10.0L、重量：19.0kg、オーバーフロー付
 41
0.5
  0
LINE
  5
159
  8
_________2
 62
     7
 10
205.30099999999999
 20
127.411
 30
0.0
 11
183.55099999999999
 21
127.411
 31
0.0
  0
LINE
  5
15A
  8
_________2
 62
     7
 10
100.3
 20
-4.0910799999999998
 30
0.0
 11
100.3
 21
-21.071000000000002
 31
0.0
  0
LINE
  5
15B
  8
_________2
 62
     7
 10
100.3
 20
275.93099999999998
 30
0.0
 11
100.3
 21
258.911
 31
0.0
  0
LINE
  5
15C
  8
_________2
 62
     7
 10
17.049399999999999
 20
127.411
 30
0.0
 11
-4.7010300000000003
 21
127.411
 31
0.0
  0
LINE
  5
15D
  8
_________2
 62
     7
 10
76.740799999999993
 20
29.8047
 30
0.0
 11
74.554599999999994
 21
29.8047
 31
0.0
  0
LINE
  5
15E
  8
_________2
 62
     7
 10
77.233500000000006
 20
29.8047
 30
0.0
 11
76.981300000000005
 21
29.8047
 31
0.0
  0
LINE
  5
15F
  8
_________2
 62
     7
 10
77.726200000000006
 20
29.8047
 30
0.0
 11
80.6511
 21
29.8047
 31
0.0
  0
LINE
  5
160
  8
_________2
 62
     7
 10
77.233500000000006
 20
29.8047
 30
0.0
 11
77.485699999999994
 21
29.8047
 31
0.0
  0
LINE
  5
161
  8
_________2
 62
     7
 10
70.837299999999999
 20
29.8047
 30
0.0
 11
68.650300000000001
 21
29.8047
 31
0.0
  0
LINE
  5
162
  8
_________2
 62
     7
 10
71.329300000000003
 20
29.8047
 30
0.0
 11
71.077799999999996
 21
29.8047
 31
0.0
  0
LINE
  5
163
  8
_________2
 62
     7
 10
71.329300000000003
 20
30.2974
 30
0.0
 11
71.329300000000003
 21
32.484400000000001
 31
0.0
  0
LINE
  5
164
  8
_________2
 62
     7
 10
71.329300000000003
 20
29.8047
 30
0.0
 11
71.329300000000003
 21
30.057300000000001
 31
0.0
  0
LINE
  5
165
  8
_________2
 62
     7
 10
71.821899999999999
 20
29.8047
 30
0.0
 11
74.008899999999997
 21
29.8047
 31
0.0
  0
LINE
  5
166
  8
_________2
 62
     7
 10
71.329300000000003
 20
29.8047
 30
0.0
 11
71.581400000000002
 21
29.8047
 31
0.0
  0
LINE
  5
167
  8
_________2
 62
     7
 10
71.329300000000003
 20
29.312799999999999
 30
0.0
 11
71.329300000000003
 21
27.126200000000001
 31
0.0
  0
LINE
  5
168
  8
_________2
 62
     7
 10
71.329300000000003
 20
29.8047
 30
0.0
 11
71.329300000000003
 21
29.5532
 31
0.0
  0
LINE
  5
169
  8
_________2
 62
     7
 10
75.040300000000002
 20
28.5852
 30
0.0
 11
80.218299999999985
 21
27.720400000000001
 31
0.0
  0
LINE
  5
16A
  8
_________2
 62
     7
 10
75.040300000000002
 20
31.024699999999999
 30
0.0
 11
80.218299999999985
 21
31.8901
 31
0.0
  0
LINE
  5
16B
  8
_________2
 62
     7
 10
80.218299999999985
 20
27.720400000000001
 30
0.0
 11
80.218299999999985
 21
31.8901
 31
0.0
  0
LINE
  5
16C
  8
_________2
 62
     7
 10
75.040300000000002
 20
28.5852
 30
0.0
 11
75.040300000000002
 21
31.024699999999999
 31
0.0
  0
ARC
  5
16D
  8
_________2
 62
     7
 10
71.282674
 20
29.757801000000001
 30
0.0
 40
1.267714
 50
2.1220840000000001
 51
87.894083999999992
  0
ARC
  5
16E
  8
_________2
 62
     7
 10
71.375812999999994
 20
29.758545999999999
 30
0.0
 40
1.2669680000000001
 50
92.105782999999988
 51
177.91037
  0
ARC
  5
16F
  8
_________2
 62
     7
 10
71.376186000000004
 20
29.851671
 30
0.0
 40
1.2673680000000001
 50
182.12203600000001
 51
267.877993
  0
ARC
  5
170
  8
_________2
 62
     7
 10
71.282368999999989
 20
29.852347999999999
 30
0.0
 40
1.2680439999999991
 50
272.11916400000001
 51
357.84848499999998
  0
ARC
  5
171
  8
_________2
 62
     7
 10
71.248890000000003
 20
29.724731999999999
 30
0.0
 40
2.1668310000000002
 50
2.1161439999999989
 51
87.874379000000005
  0
ARC
  5
172
  8
_________2
 62
     7
 10
71.408928000000003
 20
29.726146
 30
0.0
 40
2.165392999999999
 50
92.108508999999998
 51
177.91986499999999
  0
ARC
  5
173
  8
_________2
 62
     7
 10
71.409267
 20
29.884751999999999
 30
0.0
 40
2.1657829999999998
 50
182.117133
 51
267.88289700000001
  0
ARC
  5
174
  8
_________2
 62
     7
 10
71.249286999999995
 20
29.885429999999999
 30
0.0
 40
2.1664590000000001
 50
272.11546800000002
 51
357.86560400000002
  0
TEXT
  5
175
  8
_________2
 62
     7
 10
104.605
 20
1.6794899999999999
 30
0.0
 40
3.0923400000000001
  1
図番
 41
0.5
  0
LINE
  5
176
  8
_________2
 62
     7
 10
103.55
 20
5.9087199999999989
 30
0.0
 11
183.55099999999999
 21
5.9087199999999989
 31
0.0
  0
TEXT
  5
177
  8
_________2
 62
     7
 10
104.605
 20
11.6793
 30
0.0
 40
3.0923400000000001
  1
品番
 41
0.5
  0
TEXT
  5
178
  8
_________2
 62
     7
 10
104.605
 20
31.8184
 30
0.0
 40
3.0923400000000001
  1
名称
 41
0.5
  0
TEXT
  5
179
  8
_________2
 62
     7
 10
91.844958333333338
 20
26.822299999999998
 30
0.0
 40
3.6545800000000002
  1
mm
 41
0.5
 72
     1
 11
93.367699999999985
 21
26.822299999999998
 31
0.0
  0
TEXT
  5
17A
  8
_________2
 62
     7
 10
85.642999999999986
 20
31.8184
 30
0.0
 40
3.0923400000000001
  1
単位
 41
0.5
  0
TEXT
  5
17B
  8
_________2
 62
     7
 10
85.642999999999986
 20
19.410799999999998
 30
0.0
 40
3.0923400000000001
  1
尺度
 41
0.5
  0
TEXT
  5
17C
  8
_________2
 62
     7
 10
90.091736166666678
 20
13.2182
 30
0.0
 40
3.6545800000000002
  1
1 ： 10
 41
0.5
 72
     1
 11
93.959500000000006
 21
13.2182
 31
0.0
  0
TEXT
  5
17D
  8
_________2
 62
     7
 10
109.179
 20
24.226099999999999
 30
0.0
 40
3.9357000000000002
  1
アーキテクチュラ 洗面器
 41
0.5
  0
TEXT
  5
17E
  8
_________2
 62
     7
 10
39.364190666666673
 20
13.603400000000001
 30
0.0
 40
3.6545800000000002
  1
平井
 41
0.5
 72
     1
 11
41.313299999999998
 21
13.603400000000001
 31
0.0
  0
TEXT
  5
17F
  8
_________2
 62
     7
 10
20.851100333333338
 20
13.603400000000001
 30
0.0
 40
3.6545800000000002
  1
福田
 41
0.5
 72
     1
 11
22.7393
 21
13.603400000000001
 31
0.0
  0
TEXT
  5
180
  8
_________2
 62
     7
 10
67.785600000000002
 20
13.2182
 30
0.0
 40
3.6545800000000002
  1
16.09.01
 41
0.5
  0
TEXT
  5
181
  8
_________2
 62
     7
 10
66.5929
 20
19.410799999999998
 30
0.0
 40
3.0923400000000001
  1
日付
 41
0.5
  0
TEXT
  5
182
  8
_________2
 62
     7
 10
29.639199999999999
 20
19.410799999999998
 30
0.0
 40
3.0923400000000001
  1
検図
 41
0.5
  0
TEXT
  5
183
  8
_________2
 62
     7
 10
18.020900000000001
 20
5.21143
 30
0.0
 40
3.0923400000000001
  1
備考
 41
0.5
  0
TEXT
  5
184
  8
_________2
 62
     7
 10
18.020900000000001
 20
19.410799999999998
 30
0.0
 40
3.0923400000000001
  1
製図
 41
0.5
  0
TEXT
  5
185
  8
_________2
 62
     7
 10
23.788265333333339
 20
27.936800000000002
 30
0.0
 40
4.4979399999999989
  1
セラトレーディング株式会社
 41
0.5
 72
     1
 11
41.180300000000003
 21
27.936800000000002
 31
0.0
  0
LINE
  5
186
  8
_________2
 62
     7
 10
183.55099999999999
 20
-4.0910799999999998
 30
0.0
 11
17.049399999999999
 21
-4.0910799999999998
 31
0.0
  0
LINE
  5
187
  8
_________2
 62
     7
 10
17.049399999999999
 20
-4.0910799999999998
 30
0.0
 11
17.049399999999999
 21
258.911
 31
0.0
  0
LINE
  5
188
  8
_________2
 62
     7
 10
17.049399999999999
 20
258.911
 30
0.0
 11
183.55099999999999
 21
258.911
 31
0.0
  0
LINE
  5
189
  8
_________2
 62
     7
 10
183.55099999999999
 20
258.911
 30
0.0
 11
183.55099999999999
 21
-4.0910799999999998
 31
0.0
  0
LINE
  5
18A
  8
_________2
 62
     7
 10
65.549700000000001
 20
9.4092999999999982
 30
0.0
 11
65.549700000000001
 21
35.909100000000002
 31
0.0
  0
LINE
  5
18B
  8
_________2
 62
     7
 10
84.549599999999984
 20
9.4092999999999982
 30
0.0
 11
84.549599999999984
 21
35.909100000000002
 31
0.0
  0
LINE
  5
18C
  8
_________2
 62
     7
 10
103.55
 20
-4.0910799999999998
 30
0.0
 11
103.55
 21
35.909100000000002
 31
0.0
  0
LINE
  5
18D
  8
_________2
 62
     7
 10
28.549199999999999
 20
9.4092999999999982
 30
0.0
 11
28.549199999999999
 21
23.409199999999998
 31
0.0
  0
LINE
  5
18E
  8
_________2
 62
     7
 10
17.049399999999999
 20
9.4092999999999982
 30
0.0
 11
103.55
 21
9.4092999999999982
 31
0.0
  0
LINE
  5
18F
  8
_________2
 62
     7
 10
17.049399999999999
 20
23.409199999999998
 30
0.0
 11
103.55
 21
23.409199999999998
 31
0.0
  0
LINE
  5
190
  8
_________2
 62
     7
 10
103.55
 20
15.9085
 30
0.0
 11
183.55099999999999
 21
15.9085
 31
0.0
  0
LINE
  5
191
  8
_________2
 62
     7
 10
17.049399999999999
 20
35.909100000000002
 30
0.0
 11
183.55099999999999
 21
35.909100000000002
 31
0.0
  0
ENDSEC
  0
EOF
