  0
SECTION
  2
HEADER
  9
$ACADVER
  1
AC1009
  9
$INSBASE
 10
0.0
 20
0.0
 30
0.0
  9
$EXTMIN
 10
0.238058
 20
0.4482100000000001
 30
0.0
  9
$EXTMAX
 10
210.24000000000001
 20
297.44999999999987
 30
0.0
  9
$LIMMIN
 10
0.0
 20
0.0
  9
$LIMMAX
 10
12.0
 20
9.0
  9
$ORTHOMODE
 70
     0
  9
$REGENMODE
 70
     1
  9
$FILLMODE
 70
     1
  9
$QTEXTMODE
 70
     0
  9
$MIRRTEXT
 70
     1
  9
$DRAGMODE
 70
     2
  9
$LTSCALE
 40
1.0
  9
$OSMODE
 70
    37
  9
$ATTMODE
 70
     1
  9
$TEXTSIZE
 40
0.0
  9
$TRACEWID
 40
0.05
  9
$TEXTSTYLE
  7
STANDARD
  9
$CLAYER
  8
0
  9
$CELTYPE
  6
CONTINUOUS
  9
$CECOLOR
 62
   256
  9
$DIMSCALE
 40
1.0
  9
$DIMASZ
 40
0.18
  9
$DIMEXO
 40
0.0625
  9
$DIMDLI
 40
0.38
  9
$DIMRND
 40
0.0
  9
$DIMDLE
 40
0.0
  9
$DIMEXE
 40
0.18
  9
$DIMTP
 40
0.0
  9
$DIMTM
 40
0.0
  9
$DIMTXT
 40
0.18
  9
$DIMCEN
 40
0.09
  9
$DIMTSZ
 40
0.0
  9
$DIMTOL
 70
     0
  9
$DIMLIM
 70
     0
  9
$DIMTIH
 70
     1
  9
$DIMTOH
 70
     1
  9
$DIMSE1
 70
     0
  9
$DIMSE2
 70
     0
  9
$DIMTAD
 70
     0
  9
$DIMZIN
 70
     0
  9
$DIMBLK
  1

  9
$DIMASO
 70
     1
  9
$DIMSHO
 70
     1
  9
$DIMPOST
  1

  9
$DIMAPOST
  1

  9
$DIMALT
 70
     0
  9
$DIMALTD
 70
     2
  9
$DIMALTF
 40
25.399999999999999
  9
$DIMLFAC
 40
1.0
  9
$DIMTOFL
 70
     0
  9
$DIMTVP
 40
0.0
  9
$DIMTIX
 70
     0
  9
$DIMSOXD
 70
     0
  9
$DIMSAH
 70
     0
  9
$DIMBLK1
  1

  9
$DIMBLK2
  1

  9
$DIMSTYLE
  2
STANDARD
  9
$DIMCLRD
 70
     0
  9
$DIMCLRE
 70
     0
  9
$DIMCLRT
 70
     0
  9
$DIMTFAC
 40
1.0
  9
$DIMGAP
 40
0.09
  9
$LUNITS
 70
     2
  9
$LUPREC
 70
     4
  9
$SKETCHINC
 40
0.1
  9
$FILLETRAD
 40
0.0
  9
$AUNITS
 70
     0
  9
$AUPREC
 70
     0
  9
$MENU
  1
.
  9
$ELEVATION
 40
0.0
  9
$PELEVATION
 40
0.0
  9
$THICKNESS
 40
0.0
  9
$LIMCHECK
 70
     0
  9
$BLIPMODE
 70
     0
  9
$CHAMFERA
 40
0.0
  9
$CHAMFERB
 40
0.0
  9
$SKPOLY
 70
     0
  9
$TDCREATE
 40
2444972.375
  9
$TDUPDATE
 40
2456723.2491392819
  9
$TDINDWG
 40
0.0000063657
  9
$TDUSRTIMER
 40
0.0000063657
  9
$USRTIMER
 70
     1
  9
$ANGBASE
 50
0.0
  9
$ANGDIR
 70
     0
  9
$PDMODE
 70
     0
  9
$PDSIZE
 40
0.0
  9
$PLINEWID
 40
0.0
  9
$COORDS
 70
     1
  9
$SPLFRAME
 70
     0
  9
$SPLINETYPE
 70
     6
  9
$SPLINESEGS
 70
     8
  9
$ATTDIA
 70
     0
  9
$ATTREQ
 70
     1
  9
$HANDLING
 70
     1
  9
$HANDSEED
  5
1D9
  9
$SURFTAB1
 70
     6
  9
$SURFTAB2
 70
     6
  9
$SURFTYPE
 70
     6
  9
$SURFU
 70
     6
  9
$SURFV
 70
     6
  9
$UCSNAME
  2

  9
$UCSORG
 10
0.0
 20
0.0
 30
0.0
  9
$UCSXDIR
 10
1.0
 20
0.0
 30
0.0
  9
$UCSYDIR
 10
0.0
 20
1.0
 30
0.0
  9
$PUCSNAME
  2

  9
$PUCSORG
 10
0.0
 20
0.0
 30
0.0
  9
$PUCSXDIR
 10
1.0
 20
0.0
 30
0.0
  9
$PUCSYDIR
 10
0.0
 20
1.0
 30
0.0
  9
$USERI1
 70
     0
  9
$USERI2
 70
     0
  9
$USERI3
 70
     0
  9
$USERI4
 70
     0
  9
$USERI5
 70
     0
  9
$USERR1
 40
0.0
  9
$USERR2
 40
0.0
  9
$USERR3
 40
0.0
  9
$USERR4
 40
0.0
  9
$USERR5
 40
0.0
  9
$WORLDVIEW
 70
     1
  9
$SHADEDGE
 70
     3
  9
$SHADEDIF
 70
    70
  9
$TILEMODE
 70
     1
  9
$MAXACTVP
 70
    48
  9
$PLIMCHECK
 70
     0
  9
$PEXTMIN
 10
1.0000000000000000E+020
 20
1.0000000000000000E+020
 30
1.0000000000000000E+020
  9
$PEXTMAX
 10
-1.0000000000000000E+020
 20
-1.0000000000000000E+020
 30
-1.0000000000000000E+020
  9
$PLIMMIN
 10
0.0
 20
0.0
  9
$PLIMMAX
 10
12.0
 20
9.0
  9
$UNITMODE
 70
     0
  9
$VISRETAIN
 70
     1
  9
$PLINEGEN
 70
     0
  9
$PSLTSCALE
 70
     1
  0
ENDSEC
  0
SECTION
  2
TABLES
  0
TABLE
  2
VPORT
 70
     2
  0
VPORT
  2
*ACTIVE
 70
     0
 10
0.0
 20
0.0
 11
1.0
 21
1.0
 12
206.97982146115791
 22
148.72499999999991
 13
0.0
 23
0.0
 14
1.0
 24
1.0
 15
0.0
 25
0.0
 16
0.0
 26
0.0
 36
1.0
 17
0.0
 27
0.0
 37
0.0
 40
299.90488308115528
 41
2.2894736842105261
 42
50.0
 43
0.0
 44
0.0
 50
0.0
 51
0.0
 71
     0
 72
   100
 73
     1
 74
     1
 75
     0
 76
     0
 77
     0
 78
     0
  0
ENDTAB
  0
TABLE
  2
LTYPE
 70
     4
  0
LTYPE
  2
CONTINUOUS
 70
     0
  3
Solid line
 72
    65
 73
     0
 40
0.0
  0
LTYPE
  2
AIGENLINE001
 70
     0
  3
generate AI->DXF Converter
 72
    65
 73
     4
 40
5.8561449999999988
 49
3.5278
 49
-0.776115
 49
0.776115
 49
-0.776115
  0
LTYPE
  2
AIGENLINE002
 70
     0
  3
generate AI->DXF Converter
 72
    65
 73
     6
 40
7.4083750000000004
 49
3.5278
 49
-0.776115
 49
0.776115
 49
-0.776115
 49
0.776115
 49
-0.776115
  0
LTYPE
  2
AIGENLINE003
 70
     0
  3
generate AI->DXF Converter
 72
    65
 73
     2
 40
1.5522299999999991
 49
0.776115
 49
-0.776115
  0
ENDTAB
  0
TABLE
  2
LAYER
 70
     2
  0
LAYER
  2
0
 70
     0
 62
     7
  6
CONTINUOUS
  0
LAYER
  2
_________2
 70
     0
 62
     7
  6
CONTINUOUS
  0
ENDTAB
  0
TABLE
  2
STYLE
 70
     1
  0
STYLE
  2
STANDARD
 70
     0
 40
0.0
 41
0.0
 50
0.0
 71
     0
 42
0.0
  3
TXT
  4
EXTFONT.SHX
  0
ENDTAB
  0
TABLE
  2
VIEW
 70
     0
  0
ENDTAB
  0
TABLE
  2
UCS
 70
     0
  0
ENDTAB
  0
TABLE
  2
APPID
 70
     1
  0
APPID
  2
ACAD
 70
     0
  0
ENDTAB
  0
TABLE
  2
DIMSTYLE
 70
     1
  0
DIMSTYLE
  2
STANDARD
 70
     0
  3

  4

  5

  6

  7

 40
1.0
 41
0.18
 42
0.0625
 43
0.38
 44
0.18
 45
0.0
 46
0.0
 47
0.0
 48
0.0
140
0.18
141
0.09
142
0.0
143
25.399999999999999
144
1.0
145
0.0
146
1.0
147
0.09
 71
     0
 72
     0
 73
     1
 74
     1
 75
     0
 76
     0
 77
     0
 78
     0
170
     0
171
     2
172
     0
173
     0
174
     0
175
     0
176
     0
177
     0
178
     0
  0
ENDTAB
  0
ENDSEC
  0
SECTION
  2
BLOCKS
  0
BLOCK
  8
0
  2
$MODEL_SPACE
 70
     0
 10
0.0
 20
0.0
 30
0.0
  3
$MODEL_SPACE
  1

  0
ENDBLK
  5
1A
  8
0
  0
BLOCK
 67
     1
  8
0
  2
$PAPER_SPACE
 70
     0
 10
0.0
 20
0.0
 30
0.0
  3
$PAPER_SPACE
  1

  0
ENDBLK
  5
17
 67
     1
  8
0
  0
ENDSEC
  0
SECTION
  2
ENTITIES
  0
TEXT
  5
24
  8
0
 62
     7
 10
119.371
 20
112.2049999999999
 30
0.0
 40
3.0923400000000001
  1
〈付属品〉
 41
0.5
  0
TEXT
  5
25
  8
0
 62
     7
 10
119.371
 20
108.339
 30
0.0
 40
3.0923400000000001
  1
洗面器固定金具×4
 41
0.5
  0
TEXT
  5
26
  8
0
 62
     7
 10
119.371
 20
104.474
 30
0.0
 40
3.0923400000000001
  1
%%c5×20SUSねじ付
 41
0.5
  0
TEXT
  5
27
  8
0
 62
     7
 10
119.371
 20
100.6079999999999
 30
0.0
 40
3.0923400000000001
  1
（尺度 1：3）
 41
0.5
  0
TEXT
  5
28
  8
0
 62
     7
 10
97.506500000000003
 20
76.236999999999995
 30
0.0
 40
3.0923400000000001
  1
12.5
 41
0.5
  0
TEXT
  5
29
  8
0
 62
     7
 10
72.554699999999997
 20
115.03100000000001
 30
0.0
 40
3.0923400000000001
  1
両面テープ付
 41
0.5
  0
TEXT
  5
2A
  8
0
 62
     7
 10
98.652272499999995
 20
71.307000000000002
 30
0.0
 40
3.0923400000000001
  1
50
 41
0.5
 72
     1
 11
99.811899999999994
 21
71.307000000000002
 31
0.0
  0
TEXT
  5
2B
  8
0
 62
     7
 10
112.6279999999999
 20
105.99605
 30
0.0
 40
3.0923400000000001
  1
1.5
 50
90.0
 41
0.5
 72
     2
 11
112.6279999999999
 21
108.57299999999989
 31
0.0
  0
TEXT
  5
2C
  8
0
 62
     7
 10
86.586100000000016
 20
104.82422
 30
0.0
 40
3.0923400000000001
  1
19
 50
90.0
 41
0.5
 72
     1
 11
86.586100000000016
 21
105.855
 31
0.0
  0
TEXT
  5
2D
  8
0
 62
     7
 10
113.55500000000001
 20
84.560772499999985
 30
0.0
 40
3.0923400000000001
  1
30
 50
90.0
 41
0.5
 72
     1
 11
113.55500000000001
 21
85.720399999999984
 31
0.0
  0
TEXT
  5
2E
  8
0
 62
     7
 10
63.98545
 20
183.49299999999991
 30
0.0
 40
3.0923400000000001
  1
%%c415
 41
0.5
 72
     1
 11
66.562399999999997
 21
183.49299999999991
 31
0.0
  0
TEXT
  5
2F
  8
0
 62
     7
 10
113.3045381020372
 20
192.39148349567009
 30
0.0
 40
3.0923400000000001
  1
430
 50
2.06128
 41
0.5
 72
     1
 11
115.236
 21
192.4609999999999
 31
0.0
  0
TEXT
  5
30
  8
0
 62
     7
 10
132.1403587346914
 20
184.08965566378009
 30
0.0
 40
3.0923400000000001
  1
55
 50
2.06128
 41
0.5
 72
     1
 11
133.42799999999991
 21
184.13599999999991
 31
0.0
  0
TEXT
  5
31
  8
0
 62
     7
 10
105.62335873469139
 20
210.60665566378
 30
0.0
 40
3.0923400000000001
  1
55
 50
2.06128
 41
0.5
 72
     1
 11
106.911
 21
210.65299999999991
 31
0.0
  0
TEXT
  5
32
  8
0
 62
     7
 10
117.3909533428521
 20
197.22267689393809
 30
0.0
 40
3.0923400000000001
  1
%%c320
 50
2.06128
 41
0.5
 72
     1
 11
120.0949999999999
 21
197.31999999999999
 31
0.0
  0
TEXT
  5
33
  8
0
 62
     7
 10
138.97200000000001
 20
250.46599999999989
 30
0.0
 40
3.0923400000000001
  1
（t35～45）
 41
0.5
  0
TEXT
  5
34
  8
0
 62
     7
 10
138.97200000000001
 20
255.446
 30
0.0
 40
3.0923400000000001
  1
洗面器固定用補強木
 41
0.5
  0
TEXT
  5
35
  8
0
 62
     7
 10
63.856602499999987
 20
190.983
 30
0.0
 40
3.0923400000000001
  1
%%c340
 41
0.5
 72
     1
 11
66.562399999999997
 21
190.983
 31
0.0
  0
TEXT
  5
36
  8
0
 62
     7
 10
54.801099999999991
 20
225.333
 30
0.0
 40
3.0923400000000001
  1
%%c46
 41
0.5
  0
TEXT
  5
37
  8
0
 62
     7
 10
134.01076
 20
170.38800000000001
 30
0.0
 40
3.0923400000000001
  1
カウンター切込寸法
 41
0.5
 72
     1
 11
142.25700000000001
 21
170.38800000000001
 31
0.0
  0
TEXT
  5
38
  8
0
 62
     7
 10
130.2774137885657
 20
244.47370047979649
 30
0.0
 40
3.0923400000000001
  1
50以上
 50
2.06128
 41
0.5
 72
     1
 11
133.34200000000001
 21
244.584
 31
0.0
  0
TEXT
  5
39
  8
0
 62
     7
 10
116.16760720446329
 20
241.23460720446329
 30
0.0
 40
3.0923400000000001
  1
80以上
 50
45.0
 41
0.5
 72
     1
 11
118.3359999999999
 21
243.40299999999991
 31
0.0
  0
TEXT
  5
3A
  8
0
 62
     7
 10
94.050299999999993
 20
160.26274499999991
 30
0.0
 40
3.0923400000000001
  1
40
 50
90.0
 41
0.5
 72
     2
 11
94.050299999999993
 21
162.58199999999999
 31
0.0
  0
TEXT
  5
3B
  8
0
 62
     7
 10
94.050299999999993
 20
143.9719825
 30
0.0
 40
3.0923400000000001
  1
130
 50
90.0
 41
0.5
 72
     1
 11
94.050299999999993
 21
145.64699999999999
 31
0.0
  0
TEXT
  5
3C
  8
0
 62
     7
 10
139.70699999999999
 20
148.511965
 30
0.0
 40
3.0923400000000001
  1
120
 50
90.0
 41
0.5
 72
     2
 11
139.70699999999999
 21
151.86199999999999
 31
0.0
  0
TEXT
  5
3D
  8
0
 62
     7
 10
149.6685075
 20
129.672
 30
0.0
 40
3.0923400000000001
  1
207.5
 41
0.5
 72
     1
 11
152.63200000000001
 21
129.672
 31
0.0
  0
TEXT
  5
3E
  8
0
 62
     7
 10
100.29000000000001
 20
145.9719825
 30
0.0
 40
3.0923400000000001
  1
170
 50
90.0
 41
0.5
 72
     1
 11
100.29000000000001
 21
147.64699999999999
 31
0.0
  0
LINE
  5
3F
  8
0
  6
AIGENLINE001
 62
     7
 10
128.54699999999991
 20
153.4129999999999
 30
0.0
 11
124.0059999999999
 21
151.9679999999999
 31
0.0
  0
ARC
  5
40
  8
0
 62
     7
 10
104.769785
 20
85.682469999999995
 30
0.0
 40
1.0387269999999991
 50
2.0912509999999989
 51
87.888998999999998
  0
ARC
  5
41
  8
0
 62
     7
 10
104.76907300000001
 20
85.758989999999983
 30
0.0
 40
1.0394639999999991
 50
272.14875799999987
 51
357.870992
  0
ARC
  5
42
  8
0
 62
     7
 10
103.17955000000001
 20
85.758267999999987
 30
0.0
 40
1.0387159999999991
 50
182.09072399999999
 51
267.889565
  0
ARC
  5
43
  8
0
 62
     7
 10
103.1802719999999
 20
85.681758999999985
 30
0.0
 40
1.0394639999999991
 50
92.148737999999994
 51
177.87097299999991
  0
LINE
  5
44
  8
0
  6
AIGENLINE001
 62
     7
 10
101.56399999999989
 20
85.720399999999984
 30
0.0
 11
106.38499999999991
 21
85.720399999999984
 31
0.0
  0
LINE
  5
45
  8
0
  6
AIGENLINE001
 62
     7
 10
103.97499999999989
 20
84.335400000000007
 30
0.0
 11
103.97499999999989
 21
87.122200000000007
 31
0.0
  0
LINE
  5
46
  8
0
  6
AIGENLINE001
 62
     7
 10
104.80799999999989
 20
87.279300000000006
 30
0.0
 11
104.80799999999989
 21
84.091899999999995
 31
0.0
  0
LINE
  5
47
  8
0
  6
AIGENLINE001
 62
     7
 10
103.14100000000001
 20
87.279300000000006
 30
0.0
 11
103.14100000000001
 21
84.091899999999995
 31
0.0
  0
LINE
  5
48
  8
0
 62
     7
 10
104.80799999999989
 20
86.720500000000001
 30
0.0
 11
103.14100000000001
 21
86.720500000000001
 31
0.0
  0
LINE
  5
49
  8
0
 62
     7
 10
104.80799999999989
 20
84.720299999999995
 30
0.0
 11
103.14100000000001
 21
84.720299999999995
 31
0.0
  0
LINE
  5
4A
  8
0
  6
AIGENLINE001
 62
     7
 10
103.97499999999989
 20
104.45399999999999
 30
0.0
 11
103.97499999999989
 21
101.5709999999999
 31
0.0
  0
LINE
  5
4B
  8
0
 62
     7
 10
96.474299999999985
 20
80.720500000000001
 30
0.0
 11
96.474299999999985
 21
90.720299999999995
 31
0.0
  0
LINE
  5
4C
  8
0
 62
     7
 10
93.140799999999999
 20
81.054000000000016
 30
0.0
 11
93.140799999999999
 21
90.387100000000004
 31
0.0
  0
LINE
  5
4D
  8
0
 62
     7
 10
108.76900000000001
 20
102.7919999999999
 30
0.0
 11
113.8149999999999
 21
102.7919999999999
 31
0.0
  0
LINE
  5
4E
  8
0
 62
     7
 10
108.76900000000001
 20
103.292
 30
0.0
 11
113.8149999999999
 21
103.292
 31
0.0
  0
LINE
  5
4F
  8
0
 62
     7
 10
108.142
 20
90.720299999999995
 30
0.0
 11
91.474799999999988
 21
90.720299999999995
 31
0.0
  0
LINE
  5
50
  8
0
 62
     7
 10
91.474799999999988
 20
80.720500000000001
 30
0.0
 11
91.474799999999988
 21
90.720299999999995
 31
0.0
  0
LINE
  5
51
  8
0
 62
     7
 10
108.142
 20
80.720500000000001
 30
0.0
 11
91.474799999999988
 21
80.720500000000001
 31
0.0
  0
LINE
  5
52
  8
0
 62
     7
 10
108.142
 20
80.720500000000001
 30
0.0
 11
108.142
 21
90.720299999999995
 31
0.0
  0
LINE
  5
53
  8
0
 62
     7
 10
108.142
 20
102.7919999999999
 30
0.0
 11
96.570800000000006
 21
102.7919999999999
 31
0.0
  0
LINE
  5
54
  8
0
 62
     7
 10
95.993399999999994
 20
103.125
 30
0.0
 11
92.818299999999994
 21
108.626
 31
0.0
  0
ARC
  5
55
  8
0
 62
     7
 10
96.578032999999991
 20
103.4718409999999
 30
0.0
 40
0.6795720000000001
 50
210.64508900000001
 51
269.38771299999991
  0
LINE
  5
56
  8
0
 62
     7
 10
96.508799999999994
 20
103.292
 30
0.0
 11
93.333699999999993
 21
108.7919999999999
 31
0.0
  0
LINE
  5
57
  8
0
 62
     7
 10
92.756299999999996
 20
109.125
 30
0.0
 11
91.474799999999988
 21
109.125
 31
0.0
  0
ARC
  5
58
  8
0
 62
     7
 10
92.749075000000005
 20
108.44593399999999
 30
0.0
 40
0.6795720000000001
 50
30.645068999999999
 51
89.387692999999999
  0
LINE
  5
59
  8
0
 62
     7
 10
92.818299999999994
 20
108.626
 30
0.0
 11
91.474799999999988
 21
108.626
 31
0.0
  0
LINE
  5
5A
  8
0
 62
     7
 10
91.474799999999988
 20
108.626
 30
0.0
 11
91.474799999999988
 21
109.125
 31
0.0
  0
LINE
  5
5B
  8
0
 62
     7
 10
108.142
 20
103.292
 30
0.0
 11
96.508799999999994
 21
103.292
 31
0.0
  0
LINE
  5
5C
  8
0
 62
     7
 10
108.142
 20
102.7919999999999
 30
0.0
 11
108.142
 21
103.292
 31
0.0
  0
LINE
  5
5D
  8
0
 62
     7
 10
103.97499999999989
 20
84.100099999999983
 30
0.0
 11
103.9739999999999
 21
75.125900000000001
 31
0.0
  0
LINE
  5
5E
  8
0
 62
     7
 10
106.667
 20
75.151399999999995
 30
0.0
 11
108.142
 21
75.546599999999998
 31
0.0
  0
LINE
  5
5F
  8
0
 62
     7
 10
108.142
 20
75.546599999999998
 30
0.0
 11
106.667
 21
75.941800000000001
 31
0.0
  0
LINE
  5
60
  8
0
 62
     7
 10
106.667
 20
75.941800000000001
 30
0.0
 11
106.667
 21
75.151399999999995
 31
0.0
  0
LINE
  5
61
  8
0
 62
     7
 10
105.4489999999999
 20
75.932100000000005
 30
0.0
 11
103.9739999999999
 21
75.536999999999992
 31
0.0
  0
LINE
  5
62
  8
0
 62
     7
 10
103.9739999999999
 20
75.536999999999992
 30
0.0
 11
105.4489999999999
 21
75.141800000000003
 31
0.0
  0
LINE
  5
63
  8
0
 62
     7
 10
105.4489999999999
 20
75.141800000000003
 30
0.0
 11
105.4489999999999
 21
75.932100000000005
 31
0.0
  0
LINE
  5
64
  8
0
 62
     7
 10
108.142
 20
75.536999999999992
 30
0.0
 11
97.506500000000003
 21
75.536999999999992
 31
0.0
  0
LINE
  5
65
  8
0
 62
     7
 10
91.474799999999988
 20
80.078299999999999
 30
0.0
 11
91.474799999999988
 21
70.195999999999998
 31
0.0
  0
LINE
  5
66
  8
0
 62
     7
 10
108.142
 20
80.078299999999999
 30
0.0
 11
108.142
 21
70.195999999999998
 31
0.0
  0
LINE
  5
67
  8
0
 62
     7
 10
91.073099999999997
 20
110.00700000000001
 30
0.0
 11
92.318799999999996
 21
109.125
 31
0.0
  0
LINE
  5
68
  8
0
 62
     7
 10
92.318799999999996
 20
109.125
 30
0.0
 11
91.680800000000005
 21
110.511
 31
0.0
  0
LINE
  5
69
  8
0
 62
     7
 10
91.680800000000005
 20
110.511
 30
0.0
 11
91.073099999999997
 21
110.00700000000001
 31
0.0
  0
LINE
  5
6A
  8
0
 62
     7
 10
88.209599999999995
 20
114.07299999999999
 30
0.0
 11
92.318799999999996
 21
109.125
 31
0.0
  0
LINE
  5
6B
  8
0
 62
     7
 10
88.209599999999995
 20
114.07299999999999
 30
0.0
 11
72.554699999999997
 21
114.07299999999999
 31
0.0
  0
LINE
  5
6C
  8
0
 62
     7
 10
106.667
 20
70.221500000000006
 30
0.0
 11
108.142
 21
70.616600000000005
 31
0.0
  0
LINE
  5
6D
  8
0
 62
     7
 10
108.142
 20
70.616600000000005
 30
0.0
 11
106.667
 21
71.011799999999994
 31
0.0
  0
LINE
  5
6E
  8
0
 62
     7
 10
106.667
 20
71.011799999999994
 30
0.0
 11
106.667
 21
70.221500000000006
 31
0.0
  0
LINE
  5
6F
  8
0
 62
     7
 10
92.949299999999994
 20
71.002099999999999
 30
0.0
 11
91.474799999999988
 21
70.606999999999999
 31
0.0
  0
LINE
  5
70
  8
0
 62
     7
 10
91.474799999999988
 20
70.606999999999999
 30
0.0
 11
92.949299999999994
 21
70.211799999999997
 31
0.0
  0
LINE
  5
71
  8
0
 62
     7
 10
92.949299999999994
 20
70.211799999999997
 30
0.0
 11
92.949299999999994
 21
71.002099999999999
 31
0.0
  0
LINE
  5
72
  8
0
 62
     7
 10
108.142
 20
70.606999999999999
 30
0.0
 11
91.474799999999988
 21
70.606999999999999
 31
0.0
  0
LINE
  5
73
  8
0
 62
     7
 10
95.540000000000006
 20
102.7919999999999
 30
0.0
 11
87.291700000000006
 21
102.7919999999999
 31
0.0
  0
LINE
  5
74
  8
0
 62
     7
 10
90.858800000000016
 20
109.125
 30
0.0
 11
87.291700000000006
 21
109.125
 31
0.0
  0
LINE
  5
75
  8
0
 62
     7
 10
88.096500000000006
 20
107.651
 30
0.0
 11
87.701700000000002
 21
109.126
 31
0.0
  0
LINE
  5
76
  8
0
 62
     7
 10
87.701700000000002
 20
109.126
 30
0.0
 11
87.306200000000004
 21
107.651
 31
0.0
  0
LINE
  5
77
  8
0
 62
     7
 10
87.306200000000004
 20
107.651
 30
0.0
 11
88.096500000000006
 21
107.651
 31
0.0
  0
LINE
  5
78
  8
0
 62
     7
 10
87.315799999999996
 20
104.26600000000001
 30
0.0
 11
87.711299999999994
 21
102.7919999999999
 31
0.0
  0
LINE
  5
79
  8
0
 62
     7
 10
87.711299999999994
 20
102.7919999999999
 30
0.0
 11
88.106099999999998
 21
104.26600000000001
 31
0.0
  0
LINE
  5
7A
  8
0
 62
     7
 10
88.106099999999998
 20
104.26600000000001
 30
0.0
 11
87.315799999999996
 21
104.26600000000001
 31
0.0
  0
LINE
  5
7B
  8
0
 62
     7
 10
87.701700000000002
 20
109.125
 30
0.0
 11
87.701700000000002
 21
102.7919999999999
 31
0.0
  0
LINE
  5
7C
  8
0
 62
     7
 10
108.76900000000001
 20
80.720500000000001
 30
0.0
 11
114.955
 21
80.720500000000001
 31
0.0
  0
LINE
  5
7D
  8
0
 62
     7
 10
108.76900000000001
 20
90.720299999999995
 30
0.0
 11
114.955
 21
90.720299999999995
 31
0.0
  0
LINE
  5
7E
  8
0
 62
     7
 10
113.79900000000001
 20
101.3179999999999
 30
0.0
 11
113.4039999999999
 21
102.7919999999999
 31
0.0
  0
LINE
  5
7F
  8
0
 62
     7
 10
113.4039999999999
 20
102.7919999999999
 30
0.0
 11
113.009
 21
101.3179999999999
 31
0.0
  0
LINE
  5
80
  8
0
 62
     7
 10
113.009
 20
101.3179999999999
 30
0.0
 11
113.79900000000001
 21
101.3179999999999
 31
0.0
  0
LINE
  5
81
  8
0
 62
     7
 10
113.009
 20
104.767
 30
0.0
 11
113.4039999999999
 21
103.292
 31
0.0
  0
LINE
  5
82
  8
0
 62
     7
 10
113.4039999999999
 20
103.292
 30
0.0
 11
113.79900000000001
 21
104.767
 31
0.0
  0
LINE
  5
83
  8
0
 62
     7
 10
113.79900000000001
 20
104.767
 30
0.0
 11
113.009
 21
104.767
 31
0.0
  0
LINE
  5
84
  8
0
 62
     7
 10
113.4039999999999
 20
108.63200000000001
 30
0.0
 11
113.4039999999999
 21
100.339
 31
0.0
  0
LINE
  5
85
  8
0
 62
     7
 10
114.93899999999989
 20
89.246099999999984
 30
0.0
 11
114.54299999999991
 21
90.720600000000005
 31
0.0
  0
LINE
  5
86
  8
0
 62
     7
 10
114.54299999999991
 20
90.720600000000005
 30
0.0
 11
114.148
 21
89.246099999999984
 31
0.0
  0
LINE
  5
87
  8
0
 62
     7
 10
114.148
 20
89.246099999999984
 30
0.0
 11
114.93899999999989
 21
89.246099999999984
 31
0.0
  0
LINE
  5
88
  8
0
 62
     7
 10
114.1579999999999
 20
82.194599999999994
 30
0.0
 11
114.5529999999999
 21
80.720100000000002
 31
0.0
  0
LINE
  5
89
  8
0
 62
     7
 10
114.5529999999999
 20
80.720100000000002
 30
0.0
 11
114.94799999999999
 21
82.194599999999994
 31
0.0
  0
LINE
  5
8A
  8
0
 62
     7
 10
114.94799999999999
 20
82.194599999999994
 30
0.0
 11
114.1579999999999
 21
82.194599999999994
 31
0.0
  0
LINE
  5
8B
  8
0
 62
     7
 10
114.54299999999991
 20
90.720299999999995
 30
0.0
 11
114.54299999999991
 21
80.720500000000001
 31
0.0
  0
ARC
  5
8C
  8
0
 62
     7
 10
158.31789199999989
 20
140.195854
 30
0.0
 40
0.232109
 50
144.708845
 51
156.07107999999999
  0
ARC
  5
8D
  8
0
 62
     7
 10
158.823126
 20
139.84710699999999
 30
0.0
 40
0.8460079999999999
 50
138.56393499999999
 51
145.1987179999999
  0
ARC
  5
8E
  8
0
 62
     7
 10
160.96410700000001
 20
137.96849800000001
 30
0.0
 40
3.6943329999999999
 50
135.42036899999999
 51
138.69548599999999
  0
ARC
  5
8F
  8
0
 62
     7
 10
126.38510599999999
 20
172.04703699999999
 30
0.0
 40
44.855170000000001
 50
315.41741400000001
 51
316.22441800000001
  0
ARC
  5
90
  8
0
 62
     7
 10
150.685912
 20
148.68181200000001
 30
0.0
 40
11.14391
 50
316.52682799999991
 51
324.21127300000001
  0
ARC
  5
91
  8
0
 62
     7
 10
152.73878999999991
 20
147.118222
 30
0.0
 40
8.5645429999999987
 50
324.66506699999991
 51
355.83857899999992
  0
LINE
  5
92
  8
0
 62
     7
 10
161.50700000000001
 20
152.14699999999999
 30
0.0
 11
161.28100000000001
 21
146.49700000000001
 31
0.0
  0
ARC
  5
93
  8
0
 62
     7
 10
126.19677299999999
 20
140.195854
 30
0.0
 40
0.232109
 50
23.928899999999992
 51
35.29113499999999
  0
ARC
  5
94
  8
0
 62
     7
 10
125.69153799999989
 20
139.84710699999999
 30
0.0
 40
0.8460079999999999
 50
34.801262000000001
 51
41.436045
  0
ARC
  5
95
  8
0
 62
     7
 10
123.553698
 20
137.97178600000001
 30
0.0
 40
3.6898029999999991
 50
41.298319999999997
 51
44.57723
  0
ARC
  5
96
  8
0
 62
     7
 10
158.08659299999991
 20
172.002959
 30
0.0
 40
44.793612999999993
 50
223.7729609999999
 51
224.5810459999999
  0
ARC
  5
97
  8
0
 62
     7
 10
133.8263959999999
 20
148.679562
 30
0.0
 40
11.140613
 50
215.78670600000001
 51
223.47332299999991
  0
ARC
  5
98
  8
0
 62
     7
 10
131.77845300000001
 20
147.11996600000001
 30
0.0
 40
8.5675850000000011
 50
184.17165499999999
 51
215.33482900000001
  0
LINE
  5
99
  8
0
 62
     7
 10
123.00699999999991
 20
152.14699999999999
 30
0.0
 11
123.2339999999999
 21
146.49700000000001
 31
0.0
  0
LINE
  5
9A
  8
0
 62
     7
 10
116.0719999999999
 20
240.00999999999999
 30
0.0
 11
120.29000000000001
 21
235.79300000000001
 31
0.0
  0
LINE
  5
9B
  8
0
 62
     7
 10
121.7289999999999
 20
245.66699999999989
 30
0.0
 11
125.947
 21
241.4499999999999
 31
0.0
  0
LINE
  5
9C
  8
0
 62
     7
 10
120.985
 20
243.28399999999999
 30
0.0
 11
122.12899999999991
 21
245.26699999999991
 31
0.0
  0
LINE
  5
9D
  8
0
 62
     7
 10
122.12899999999991
 20
245.26699999999991
 30
0.0
 11
120.14700000000001
 21
244.12200000000001
 31
0.0
  0
LINE
  5
9E
  8
0
 62
     7
 10
120.14700000000001
 20
244.12200000000001
 30
0.0
 11
120.985
 21
243.28399999999999
 31
0.0
  0
LINE
  5
9F
  8
0
 62
     7
 10
117.61799999999999
 20
241.59200000000001
 30
0.0
 11
116.473
 21
239.60900000000001
 31
0.0
  0
LINE
  5
A0
  8
0
 62
     7
 10
116.473
 20
239.60900000000001
 30
0.0
 11
118.456
 21
240.75399999999999
 31
0.0
  0
LINE
  5
A1
  8
0
 62
     7
 10
118.456
 20
240.75399999999999
 30
0.0
 11
117.61799999999999
 21
241.59200000000001
 31
0.0
  0
LINE
  5
A2
  8
0
 62
     7
 10
122.12899999999991
 20
245.26699999999991
 30
0.0
 11
116.473
 21
239.60900000000001
 31
0.0
  0
LINE
  5
A3
  8
0
 62
     7
 10
131.1329999999999
 20
245.83500000000001
 30
0.0
 11
126.8329999999999
 21
241.535
 31
0.0
  0
LINE
  5
A4
  8
0
 62
     7
 10
134.66800000000001
 20
242.30000000000001
 30
0.0
 11
130.369
 21
237.999
 31
0.0
  0
LINE
  5
A5
  8
0
 62
     7
 10
132.1989999999999
 20
242.958
 30
0.0
 11
134.18199999999999
 21
241.81299999999999
 31
0.0
  0
LINE
  5
A6
  8
0
 62
     7
 10
134.18199999999999
 20
241.81299999999999
 30
0.0
 11
133.03700000000001
 21
243.79599999999991
 31
0.0
  0
LINE
  5
A7
  8
0
 62
     7
 10
133.03700000000001
 20
243.79599999999991
 30
0.0
 11
132.1989999999999
 21
242.958
 31
0.0
  0
LINE
  5
A8
  8
0
 62
     7
 10
132.62899999999991
 20
244.20399999999989
 30
0.0
 11
130.64699999999999
 21
245.34899999999999
 31
0.0
  0
LINE
  5
A9
  8
0
 62
     7
 10
130.64699999999999
 20
245.34899999999999
 30
0.0
 11
131.79099999999991
 21
243.3659999999999
 31
0.0
  0
LINE
  5
AA
  8
0
 62
     7
 10
131.79099999999991
 20
243.3659999999999
 30
0.0
 11
132.62899999999991
 21
244.20399999999989
 31
0.0
  0
LINE
  5
AB
  8
0
 62
     7
 10
134.18199999999999
 20
241.81299999999999
 30
0.0
 11
130.64699999999999
 21
245.34899999999999
 31
0.0
  0
LINE
  5
AC
  8
0
 62
     7
 10
132.89599999999999
 20
184.3659999999999
 30
0.0
 11
130.9139999999999
 21
185.512
 31
0.0
  0
LINE
  5
AD
  8
0
 62
     7
 10
130.9139999999999
 20
185.512
 30
0.0
 11
132.05799999999991
 21
183.529
 31
0.0
  0
LINE
  5
AE
  8
0
 62
     7
 10
132.05799999999991
 20
183.529
 30
0.0
 11
132.89599999999999
 21
184.3659999999999
 31
0.0
  0
LINE
  5
AF
  8
0
 62
     7
 10
106.379
 20
210.88399999999999
 30
0.0
 11
104.39700000000001
 21
212.02799999999999
 31
0.0
  0
LINE
  5
B0
  8
0
 62
     7
 10
104.39700000000001
 20
212.02799999999999
 30
0.0
 11
105.542
 21
210.0449999999999
 31
0.0
  0
LINE
  5
B1
  8
0
 62
     7
 10
105.542
 20
210.0449999999999
 30
0.0
 11
106.379
 21
210.88399999999999
 31
0.0
  0
LINE
  5
B2
  8
0
 62
     7
 10
110.26899999999991
 20
206.994
 30
0.0
 11
108.2859999999999
 21
208.13900000000001
 31
0.0
  0
LINE
  5
B3
  8
0
 62
     7
 10
108.2859999999999
 20
208.13900000000001
 30
0.0
 11
109.4309999999999
 21
206.15599999999989
 31
0.0
  0
LINE
  5
B4
  8
0
 62
     7
 10
109.4309999999999
 20
206.15599999999989
 30
0.0
 11
110.26899999999991
 21
206.994
 31
0.0
  0
LINE
  5
B5
  8
0
 62
     7
 10
132.81999999999999
 20
182.76699999999991
 30
0.0
 11
134.803
 21
181.62299999999999
 31
0.0
  0
LINE
  5
B6
  8
0
 62
     7
 10
134.803
 20
181.62299999999999
 30
0.0
 11
133.6579999999999
 21
183.60499999999999
 31
0.0
  0
LINE
  5
B7
  8
0
 62
     7
 10
133.6579999999999
 20
183.60499999999999
 30
0.0
 11
132.81999999999999
 21
182.76699999999991
 31
0.0
  0
LINE
  5
B8
  8
0
 62
     7
 10
106.3039999999999
 20
209.28399999999999
 30
0.0
 11
108.2859999999999
 21
208.13900000000001
 31
0.0
  0
LINE
  5
B9
  8
0
 62
     7
 10
108.2859999999999
 20
208.13900000000001
 30
0.0
 11
107.142
 21
210.12200000000001
 31
0.0
  0
LINE
  5
BA
  8
0
 62
     7
 10
107.142
 20
210.12200000000001
 30
0.0
 11
106.3039999999999
 21
209.28399999999999
 31
0.0
  0
LINE
  5
BB
  8
0
 62
     7
 10
128.93100000000001
 20
186.65599999999989
 30
0.0
 11
130.9139999999999
 21
185.512
 31
0.0
  0
LINE
  5
BC
  8
0
 62
     7
 10
130.9139999999999
 20
185.512
 30
0.0
 11
129.77000000000001
 21
187.495
 31
0.0
  0
LINE
  5
BD
  8
0
 62
     7
 10
129.77000000000001
 20
187.495
 30
0.0
 11
128.93100000000001
 21
186.65599999999989
 31
0.0
  0
LINE
  5
BE
  8
0
 62
     7
 10
104.39700000000001
 20
212.02799999999999
 30
0.0
 11
134.803
 21
181.62299999999999
 31
0.0
  0
LINE
  5
BF
  8
0
 62
     7
 10
101.5209999999999
 20
206.02499999999989
 30
0.0
 11
99.5381
 21
207.16900000000001
 31
0.0
  0
LINE
  5
C0
  8
0
 62
     7
 10
99.5381
 20
207.16900000000001
 30
0.0
 11
100.6839999999999
 21
205.18600000000001
 31
0.0
  0
LINE
  5
C1
  8
0
 62
     7
 10
100.6839999999999
 20
205.18600000000001
 30
0.0
 11
101.5209999999999
 21
206.02499999999989
 31
0.0
  0
LINE
  5
C2
  8
0
 62
     7
 10
160.21499999999989
 20
241.51099999999991
 30
0.0
 11
159.983
 21
239.233
 31
0.0
  0
LINE
  5
C3
  8
0
 62
     7
 10
159.983
 20
239.233
 30
0.0
 11
161.32299999999989
 21
241.09
 31
0.0
  0
LINE
  5
C4
  8
0
 62
     7
 10
161.32299999999989
 20
241.09
 30
0.0
 11
160.21499999999989
 21
241.51099999999991
 31
0.0
  0
LINE
  5
C5
  8
0
 62
     7
 10
165.78599999999989
 20
254.50099999999989
 30
0.0
 11
159.983
 21
239.233
 31
0.0
  0
LINE
  5
C6
  8
0
 62
     7
 10
127.9619999999999
 20
177.9079999999999
 30
0.0
 11
129.9439999999999
 21
176.76400000000001
 31
0.0
  0
LINE
  5
C7
  8
0
 62
     7
 10
129.9439999999999
 20
176.76400000000001
 30
0.0
 11
128.80000000000001
 21
178.74700000000001
 31
0.0
  0
LINE
  5
C8
  8
0
 62
     7
 10
128.80000000000001
 20
178.74700000000001
 30
0.0
 11
127.9619999999999
 21
177.9079999999999
 31
0.0
  0
LINE
  5
C9
  8
0
 62
     7
 10
99.5381
 20
207.16900000000001
 30
0.0
 11
129.9439999999999
 21
176.76400000000001
 31
0.0
  0
LINE
  5
CA
  8
0
 62
     7
 10
129.33799999999991
 20
176.1579999999999
 30
0.0
 11
154.02600000000001
 21
200.84599999999989
 31
0.0
  0
LINE
  5
CB
  8
0
 62
     7
 10
98.933099999999996
 20
206.56399999999999
 30
0.0
 11
123.61999999999991
 21
231.25099999999989
 31
0.0
  0
LINE
  5
CC
  8
0
 62
     7
 10
130.309
 20
184.90599999999989
 30
0.0
 11
150.898
 21
205.4959999999999
 31
0.0
  0
LINE
  5
CD
  8
0
 62
     7
 10
107.681
 20
207.53399999999999
 30
0.0
 11
128.27000000000001
 21
228.124
 31
0.0
  0
LINE
  5
CE
  8
0
  6
AIGENLINE001
 62
     7
 10
142.256
 20
238.37700000000001
 30
0.0
 11
142.256
 21
200.75399999999999
 31
0.0
  0
LINE
  5
CF
  8
0
  6
AIGENLINE001
 62
     7
 10
123.236
 20
219.48199999999991
 30
0.0
 11
161.35599999999991
 21
219.48199999999991
 31
0.0
  0
LINE
  5
D0
  8
0
  6
AIGENLINE001
 62
     7
 10
122.55500000000001
 20
239.184
 30
0.0
 11
162.20400000000001
 21
199.53399999999999
 31
0.0
  0
LINE
  5
D1
  8
0
  6
AIGENLINE001
 62
     7
 10
122.5139999999999
 20
199.739
 30
0.0
 11
162.12200000000001
 21
239.34700000000001
 31
0.0
  0
LINE
  5
D2
  8
0
  6
AIGENLINE002
 62
     7
 10
163.8239999999999
 20
235.392
 30
0.0
 11
154.631
 21
237.51299999999989
 31
0.0
  0
LINE
  5
D3
  8
0
  6
AIGENLINE002
 62
     7
 10
158.167
 20
241.04900000000001
 30
0.0
 11
160.2879999999999
 21
231.85599999999999
 31
0.0
  0
LINE
  5
D4
  8
0
  6
AIGENLINE002
 62
     7
 10
158.167
 20
241.04900000000001
 30
0.0
 11
154.631
 21
237.51299999999989
 31
0.0
  0
LINE
  5
D5
  8
0
  6
AIGENLINE002
 62
     7
 10
154.631
 20
237.51299999999989
 30
0.0
 11
160.2879999999999
 21
231.85599999999999
 31
0.0
  0
LINE
  5
D6
  8
0
  6
AIGENLINE002
 62
     7
 10
160.2879999999999
 20
231.85599999999999
 30
0.0
 11
163.8239999999999
 21
235.392
 31
0.0
  0
LINE
  5
D7
  8
0
  6
AIGENLINE002
 62
     7
 10
163.8239999999999
 20
235.392
 30
0.0
 11
158.167
 21
241.04900000000001
 31
0.0
  0
LINE
  5
D8
  8
0
  6
AIGENLINE002
 62
     7
 10
158.167
 20
197.91499999999991
 30
0.0
 11
160.2889999999999
 21
207.108
 31
0.0
  0
LINE
  5
D9
  8
0
  6
AIGENLINE002
 62
     7
 10
163.8239999999999
 20
203.57199999999989
 30
0.0
 11
154.63200000000001
 21
201.45099999999999
 31
0.0
  0
LINE
  5
DA
  8
0
  6
AIGENLINE002
 62
     7
 10
163.8239999999999
 20
203.57199999999989
 30
0.0
 11
160.2889999999999
 21
207.108
 31
0.0
  0
LINE
  5
DB
  8
0
  6
AIGENLINE002
 62
     7
 10
160.2889999999999
 20
207.108
 30
0.0
 11
154.63200000000001
 21
201.45099999999999
 31
0.0
  0
LINE
  5
DC
  8
0
  6
AIGENLINE002
 62
     7
 10
154.63200000000001
 20
201.45099999999999
 30
0.0
 11
158.167
 21
197.91499999999991
 31
0.0
  0
LINE
  5
DD
  8
0
  6
AIGENLINE002
 62
     7
 10
158.167
 20
197.91499999999991
 30
0.0
 11
163.8239999999999
 21
203.57199999999989
 31
0.0
  0
LINE
  5
DE
  8
0
  6
AIGENLINE002
 62
     7
 10
120.69
 20
203.57199999999989
 30
0.0
 11
129.88200000000001
 21
201.45099999999999
 31
0.0
  0
LINE
  5
DF
  8
0
  6
AIGENLINE002
 62
     7
 10
126.34699999999999
 20
197.91499999999991
 30
0.0
 11
124.22499999999999
 21
207.108
 31
0.0
  0
LINE
  5
E0
  8
0
  6
AIGENLINE002
 62
     7
 10
126.34699999999999
 20
197.91499999999991
 30
0.0
 11
129.88200000000001
 21
201.45099999999999
 31
0.0
  0
LINE
  5
E1
  8
0
  6
AIGENLINE002
 62
     7
 10
129.88200000000001
 20
201.45099999999999
 30
0.0
 11
124.22499999999999
 21
207.108
 31
0.0
  0
LINE
  5
E2
  8
0
  6
AIGENLINE002
 62
     7
 10
124.22499999999999
 20
207.108
 30
0.0
 11
120.69
 21
203.57199999999989
 31
0.0
  0
LINE
  5
E3
  8
0
  6
AIGENLINE002
 62
     7
 10
120.69
 20
203.57199999999989
 30
0.0
 11
126.34699999999999
 21
197.91499999999991
 31
0.0
  0
LINE
  5
E4
  8
0
  6
AIGENLINE002
 62
     7
 10
126.34699999999999
 20
241.04900000000001
 30
0.0
 11
124.2259999999999
 21
231.85599999999999
 31
0.0
  0
LINE
  5
E5
  8
0
  6
AIGENLINE002
 62
     7
 10
120.69
 20
235.392
 30
0.0
 11
129.8829999999999
 21
237.51299999999989
 31
0.0
  0
LINE
  5
E6
  8
0
  6
AIGENLINE002
 62
     7
 10
120.69
 20
235.392
 30
0.0
 11
124.2259999999999
 21
231.85599999999999
 31
0.0
  0
LINE
  5
E7
  8
0
  6
AIGENLINE002
 62
     7
 10
124.2259999999999
 20
231.85599999999999
 30
0.0
 11
129.8829999999999
 21
237.51299999999989
 31
0.0
  0
LINE
  5
E8
  8
0
  6
AIGENLINE002
 62
     7
 10
129.8829999999999
 20
237.51299999999989
 30
0.0
 11
126.34699999999999
 21
241.04900000000001
 31
0.0
  0
LINE
  5
E9
  8
0
  6
AIGENLINE002
 62
     7
 10
126.34699999999999
 20
241.04900000000001
 30
0.0
 11
120.69
 21
235.392
 31
0.0
  0
ARC
  5
EA
  8
0
 62
     7
 10
142.25729699999999
 20
219.48235700000001
 30
0.0
 40
15.999676999999989
 50
359.99950999999999
 51
90.001714000000007
  0
ARC
  5
EB
  8
0
 62
     7
 10
142.25650099999999
 20
219.4825339999999
 30
0.0
 40
15.999498999999989
 50
89.998863000000014
 51
180.001147
  0
ARC
  5
EC
  8
0
 62
     7
 10
142.25632899999999
 20
219.48173299999999
 30
0.0
 40
15.999326999999999
 50
179.99823599999999
 51
270.00051999999999
  0
ARC
  5
ED
  8
0
 62
     7
 10
142.257125
 20
219.48225500000001
 30
0.0
 40
15.99984899999999
 50
269.99766899999992
 51
359.99987299999992
  0
LINE
  5
EE
  8
0
  6
AIGENLINE003
 62
     7
 10
155.10499999999999
 20
145.08000000000001
 30
0.0
 11
146.00699999999989
 21
144.14699999999999
 31
0.0
  0
LINE
  5
EF
  8
0
  6
AIGENLINE003
 62
     7
 10
155.95599999999999
 20
145.77199999999999
 30
0.0
 11
159.25700000000001
 21
156.14699999999999
 31
0.0
  0
ARC
  5
F0
  8
0
  6
AIGENLINE003
 62
     7
 10
154.98519799999991
 20
146.096754
 30
0.0
 40
1.023703
 50
276.72265399999992
 51
341.49650600000001
  0
LINE
  5
F1
  8
0
  6
AIGENLINE003
 62
     7
 10
150.47799999999989
 20
142.64699999999999
 30
0.0
 11
146.55699999999999
 21
142.64699999999999
 31
0.0
  0
LINE
  5
F2
  8
0
  6
AIGENLINE003
 62
     7
 10
145.75700000000001
 20
139.14699999999999
 30
0.0
 11
145.75700000000001
 21
141.84700000000001
 31
0.0
  0
ARC
  5
F3
  8
0
  6
AIGENLINE003
 62
     7
 10
146.58763099999999
 20
141.81658400000001
 30
0.0
 40
0.831128
 50
92.111349000000018
 51
177.9132909999999
  0
LINE
  5
F4
  8
0
  6
AIGENLINE003
 62
     7
 10
136.898
 20
139.64699999999999
 30
0.0
 11
138.75699999999989
 21
139.64699999999999
 31
0.0
  0
LINE
  5
F5
  8
0
  6
AIGENLINE003
 62
     7
 10
138.75699999999989
 20
139.14699999999999
 30
0.0
 11
138.75699999999989
 21
139.64699999999999
 31
0.0
  0
LINE
  5
F6
  8
0
 62
     7
 10
139.82099999999991
 20
146.358
 30
0.0
 11
140.4139999999999
 21
144.14599999999999
 31
0.0
  0
LINE
  5
F7
  8
0
 62
     7
 10
140.4139999999999
 20
144.14599999999999
 30
0.0
 11
141.00700000000001
 21
146.358
 31
0.0
  0
LINE
  5
F8
  8
0
 62
     7
 10
141.00700000000001
 20
146.358
 30
0.0
 11
139.82099999999991
 21
146.358
 31
0.0
  0
LINE
  5
F9
  8
0
 62
     7
 10
140.99199999999999
 20
153.93700000000001
 30
0.0
 11
140.40000000000001
 21
156.14799999999991
 31
0.0
  0
LINE
  5
FA
  8
0
 62
     7
 10
140.40000000000001
 20
156.14799999999991
 30
0.0
 11
139.80699999999999
 21
153.93700000000001
 31
0.0
  0
LINE
  5
FB
  8
0
 62
     7
 10
139.80699999999999
 20
153.93700000000001
 30
0.0
 11
140.99199999999999
 21
153.93700000000001
 31
0.0
  0
LINE
  5
FC
  8
0
 62
     7
 10
140.40700000000001
 20
144.14699999999999
 30
0.0
 11
140.40700000000001
 21
156.14699999999999
 31
0.0
  0
LINE
  5
FD
  8
0
  6
AIGENLINE003
 62
     7
 10
129.40899999999991
 20
145.08000000000001
 30
0.0
 11
138.50700000000001
 21
144.14699999999999
 31
0.0
  0
LINE
  5
FE
  8
0
  6
AIGENLINE003
 62
     7
 10
128.55799999999991
 20
145.77199999999999
 30
0.0
 11
125.25700000000001
 21
156.14699999999999
 31
0.0
  0
ARC
  5
FF
  8
0
  6
AIGENLINE003
 62
     7
 10
129.52893499999999
 20
146.09652299999999
 30
0.0
 40
1.023452
 50
198.494587
 51
263.28629299999989
  0
LINE
  5
100
  8
0
  6
AIGENLINE003
 62
     7
 10
144.55699999999999
 20
142.64699999999999
 30
0.0
 11
146.00699999999989
 21
144.14699999999999
 31
0.0
  0
LINE
  5
101
  8
0
  6
AIGENLINE003
 62
     7
 10
138.50700000000001
 20
144.14699999999999
 30
0.0
 11
139.95699999999991
 21
142.64699999999999
 31
0.0
  0
LINE
  5
102
  8
0
  6
AIGENLINE003
 62
     7
 10
138.50700000000001
 20
144.14699999999999
 30
0.0
 11
146.00699999999989
 21
144.14699999999999
 31
0.0
  0
LINE
  5
103
  8
0
  6
AIGENLINE003
 62
     7
 10
144.55699999999999
 20
142.64699999999999
 30
0.0
 11
144.55699999999999
 21
139.14699999999999
 31
0.0
  0
LINE
  5
104
  8
0
  6
AIGENLINE003
 62
     7
 10
139.95699999999991
 20
142.64699999999999
 30
0.0
 11
139.95699999999991
 21
139.14699999999999
 31
0.0
  0
LINE
  5
105
  8
0
  6
AIGENLINE003
 62
     7
 10
139.95699999999991
 20
142.64699999999999
 30
0.0
 11
144.55699999999999
 21
142.64699999999999
 31
0.0
  0
ARC
  5
106
  8
0
 62
     7
 10
158.50054199999991
 20
139.9950969999999
 30
0.0
 40
0.493342
 50
143.290087
 51
179.83998
  0
LINE
  5
107
  8
0
 62
     7
 10
158.00700000000001
 20
139.99600000000001
 30
0.0
 11
158.00700000000001
 21
139.64699999999999
 31
0.0
  0
ARC
  5
108
  8
0
 62
     7
 10
157.50697199999991
 20
139.6471389999999
 30
0.0
 40
0.5002310000000002
 50
270.00002000000001
 51
359.99998999999991
  0
LINE
  5
109
  8
0
 62
     7
 10
127.3509999999999
 20
140.14699999999999
 30
0.0
 11
157.1629999999999
 21
140.14699999999999
 31
0.0
  0
ARC
  5
10A
  8
0
 62
     7
 10
126.01394999999989
 20
139.99422699999991
 30
0.0
 40
0.493173
 50
0.261127
 51
36.85069
  0
LINE
  5
10B
  8
0
 62
     7
 10
163.00200000000001
 20
152.71899999999999
 30
0.0
 11
162.50700000000001
 21
156.14699999999999
 31
0.0
  0
ARC
  5
10C
  8
0
 62
     7
 10
162.48791900000001
 20
152.66659799999991
 30
0.0
 40
0.519898
 50
272.12699300000003
 51
357.83354300000002
  0
ARC
  5
10D
  8
0
 62
     7
 10
162.54150200000001
 20
152.64714399999991
 30
0.0
 40
0.465944
 50
359.97548499999999
 51
8.8219250000000002
  0
LINE
  5
10E
  8
0
 62
     7
 10
127.00700000000001
 20
139.14699999999999
 30
0.0
 11
157.50700000000001
 21
139.14699999999999
 31
0.0
  0
LINE
  5
10F
  8
0
 62
     7
 10
126.50700000000001
 20
139.99600000000001
 30
0.0
 11
126.50700000000001
 21
139.64699999999999
 31
0.0
  0
ARC
  5
110
  8
0
 62
     7
 10
127.0266469999999
 20
139.66641100000001
 30
0.0
 40
0.519887
 50
182.124369
 51
267.79668700000002
  0
LINE
  5
111
  8
0
 62
     7
 10
121.5119999999999
 20
152.71899999999999
 30
0.0
 11
122.00699999999991
 21
156.14699999999999
 31
0.0
  0
LINE
  5
112
  8
0
 62
     7
 10
122.00699999999991
 20
152.14699999999999
 30
0.0
 11
162.50700000000001
 21
152.14699999999999
 31
0.0
  0
ARC
  5
113
  8
0
 62
     7
 10
122.02834799999989
 20
152.66343999999989
 30
0.0
 40
0.5195870000000001
 50
173.90560199999999
 51
259.70023900000001
  0
ARC
  5
114
  8
0
 62
     7
 10
122.00663
 20
152.63988399999991
 30
0.0
 40
0.4928260000000001
 50
261.69522399999988
 51
270.05526299999991
  0
LINE
  5
115
  8
0
  6
AIGENLINE001
 62
     7
 10
142.25700000000001
 20
137.06700000000001
 30
0.0
 11
142.25700000000001
 21
158.553
 31
0.0
  0
LINE
  5
116
  8
0
 62
     7
 10
122.00699999999991
 20
156.14699999999999
 30
0.0
 11
162.50700000000001
 21
156.14699999999999
 31
0.0
  0
ARC
  5
117
  8
0
 62
     7
 10
82.808716000000004
 20
139.9942409999999
 30
0.0
 40
0.495912
 50
143.38813899999991
 51
179.74192699999989
  0
LINE
  5
118
  8
0
 62
     7
 10
82.312799999999996
 20
139.99600000000001
 30
0.0
 11
82.312799999999996
 21
139.64699999999999
 31
0.0
  0
ARC
  5
119
  8
0
 62
     7
 10
81.812578000000002
 20
139.6471389999999
 30
0.0
 40
0.5002310000000002
 50
270.00002000000001
 51
359.99998999999991
  0
LINE
  5
11A
  8
0
 62
     7
 10
51.656799999999997
 20
140.14699999999999
 30
0.0
 11
81.468800000000016
 21
140.14699999999999
 31
0.0
  0
ARC
  5
11B
  8
0
 62
     7
 10
82.622570999999994
 20
140.19653400000001
 30
0.0
 40
0.230986
 50
144.718144
 51
156.13182699999999
  0
ARC
  5
11C
  8
0
 62
     7
 10
83.129793000000006
 20
139.84660500000001
 30
0.0
 40
0.8471910000000001
 50
138.58930699999999
 51
145.213008
  0
ARC
  5
11D
  8
0
 62
     7
 10
85.272085999999987
 20
137.96722800000001
 30
0.0
 40
3.6970099999999988
 50
135.43363299999999
 51
138.7057519999999
  0
ARC
  5
11E
  8
0
 62
     7
 10
50.564022999999999
 20
172.16422199999991
 30
0.0
 40
45.027563000000001
 50
315.42424599999993
 51
316.22809000000001
  0
ARC
  5
11F
  8
0
 62
     7
 10
74.991223000000005
 20
148.6815399999999
 30
0.0
 40
11.143781000000001
 50
316.52812599999987
 51
324.21251999999998
  0
ARC
  5
120
  8
0
 62
     7
 10
77.042642999999998
 20
147.11926800000001
 30
0.0
 40
8.5663679999999989
 50
324.66514100000001
 51
355.83245099999988
  0
LINE
  5
121
  8
0
 62
     7
 10
85.812999999999974
 20
152.14699999999999
 30
0.0
 11
85.586399999999998
 21
146.49700000000001
 31
0.0
  0
ARC
  5
122
  8
0
 62
     7
 10
50.502960999999999
 20
140.19653400000001
 30
0.0
 40
0.230986
 50
23.868154000000001
 51
35.281835999999998
  0
ARC
  5
123
  8
0
 62
     7
 10
49.995739999999998
 20
139.84660500000001
 30
0.0
 40
0.8471910000000001
 50
34.786971999999999
 51
41.410672999999989
  0
ARC
  5
124
  8
0
 62
     7
 10
47.853446000000012
 20
137.96722800000001
 30
0.0
 40
3.6970099999999988
 50
41.294227999999997
 51
44.566347999999991
  0
ARC
  5
125
  8
0
 62
     7
 10
82.561508999999987
 20
172.16422199999991
 30
0.0
 40
45.027563000000001
 50
223.77193
 51
224.575773
  0
ARC
  5
126
  8
0
 62
     7
 10
58.134309000000002
 20
148.6815399999999
 30
0.0
 40
11.143781000000001
 50
215.78749999999999
 51
223.47189299999999
  0
ARC
  5
127
  8
0
 62
     7
 10
56.082889999999999
 20
147.11926800000001
 30
0.0
 40
8.5663679999999989
 50
184.1675689999999
 51
215.33487799999989
  0
ARC
  5
128
  8
0
 62
     7
 10
50.322715000000002
 20
139.99528699999999
 30
0.0
 40
0.4900100000000001
 50
0.138815
 51
36.973002999999999
  0
LINE
  5
129
  8
0
 62
     7
 10
95.450400000000002
 20
152.14699999999999
 30
0.0
 11
88.088899999999995
 21
152.14699999999999
 31
0.0
  0
LINE
  5
12A
  8
0
 62
     7
 10
94.157799999999995
 20
158.35799999999989
 30
0.0
 11
94.750399999999985
 21
156.14699999999999
 31
0.0
  0
LINE
  5
12B
  8
0
 62
     7
 10
94.750399999999985
 20
156.14699999999999
 30
0.0
 11
95.3429
 21
158.35799999999989
 31
0.0
  0
LINE
  5
12C
  8
0
 62
     7
 10
95.3429
 20
158.35799999999989
 30
0.0
 11
94.157799999999995
 21
158.35799999999989
 31
0.0
  0
LINE
  5
12D
  8
0
 62
     7
 10
94.164699999999996
 20
141.35699999999991
 30
0.0
 11
94.757300000000001
 21
139.14599999999999
 31
0.0
  0
LINE
  5
12E
  8
0
 62
     7
 10
94.757300000000001
 20
139.14599999999999
 30
0.0
 11
95.349800000000002
 21
141.35699999999991
 31
0.0
  0
LINE
  5
12F
  8
0
 62
     7
 10
95.349800000000002
 20
141.35699999999991
 30
0.0
 11
94.164699999999996
 21
141.35699999999991
 31
0.0
  0
LINE
  5
130
  8
0
 62
     7
 10
95.3429
 20
149.93600000000001
 30
0.0
 11
94.750399999999985
 21
152.14699999999999
 31
0.0
  0
LINE
  5
131
  8
0
 62
     7
 10
94.750399999999985
 20
152.14699999999999
 30
0.0
 11
94.157799999999995
 21
149.93600000000001
 31
0.0
  0
LINE
  5
132
  8
0
 62
     7
 10
94.157799999999995
 20
149.93600000000001
 30
0.0
 11
95.3429
 21
149.93600000000001
 31
0.0
  0
LINE
  5
133
  8
0
 62
     7
 10
94.750399999999985
 20
139.14699999999999
 30
0.0
 11
94.750399999999985
 21
162.58199999999999
 31
0.0
  0
LINE
  5
134
  8
0
 62
     7
 10
144.46700000000001
 20
129.55699999999999
 30
0.0
 11
142.256
 21
128.96499999999989
 31
0.0
  0
LINE
  5
135
  8
0
 62
     7
 10
142.256
 20
128.96499999999989
 30
0.0
 11
144.46700000000001
 21
128.37200000000001
 31
0.0
  0
LINE
  5
136
  8
0
 62
     7
 10
144.46700000000001
 20
128.37200000000001
 30
0.0
 11
144.46700000000001
 21
129.55699999999999
 31
0.0
  0
LINE
  5
137
  8
0
 62
     7
 10
160.79699999999991
 20
128.387
 30
0.0
 11
163.0079999999999
 21
128.9789999999999
 31
0.0
  0
LINE
  5
138
  8
0
 62
     7
 10
163.0079999999999
 20
128.9789999999999
 30
0.0
 11
160.79699999999991
 21
129.57199999999989
 31
0.0
  0
LINE
  5
139
  8
0
 62
     7
 10
160.79699999999991
 20
129.57199999999989
 30
0.0
 11
160.79699999999991
 21
128.387
 31
0.0
  0
LINE
  5
13A
  8
0
 62
     7
 10
142.25700000000001
 20
128.97200000000001
 30
0.0
 11
163.00700000000001
 21
128.97200000000001
 31
0.0
  0
LINE
  5
13B
  8
0
 62
     7
 10
142.25700000000001
 20
128.27199999999999
 30
0.0
 11
142.25700000000001
 21
136.36699999999999
 31
0.0
  0
LINE
  5
13C
  8
0
 62
     7
 10
163.00700000000001
 20
128.27199999999999
 30
0.0
 11
163.00700000000001
 21
151.2229999999999
 31
0.0
  0
LINE
  5
13D
  8
0
 62
     7
 10
100.404
 20
141.35699999999991
 30
0.0
 11
100.997
 21
139.14599999999999
 31
0.0
  0
LINE
  5
13E
  8
0
 62
     7
 10
100.997
 20
139.14599999999999
 30
0.0
 11
101.59
 21
141.35699999999991
 31
0.0
  0
LINE
  5
13F
  8
0
 62
     7
 10
101.59
 20
141.35699999999991
 30
0.0
 11
100.404
 21
141.35699999999991
 31
0.0
  0
LINE
  5
140
  8
0
 62
     7
 10
101.575
 20
153.93700000000001
 30
0.0
 11
100.983
 21
156.14799999999991
 31
0.0
  0
LINE
  5
141
  8
0
 62
     7
 10
100.983
 20
156.14799999999991
 30
0.0
 11
100.39
 21
153.93700000000001
 31
0.0
  0
LINE
  5
142
  8
0
 62
     7
 10
100.39
 20
153.93700000000001
 30
0.0
 11
101.575
 21
153.93700000000001
 31
0.0
  0
LINE
  5
143
  8
0
 62
     7
 10
100.98999999999999
 20
139.14699999999999
 30
0.0
 11
100.98999999999999
 21
156.14699999999999
 31
0.0
  0
LINE
  5
144
  8
0
 62
     7
 10
101.6899999999999
 20
139.14699999999999
 30
0.0
 11
82.866100000000003
 21
139.14699999999999
 31
0.0
  0
LINE
  5
145
  8
0
 62
     7
 10
101.6899999999999
 20
156.14699999999999
 30
0.0
 11
87.512900000000002
 21
156.14699999999999
 31
0.0
  0
LINE
  5
146
  8
0
 62
     7
 10
87.307500000000005
 20
152.71899999999999
 30
0.0
 11
86.812799999999996
 21
156.14699999999999
 31
0.0
  0
ARC
  5
147
  8
0
 62
     7
 10
86.793519999999987
 20
152.66660400000001
 30
0.0
 40
0.519904
 50
272.12753900000001
 51
357.83299799999992
  0
ARC
  5
148
  8
0
 62
     7
 10
86.836868999999993
 20
152.64635699999991
 30
0.0
 40
0.476183
 50
0.070779
 51
8.7266309999999994
  0
LINE
  5
149
  8
0
 62
     7
 10
51.31260000000001
 20
139.14699999999999
 30
0.0
 11
81.812599999999989
 21
139.14699999999999
 31
0.0
  0
LINE
  5
14A
  8
0
 62
     7
 10
50.812699999999992
 20
139.99600000000001
 30
0.0
 11
50.812699999999992
 21
139.64699999999999
 31
0.0
  0
ARC
  5
14B
  8
0
 62
     7
 10
51.332264000000002
 20
139.66643499999989
 30
0.0
 40
0.519898
 50
182.12700299999989
 51
267.83355299999999
  0
LINE
  5
14C
  8
0
  6
AIGENLINE001
 62
     7
 10
64.110200000000006
 20
152.64699999999999
 30
0.0
 11
68.659099999999995
 21
152.64699999999999
 31
0.0
  0
ARC
  5
14D
  8
0
  6
AIGENLINE003
 62
     7
 10
66.514847000000003
 20
152.5990129999999
 30
0.0
 40
1.299037
 50
2.1145969999999998
 51
87.901178999999999
  0
ARC
  5
14E
  8
0
  6
AIGENLINE003
 62
     7
 10
66.56259399999999
 20
152.64711699999989
 30
0.0
 40
1.2500610000000001
 50
90.007894999999991
 51
180.00790499999991
  0
ARC
  5
14F
  8
0
  6
AIGENLINE003
 62
     7
 10
66.562421000000001
 20
152.64694499999999
 30
0.0
 40
1.249887999999999
 50
179.99996999999991
 51
270.00002000000001
  0
ARC
  5
150
  8
0
  6
AIGENLINE003
 62
     7
 10
66.514938999999998
 20
152.69514299999989
 30
0.0
 40
1.298954999999999
 50
272.09488900000002
 51
357.87354399999992
  0
LINE
  5
151
  8
0
 62
     7
 10
47.3125
 20
152.14699999999999
 30
0.0
 11
47.539199999999987
 21
146.49700000000001
 31
0.0
  0
LINE
  5
152
  8
0
 62
     7
 10
45.817599999999999
 20
152.71899999999999
 30
0.0
 11
46.312699999999992
 21
156.14699999999999
 31
0.0
  0
LINE
  5
153
  8
0
 62
     7
 10
46.312699999999992
 20
152.14699999999999
 30
0.0
 11
86.812799999999996
 21
152.14699999999999
 31
0.0
  0
ARC
  5
154
  8
0
 62
     7
 10
46.333894000000001
 20
152.66308100000001
 30
0.0
 40
0.5192230000000001
 50
173.86141599999999
 51
259.69972399999989
  0
ARC
  5
155
  8
0
 62
     7
 10
46.312581999999999
 20
152.64467300000001
 30
0.0
 40
0.497615
 50
261.735524
 51
270.01496400000002
  0
LINE
  5
156
  8
0
  6
AIGENLINE001
 62
     7
 10
66.562399999999997
 20
137.06700000000001
 30
0.0
 11
66.562399999999997
 21
158.553
 31
0.0
  0
LINE
  5
157
  8
0
 62
     7
 10
46.312699999999992
 20
156.14699999999999
 30
0.0
 11
86.812799999999996
 21
156.14699999999999
 31
0.0
  0
LINE
  5
158
  8
0
 62
     7
 10
83.562700000000007
 20
189.583
 30
0.0
 11
83.562700000000007
 21
214.70500000000001
 31
0.0
  0
LINE
  5
159
  8
0
 62
     7
 10
49.562800000000003
 20
189.583
 30
0.0
 11
49.562800000000003
 21
214.70500000000001
 31
0.0
  0
LINE
  5
15A
  8
0
 62
     7
 10
51.773200000000003
 20
190.86799999999999
 30
0.0
 11
49.561799999999991
 21
190.2759999999999
 31
0.0
  0
LINE
  5
15B
  8
0
 62
     7
 10
49.561799999999991
 20
190.2759999999999
 30
0.0
 11
51.773200000000003
 21
189.68299999999991
 31
0.0
  0
LINE
  5
15C
  8
0
 62
     7
 10
51.773200000000003
 20
189.68299999999991
 30
0.0
 11
51.773200000000003
 21
190.86799999999999
 31
0.0
  0
LINE
  5
15D
  8
0
 62
     7
 10
81.352299999999985
 20
189.69799999999989
 30
0.0
 11
83.563699999999997
 21
190.28999999999991
 31
0.0
  0
LINE
  5
15E
  8
0
 62
     7
 10
83.563699999999997
 20
190.28999999999991
 30
0.0
 11
81.352299999999985
 21
190.8829999999999
 31
0.0
  0
LINE
  5
15F
  8
0
 62
     7
 10
81.352299999999985
 20
190.8829999999999
 30
0.0
 11
81.352299999999985
 21
189.69799999999989
 31
0.0
  0
LINE
  5
160
  8
0
 62
     7
 10
138.97200000000001
 20
254.50099999999989
 30
0.0
 11
165.78599999999989
 21
254.50099999999989
 31
0.0
  0
LINE
  5
161
  8
0
 62
     7
 10
49.562800000000003
 20
190.2829999999999
 30
0.0
 11
83.562700000000007
 21
190.2829999999999
 31
0.0
  0
LINE
  5
162
  8
0
 62
     7
 10
87.313100000000006
 20
182.0929999999999
 30
0.0
 11
87.313100000000006
 21
215.09099999999989
 31
0.0
  0
LINE
  5
163
  8
0
 62
     7
 10
45.812499999999993
 20
182.0929999999999
 30
0.0
 11
45.812499999999993
 21
215.09099999999989
 31
0.0
  0
LINE
  5
164
  8
0
 62
     7
 10
48.023600000000002
 20
183.3779999999999
 30
0.0
 11
45.811799999999991
 21
182.78599999999989
 31
0.0
  0
LINE
  5
165
  8
0
 62
     7
 10
45.811799999999991
 20
182.78599999999989
 30
0.0
 11
48.023600000000002
 21
182.1929999999999
 31
0.0
  0
LINE
  5
166
  8
0
 62
     7
 10
48.023600000000002
 20
182.1929999999999
 30
0.0
 11
48.023600000000002
 21
183.3779999999999
 31
0.0
  0
LINE
  5
167
  8
0
 62
     7
 10
85.102000000000004
 20
182.20799999999991
 30
0.0
 11
87.313699999999997
 21
182.80000000000001
 31
0.0
  0
LINE
  5
168
  8
0
 62
     7
 10
87.313699999999997
 20
182.80000000000001
 30
0.0
 11
85.102000000000004
 21
183.393
 31
0.0
  0
LINE
  5
169
  8
0
 62
     7
 10
85.102000000000004
 20
183.393
 30
0.0
 11
85.102000000000004
 21
182.20799999999991
 31
0.0
  0
LINE
  5
16A
  8
0
 62
     7
 10
45.812499999999993
 20
182.79300000000001
 30
0.0
 11
87.313100000000006
 21
182.79300000000001
 31
0.0
  0
ARC
  5
16B
  8
0
 62
     7
 10
66.56259
 20
219.48135499999989
 30
0.0
 40
20.750461999999999
 50
0.000486
 51
90.000455999999986
  0
ARC
  5
16C
  8
0
 62
     7
 10
66.562596999999997
 20
219.48169899999999
 30
0.0
 40
20.750116999999999
 50
90.000476000000006
 51
180.000486
  0
ARC
  5
16D
  8
0
 62
     7
 10
66.562417999999994
 20
219.48152699999989
 30
0.0
 40
20.749938
 50
179.99996999999991
 51
270.00002000000001
  0
ARC
  5
16E
  8
0
 62
     7
 10
66.562763000000004
 20
219.48187899999991
 30
0.0
 40
20.750288999999999
 50
269.99906900000002
 51
359.99903899999998
  0
LINE
  5
16F
  8
0
 62
     7
 10
61.411999999999999
 20
224.6329999999999
 30
0.0
 11
54.801099999999991
 21
224.6329999999999
 31
0.0
  0
LINE
  5
170
  8
0
 62
     7
 10
70.171499999999995
 20
216.71000000000001
 30
0.0
 11
68.1892
 21
217.8549999999999
 31
0.0
  0
LINE
  5
171
  8
0
 62
     7
 10
68.1892
 20
217.8549999999999
 30
0.0
 11
69.333699999999993
 21
215.87200000000001
 31
0.0
  0
LINE
  5
172
  8
0
 62
     7
 10
69.333699999999993
 20
215.87200000000001
 30
0.0
 11
70.171499999999995
 21
216.71000000000001
 31
0.0
  0
LINE
  5
173
  8
0
 62
     7
 10
62.953999999999994
 20
222.2529999999999
 30
0.0
 11
64.936300000000003
 21
221.10799999999989
 31
0.0
  0
LINE
  5
174
  8
0
 62
     7
 10
64.936300000000003
 20
221.10799999999989
 30
0.0
 11
63.791899999999998
 21
223.09099999999989
 31
0.0
  0
LINE
  5
175
  8
0
 62
     7
 10
63.791899999999998
 20
223.09099999999989
 30
0.0
 11
62.953999999999994
 21
222.2529999999999
 31
0.0
  0
LINE
  5
176
  8
0
 62
     7
 10
61.411999999999999
 20
224.6329999999999
 30
0.0
 11
71.162999999999997
 21
214.88200000000001
 31
0.0
  0
LINE
  5
177
  8
0
  6
AIGENLINE001
 62
     7
 10
66.562399999999997
 20
196.34399999999999
 30
0.0
 11
66.562399999999997
 21
242.28899999999999
 31
0.0
  0
LINE
  5
178
  8
0
  6
AIGENLINE001
 62
     7
 10
42.653999999999989
 20
219.48199999999991
 30
0.0
 11
90.251000000000005
 21
219.48199999999991
 31
0.0
  0
ARC
  5
179
  8
0
 62
     7
 10
66.562593000000007
 20
219.48135799999989
 30
0.0
 40
3.7501829999999998
 50
0.002642
 51
90.002611999999985
  0
ARC
  5
17A
  8
0
 62
     7
 10
66.562595000000002
 20
219.48170200000001
 30
0.0
 40
3.7498390000000001
 50
90.002631999999991
 51
180.0026419999999
  0
ARC
  5
17B
  8
0
 62
     7
 10
66.562593000000007
 20
219.48135799999989
 30
0.0
 40
3.7498369999999999
 50
179.9973379999999
 51
269.99738799999989
  0
ARC
  5
17C
  8
0
 62
     7
 10
66.562593000000007
 20
219.48170400000001
 30
0.0
 40
3.7501829999999998
 50
269.99738799999989
 51
359.99735800000002
  0
ARC
  5
17D
  8
0
 62
     7
 10
66.474277999999984
 20
219.39338699999999
 30
0.0
 40
2.3897300000000001
 50
2.113801
 51
87.886189000000016
  0
ARC
  5
17E
  8
0
 62
     7
 10
66.650972999999993
 20
219.39297999999991
 30
0.0
 40
2.3901520000000001
 50
92.123187000000001
 51
177.87678299999999
  0
ARC
  5
17F
  8
0
 62
     7
 10
66.650565
 20
219.56967399999999
 30
0.0
 40
2.3897289999999991
 50
182.11380299999999
 51
267.88622700000002
  0
ARC
  5
180
  8
0
 62
     7
 10
66.473885999999993
 20
219.570066
 30
0.0
 40
2.390136
 50
272.12285400000002
 51
357.8771549999999
  0
ARC
  5
181
  8
0
 62
     7
 10
66.562417999999994
 20
219.48152699999989
 30
0.0
 40
20.250402999999999
 50
0.00001
 51
89.999980000000008
  0
ARC
  5
182
  8
0
 62
     7
 10
66.56277
 20
219.48187200000001
 30
0.0
 40
20.250057999999999
 50
90.000974999999997
 51
180.00098499999999
  0
ARC
  5
183
  8
0
 62
     7
 10
66.56259
 20
219.48135499999989
 30
0.0
 40
20.249879
 50
179.99948299999991
 51
269.99953199999987
  0
ARC
  5
184
  8
0
 62
     7
 10
66.56259
 20
219.481706
 30
0.0
 40
20.250230999999989
 50
269.99953199999987
 51
359.999503
  0
ARC
  5
185
  8
0
 62
     7
 10
66.562418999999991
 20
219.48152799999991
 30
0.0
 40
17.000278999999999
 50
0.00001
 51
89.999980000000008
  0
ARC
  5
186
  8
0
 62
     7
 10
66.562768999999989
 20
219.48187200000001
 30
0.0
 40
16.999934
 50
90.001160999999996
 51
180.00117099999991
  0
ARC
  5
187
  8
0
 62
     7
 10
66.562590999999983
 20
219.48135499999989
 30
0.0
 40
16.999756000000001
 50
179.99938999999989
 51
269.999439
  0
ARC
  5
188
  8
0
 62
     7
 10
66.562590999999983
 20
219.481706
 30
0.0
 40
17.000105999999992
 50
269.999439
 51
359.9994099999999
  0
LINE
  5
189
  8
_________2
 62
     7
 10
210.24000000000001
 20
148.93100000000001
 30
0.0
 11
188.49000000000001
 21
148.93100000000001
 31
0.0
  0
LINE
  5
18A
  8
_________2
 62
     7
 10
105.2389999999999
 20
17.428499999999989
 30
0.0
 11
105.2389999999999
 21
0.4482100000000001
 31
0.0
  0
LINE
  5
18B
  8
_________2
 62
     7
 10
105.2389999999999
 20
297.44999999999987
 30
0.0
 11
105.2389999999999
 21
280.42999999999989
 31
0.0
  0
LINE
  5
18C
  8
_________2
 62
     7
 10
21.988499999999991
 20
148.93100000000001
 30
0.0
 11
0.238058
 21
148.93100000000001
 31
0.0
  0
LINE
  5
18D
  8
_________2
 62
     7
 10
81.679900000000004
 20
51.324300000000001
 30
0.0
 11
79.493700000000004
 21
51.324300000000001
 31
0.0
  0
LINE
  5
18E
  8
_________2
 62
     7
 10
82.172600000000017
 20
51.324300000000001
 30
0.0
 11
81.920400000000001
 21
51.324300000000001
 31
0.0
  0
LINE
  5
18F
  8
_________2
 62
     7
 10
82.665199999999984
 20
51.324300000000001
 30
0.0
 11
85.590100000000007
 21
51.324300000000001
 31
0.0
  0
LINE
  5
190
  8
_________2
 62
     7
 10
82.172600000000017
 20
51.324300000000001
 30
0.0
 11
82.424800000000005
 21
51.324300000000001
 31
0.0
  0
LINE
  5
191
  8
_________2
 62
     7
 10
75.776399999999995
 20
51.324300000000001
 30
0.0
 11
73.589399999999998
 21
51.324300000000001
 31
0.0
  0
LINE
  5
192
  8
_________2
 62
     7
 10
76.2684
 20
51.324300000000001
 30
0.0
 11
76.016900000000007
 21
51.324300000000001
 31
0.0
  0
LINE
  5
193
  8
_________2
 62
     7
 10
76.2684
 20
51.817
 30
0.0
 11
76.2684
 21
54.003900000000002
 31
0.0
  0
LINE
  5
194
  8
_________2
 62
     7
 10
76.2684
 20
51.324300000000001
 30
0.0
 11
76.2684
 21
51.576500000000003
 31
0.0
  0
LINE
  5
195
  8
_________2
 62
     7
 10
76.76100000000001
 20
51.324300000000001
 30
0.0
 11
78.947999999999993
 21
51.324300000000001
 31
0.0
  0
LINE
  5
196
  8
_________2
 62
     7
 10
76.2684
 20
51.324300000000001
 30
0.0
 11
76.520499999999998
 21
51.324300000000001
 31
0.0
  0
LINE
  5
197
  8
_________2
 62
     7
 10
76.2684
 20
50.832399999999993
 30
0.0
 11
76.2684
 21
48.645400000000002
 31
0.0
  0
LINE
  5
198
  8
_________2
 62
     7
 10
76.2684
 20
51.324300000000001
 30
0.0
 11
76.2684
 21
51.072800000000001
 31
0.0
  0
LINE
  5
199
  8
_________2
 62
     7
 10
79.979399999999984
 20
50.104799999999997
 30
0.0
 11
85.157399999999996
 21
49.240000000000002
 31
0.0
  0
LINE
  5
19A
  8
_________2
 62
     7
 10
79.979399999999984
 20
52.543900000000001
 30
0.0
 11
85.157399999999996
 21
53.409300000000002
 31
0.0
  0
LINE
  5
19B
  8
_________2
 62
     7
 10
85.157399999999996
 20
49.240000000000002
 30
0.0
 11
85.157399999999996
 21
53.409300000000002
 31
0.0
  0
LINE
  5
19C
  8
_________2
 62
     7
 10
79.979399999999984
 20
50.104799999999997
 30
0.0
 11
79.979399999999984
 21
52.543900000000001
 31
0.0
  0
ARC
  5
19D
  8
_________2
 62
     7
 10
76.222110000000001
 20
51.277366999999991
 30
0.0
 40
1.2673709999999989
 50
2.1232950000000002
 51
87.909056000000007
  0
ARC
  5
19E
  8
_________2
 62
     7
 10
76.315273000000005
 20
51.277400999999998
 30
0.0
 40
1.267363
 50
92.121785999999986
 51
177.878185
  0
ARC
  5
19F
  8
_________2
 62
     7
 10
76.315273000000005
 20
51.371245999999992
 30
0.0
 40
1.267363
 50
182.12181499999991
 51
267.87821400000001
  0
ARC
  5
1A0
  8
_________2
 62
     7
 10
76.221461000000005
 20
51.371928999999987
 30
0.0
 40
1.2680439999999991
 50
272.11916400000001
 51
357.84848499999993
  0
ARC
  5
1A1
  8
_________2
 62
     7
 10
76.268349999999984
 20
51.324323
 30
0.0
 40
2.0849849999999992
 50
0.00001
 51
89.999980000000008
  0
ARC
  5
1A2
  8
_________2
 62
     7
 10
76.348388
 20
51.245001999999992
 30
0.0
 40
2.1657860000000002
 50
92.117855000000034
 51
177.90105299999991
  0
ARC
  5
1A3
  8
_________2
 62
     7
 10
76.348354
 20
51.404327000000002
 30
0.0
 40
2.1657779999999991
 50
182.11700400000001
 51
267.88302499999992
  0
ARC
  5
1A4
  8
_________2
 62
     7
 10
76.188378999999983
 20
51.405009999999997
 30
0.0
 40
2.1664590000000001
 50
272.11546800000002
 51
357.86560400000002
  0
TEXT
  5
1A5
  8
_________2
 62
     7
 10
109.5439999999999
 20
23.199100000000001
 30
0.0
 40
3.0923400000000001
  1
図番
 41
0.5
  0
LINE
  5
1A6
  8
_________2
 62
     7
 10
108.4889999999999
 20
27.4283
 30
0.0
 11
188.49000000000001
 21
27.4283
 31
0.0
  0
TEXT
  5
1A7
  8
_________2
 62
     7
 10
109.5439999999999
 20
33.198900000000002
 30
0.0
 40
3.0923400000000001
  1
品番
 41
0.5
  0
TEXT
  5
1A8
  8
_________2
 62
     7
 10
109.5439999999999
 20
53.337699999999998
 30
0.0
 40
3.0923400000000001
  1
名称
 41
0.5
  0
TEXT
  5
1A9
  8
_________2
 62
     7
 10
96.784058333333334
 20
48.341500000000011
 30
0.0
 40
3.6545800000000002
  1
mm
 41
0.5
 72
     1
 11
98.306799999999996
 21
48.341500000000011
 31
0.0
  0
TEXT
  5
1AA
  8
_________2
 62
     7
 10
90.582099999999997
 20
53.337699999999998
 30
0.0
 40
3.0923400000000001
  1
単位
 41
0.5
  0
TEXT
  5
1AB
  8
_________2
 62
     7
 10
90.582099999999997
 20
40.930399999999999
 30
0.0
 40
3.0923400000000001
  1
尺度
 41
0.5
  0
TEXT
  5
1AC
  8
_________2
 62
     7
 10
95.030836166666674
 20
34.73749999999999
 30
0.0
 40
3.6545800000000002
  1
1 ： 10
 41
0.5
 72
     1
 11
98.898600000000002
 21
34.73749999999999
 31
0.0
  0
TEXT
  5
1AD
  8
_________2
 62
     7
 10
141.10956250000001
 20
30.627400000000002
 30
0.0
 40
3.9357000000000002
  1
VB417540
 41
0.5
 72
     1
 11
148.489
 21
30.627400000000002
 31
0.0
  0
TEXT
  5
1AE
  8
_________2
 62
     7
 10
141.10956250000001
 20
20.626999999999988
 30
0.0
 40
3.9357000000000002
  1
VB417540
 41
0.5
 72
     1
 11
148.489
 21
20.626999999999988
 31
0.0
  0
TEXT
  5
1AF
  8
_________2
 62
     7
 10
29.525700000000001
 20
22.226900000000001
 30
0.0
 40
3.9357000000000002
  1
実容量：5.0L、重量：12.0kg、オーバーフロー付
 41
0.5
  0
TEXT
  5
1B0
  8
_________2
 62
     7
 10
114.11799999999999
 20
45.7453
 30
0.0
 40
3.9357000000000002
  1
アーキテクチュラ　アンダーカウンター式洗面器
 41
0.5
  0
TEXT
  5
1B1
  8
_________2
 62
     7
 10
44.364200333333329
 20
35.122599999999991
 30
0.0
 40
3.6545800000000002
  1
早川
 41
0.5
 72
     1
 11
46.252400000000002
 21
35.122599999999991
 31
0.0
  0
TEXT
  5
1B2
  8
_________2
 62
     7
 10
25.72929066666666
 20
35.122599999999991
 30
0.0
 40
3.6545800000000002
  1
石原
 41
0.5
 72
     1
 11
27.6784
 21
35.122599999999991
 31
0.0
  0
TEXT
  5
1B3
  8
_________2
 62
     7
 10
72.724699999999999
 20
34.73749999999999
 30
0.0
 40
3.6545800000000002
  1
13.12.10
 41
0.5
  0
TEXT
  5
1B4
  8
_________2
 62
     7
 10
71.531999999999996
 20
40.930399999999999
 30
0.0
 40
3.0923400000000001
  1
日付
 41
0.5
  0
TEXT
  5
1B5
  8
_________2
 62
     7
 10
34.578299999999992
 20
40.930399999999999
 30
0.0
 40
3.0923400000000001
  1
検図
 41
0.5
  0
TEXT
  5
1B6
  8
_________2
 62
     7
 10
22.960000000000001
 20
26.730999999999991
 30
0.0
 40
3.0923400000000001
  1
備考
 41
0.5
  0
TEXT
  5
1B7
  8
_________2
 62
     7
 10
22.960000000000001
 20
40.930399999999999
 30
0.0
 40
3.0923400000000001
  1
製図
 41
0.5
  0
TEXT
  5
1B8
  8
_________2
 62
     7
 10
28.727365333333339
 20
49.456400000000002
 30
0.0
 40
4.4979399999999989
  1
セラトレーディング株式会社
 41
0.5
 72
     1
 11
46.119399999999992
 21
49.456400000000002
 31
0.0
  0
LINE
  5
1B9
  8
_________2
 62
     7
 10
188.49000000000001
 20
17.428499999999989
 30
0.0
 11
21.988499999999991
 21
17.428499999999989
 31
0.0
  0
LINE
  5
1BA
  8
_________2
 62
     7
 10
21.988499999999991
 20
17.428499999999989
 30
0.0
 11
21.988499999999991
 21
280.42999999999989
 31
0.0
  0
LINE
  5
1BB
  8
_________2
 62
     7
 10
21.988499999999991
 20
280.42999999999989
 30
0.0
 11
188.49000000000001
 21
280.42999999999989
 31
0.0
  0
LINE
  5
1BC
  8
_________2
 62
     7
 10
188.49000000000001
 20
280.42999999999989
 30
0.0
 11
188.49000000000001
 21
17.428499999999989
 31
0.0
  0
LINE
  5
1BD
  8
_________2
 62
     7
 10
70.488799999999998
 20
30.9285
 30
0.0
 11
70.488799999999998
 21
57.428400000000011
 31
0.0
  0
LINE
  5
1BE
  8
_________2
 62
     7
 10
89.488600000000005
 20
30.9285
 30
0.0
 11
89.488600000000005
 21
57.428400000000011
 31
0.0
  0
LINE
  5
1BF
  8
_________2
 62
     7
 10
108.4889999999999
 20
17.428499999999989
 30
0.0
 11
108.4889999999999
 21
57.428400000000011
 31
0.0
  0
LINE
  5
1C0
  8
_________2
 62
     7
 10
33.488300000000002
 20
30.9285
 30
0.0
 11
33.488300000000002
 21
44.928800000000003
 31
0.0
  0
LINE
  5
1C1
  8
_________2
 62
     7
 10
21.988499999999991
 20
30.9285
 30
0.0
 11
108.4889999999999
 21
30.9285
 31
0.0
  0
LINE
  5
1C2
  8
_________2
 62
     7
 10
21.988499999999991
 20
44.928800000000003
 30
0.0
 11
108.4889999999999
 21
44.928800000000003
 31
0.0
  0
LINE
  5
1C3
  8
_________2
 62
     7
 10
108.4889999999999
 20
37.428100000000001
 30
0.0
 11
188.49000000000001
 21
37.428100000000001
 31
0.0
  0
LINE
  5
1C4
  8
_________2
 62
     7
 10
21.988499999999991
 20
57.428400000000011
 30
0.0
 11
188.49000000000001
 21
57.428400000000011
 31
0.0
  0
ENDSEC
  0
EOF
